  0
SECTION
  2
HEADER
  9
$ACADVER
  1
AC1009
  9
$DWGCODEPAGE
  3
dos932
  9
$INSBASE
 10
0.0
 20
0.0
 30
0.0
  9
$EXTMIN
 10
-1126.8811472795901
 20
-944.70969992276332
 30
0.0
  9
$EXTMAX
 10
1632.757444420281
 20
1292.665461823374
 30
0.0
  9
$LIMMIN
 10
-2970.0
 20
-2100.0
  9
$LIMMAX
 10
2970.0
 20
2100.0
  9
$ORTHOMODE
 70
     1
  9
$REGENMODE
 70
     1
  9
$FILLMODE
 70
     1
  9
$QTEXTMODE
 70
     0
  9
$MIRRTEXT
 70
     0
  9
$LTSCALE
 40
20.0
  9
$ATTMODE
 70
     1
  9
$TEXTSIZE
 40
64.0
  9
$TRACEWID
 40
0.05
  9
$TEXTSTYLE
  7
STANDARD
  9
$CLAYER
  8
SIZE
  9
$CELTYPE
  6
CONTINUOUS
  9
$CECOLOR
 62
     7
  9
$DIMSCALE
 40
1.0
  9
$DIMASZ
 40
12.0
  9
$DIMEXO
 40
20.0
  9
$DIMDLI
 40
200.0
  9
$DIMRND
 40
0.0
  9
$DIMDLE
 40
0.0
  9
$DIMEXE
 40
20.0
  9
$DIMTP
 40
0.0
  9
$DIMTM
 40
0.0
  9
$DIMTXT
 40
64.0
  9
$DIMCEN
 40
0.09
  9
$DIMTSZ
 40
0.0
  9
$DIMTOL
 70
     0
  9
$DIMLIM
 70
     0
  9
$DIMTIH
 70
     0
  9
$DIMTOH
 70
     0
  9
$DIMSE1
 70
     0
  9
$DIMSE2
 70
     0
  9
$DIMTAD
 70
     1
  9
$DIMZIN
 70
     8
  9
$DIMBLK
  1

  9
$DIMASO
 70
     1
  9
$DIMSHO
 70
     0
  9
$DIMPOST
  1

  9
$DIMAPOST
  1

  9
$DIMALT
 70
     0
  9
$DIMALTD
 70
     2
  9
$DIMALTF
 40
25.399999999999999
  9
$DIMLFAC
 40
1.0
  9
$DIMTOFL
 70
     1
  9
$DIMTVP
 40
0.0
  9
$DIMTIX
 70
     1
  9
$DIMSOXD
 70
     0
  9
$DIMSAH
 70
     0
  9
$DIMBLK1
  1

  9
$DIMBLK2
  1

  9
$DIMSTYLE
  2
STANDARD
  9
$DIMCLRD
 70
     7
  9
$DIMCLRE
 70
     7
  9
$DIMCLRT
 70
     7
  9
$DIMTFAC
 40
1.0
  9
$DIMGAP
 40
25.0
  9
$LUNITS
 70
     2
  9
$LUPREC
 70
     4
  9
$SKETCHINC
 40
0.1
  9
$FILLETRAD
 40
3.0
  9
$AUNITS
 70
     1
  9
$AUPREC
 70
     3
  9
$MENU
  1
ACAD
  9
$ELEVATION
 40
0.0
  9
$PELEVATION
 40
0.0
  9
$THICKNESS
 40
0.0
  9
$LIMCHECK
 70
     0
  9
$CHAMFERA
 40
0.0
  9
$CHAMFERB
 40
0.0
  9
$SKPOLY
 70
     0
  9
$TDCREATE
 40
2453019.62301037
  9
$TDUPDATE
 40
2460045.426278299
  9
$TDINDWG
 40
1.7513122801
  9
$TDUSRTIMER
 40
1.7513122801
  9
$USRTIMER
 70
     1
  9
$ANGBASE
 50
0.0
  9
$ANGDIR
 70
     0
  9
$PDMODE
 70
     3
  9
$PDSIZE
 40
-2.0
  9
$PLINEWID
 40
0.0
  9
$SPLFRAME
 70
     0
  9
$SPLINETYPE
 70
     6
  9
$SPLINESEGS
 70
     8
  9
$SURFTAB1
 70
     6
  9
$SURFTAB2
 70
     6
  9
$SURFTYPE
 70
     6
  9
$SURFU
 70
     6
  9
$SURFV
 70
     6
  9
$UCSNAME
  2

  9
$UCSORG
 10
0.0
 20
0.0
 30
0.0
  9
$UCSXDIR
 10
1.0
 20
0.0
 30
0.0
  9
$UCSYDIR
 10
0.0
 20
1.0
 30
0.0
  9
$PUCSNAME
  2

  9
$PUCSORG
 10
0.0
 20
0.0
 30
0.0
  9
$PUCSXDIR
 10
1.0
 20
0.0
 30
0.0
  9
$PUCSYDIR
 10
0.0
 20
1.0
 30
0.0
  9
$USERI1
 70
     0
  9
$USERI2
 70
     0
  9
$USERI3
 70
     0
  9
$USERI4
 70
     0
  9
$USERI5
 70
     0
  9
$USERR1
 40
20.0
  9
$USERR2
 40
0.0
  9
$USERR3
 40
0.0
  9
$USERR4
 40
0.0
  9
$USERR5
 40
0.0
  9
$WORLDVIEW
 70
     1
  9
$SHADEDGE
 70
     3
  9
$SHADEDIF
 70
    70
  9
$TILEMODE
 70
     1
  9
$MAXACTVP
 70
    48
  9
$PINSBASE
 10
0.0
 20
0.0
 30
0.0
  9
$PLIMCHECK
 70
     0
  9
$PEXTMIN
 10
-100000000000000000000.0
 20
-100000000000000000000.0
 30
-100000000000000000000.0
  9
$PEXTMAX
 10
100000000000000000000.0
 20
100000000000000000000.0
 30
100000000000000000000.0
  9
$PLIMMIN
 10
0.0
 20
0.0
  9
$PLIMMAX
 10
12.0
 20
9.0
  9
$UNITMODE
 70
     0
  9
$VISRETAIN
 70
     0
  9
$PLINEGEN
 70
     0
  9
$PSLTSCALE
 70
     0
  9
$TREEDEPTH
 70
  3020
  9
$ATTDIA
 70
     0
  9
$ATTREQ
 70
     1
  9
$BLIPMODE
 70
     1
  9
$COORDS
 70
     1
  9
$DRAGMODE
 70
     2
  9
$OSMODE
 70
     0
  9
$HANDLING
 70
     0
  9
$HANDSEED
  5
F2D9
  0
ENDSEC
  0
SECTION
  2
TABLES
  0
TABLE
  2
LTYPE
 70
     3
  0
LTYPE
  2
CONTINUOUS
 70
     0
  3
実線
 72
    65
 73
     0
 40
0.0
  0
LTYPE
  2
DASHDOT
 70
     0
  3
____ _ ____ _ ____ _ ____ _ ____ _ ____ _ ____
 72
    65
 73
     4
 40
5.5
 49
4.0
 49
-0.6
 49
0.3
 49
-0.6
  0
LTYPE
  2
DASHED
 70
     0
  3
-- -- -- -- -- -- -- -- -- -- -- -- -- -- --
 72
    65
 73
     2
 40
0.75
 49
0.5
 49
-0.25
  0
ENDTAB
  0
TABLE
  2
LAYER
 70
    12
  0
LAYER
  2
0
 70
     0
 62
     7
  6
CONTINUOUS
  0
LAYER
  2
BASIS
 70
     0
 62
     6
  6
DASHDOT
  0
LAYER
  2
OUTLINE
 70
     0
 62
     3
  6
CONTINUOUS
  0
LAYER
  2
DETAIL
 70
     0
 62
     5
  6
CONTINUOUS
  0
LAYER
  2
SIZE
 70
     0
 62
    30
  6
CONTINUOUS
  0
LAYER
  2
ARRANGE
 70
     0
 62
     1
  6
CONTINUOUS
  0
LAYER
  2
DEFPOINTS
 70
     0
 62
     7
  6
CONTINUOUS
  0
LAYER
  2
ETC
 70
     0
 62
    61
  6
CONTINUOUS
  0
LAYER
  2
FIX
 70
     0
 62
    11
  6
CONTINUOUS
  0
LAYER
  2
NOTE
 70
     0
 62
     4
  6
CONTINUOUS
  0
LAYER
  2
SERVICESPACE
 70
     0
 62
     2
  6
DASHDOT
  0
LAYER
  2
SYMBOLLINE
 70
    64
 62
    15
  6
CONTINUOUS
  0
ENDTAB
  0
TABLE
  2
STYLE
 70
     1
  0
STYLE
  2
STANDARD
 70
     0
 40
64.0
 41
0.9
 50
0.0
 71
     0
 42
64.0
  3
SIMPLEX.shx
  4
BIGFONT.shx
  0
ENDTAB
  0
TABLE
  2
APPID
 70
    22
  0
APPID
  2
ACAD
 70
     0
  0
APPID
  2
AUTOCAD_POSTSCRIPT_FIGURE
 70
     0
  0
APPID
  2
ACAD_EXEMPT_FROM_CAD_STANDARDS
 70
     0
  0
APPID
  2
ACAD_PSEXT
 70
     0
  0
APPID
  2
ACAUTHENVIRON
 70
     0
  0
APPID
  2
GENIUS_GENOENT_13
 70
     0
  0
APPID
  2
GENIUS_GENCFG_13
 70
     0
  0
APPID
  2
GENIUS_GENCFG0_13
 70
     0
  0
APPID
  2
GENIUS_GENCFG1_13
 70
     0
  0
APPID
  2
GENIUS_GENCFG2_13
 70
     0
  0
APPID
  2
GENIUS_GENCFG3_13
 70
     0
  0
APPID
  2
GENIUS_GENCFG4_13
 70
     0
  0
APPID
  2
GENIUS_GEVCFG0_13
 70
     0
  0
APPID
  2
CONTENTBLOCKICON
 70
     0
  0
APPID
  2
CONTENTBLOCKDESCRIPTION
 70
     0
  0
APPID
  2
ACAD_NAV_VCDISPLAY
 70
     0
  0
APPID
  2
ACAD_MLEADERVER
 70
     0
  0
APPID
  2
ACDBDYNAMICBLOCKTRUENAME
 70
     0
  0
APPID
  2
ACDBDYNAMICBLOCKGUID
 70
     0
  0
APPID
  2
GENIUS_GENODEF_13
 70
     0
  0
APPID
  2
GENIUS_GENOBJ-N-CEN_13
 70
     0
  0
APPID
  2
GENIUS_GENCEN_19
 70
     0
  0
ENDTAB
  0
TABLE
  2
DIMSTYLE
 70
     1
  0
DIMSTYLE
  2
STANDARD
 70
     0
  3

  4

  5
_ORIGIN
  6

  7

 40
1.0
 41
12.0
 42
20.0
 43
200.0
 44
20.0
 45
0.0
 46
0.0
 47
0.0
 48
0.0
140
64.0
141
0.09
142
0.0
143
25.399999999999999
144
1.0
145
0.0
146
1.0
147
25.0
 71
     0
 72
     0
 73
     0
 74
     0
 75
     0
 76
     0
 77
     1
 78
     8
170
     0
171
     2
172
     1
173
     0
174
     1
175
     0
176
     7
177
     7
178
     7
  0
ENDTAB
  0
TABLE
  2
VIEW
 70
     1
  0
VIEW
  2
ALL
 70
     0
 40
4282.6198079999986
 10
0.0
 20
41.309904000000003
 41
5940.0
 11
0.0
 21
0.0
 31
1.0
 12
0.0
 22
0.0
 32
0.0
 42
50.0
 43
0.0
 44
0.0
 50
0.0
 71
     0
  0
ENDTAB
  0
TABLE
  2
UCS
 70
     0
  0
ENDTAB
  0
TABLE
  2
VPORT
 70
     1
  0
VPORT
  2
*ACTIVE
 70
     0
 10
0.0
 20
0.0
 11
1.0
 21
1.0
 12
252.87782174171491
 22
173.99598166113191
 13
0.0
 23
0.0
 14
1.0
 24
1.0
 15
0.0
 25
0.0
 16
0.0
 26
0.0
 36
1.0
 17
0.0
 27
0.0
 37
0.0
 40
2253.0360843241328
 41
1.781285231116122
 42
50.0
 43
0.0
 44
0.0
 50
0.0
 51
0.0
 71
     0
 72
  1000
 73
     1
 74
     3
 75
     0
 76
     0
 77
     0
 78
     0
  0
ENDTAB
  0
ENDSEC
  0
SECTION
  2
BLOCKS
  0
BLOCK
  8
0
  2
_ORIGIN
 70
     0
 10
0.0
 20
0.0
 30
0.0
  3
_ORIGIN
  1
_ORIGIN
  0
CIRCLE
  8
0
  6
CONTINUOUS
 62
     7
 10
0.0
 20
0.0
 30
0.0
 40
0.5
  0
LINE
  8
0
  6
CONTINUOUS
 62
     7
 10
0.0
 20
0.0
 30
0.0
 11
-1.0
 21
0.0
 31
0.0
  0
ENDBLK
  8
0
  0
ENDSEC
  0
SECTION
  2
ENTITIES
  0
LINE
  8
DETAIL
  6
CONTINUOUS
 62
     5
 10
305.0
 20
376.40000000001368
 30
0.0
 11
300.00000000000227
 21
381.40000000000151
 31
0.0
  0
LINE
  8
DETAIL
  6
CONTINUOUS
 62
     5
 10
291.40000000000958
 20
389.99999999999142
 30
0.0
 11
296.40000000000191
 21
385.00000000000358
 31
0.0
  0
LINE
  8
DETAIL
  6
CONTINUOUS
 62
     5
 10
272.35549109867043
 20
443.99999999999642
 30
0.0
 11
177.6445089026702
 21
443.99999999999642
 31
0.0
  0
LINE
  8
DETAIL
  6
CONTINUOUS
 62
     5
 10
-177.64450890133139
 20
443.99999999999642
 30
0.0
 11
-272.35549109732978
 21
443.99999999999642
 31
0.0
  0
LINE
  8
DETAIL
  6
CONTINUOUS
 62
     5
 10
-291.400000000011
 20
389.99999999999858
 30
0.0
 11
-296.39999999999873
 21
385.00000000000358
 31
0.0
  0
LINE
  8
DETAIL
  6
CONTINUOUS
 62
     5
 10
-299.99999999999909
 20
381.40000000000151
 30
0.0
 11
-304.99999999999591
 21
376.40000000001652
 31
0.0
  0
LINE
  8
DETAIL
  6
CONTINUOUS
 62
     5
 10
-349.0
 20
402.50000000000142
 30
0.0
 11
-298.49999999999682
 21
402.50000000000142
 31
0.0
  0
LINE
  8
DETAIL
  6
CONTINUOUS
 62
     5
 10
298.5
 20
402.50000000000142
 30
0.0
 11
349.00000000000409
 21
402.50000000000142
 31
0.0
  0
LINE
  8
DETAIL
  6
CONTINUOUS
 62
     5
 10
291.39999999999782
 20
389.99999999999858
 30
0.0
 11
-291.40000000000367
 21
389.99999999999858
 31
0.0
  0
LINE
  8
DETAIL
  6
CONTINUOUS
 62
     5
 10
-349.0
 20
390.49999999999858
 30
0.0
 11
-328.99999999999818
 21
390.49999999999858
 31
0.0
  0
LINE
  8
DETAIL
  6
CONTINUOUS
 62
     5
 10
329.00000000000091
 20
390.49999999999858
 30
0.0
 11
349.00000000000409
 21
390.49999999999858
 31
0.0
  0
LINE
  8
DETAIL
  6
CONTINUOUS
 62
     5
 10
-297.39999999999782
 20
383.49999999999773
 30
0.0
 11
-296.39999999999873
 21
383.49999999999818
 31
0.0
  0
LINE
  8
DETAIL
  6
CONTINUOUS
 62
     5
 10
296.40000000000191
 20
383.49999999999773
 30
0.0
 11
297.50000000000091
 21
383.49999999999773
 31
0.0
  0
LINE
  8
DETAIL
  6
CONTINUOUS
 62
     5
 10
-297.39999999999782
 20
382.99999999999818
 30
0.0
 11
297.50000000000091
 21
382.99999999999818
 31
0.0
  0
LINE
  8
DETAIL
  6
CONTINUOUS
 62
     5
 10
-296.39999999999873
 20
381.40000000000151
 30
0.0
 11
-299.99999999999909
 21
381.40000000000151
 31
0.0
  0
LINE
  8
DETAIL
  6
CONTINUOUS
 62
     5
 10
296.40000000000191
 20
381.40000000000151
 30
0.0
 11
300.00000000000227
 21
381.40000000000151
 31
0.0
  0
LINE
  8
DETAIL
  6
CONTINUOUS
 62
     5
 10
-328.99999999999818
 20
377.49999999999733
 30
0.0
 11
-349.0
 21
377.49999999999733
 31
0.0
  0
LINE
  8
DETAIL
  6
CONTINUOUS
 62
     5
 10
329.00000000000091
 20
377.49999999999733
 30
0.0
 11
349.00000000000409
 21
377.49999999999733
 31
0.0
  0
LINE
  8
DETAIL
  6
CONTINUOUS
 62
     5
 10
-304.99999999999591
 20
359.00000000000819
 30
0.0
 11
-349.0
 21
359.00000000000819
 31
0.0
  0
LINE
  8
DETAIL
  6
CONTINUOUS
 62
     5
 10
305.0
 20
359.00000000000819
 30
0.0
 11
349.00000000000409
 21
359.00000000000819
 31
0.0
  0
LINE
  8
DETAIL
  6
CONTINUOUS
 62
     5
 10
-414.69999999999749
 20
-180.09999999999579
 30
0.0
 11
-414.69999999999749
 21
-191.49999999999321
 31
0.0
  0
LINE
  8
DETAIL
  6
CONTINUOUS
 62
     5
 10
-414.09999999999582
 20
-191.49999999999321
 30
0.0
 11
-414.09999999999582
 21
-349.29999999999927
 31
0.0
  0
LINE
  8
DETAIL
  6
CONTINUOUS
 62
     5
 10
-413.49999999999949
 20
-351.699999999998
 30
0.0
 11
-413.49999999999949
 21
-349.29999999999927
 31
0.0
  0
LINE
  8
DETAIL
  6
CONTINUOUS
 62
     5
 10
-368.49999999999682
 20
-353.92449979999492
 30
0.0
 11
-368.49999999999682
 21
-353.79999999999472
 31
0.0
  0
LINE
  8
DETAIL
  6
CONTINUOUS
 62
     5
 10
-364.19999999999618
 20
-360.69999999999658
 30
0.0
 11
-364.19999999999618
 21
-364.29999999999882
 31
0.0
  0
LINE
  8
DETAIL
  6
CONTINUOUS
 62
     5
 10
-363.00000000000051
 20
-363.35000000000258
 30
0.0
 11
-363.00000000000051
 21
-361.65000000000009
 31
0.0
  0
LINE
  8
DETAIL
  6
CONTINUOUS
 62
     5
 10
-362.49999999999733
 20
-381.89943100133269
 30
0.0
 11
-362.49999999999733
 21
-361.89999999999242
 31
0.0
  0
LINE
  8
DETAIL
  6
CONTINUOUS
 62
     5
 10
-362.20000000000158
 20
-356.39999999999782
 30
0.0
 11
-362.20000000000158
 21
-360.69999999999658
 31
0.0
  0
LINE
  8
DETAIL
  6
CONTINUOUS
 62
     5
 10
-360.99999999999858
 20
-361.65000000000009
 30
0.0
 11
-360.99999999999858
 21
-357.64999999999651
 31
0.0
  0
LINE
  8
DETAIL
  6
CONTINUOUS
 62
     5
 10
-355.99999999999818
 20
-357.64999999999651
 30
0.0
 11
-355.99999999999818
 21
-361.65000000000009
 31
0.0
  0
LINE
  8
DETAIL
  6
CONTINUOUS
 62
     5
 10
-354.80000000000058
 20
-360.44999999999658
 30
0.0
 11
-354.80000000000058
 21
-356.85000000000173
 31
0.0
  0
LINE
  8
DETAIL
  6
CONTINUOUS
 62
     5
 10
-354.49999999999773
 20
-381.89943100133269
 30
0.0
 11
-354.49999999999773
 21
-361.89999999999242
 31
0.0
  0
LINE
  8
DETAIL
  6
CONTINUOUS
 62
     5
 10
-353.99999999999642
 20
-361.65000000000009
 30
0.0
 11
-353.99999999999642
 21
-363.35000000000258
 31
0.0
  0
LINE
  8
DETAIL
  6
CONTINUOUS
 62
     5
 10
-352.79999999999882
 20
-364.29999999999882
 30
0.0
 11
-352.79999999999882
 21
-360.44999999999658
 31
0.0
  0
LINE
  8
DETAIL
  6
CONTINUOUS
 62
     5
 10
-349.0
 20
390.49999999999858
 30
0.0
 11
-349.0
 21
402.50000000000142
 31
0.0
  0
LINE
  8
DETAIL
  6
CONTINUOUS
 62
     5
 10
-349.0
 20
377.49999999999733
 30
0.0
 11
-349.0
 21
359.00000000000819
 31
0.0
  0
LINE
  8
DETAIL
  6
CONTINUOUS
 62
     5
 10
-348.5
 20
-353.79999999999472
 30
0.0
 11
-348.5
 21
-353.92449979999492
 31
0.0
  0
LINE
  8
DETAIL
  6
CONTINUOUS
 62
     5
 10
-348.5
 20
-358.99999999999449
 30
0.0
 11
-348.5
 21
-377.49999999999773
 31
0.0
  0
LINE
  8
DETAIL
  6
CONTINUOUS
 62
     5
 10
-348.5
 20
-390.49999999999949
 30
0.0
 11
-348.5
 21
-402.50000000000182
 31
0.0
  0
LINE
  8
DETAIL
  6
CONTINUOUS
 62
     5
 10
-345.79999999999882
 20
359.00000000000819
 30
0.0
 11
-345.79999999999882
 21
377.49999999999733
 31
0.0
  0
LINE
  8
DETAIL
  6
CONTINUOUS
 62
     5
 10
-345.29999999999882
 20
-358.99999999999449
 30
0.0
 11
-345.29999999999882
 21
-377.49999999999773
 31
0.0
  0
LINE
  8
DETAIL
  6
CONTINUOUS
 62
     5
 10
-343.59999999999633
 20
142.60000000000309
 30
0.0
 11
-343.59999999999633
 21
149.60000000000349
 31
0.0
  0
LINE
  8
DETAIL
  6
CONTINUOUS
 62
     5
 10
-326.52078172133361
 20
139.44964206533899
 30
0.0
 11
-335.69416298666329
 21
119.7772624573322
 31
0.0
  0
LINE
  8
DETAIL
  6
CONTINUOUS
 62
     5
 10
-324.52690458933012
 20
138.51988188933319
 30
0.0
 11
-333.70028585599812
 21
118.8475022813336
 31
0.0
  0
LINE
  8
DETAIL
  6
CONTINUOUS
 62
     5
 10
-279.99999999866532
 20
-396.00000000686168
 30
0.0
 11
-274.001977930664
 21
-433.92765770799218
 31
0.0
  0
LINE
  8
DETAIL
  6
CONTINUOUS
 62
     5
 10
-318.09999999999991
 20
156.60000000000349
 30
0.0
 11
-318.23694397999822
 21
158.16527685733439
 31
0.0
  0
LINE
  8
DETAIL
  6
CONTINUOUS
 62
     5
 10
-336.59999999999951
 20
152.60000000000039
 30
0.0
 11
-336.59999999999951
 21
139.6000000000063
 31
0.0
  0
LINE
  8
DETAIL
  6
CONTINUOUS
 62
     5
 10
-335.59999999999849
 20
152.60000000000039
 30
0.0
 11
-335.59999999999849
 21
139.6000000000063
 31
0.0
  0
LINE
  8
DETAIL
  6
CONTINUOUS
 62
     5
 10
-334.09999999999849
 20
143.50000000000361
 30
0.0
 11
-334.09999999999849
 21
148.700000000003
 31
0.0
  0
LINE
  8
DETAIL
  6
CONTINUOUS
 62
     5
 10
-330.59999999999633
 20
153.59999999999951
 30
0.0
 11
-330.59999999999633
 21
154.60000000000579
 31
0.0
  0
LINE
  8
DETAIL
  6
CONTINUOUS
 62
     5
 10
-324.69999999999891
 20
152.60000000000039
 30
0.0
 11
-324.69999999999891
 21
152.10000000000079
 31
0.0
  0
LINE
  8
DETAIL
  6
CONTINUOUS
 62
     5
 10
-324.59999999999673
 20
155.60000000000491
 30
0.0
 11
-324.59999999999673
 21
156.60000000000349
 31
0.0
  0
LINE
  8
DETAIL
  6
CONTINUOUS
 62
     5
 10
-323.59999999999809
 20
152.10000000000079
 30
0.0
 11
-323.59999999999809
 21
148.60000000000451
 31
0.0
  0
LINE
  8
DETAIL
  6
CONTINUOUS
 62
     5
 10
-320.599999999999
 20
152.10000000000079
 30
0.0
 11
-320.599999999999
 21
148.60000000000451
 31
0.0
  0
LINE
  8
DETAIL
  6
CONTINUOUS
 62
     5
 10
-319.59999999999633
 20
155.60000000000491
 30
0.0
 11
-319.59999999999633
 21
156.60000000000349
 31
0.0
  0
LINE
  8
DETAIL
  6
CONTINUOUS
 62
     5
 10
-319.49999999999818
 20
152.60000000000039
 30
0.0
 11
-319.49999999999818
 21
152.10000000000079
 31
0.0
  0
LINE
  8
DETAIL
  6
CONTINUOUS
 62
     5
 10
-312.59999999999633
 20
155.60000000000491
 30
0.0
 11
-312.59999999999633
 21
155.10000000000539
 31
0.0
  0
LINE
  8
DETAIL
  6
CONTINUOUS
 62
     5
 10
-312.59999999999633
 20
154.60000000000579
 30
0.0
 11
-312.59999999999633
 21
-154.599999999999
 31
0.0
  0
LINE
  8
DETAIL
  6
CONTINUOUS
 62
     5
 10
-311.09999999999951
 20
155.60000000000491
 30
0.0
 11
-311.09999999999951
 21
156.60000000000349
 31
0.0
  0
LINE
  8
DETAIL
  6
CONTINUOUS
 62
     5
 10
-310.9190558399996
 20
155.10000000000539
 30
0.0
 11
-310.9190558399996
 21
154.60000000000579
 31
0.0
  0
LINE
  8
DETAIL
  6
CONTINUOUS
 62
     5
 10
-304.99999999999591
 20
376.40000000001652
 30
0.0
 11
-304.99999999999642
 21
-376.39999999999242
 31
0.0
  0
LINE
  8
DETAIL
  6
CONTINUOUS
 62
     5
 10
-326.099999999999
 20
156.60000000000349
 30
0.0
 11
-326.0226498853317
 21
157.48411585333321
 31
0.0
  0
LINE
  8
DETAIL
  6
CONTINUOUS
 62
     5
 10
-279.9685027561477
 20
396.19654280148922
 30
0.0
 11
-274.001977930664
 21
433.9276577093392
 31
0.0
  0
LINE
  8
DETAIL
  6
CONTINUOUS
 62
     5
 10
-298.49999999999733
 20
-402.50000000000182
 30
0.0
 11
-298.49999999999733
 21
-381.39999999999458
 31
0.0
  0
LINE
  8
DETAIL
  6
CONTINUOUS
 62
     5
 10
-298.49999999999682
 20
402.50000000000142
 30
0.0
 11
-298.49999999999682
 21
381.40000000000191
 31
0.0
  0
LINE
  8
DETAIL
  6
CONTINUOUS
 62
     5
 10
-297.99999999999949
 20
382.40000000000049
 30
0.0
 11
-297.99999999999949
 21
-382.49999999999233
 31
0.0
  0
LINE
  8
DETAIL
  6
CONTINUOUS
 62
     5
 10
-296.39999999999873
 20
385.00000000000358
 30
0.0
 11
-296.39999999999873
 21
381.40000000000151
 31
0.0
  0
LINE
  8
DETAIL
  6
CONTINUOUS
 62
     5
 10
-296.39999999999873
 20
-381.39999999999458
 30
0.0
 11
-296.39999999999873
 21
-384.99999999999733
 31
0.0
  0
LINE
  8
DETAIL
  6
CONTINUOUS
 62
     5
 10
-273.74999999999733
 20
-442.61890620132641
 30
0.0
 11
-273.74999999999733
 21
-437.09240483466419
 31
0.0
  0
LINE
  8
DETAIL
  6
CONTINUOUS
 62
     5
 10
-273.74999999999682
 20
442.61890620134
 30
0.0
 11
-273.74999999999682
 21
437.09240483600342
 31
0.0
  0
LINE
  8
DETAIL
  6
CONTINUOUS
 62
     5
 10
-304.99999999999591
 20
161.53176303866849
 30
0.0
 11
-332.3710574146653
 21
159.13710580667339
 31
0.0
  0
LINE
  8
DETAIL
  6
CONTINUOUS
 62
     5
 10
-304.99999999999591
 20
159.32335939600171
 30
0.0
 11
-332.17931477999991
 21
156.94547747067139
 31
0.0
  0
LINE
  8
DETAIL
  6
CONTINUOUS
 62
     5
 10
-326.09862218666649
 20
156.60000000000349
 30
0.0
 11
-318.1013778133306
 21
156.60000000000349
 31
0.0
  0
LINE
  8
DETAIL
  6
CONTINUOUS
 62
     5
 10
-304.99999999999591
 20
155.60000000000491
 30
0.0
 11
-332.59999999999809
 21
155.60000000000491
 31
0.0
  0
LINE
  8
DETAIL
  6
CONTINUOUS
 62
     5
 10
-304.99999999999591
 20
155.10000000000539
 30
0.0
 11
-312.59999999999633
 21
155.10000000000539
 31
0.0
  0
LINE
  8
DETAIL
  6
CONTINUOUS
 62
     5
 10
-310.9190558399996
 20
154.69999999999709
 30
0.0
 11
-308.59999999999633
 21
154.69999999999709
 31
0.0
  0
LINE
  8
DETAIL
  6
CONTINUOUS
 62
     5
 10
-333.45133500799602
 20
154.60000000000579
 30
0.0
 11
-304.99999999999591
 21
154.60000000000579
 31
0.0
  0
LINE
  8
DETAIL
  6
CONTINUOUS
 62
     5
 10
-332.76664524933312
 20
153.59999999999951
 30
0.0
 11
-312.59999999999633
 21
153.59999999999951
 31
0.0
  0
LINE
  8
DETAIL
  6
CONTINUOUS
 62
     5
 10
-340.59999999999718
 20
152.60000000000039
 30
0.0
 11
-335.59999999999849
 21
152.60000000000039
 31
0.0
  0
LINE
  8
DETAIL
  6
CONTINUOUS
 62
     5
 10
-324.69999999999891
 20
152.10000000000079
 30
0.0
 11
-319.49999999999818
 21
152.10000000000079
 31
0.0
  0
LINE
  8
DETAIL
  6
CONTINUOUS
 62
     5
 10
-334.59999999999633
 20
148.700000000003
 30
0.0
 11
-334.09999999999849
 21
148.700000000003
 31
0.0
  0
LINE
  8
DETAIL
  6
CONTINUOUS
 62
     5
 10
-320.599999999999
 20
148.60000000000451
 30
0.0
 11
-323.59999999999809
 21
148.60000000000451
 31
0.0
  0
LINE
  8
DETAIL
  6
CONTINUOUS
 62
     5
 10
-334.09999999999849
 20
147.60000000000539
 30
0.0
 11
-331.25110411599741
 21
147.60000000000539
 31
0.0
  0
LINE
  8
DETAIL
  6
CONTINUOUS
 62
     5
 10
-334.09999999999849
 20
144.6000000000013
 30
0.0
 11
-329.15048150133038
 21
144.6000000000013
 31
0.0
  0
LINE
  8
DETAIL
  6
CONTINUOUS
 62
     5
 10
-334.59999999999633
 20
143.50000000000361
 30
0.0
 11
-334.09999999999849
 21
143.50000000000361
 31
0.0
  0
LINE
  8
DETAIL
  6
CONTINUOUS
 62
     5
 10
-340.59999999999758
 20
139.6000000000063
 30
0.0
 11
-335.59999999999849
 21
139.6000000000063
 31
0.0
  0
LINE
  8
DETAIL
  6
CONTINUOUS
 62
     5
 10
-176.2499999999977
 20
-442.61890620132641
 30
0.0
 11
-176.2499999999977
 21
-437.09240483466419
 31
0.0
  0
LINE
  8
DETAIL
  6
CONTINUOUS
 62
     5
 10
-176.2499999999973
 20
442.61890620134
 30
0.0
 11
-176.2499999999973
 21
437.09240483600342
 31
0.0
  0
LINE
  8
DETAIL
  6
CONTINUOUS
 62
     5
 10
-169.99999999999821
 20
-395.80094939466329
 30
0.0
 11
-169.99999999999821
 21
-389.99999999999949
 31
0.0
  0
LINE
  8
DETAIL
  6
CONTINUOUS
 62
     5
 10
-169.99999999999821
 20
395.80094939600258
 30
0.0
 11
-169.99999999999821
 21
389.99999999999858
 31
0.0
  0
LINE
  8
DETAIL
  6
CONTINUOUS
 62
     5
 10
-170.0314972413357
 20
396.19654278666758
 30
0.0
 11
-169.99999999999821
 21
395.80094939600258
 31
0.0
  0
LINE
  8
DETAIL
  6
CONTINUOUS
 62
     5
 10
-170.0314972413357
 20
-396.19654278666081
 30
0.0
 11
-169.99999999999821
 21
-395.80094939466329
 31
0.0
  0
LINE
  8
DETAIL
  6
CONTINUOUS
 62
     5
 10
-317.67676900400062
 20
-154.599999999999
 30
0.0
 11
-313.77920730666528
 21
-150.83616841866521
 31
0.0
  0
LINE
  8
DETAIL
  6
CONTINUOUS
 62
     5
 10
-317.3335900439979
 20
-155.93679223866229
 30
0.0
 11
-316.98483147066332
 21
-155.59999999999809
 31
0.0
  0
LINE
  8
DETAIL
  6
CONTINUOUS
 62
     5
 10
-315.94930115733359
 20
-154.599999999999
 30
0.0
 11
-312.94561726266647
 21
-151.69937617999679
 31
0.0
  0
LINE
  8
DETAIL
  6
CONTINUOUS
 62
     5
 10
-170.0314972413357
 20
396.19654278666758
 30
0.0
 11
-175.9980220679995
 21
433.9276577093392
 31
0.0
  0
LINE
  8
DETAIL
  6
CONTINUOUS
 62
     5
 10
-170.0314972413357
 20
-396.19654278666081
 30
0.0
 11
-175.99802206800001
 21
-433.92765770799218
 31
0.0
  0
LINE
  8
BASIS
  6
DASHDOT
 62
     6
 10
0.0
 20
-416.73705914369202
 30
0.0
 11
0.0
 21
417.31009218791502
 31
0.0
  0
LINE
  8
DETAIL
  6
CONTINUOUS
 62
     5
 10
-332.59999999999809
 20
-154.599999999999
 30
0.0
 11
-304.99999999999591
 21
-154.599999999999
 31
0.0
  0
LINE
  8
DETAIL
  6
CONTINUOUS
 62
     5
 10
-332.59999999999809
 20
-155.59999999999809
 30
0.0
 11
-304.99999999999591
 21
-155.59999999999809
 31
0.0
  0
LINE
  8
DETAIL
  6
CONTINUOUS
 62
     5
 10
-304.99999999999591
 20
-158.00000000000449
 30
0.0
 11
-316.49999999999733
 21
-158.00000000000449
 31
0.0
  0
LINE
  8
DETAIL
  6
CONTINUOUS
 62
     5
 10
-304.99999999999591
 20
-159.199999999993
 30
0.0
 11
-316.49999999999733
 21
-159.199999999993
 31
0.0
  0
LINE
  8
DETAIL
  6
CONTINUOUS
 62
     5
 10
-333.35050886266572
 20
154.43384365466821
 30
0.0
 11
-324.85809641199648
 21
142.3054217426679
 31
0.0
  0
LINE
  8
DETAIL
  6
CONTINUOUS
 62
     5
 10
-335.15264335999967
 20
153.17197549466479
 30
0.0
 11
-326.66023090933089
 21
141.04355358267179
 31
0.0
  0
LINE
  8
DETAIL
  6
CONTINUOUS
 62
     5
 10
170.03149724133749
 20
-396.19654278666081
 30
0.0
 11
175.998022069336
 21
-433.92765770799218
 31
0.0
  0
LINE
  8
DETAIL
  6
CONTINUOUS
 62
     5
 10
170.031497241338
 20
396.19654278666758
 30
0.0
 11
175.99802206933651
 21
433.9276577093392
 31
0.0
  0
LINE
  8
DETAIL
  6
CONTINUOUS
 62
     5
 10
-354.80000000000058
 20
-356.85000000000173
 30
0.0
 11
-349.63256777199922
 21
-353.93819295066118
 31
0.0
  0
LINE
  8
DETAIL
  6
CONTINUOUS
 62
     5
 10
-413.49999999999949
 20
-178.89999999999961
 30
0.0
 11
-304.99999999999591
 21
-178.89999999999961
 31
0.0
  0
LINE
  8
DETAIL
  6
CONTINUOUS
 62
     5
 10
-414.09999999999582
 20
-191.49999999999321
 30
0.0
 11
-414.69999999999749
 21
-191.49999999999321
 31
0.0
  0
LINE
  8
DETAIL
  6
CONTINUOUS
 62
     5
 10
170.03149724133749
 20
-396.19654278666081
 30
0.0
 11
170.0
 21
-395.80094939466329
 31
0.0
  0
LINE
  8
DETAIL
  6
CONTINUOUS
 62
     5
 10
170.031497241338
 20
396.19654278666758
 30
0.0
 11
170.00000000000051
 21
395.80094939600258
 31
0.0
  0
LINE
  8
DETAIL
  6
CONTINUOUS
 62
     5
 10
170.0
 20
-395.80094939466329
 30
0.0
 11
170.0
 21
-389.99999999999949
 31
0.0
  0
LINE
  8
DETAIL
  6
CONTINUOUS
 62
     5
 10
170.00000000000051
 20
395.80094939600258
 30
0.0
 11
170.00000000000051
 21
389.99999999999858
 31
0.0
  0
LINE
  8
DETAIL
  6
CONTINUOUS
 62
     5
 10
176.25000000000139
 20
-442.61890620132641
 30
0.0
 11
176.25000000000139
 21
-437.09240483466419
 31
0.0
  0
LINE
  8
DETAIL
  6
CONTINUOUS
 62
     5
 10
176.25000000000139
 20
442.61890620134
 30
0.0
 11
176.25000000000139
 21
437.09240483600342
 31
0.0
  0
LINE
  8
DETAIL
  6
CONTINUOUS
 62
     5
 10
-313.77920730666528
 20
-150.83616841866521
 30
0.0
 11
-312.94561726266647
 21
-151.69937617999679
 31
0.0
  0
LINE
  8
DETAIL
  6
CONTINUOUS
 62
     5
 10
273.75000000000051
 20
-442.61890620132641
 30
0.0
 11
273.75000000000091
 21
-437.09240483466419
 31
0.0
  0
LINE
  8
DETAIL
  6
CONTINUOUS
 62
     5
 10
273.75000000000091
 20
442.61890620134
 30
0.0
 11
273.75000000000091
 21
437.09240483600342
 31
0.0
  0
LINE
  8
DETAIL
  6
CONTINUOUS
 62
     5
 10
-414.09999999999582
 20
-349.29999999999927
 30
0.0
 11
-413.49999999999949
 21
-349.29999999999927
 31
0.0
  0
LINE
  8
DETAIL
  6
CONTINUOUS
 62
     5
 10
-411.89999999999742
 20
-353.30000000000251
 30
0.0
 11
-304.99999999999642
 21
-353.30000000000251
 31
0.0
  0
LINE
  8
DETAIL
  6
CONTINUOUS
 62
     5
 10
-404.50000000000142
 20
-356.29999999999927
 30
0.0
 11
-378.5
 21
-356.29999999999927
 31
0.0
  0
LINE
  8
DETAIL
  6
CONTINUOUS
 62
     5
 10
296.40000000000191
 20
385.00000000000358
 30
0.0
 11
296.40000000000191
 21
381.40000000000151
 31
0.0
  0
LINE
  8
DETAIL
  6
CONTINUOUS
 62
     5
 10
296.40000000000151
 20
-381.39999999999458
 30
0.0
 11
296.40000000000151
 21
-384.99999999999733
 31
0.0
  0
LINE
  8
DETAIL
  6
CONTINUOUS
 62
     5
 10
298.00000000000318
 20
382.50000000000642
 30
0.0
 11
298.00000000000318
 21
-382.49999999999233
 31
0.0
  0
LINE
  8
DETAIL
  6
CONTINUOUS
 62
     5
 10
298.5
 20
-402.50000000000182
 30
0.0
 11
298.5
 21
-381.39999999999458
 31
0.0
  0
LINE
  8
DETAIL
  6
CONTINUOUS
 62
     5
 10
298.5
 20
402.50000000000142
 30
0.0
 11
298.5
 21
381.40000000000151
 31
0.0
  0
LINE
  8
DETAIL
  6
CONTINUOUS
 62
     5
 10
305.0
 20
-376.39999999999958
 30
0.0
 11
305.0
 21
376.40000000002829
 31
0.0
  0
LINE
  8
DETAIL
  6
CONTINUOUS
 62
     5
 10
-360.99999999999858
 20
-357.64999999999651
 30
0.0
 11
-355.99999999999818
 21
-357.64999999999651
 31
0.0
  0
LINE
  8
DETAIL
  6
CONTINUOUS
 62
     5
 10
-304.99999999999642
 20
-358.99999999999449
 30
0.0
 11
-348.5
 21
-358.99999999999449
 31
0.0
  0
LINE
  8
DETAIL
  6
CONTINUOUS
 62
     5
 10
305.0
 20
-358.99999999999449
 30
0.0
 11
349.00000000000358
 21
-358.99999999999449
 31
0.0
  0
LINE
  8
DETAIL
  6
CONTINUOUS
 62
     5
 10
-352.79999999999882
 20
-360.44999999999658
 30
0.0
 11
-354.80000000000058
 21
-360.44999999999658
 31
0.0
  0
LINE
  8
DETAIL
  6
CONTINUOUS
 62
     5
 10
-362.20000000000158
 20
-360.69999999999658
 30
0.0
 11
-364.19999999999618
 21
-360.69999999999658
 31
0.0
  0
LINE
  8
DETAIL
  6
CONTINUOUS
 62
     5
 10
-363.00000000000051
 20
-361.65000000000009
 30
0.0
 11
-360.99999999999858
 21
-361.65000000000009
 31
0.0
  0
LINE
  8
DETAIL
  6
CONTINUOUS
 62
     5
 10
-355.99999999999818
 20
-361.65000000000009
 30
0.0
 11
-353.99999999999642
 21
-361.65000000000009
 31
0.0
  0
LINE
  8
DETAIL
  6
CONTINUOUS
 62
     5
 10
-354.49999999999773
 20
-361.89999999999242
 30
0.0
 11
-362.49999999999733
 21
-361.89999999999242
 31
0.0
  0
LINE
  8
DETAIL
  6
CONTINUOUS
 62
     5
 10
-353.99999999999642
 20
-363.35000000000258
 30
0.0
 11
-354.49999999999773
 21
-363.35000000000258
 31
0.0
  0
LINE
  8
DETAIL
  6
CONTINUOUS
 62
     5
 10
-362.49999999999733
 20
-363.35000000000258
 30
0.0
 11
-363.00000000000051
 21
-363.35000000000258
 31
0.0
  0
LINE
  8
DETAIL
  6
CONTINUOUS
 62
     5
 10
-352.79999999999882
 20
-364.29999999999882
 30
0.0
 11
-354.49999999999773
 21
-364.29999999999882
 31
0.0
  0
LINE
  8
DETAIL
  6
CONTINUOUS
 62
     5
 10
-362.49999999999733
 20
-364.29999999999882
 30
0.0
 11
-364.19999999999618
 21
-364.29999999999882
 31
0.0
  0
LINE
  8
DETAIL
  6
CONTINUOUS
 62
     5
 10
-328.49999999999818
 20
-377.49999999999773
 30
0.0
 11
-348.5
 21
-377.49999999999773
 31
0.0
  0
LINE
  8
DETAIL
  6
CONTINUOUS
 62
     5
 10
329.00000000000091
 20
-377.49999999999773
 30
0.0
 11
349.00000000000358
 21
-377.49999999999773
 31
0.0
  0
LINE
  8
DETAIL
  6
CONTINUOUS
 62
     5
 10
-296.39999999999873
 20
-381.39999999999458
 30
0.0
 11
-299.99999999999909
 21
-381.39999999999458
 31
0.0
  0
LINE
  8
DETAIL
  6
CONTINUOUS
 62
     5
 10
296.40000000000151
 20
-381.39999999999458
 30
0.0
 11
300.00000000000182
 21
-381.39999999999458
 31
0.0
  0
LINE
  8
DETAIL
  6
CONTINUOUS
 62
     5
 10
-354.49999999999773
 20
-381.90000000000151
 30
0.0
 11
-362.49999999999733
 21
-381.90000000000151
 31
0.0
  0
LINE
  8
DETAIL
  6
CONTINUOUS
 62
     5
 10
-297.49999999999818
 20
-382.99999999999909
 30
0.0
 11
297.50000000000091
 21
-382.99999999999909
 31
0.0
  0
LINE
  8
DETAIL
  6
CONTINUOUS
 62
     5
 10
-297.49999999999818
 20
-383.49999999999858
 30
0.0
 11
-296.39999999999873
 21
-383.49999999999858
 31
0.0
  0
LINE
  8
DETAIL
  6
CONTINUOUS
 62
     5
 10
296.40000000000151
 20
-383.49999999999858
 30
0.0
 11
297.50000000000091
 21
-383.49999999999858
 31
0.0
  0
LINE
  8
DETAIL
  6
CONTINUOUS
 62
     5
 10
-348.5
 20
-390.49999999999949
 30
0.0
 11
-328.49999999999818
 21
-390.49999999999949
 31
0.0
  0
LINE
  8
DETAIL
  6
CONTINUOUS
 62
     5
 10
-291.40000000000549
 20
-389.99999999997772
 30
0.0
 11
291.40000000000282
 21
-389.99999999999949
 31
0.0
  0
LINE
  8
DETAIL
  6
CONTINUOUS
 62
     5
 10
329.00000000000091
 20
-390.49999999999949
 30
0.0
 11
349.00000000000358
 21
-390.49999999999949
 31
0.0
  0
LINE
  8
DETAIL
  6
CONTINUOUS
 62
     5
 10
280.00000000133832
 20
395.999999989956
 30
0.0
 11
274.00197793200232
 21
433.9276577093392
 31
0.0
  0
LINE
  8
DETAIL
  6
CONTINUOUS
 62
     5
 10
345.800000000002
 20
359.00000000000819
 30
0.0
 11
345.800000000002
 21
377.49999999999733
 31
0.0
  0
LINE
  8
DETAIL
  6
CONTINUOUS
 62
     5
 10
345.800000000002
 20
-358.99999999999449
 30
0.0
 11
345.800000000002
 21
-377.49999999999773
 31
0.0
  0
LINE
  8
DETAIL
  6
CONTINUOUS
 62
     5
 10
349.00000000000409
 20
390.49999999999858
 30
0.0
 11
349.00000000000409
 21
402.50000000000142
 31
0.0
  0
LINE
  8
DETAIL
  6
CONTINUOUS
 62
     5
 10
349.00000000000409
 20
377.49999999999733
 30
0.0
 11
349.00000000000409
 21
359.00000000000819
 31
0.0
  0
LINE
  8
DETAIL
  6
CONTINUOUS
 62
     5
 10
349.00000000000358
 20
-358.99999999999449
 30
0.0
 11
349.00000000000358
 21
-377.49999999999773
 31
0.0
  0
LINE
  8
DETAIL
  6
CONTINUOUS
 62
     5
 10
349.00000000000358
 20
-390.49999999999949
 30
0.0
 11
349.00000000000358
 21
-402.50000000000182
 31
0.0
  0
LINE
  8
DETAIL
  6
CONTINUOUS
 62
     5
 10
279.96850276190708
 20
-396.19654276271291
 30
0.0
 11
274.00197793200232
 21
-433.92765770799218
 31
0.0
  0
LINE
  8
DETAIL
  6
CONTINUOUS
 62
     5
 10
-348.5
 20
-402.50000000000182
 30
0.0
 11
-298.49999999999733
 21
-402.50000000000182
 31
0.0
  0
LINE
  8
DETAIL
  6
CONTINUOUS
 62
     5
 10
298.5
 20
-402.50000000000182
 30
0.0
 11
349.00000000000358
 21
-402.50000000000182
 31
0.0
  0
LINE
  8
DETAIL
  6
CONTINUOUS
 62
     5
 10
-272.35549114932837
 20
-443.99999999999733
 30
0.0
 11
-177.64450884933331
 21
-443.99999999999733
 31
0.0
  0
LINE
  8
DETAIL
  6
CONTINUOUS
 62
     5
 10
177.64450885066799
 20
-443.99999999999733
 30
0.0
 11
272.35549115066851
 21
-443.99999999999733
 31
0.0
  0
LINE
  8
DETAIL
  6
CONTINUOUS
 62
     5
 10
-367.33356526933272
 20
-353.8739599466644
 30
0.0
 11
-362.20000000000158
 21
-356.39999999999782
 31
0.0
  0
LINE
  8
DETAIL
  6
CONTINUOUS
 62
     5
 10
-299.99999999999909
 20
-381.39999999999458
 30
0.0
 11
-304.99999999999449
 21
-376.39999999999958
 31
0.0
  0
LINE
  8
DETAIL
  6
CONTINUOUS
 62
     5
 10
-296.39999999999873
 20
-384.99999999999733
 30
0.0
 11
-291.40000000000549
 21
-389.99999999997772
 31
0.0
  0
LINE
  8
DETAIL
  6
CONTINUOUS
 62
     5
 10
305.0
 20
-376.40000000000691
 30
0.0
 11
300.00000000000182
 21
-381.39999999999458
 31
0.0
  0
LINE
  8
DETAIL
  6
CONTINUOUS
 62
     5
 10
296.40000000000151
 20
-384.99999999999733
 30
0.0
 11
291.39999999999918
 21
-389.99999999999949
 31
0.0
  0
ARC
  8
DETAIL
  6
CONTINUOUS
 62
     5
 10
-293.74999999999909
 20
437.09240483600342
 30
0.0
 40
19.999999999999961
 50
350.895399134576
 51
0.0
  0
ARC
  8
DETAIL
  6
CONTINUOUS
 62
     5
 10
-328.99999999999818
 20
383.99999999999773
 30
0.0
 40
6.4999999999999911
 50
270.0
 51
90.0
  0
ARC
  8
DETAIL
  6
CONTINUOUS
 62
     5
 10
-295.29999999999558
 20
389.90000000000742
 30
0.0
 40
6.3999999999999897
 50
239.9927485906214
 51
260.10314655726341
  0
ARC
  8
DETAIL
  6
CONTINUOUS
 62
     5
 10
-295.29999999999558
 20
389.90000000000742
 30
0.0
 40
3.199999999999994
 50
180.44621106478979
 51
282.1073252784837
  0
ARC
  8
DETAIL
  6
CONTINUOUS
 62
     5
 10
-272.36890620133317
 20
442.61890620134
 30
0.0
 40
1.3810937986666649
 50
90.0
 51
180.0
  0
ARC
  8
DETAIL
  6
CONTINUOUS
 62
     5
 10
-297.39999999999782
 20
382.40000000000049
 30
0.0
 40
1.099999999999999
 50
90.0
 51
180.0
  0
ARC
  8
DETAIL
  6
CONTINUOUS
 62
     5
 10
-297.39999999999782
 20
382.40000000000049
 30
0.0
 40
0.5999999999999993
 50
90.0
 51
180.0
  0
ARC
  8
DETAIL
  6
CONTINUOUS
 62
     5
 10
-156.24999999999909
 20
437.09240483600342
 30
0.0
 40
19.999999999999961
 50
180.0
 51
189.104600865424
  0
ARC
  8
DETAIL
  6
CONTINUOUS
 62
     5
 10
-177.63109379866501
 20
442.61890620134
 30
0.0
 40
1.3810937986666649
 50
0.0
 51
90.00000000007816
  0
ARC
  8
DETAIL
  6
CONTINUOUS
 62
     5
 10
-327.97087418133242
 20
140.12583128400141
 30
0.0
 40
3.799999999999994
 50
335.00000000004451
 51
34.999999999977888
  0
ARC
  8
DETAIL
  6
CONTINUOUS
 62
     5
 10
-332.03986559199529
 20
155.35156595333859
 30
0.0
 40
3.799999999999994
 50
95.000000000025977
 51
214.99999999993489
  0
ARC
  8
DETAIL
  6
CONTINUOUS
 62
     5
 10
-340.59999999999758
 20
142.60000000000309
 30
0.0
 40
2.999999999999996
 50
180.0
 51
270.0
  0
ARC
  8
DETAIL
  6
CONTINUOUS
 62
     5
 10
-340.59999999999718
 20
149.60000000000349
 30
0.0
 40
2.999999999999996
 50
90.0
 51
180.0
  0
ARC
  8
DETAIL
  6
CONTINUOUS
 62
     5
 10
-311.09999999999951
 20
154.00526315867091
 30
0.0
 40
2.5947368426666628
 50
15.530332036881569
 51
25.001554010224279
  0
ARC
  8
DETAIL
  6
CONTINUOUS
 62
     5
 10
-311.09999999999951
 20
154.00526315867091
 30
0.0
 40
2.5947368426666628
 50
37.926089973678351
 51
90.0
  0
ARC
  8
DETAIL
  6
CONTINUOUS
 62
     5
 10
-334.59999999999633
 20
152.60000000000039
 30
0.0
 40
1.9999999999999969
 50
122.8407348883318
 51
180.0
  0
ARC
  8
DETAIL
  6
CONTINUOUS
 62
     5
 10
-327.97087418133242
 20
140.12583128400141
 30
0.0
 40
1.5999999999999981
 50
335.00000000004451
 51
34.999999999977888
  0
ARC
  8
DETAIL
  6
CONTINUOUS
 62
     5
 10
-332.03986559199529
 20
155.35156595333859
 30
0.0
 40
1.5999999999999981
 50
95.000000000025977
 51
214.99999999993489
  0
ARC
  8
DETAIL
  6
CONTINUOUS
 62
     5
 10
-334.6972244213307
 20
119.3123823693368
 30
0.0
 40
1.099999999999999
 50
155.00000000004451
 51
335.00000000004451
  0
ARC
  8
DETAIL
  6
CONTINUOUS
 62
     5
 10
-318.49999999999909
 20
152.60000000000039
 30
0.0
 40
0.9999999999999987
 50
90.0
 51
180.0
  0
ARC
  8
DETAIL
  6
CONTINUOUS
 62
     5
 10
-325.699999999998
 20
152.60000000000039
 30
0.0
 40
0.9999999999999987
 50
0.0
 51
90.0
  0
ARC
  8
DETAIL
  6
CONTINUOUS
 62
     5
 10
-334.59999999999633
 20
152.60000000000039
 30
0.0
 40
0.9999999999999987
 50
131.5670037582876
 51
180.0
  0
ARC
  8
DETAIL
  6
CONTINUOUS
 62
     5
 10
-334.59999999999633
 20
142.4999999999973
 30
0.0
 40
0.9999999999999987
 50
90.0
 51
170.99999999998099
  0
ARC
  8
DETAIL
  6
CONTINUOUS
 62
     5
 10
-334.59999999999633
 20
149.70000000000209
 30
0.0
 40
0.9999999999999987
 50
189.00000000001901
 51
270.0
  0
ARC
  8
DETAIL
  6
CONTINUOUS
 62
     5
 10
-332.59999999999809
 20
155.10000000000539
 30
0.0
 40
0.4999999999999993
 50
90.0
 51
270.0
  0
ARC
  8
DETAIL
  6
CONTINUOUS
 62
     5
 10
-308.49999999999642
 20
154.69999999999709
 30
0.0
 40
0.0999999999999999
 50
180.0
 51
270.0
  0
ARC
  8
DETAIL
  6
CONTINUOUS
 62
     5
 10
156.25000000000321
 20
437.09240483600342
 30
0.0
 40
19.999999999999961
 50
350.895399134576
 51
0.0
  0
ARC
  8
DETAIL
  6
CONTINUOUS
 62
     5
 10
293.75000000000182
 20
437.09240483600342
 30
0.0
 40
19.999999999999961
 50
180.0
 51
189.104600865424
  0
ARC
  8
DETAIL
  6
CONTINUOUS
 62
     5
 10
329.00000000000091
 20
383.99999999999773
 30
0.0
 40
6.4999999999999911
 50
90.0
 51
270.0
  0
ARC
  8
DETAIL
  6
CONTINUOUS
 62
     5
 10
295.29999999999973
 20
389.90000000000742
 30
0.0
 40
6.3999999999999897
 50
279.89685344273659
 51
300.00725140937863
  0
ARC
  8
DETAIL
  6
CONTINUOUS
 62
     5
 10
295.29999999999973
 20
389.90000000000742
 30
0.0
 40
3.199999999999994
 50
257.89267472140949
 51
359.55378893518412
  0
ARC
  8
DETAIL
  6
CONTINUOUS
 62
     5
 10
297.83615919866628
 20
387.23372472533669
 30
0.0
 40
2.66629930933333
 50
75.597488058688327
 51
76.114622498797416
  0
ARC
  8
DETAIL
  6
CONTINUOUS
 62
     5
 10
297.83688012266981
 20
387.23663110933381
 30
0.0
 40
2.6633048493333291
 50
76.114673727606316
 51
76.356535752981401
  0
ARC
  8
DETAIL
  6
CONTINUOUS
 62
     5
 10
177.63109379866859
 20
442.61890620134
 30
0.0
 40
1.3810937986666649
 50
90.0
 51
180.0
  0
ARC
  8
DETAIL
  6
CONTINUOUS
 62
     5
 10
272.36890620133539
 20
442.61890620134
 30
0.0
 40
1.3810937986666649
 50
0.0
 51
90.00000000007816
  0
ARC
  8
DETAIL
  6
CONTINUOUS
 62
     5
 10
297.50000000000091
 20
382.50000000000642
 30
0.0
 40
0.9999999999999987
 50
0.0
 51
90.0
  0
ARC
  8
DETAIL
  6
CONTINUOUS
 62
     5
 10
297.50000000000091
 20
382.50000000000642
 30
0.0
 40
0.4999999999999993
 50
0.0
 51
90.0
  0
ARC
  8
DETAIL
  6
CONTINUOUS
 62
     5
 10
-316.49999999999733
 20
-156.80000000000149
 30
0.0
 40
2.3999999999999968
 50
149.94463625961521
 51
270.0
  0
ARC
  8
DETAIL
  6
CONTINUOUS
 62
     5
 10
-316.49999999999733
 20
-156.80000000000149
 30
0.0
 40
1.1999999999999991
 50
134.0000000000301
 51
270.0
  0
ARC
  8
DETAIL
  6
CONTINUOUS
 62
     5
 10
-413.49999999999949
 20
-180.09999999999579
 30
0.0
 40
1.1999999999999991
 50
90.0
 51
180.0
  0
ARC
  8
DETAIL
  6
CONTINUOUS
 62
     5
 10
-332.59999999999809
 20
-155.09999999999849
 30
0.0
 40
0.4999999999999993
 50
90.0
 51
270.0
  0
ARC
  8
DETAIL
  6
CONTINUOUS
 62
     5
 10
-293.74999999999909
 20
-437.09240483466419
 30
0.0
 40
19.999999999999961
 50
0.0
 51
9.1046008654240289
  0
ARC
  8
DETAIL
  6
CONTINUOUS
 62
     5
 10
-328.49999999999818
 20
-383.99999999999858
 30
0.0
 40
6.4999999999999911
 50
270.0
 51
90.0
  0
ARC
  8
DETAIL
  6
CONTINUOUS
 62
     5
 10
-295.29999999999609
 20
-389.900000000001
 30
0.0
 40
6.3999999999999897
 50
99.896853442736628
 51
120.0072514093786
  0
ARC
  8
DETAIL
  6
CONTINUOUS
 62
     5
 10
-295.29999999999609
 20
-389.900000000001
 30
0.0
 40
3.199999999999994
 50
77.892674721356613
 51
179.55378893518409
  0
ARC
  8
DETAIL
  6
CONTINUOUS
 62
     5
 10
-378.5
 20
-353.30000000000251
 30
0.0
 40
2.999999999999996
 50
270.0
 51
0.0
  0
ARC
  8
DETAIL
  6
CONTINUOUS
 62
     5
 10
-384.49999999999949
 20
-353.30000000000251
 30
0.0
 40
2.999999999999996
 50
270.0
 51
0.0
  0
ARC
  8
DETAIL
  6
CONTINUOUS
 62
     5
 10
-404.50000000000142
 20
-353.30000000000251
 30
0.0
 40
2.999999999999996
 50
180.0
 51
270.0
  0
ARC
  8
DETAIL
  6
CONTINUOUS
 62
     5
 10
-297.83615920266669
 20
-387.23372473865862
 30
0.0
 40
2.666299294666663
 50
255.5974880564824
 51
256.11462249960272
  0
ARC
  8
DETAIL
  6
CONTINUOUS
 62
     5
 10
-297.83688017866228
 20
-387.23663134399158
 30
0.0
 40
2.6633046066666628
 50
256.11467371754162
 51
256.3565357648323
  0
ARC
  8
DETAIL
  6
CONTINUOUS
 62
     5
 10
-411.89999999999742
 20
-351.699999999998
 30
0.0
 40
1.5999999999999981
 50
180.0
 51
270.0
  0
ARC
  8
DETAIL
  6
CONTINUOUS
 62
     5
 10
-272.36890620133317
 20
-442.61890620132641
 30
0.0
 40
1.3810937986666649
 50
180.0
 51
270.0
  0
ARC
  8
DETAIL
  6
CONTINUOUS
 62
     5
 10
-348.5
 20
-353.30000000000251
 30
0.0
 40
1.299999999999998
 50
209.4009141972717
 51
231.31781254641129
  0
ARC
  8
DETAIL
  6
CONTINUOUS
 62
     5
 10
-368.49999999999682
 20
-353.30000000000251
 30
0.0
 40
1.299999999999998
 50
308.68218745358871
 51
333.79988515878472
  0
ARC
  8
DETAIL
  6
CONTINUOUS
 62
     5
 10
-297.49999999999818
 20
-382.49999999999233
 30
0.0
 40
0.9999999999999987
 50
180.0
 51
270.0
  0
ARC
  8
DETAIL
  6
CONTINUOUS
 62
     5
 10
-367.99999999999909
 20
-353.79999999999472
 30
0.0
 40
0.4999999999999993
 50
90.0
 51
180.0
  0
ARC
  8
DETAIL
  6
CONTINUOUS
 62
     5
 10
-348.99999999999773
 20
-353.79999999999472
 30
0.0
 40
0.4999999999999993
 50
0.0
 51
90.0
  0
ARC
  8
DETAIL
  6
CONTINUOUS
 62
     5
 10
-348.99999999999773
 20
-353.92449979999492
 30
0.0
 40
0.4999999999999993
 50
231.31781254641129
 51
0.0
  0
ARC
  8
DETAIL
  6
CONTINUOUS
 62
     5
 10
-367.99999999999909
 20
-353.92449979999492
 30
0.0
 40
0.4999999999999993
 50
180.0
 51
308.68218745358871
  0
ARC
  8
DETAIL
  6
CONTINUOUS
 62
     5
 10
-297.49999999999818
 20
-382.49999999999233
 30
0.0
 40
0.4999999999999993
 50
180.0
 51
270.0
  0
ARC
  8
DETAIL
  6
CONTINUOUS
 62
     5
 10
-156.24999999999909
 20
-437.09240483466419
 30
0.0
 40
19.999999999999961
 50
170.895399134576
 51
180.0
  0
ARC
  8
DETAIL
  6
CONTINUOUS
 62
     5
 10
-177.63109379866501
 20
-442.61890620132641
 30
0.0
 40
1.3810937986666649
 50
270.0
 51
0.0
  0
ARC
  8
DETAIL
  6
CONTINUOUS
 62
     5
 10
156.2500000000027
 20
-437.09240483466419
 30
0.0
 40
19.999999999999961
 50
0.0
 51
9.1046008654240289
  0
ARC
  8
DETAIL
  6
CONTINUOUS
 62
     5
 10
293.75000000000182
 20
-437.09240483466419
 30
0.0
 40
19.999999999999961
 50
170.895399134576
 51
180.0
  0
ARC
  8
DETAIL
  6
CONTINUOUS
 62
     5
 10
329.00000000000091
 20
-383.99999999999858
 30
0.0
 40
6.4999999999999911
 50
90.0
 51
270.0
  0
ARC
  8
DETAIL
  6
CONTINUOUS
 62
     5
 10
295.29999999999973
 20
-389.900000000001
 30
0.0
 40
6.3999999999999897
 50
59.992748590621439
 51
80.103146557263386
  0
ARC
  8
DETAIL
  6
CONTINUOUS
 62
     5
 10
295.29999999999973
 20
-389.900000000001
 30
0.0
 40
3.199999999999994
 50
0.4462110647898365
 51
102.10732527856359
  0
ARC
  8
DETAIL
  6
CONTINUOUS
 62
     5
 10
177.63109379866859
 20
-442.61890620132641
 30
0.0
 40
1.3810937986666649
 50
180.0
 51
270.0
  0
ARC
  8
DETAIL
  6
CONTINUOUS
 62
     5
 10
272.36890620133499
 20
-442.61890620132641
 30
0.0
 40
1.3810937986666649
 50
270.0
 51
0.0
  0
ARC
  8
DETAIL
  6
CONTINUOUS
 62
     5
 10
297.50000000000091
 20
-382.49999999999233
 30
0.0
 40
0.9999999999999987
 50
270.0
 51
0.0
  0
ARC
  8
DETAIL
  6
CONTINUOUS
 62
     5
 10
297.50000000000091
 20
-382.49999999999233
 30
0.0
 40
0.4999999999999993
 50
270.0
 51
0.0
  0
LINE
  8
DETAIL
  6
CONTINUOUS
 62
     5
 10
-312.59999999999633
 20
155.60000000000491
 30
0.0
 11
-312.67720166232721
 21
155.58426456462468
 31
0.0
  0
LINE
  8
DETAIL
  6
CONTINUOUS
 62
     5
 10
-312.67720166232721
 20
155.58426456462468
 30
0.0
 11
-312.74610421306727
 21
155.54452459085414
 31
0.0
  0
LINE
  8
DETAIL
  6
CONTINUOUS
 62
     5
 10
-312.74610421306727
 20
155.54452459085414
 30
0.0
 11
-312.80211952475389
 21
155.48887293264852
 31
0.0
  0
LINE
  8
DETAIL
  6
CONTINUOUS
 62
     5
 10
-312.80211952475389
 20
155.48887293264852
 30
0.0
 11
-312.84582671551874
 21
155.42114178858526
 31
0.0
  0
LINE
  8
DETAIL
  6
CONTINUOUS
 62
     5
 10
-312.84582671551874
 20
155.42114178858526
 30
0.0
 11
-312.87817275996071
 21
155.34486004097681
 31
0.0
  0
LINE
  8
DETAIL
  6
CONTINUOUS
 62
     5
 10
-312.87817275996071
 20
155.34486004097681
 30
0.0
 11
-312.90010463267799
 21
155.26355657213568
 31
0.0
  0
LINE
  8
DETAIL
  6
CONTINUOUS
 62
     5
 10
-312.90010463267799
 20
155.26355657213568
 30
0.0
 11
-312.91256930826944
 21
155.18076026437438
 31
0.0
  0
LINE
  8
DETAIL
  6
CONTINUOUS
 62
     5
 10
-312.91256930826944
 20
155.18076026437438
 30
0.0
 11
-312.91651376133359
 21
155.10000000000539
 31
0.0
  0
LINE
  8
DETAIL
  6
CONTINUOUS
 62
     5
 10
-312.91651376133359
 20
155.10000000000539
 30
0.0
 11
-312.91348024738727
 21
155.02364403302536
 31
0.0
  0
LINE
  8
DETAIL
  6
CONTINUOUS
 62
     5
 10
-312.91348024738727
 20
155.02364403302536
 30
0.0
 11
-312.90215189792337
 21
154.94733186021739
 31
0.0
  0
LINE
  8
DETAIL
  6
CONTINUOUS
 62
     5
 10
-312.90215189792337
 20
154.94733186021739
 30
0.0
 11
-312.87928445633395
 21
154.8686319755445
 31
0.0
  0
LINE
  8
DETAIL
  6
CONTINUOUS
 62
     5
 10
-312.87928445633395
 20
154.8686319755445
 30
0.0
 11
-312.84383687559313
 21
154.78956291899445
 31
0.0
  0
LINE
  8
DETAIL
  6
CONTINUOUS
 62
     5
 10
-312.84383687559313
 20
154.78956291899445
 30
0.0
 11
-312.79695027465141
 21
154.71655077267411
 31
0.0
  0
LINE
  8
DETAIL
  6
CONTINUOUS
 62
     5
 10
-312.79695027465141
 20
154.71655077267411
 30
0.0
 11
-312.73985901844634
 21
154.65620995707488
 31
0.0
  0
LINE
  8
DETAIL
  6
CONTINUOUS
 62
     5
 10
-312.73985901844634
 20
154.65620995707488
 30
0.0
 11
-312.67379747191552
 21
154.61515489268831
 31
0.0
  0
LINE
  8
DETAIL
  6
CONTINUOUS
 62
     5
 10
-312.67379747191552
 20
154.61515489268831
 30
0.0
 11
-312.59999999999633
 21
154.60000000000579
 31
0.0
  0
LINE
  8
DETAIL
  6
CONTINUOUS
 62
     5
 10
-279.99999999866532
 20
-396.00000000686168
 30
0.0
 11
-279.99999999866532
 21
-389.99999999999949
 31
0.0
  0
LINE
  8
DETAIL
  6
CONTINUOUS
 62
     5
 10
-279.96850275732959
 20
-396.19654278666081
 30
0.0
 11
-279.99999999866532
 21
-395.80094939466329
 31
0.0
  0
LINE
  8
DETAIL
  6
CONTINUOUS
 62
     5
 10
279.96850276190708
 20
-396.19654276271291
 30
0.0
 11
280.00000000133468
 21
-395.80094939466329
 31
0.0
  0
LINE
  8
DETAIL
  6
CONTINUOUS
 62
     5
 10
280.00000000133468
 20
-395.80094939466329
 30
0.0
 11
280.00000000133468
 21
-389.99999999999949
 31
0.0
  0
LINE
  8
DETAIL
  6
CONTINUOUS
 62
     5
 10
279.96850276000077
 20
396.19654278666758
 30
0.0
 11
280.00000000133832
 21
395.80094939600258
 31
0.0
  0
LINE
  8
DETAIL
  6
CONTINUOUS
 62
     5
 10
280.00000000133832
 20
395.999999989956
 30
0.0
 11
280.00000000133832
 21
389.99999999999858
 31
0.0
  0
LINE
  8
DETAIL
  6
CONTINUOUS
 62
     5
 10
-279.99999999866532
 20
395.80094939600258
 30
0.0
 11
-279.99999999866532
 21
389.99999999999858
 31
0.0
  0
LINE
  8
DETAIL
  6
CONTINUOUS
 62
     5
 10
-279.9685027561477
 20
396.19654280148922
 30
0.0
 11
-279.99999999866532
 21
395.80094939600258
 31
0.0
  0
LINE
  8
DETAIL
  6
CONTINUOUS
 62
     5
 10
-176.22939616106811
 20
-437.99999999984271
 30
0.0
 11
-273.75000000104961
 21
-437.99999999984271
 31
0.0
  0
LINE
  8
DETAIL
  6
CONTINUOUS
 62
     5
 10
273.77060383893422
 20
-437.99999999984271
 30
0.0
 11
176.24999999895229
 21
-437.99999999984271
 31
0.0
  0
LINE
  8
DETAIL
  6
CONTINUOUS
 62
     5
 10
273.77060383893422
 20
437.99999999985681
 30
0.0
 11
176.24999999895269
 21
437.99999999985681
 31
0.0
  0
LINE
  8
DETAIL
  6
CONTINUOUS
 62
     5
 10
-176.2293961610676
 20
437.99999999985681
 30
0.0
 11
-273.75000000104961
 21
437.99999999985681
 31
0.0
  0
ARC
  8
DETAIL
  6
CONTINUOUS
 62
     5
 10
298.47962817547108
 20
0.0084382900035962
 30
0.0
 40
0.0203718330014468
 50
314.99999999779828
 51
0.0
  0
LINE
  8
SERVICESPACE
  6
DASHDOT
 62
     2
 10
-905.00000001533863
 20
-224.80000001538929
 30
0.0
 11
-905.00000001533863
 21
224.3999999958605
 31
0.0
  0
LINE
  8
SERVICESPACE
  6
DASHDOT
 62
     2
 10
-1005.000000016591
 20
389.99999999999858
 30
0.0
 11
-291.400000000011
 21
389.99999999999858
 31
0.0
  0
LINE
  8
SERVICESPACE
  6
DASHDOT
 62
     2
 10
-1005.000000016591
 20
-389.99999999997038
 30
0.0
 11
-291.40000000000549
 21
-389.99999999997772
 31
0.0
  0
LINE
  8
SERVICESPACE
  6
DASHDOT
 62
     2
 10
-455.00000000409142
 20
-224.80000001538929
 30
0.0
 11
-455.00000000409142
 21
224.3999999958605
 31
0.0
  0
LINE
  8
SERVICESPACE
  6
DASHDOT
 62
     2
 10
-455.00000000409142
 20
-224.80000001538929
 30
0.0
 11
-905.00000001533863
 21
-224.80000001538929
 31
0.0
  0
LINE
  8
SERVICESPACE
  6
DASHDOT
 62
     2
 10
-455.00000000409142
 20
224.3999999958605
 30
0.0
 11
-905.00000001533863
 21
224.3999999958605
 31
0.0
  0
LINE
  8
SERVICESPACE
  6
DASHDOT
 62
     2
 10
-1005.000000016591
 20
-389.99999999997038
 30
0.0
 11
-1005.000000016591
 21
389.99999999999858
 31
0.0
  0
LINE
  8
BASIS
  6
DASHDOT
 62
     6
 10
323.84709613345512
 20
270.99999999718921
 30
0.0
 11
381.95440110016989
 21
270.99999999718921
 31
0.0
  0
LINE
  8
DETAIL
  6
DASHED
 62
     5
 10
311.19654278957569
 20
216.0314972378219
 30
0.0
 11
310.80094939555602
 21
215.9999999958163
 31
0.0
  0
LINE
  8
DETAIL
  6
DASHED
 62
     5
 10
310.80094939555602
 20
215.9999999958163
 30
0.0
 11
305.19999999941962
 21
215.9999999958163
 31
0.0
  0
LINE
  8
DETAIL
  6
DASHED
 62
     5
 10
311.19654278957569
 20
216.0314972378219
 30
0.0
 11
348.42765771650471
 21
221.99802206596269
 31
0.0
  0
ARC
  8
DETAIL
  6
DASHED
 62
     5
 10
351.59240483558142
 20
202.24999999546571
 30
0.0
 40
20.00000000049997
 50
90.0
 51
99.104600844894733
  0
LINE
  8
DETAIL
  6
DASHED
 62
     5
 10
357.1189062027197
 20
222.24999999597051
 30
0.0
 11
351.59240483558142
 21
222.24999999597051
 31
0.0
  0
ARC
  8
DETAIL
  6
DASHED
 62
     5
 10
357.1189062027197
 20
223.63109379500571
 30
0.0
 40
1.381093799034681
 50
270.0
 51
0.0
  0
LINE
  8
DETAIL
  6
DASHED
 62
     5
 10
311.19654278957569
 20
325.96850275656379
 30
0.0
 11
310.80094939555602
 21
325.99999999856209
 31
0.0
  0
LINE
  8
DETAIL
  6
DASHED
 62
     5
 10
310.80094939555602
 20
325.99999999856209
 30
0.0
 11
305.19999999941962
 21
325.99999999856209
 31
0.0
  0
LINE
  8
DETAIL
  6
DASHED
 62
     5
 10
311.19654278957569
 20
325.96850275656379
 30
0.0
 11
348.42765771650471
 21
320.00197792841573
 31
0.0
  0
ARC
  8
DETAIL
  6
DASHED
 62
     5
 10
351.59240483558142
 20
339.74999999890542
 30
0.0
 40
20.000000000499021
 50
260.89539915507902
 51
270.0
  0
LINE
  8
DETAIL
  6
DASHED
 62
     5
 10
352.50000000060157
 20
222.24999999597051
 30
0.0
 11
352.50000000060157
 21
319.74999999840787
 31
0.0
  0
LINE
  8
DETAIL
  6
DASHED
 62
     5
 10
357.1189062027197
 20
319.74999999840787
 30
0.0
 11
351.59240483558142
 21
319.74999999840787
 31
0.0
  0
ARC
  8
DETAIL
  6
DASHED
 62
     5
 10
357.1189062027197
 20
318.36890620037781
 30
0.0
 40
1.381093799034113
 50
0.0
 51
90.0
  0
LINE
  8
DETAIL
  6
DASHED
 62
     5
 10
358.50000000075119
 20
223.6445088980054
 30
0.0
 11
358.50000000075119
 21
318.35549109637299
 31
0.0
  0
LINE
  8
DETAIL
  6
DASHED
 62
     5
 10
-311.19654278957432
 20
216.0314972378219
 30
0.0
 11
-310.80094939555738
 21
215.9999999958163
 31
0.0
  0
LINE
  8
DETAIL
  6
DASHED
 62
     5
 10
-310.80094939555738
 20
215.9999999958163
 30
0.0
 11
-305.19999999942138
 21
215.9999999958163
 31
0.0
  0
LINE
  8
DETAIL
  6
DASHED
 62
     5
 10
-311.19654278957432
 20
216.0314972378219
 30
0.0
 11
-348.42765771650693
 21
221.99802206596269
 31
0.0
  0
ARC
  8
DETAIL
  6
DASHED
 62
     5
 10
-351.59240483558227
 20
202.24999999546571
 30
0.0
 40
20.00000000049997
 50
80.895399155105267
 51
90.0
  0
LINE
  8
DETAIL
  6
DASHED
 62
     5
 10
-357.11890620272112
 20
222.24999999597051
 30
0.0
 11
-351.59240483558227
 21
222.24999999597051
 31
0.0
  0
ARC
  8
DETAIL
  6
DASHED
 62
     5
 10
-357.11890620272112
 20
223.63109379500571
 30
0.0
 40
1.381093799034681
 50
180.0
 51
270.0
  0
LINE
  8
DETAIL
  6
DASHED
 62
     5
 10
-311.19654278957432
 20
325.96850275656379
 30
0.0
 11
-310.80094939555738
 21
325.99999999856209
 31
0.0
  0
LINE
  8
DETAIL
  6
DASHED
 62
     5
 10
-310.80094939555738
 20
325.99999999856209
 30
0.0
 11
-305.19999999942138
 21
325.99999999856209
 31
0.0
  0
LINE
  8
DETAIL
  6
DASHED
 62
     5
 10
-311.19654278957432
 20
325.96850275656379
 30
0.0
 11
-348.42765771650693
 21
320.00197792841573
 31
0.0
  0
ARC
  8
DETAIL
  6
DASHED
 62
     5
 10
-351.59240483558227
 20
339.74999999890542
 30
0.0
 40
20.000000000499021
 50
270.0
 51
279.10460084492098
  0
LINE
  8
DETAIL
  6
DASHED
 62
     5
 10
-352.50000000060248
 20
222.24999999597051
 30
0.0
 11
-352.50000000060248
 21
319.74999999840787
 31
0.0
  0
LINE
  8
DETAIL
  6
DASHED
 62
     5
 10
-357.11890620272112
 20
319.74999999840787
 30
0.0
 11
-351.59240483558227
 21
319.74999999840787
 31
0.0
  0
ARC
  8
DETAIL
  6
DASHED
 62
     5
 10
-357.11890620272112
 20
318.36890620037781
 30
0.0
 40
1.381093799034113
 50
90.0
 51
180.0
  0
LINE
  8
DETAIL
  6
DASHED
 62
     5
 10
-358.50000000075312
 20
223.6445088980054
 30
0.0
 11
-358.50000000075312
 21
318.35549109637299
 31
0.0
  0
LINE
  8
BASIS
  6
DASHDOT
 62
     6
 10
385.50000000141432
 20
384.00000000000182
 30
0.0
 11
272.49999999858801
 21
384.00000000000182
 31
0.0
  0
LINE
  8
BASIS
  6
DASHDOT
 62
     6
 10
329.00000000000091
 20
327.49999999859028
 30
0.0
 11
329.00000000000091
 21
440.5000000014129
 31
0.0
  0
LINE
  8
BASIS
  6
DASHDOT
 62
     6
 10
385.50000000141432
 20
-383.99999999999858
 30
0.0
 11
272.49999999858761
 21
-383.99999999999858
 31
0.0
  0
LINE
  8
BASIS
  6
DASHDOT
 62
     6
 10
329.00000000000091
 20
-440.50000000141381
 30
0.0
 11
329.00000000000091
 21
-327.49999999859068
 31
0.0
  0
LINE
  8
BASIS
  6
DASHDOT
 62
     6
 10
-271.9999999985871
 20
-383.99999999999858
 30
0.0
 11
-385.00000000141148
 21
-383.99999999999858
 31
0.0
  0
LINE
  8
BASIS
  6
DASHDOT
 62
     6
 10
-328.49999999999818
 20
-440.50000000141381
 30
0.0
 11
-328.49999999999818
 21
-327.49999999859068
 31
0.0
  0
LINE
  8
BASIS
  6
DASHDOT
 62
     6
 10
-272.49999999858568
 20
384.00000000000182
 30
0.0
 11
-385.50000000141063
 21
384.00000000000182
 31
0.0
  0
LINE
  8
BASIS
  6
DASHDOT
 62
     6
 10
-328.99999999999818
 20
327.49999999859028
 30
0.0
 11
-328.99999999999818
 21
440.5000000014129
 31
0.0
  0
LINE
  8
BASIS
  6
DASHDOT
 62
     6
 10
-323.84709613345831
 20
270.99999999718921
 30
0.0
 11
-381.95440110017222
 21
270.99999999718921
 31
0.0
  0
LINE
  8
BASIS
  6
DASHDOT
 62
     6
 10
-224.99999999933561
 20
-368.64799295690909
 30
0.0
 11
-224.99999999933561
 21
-474.88654783714901
 31
0.0
  0
LINE
  8
BASIS
  6
DASHDOT
 62
     6
 10
225.00000000066481
 20
-368.64799295690909
 30
0.0
 11
225.00000000066481
 21
-474.88654783714901
 31
0.0
  0
LINE
  8
BASIS
  6
DASHDOT
 62
     6
 10
225.00000000066669
 20
468.60432251524389
 30
0.0
 11
225.00000000066669
 21
362.36576763500398
 31
0.0
  0
LINE
  8
BASIS
  6
DASHDOT
 62
     6
 10
-224.99999999933519
 20
468.60432251524389
 30
0.0
 11
-224.99999999933519
 21
362.36576763500398
 31
0.0
  0
LINE
  8
BASIS
  6
DASHDOT
 62
     6
 10
337.36110957390753
 20
0.0
 30
0.0
 11
-337.36110957390753
 21
0.0
 31
0.0
1001
GENIUS_GENODEF_13
1002
{
1000
HIER
1070
     0
1002
}
1002
{
1000
MANEDIT
1070
     0
1002
}
1002
{
1000
NOSEL
1070
     0
1002
}
1002
{
1000
BEHIND
1070
     0
1002
}
1002
{
1000
OTHER
1070
     0
1002
}
1002
{
1000
REACTOR
1002
}
1001
GENIUS_GENOBJ-N-CEN_13
1002
{
1000
OWNER
1000
GEN
1002
}
1001
GENIUS_GENCEN_19
1002
{
1040
5.0
1002
}
  0
LINE
  8
SIZE
  6
CONTINUOUS
 62
    30
 10
405.0000000014154
 20
383.49999999999778
 30
0.0
 11
695.16775929627238
 21
383.4999999999979
 31
0.0
  0
LINE
  8
SIZE
  6
CONTINUOUS
 62
    30
 10
405.0000000014154
 20
-383.99999999999869
 30
0.0
 11
695.16775929627261
 21
-383.99999999999869
 31
0.0
  0
LINE
  8
SIZE
  6
CONTINUOUS
 62
    30
 10
675.16775929627238
 20
371.4999999999979
 30
0.0
 11
675.16775929627261
 21
-371.99999999999869
 31
0.0
  0
CIRCLE
  8
SIZE
  6
CONTINUOUS
 62
    30
 10
675.16775929627238
 20
383.4999999999979
 30
0.0
 40
6.0
  0
LINE
  8
SIZE
  6
CONTINUOUS
 62
    30
 10
675.16775929627238
 20
383.4999999999979
 30
0.0
 11
675.16775929627238
 21
371.4999999999979
 31
0.0
  0
CIRCLE
  8
SIZE
  6
CONTINUOUS
 62
    30
 10
675.16775929627261
 20
-383.99999999999869
 30
0.0
 40
6.0
  0
LINE
  8
SIZE
  6
CONTINUOUS
 62
    30
 10
675.16775929627261
 20
-383.99999999999869
 30
0.0
 11
675.16775929627261
 21
-371.99999999999869
 31
0.0
  0
TEXT
  8
SIZE
  6
CONTINUOUS
 62
    30
 10
650.16775929627238
 20
-80.602000000000572
 30
0.0
 40
64.0
  1
768
 50
90.0
 41
0.9
 51
0.0
  7
STANDARD
 71
     0
 72
     1
 11
650.16775929627238
 21
-0.2500000000006047
 31
0.0
210
0.0
220
0.0
230
1.0
  0
POINT
  8
DEFPOINTS
  6
CONTINUOUS
 62
    30
 10
385.0000000014154
 20
383.49999999999778
 30
0.0
  0
POINT
  8
DEFPOINTS
  6
CONTINUOUS
 62
    30
 10
385.0000000014154
 20
-383.99999999999869
 30
0.0
  0
POINT
  8
DEFPOINTS
  6
CONTINUOUS
 62
    30
 10
675.16775929627261
 20
-383.99999999999869
 30
0.0
  0
LINE
  8
SIZE
  6
CONTINUOUS
 62
    30
 10
311.39999999999787
 20
389.99999999999892
 30
0.0
 11
571.28670382306245
 21
389.99999999999892
 31
0.0
  0
LINE
  8
SIZE
  6
CONTINUOUS
 62
    30
 10
401.95440110017012
 20
270.99999999718938
 30
0.0
 11
571.28670382306245
 21
270.99999999718938
 31
0.0
  0
LINE
  8
SIZE
  6
CONTINUOUS
 62
    30
 10
551.28670382306245
 20
282.99999999718938
 30
0.0
 11
551.28670382306245
 21
377.99999999999892
 31
0.0
  0
LINE
  8
SIZE
  6
CONTINUOUS
 62
    30
 10
551.28670382306245
 20
389.99999999999892
 30
0.0
 11
551.28670382306245
 21
616.39189636333515
 31
0.0
  0
CIRCLE
  8
SIZE
  6
CONTINUOUS
 62
    30
 10
551.28670382306245
 20
270.99999999718938
 30
0.0
 40
6.0
  0
LINE
  8
SIZE
  6
CONTINUOUS
 62
    30
 10
551.28670382306245
 20
270.99999999718938
 30
0.0
 11
551.28670382306245
 21
282.99999999718938
 31
0.0
  0
CIRCLE
  8
SIZE
  6
CONTINUOUS
 62
    30
 10
551.28670382306245
 20
389.99999999999892
 30
0.0
 40
6.0
  0
LINE
  8
SIZE
  6
CONTINUOUS
 62
    30
 10
551.28670382306245
 20
389.99999999999892
 30
0.0
 11
551.28670382306245
 21
377.99999999999892
 31
0.0
  0
TEXT
  8
SIZE
  6
CONTINUOUS
 62
    30
 10
526.28670382306245
 20
460.84561064904926
 30
0.0
 40
64.0
  1
119
 50
90.0
 41
0.9
 51
0.0
  7
STANDARD
 71
     0
 72
     1
 11
526.28670382306245
 21
529.67761064904926
 31
0.0
210
0.0
220
0.0
230
1.0
  0
POINT
  8
DEFPOINTS
  6
CONTINUOUS
 62
    30
 10
291.39999999999787
 20
389.99999999999892
 30
0.0
  0
POINT
  8
DEFPOINTS
  6
CONTINUOUS
 62
    30
 10
381.95440110017
 20
270.99999999718932
 30
0.0
  0
POINT
  8
DEFPOINTS
  6
CONTINUOUS
 62
    30
 10
551.28670382306245
 20
270.99999999718938
 30
0.0
  0
LINE
  8
SIZE
  6
CONTINUOUS
 62
    30
 10
311.39999999999787
 20
389.99999999999892
 30
0.0
 11
813.50423235614869
 21
389.99999999999892
 31
0.0
  0
LINE
  8
SIZE
  6
CONTINUOUS
 62
    30
 10
311.40000000000288
 20
-389.99999999999977
 30
0.0
 11
813.50423235614892
 21
-389.99999999999972
 31
0.0
  0
LINE
  8
SIZE
  6
CONTINUOUS
 62
    30
 10
793.50423235614858
 20
377.99999999999892
 30
0.0
 11
793.5042323561488
 21
-377.99999999999972
 31
0.0
  0
CIRCLE
  8
SIZE
  6
CONTINUOUS
 62
    30
 10
793.50423235614858
 20
389.99999999999892
 30
0.0
 40
6.0
  0
LINE
  8
SIZE
  6
CONTINUOUS
 62
    30
 10
793.50423235614858
 20
389.99999999999892
 30
0.0
 11
793.50423235614858
 21
377.99999999999892
 31
0.0
  0
CIRCLE
  8
SIZE
  6
CONTINUOUS
 62
    30
 10
793.5042323561488
 20
-389.99999999999972
 30
0.0
 40
6.0
  0
LINE
  8
SIZE
  6
CONTINUOUS
 62
    30
 10
793.5042323561488
 20
-389.99999999999972
 30
0.0
 11
793.5042323561488
 21
-377.99999999999972
 31
0.0
  0
TEXT
  8
SIZE
  6
CONTINUOUS
 62
    30
 10
768.50423235614846
 20
-80.928000000000608
 30
0.0
 40
64.0
  1
780
 50
90.0
 41
0.9
 51
0.0
  7
STANDARD
 71
     0
 72
     1
 11
768.50423235614846
 21
-0.000000000000612
 31
0.0
210
0.0
220
0.0
230
1.0
  0
POINT
  8
DEFPOINTS
  6
CONTINUOUS
 62
    30
 10
291.39999999999787
 20
389.99999999999892
 30
0.0
  0
POINT
  8
DEFPOINTS
  6
CONTINUOUS
 62
    30
 10
291.40000000000288
 20
-389.99999999999977
 30
0.0
  0
POINT
  8
DEFPOINTS
  6
CONTINUOUS
 62
    30
 10
793.5042323561488
 20
-389.99999999999972
 30
0.0
  0
LINE
  8
SIZE
  6
CONTINUOUS
 62
    30
 10
-311.40000000000379
 20
389.99999999999892
 30
0.0
 11
-618.54334764484088
 21
389.99999999999881
 31
0.0
  0
LINE
  8
SIZE
  6
CONTINUOUS
 62
    30
 10
-401.95440110017228
 20
270.99999999718932
 30
0.0
 11
-618.54334764484088
 21
270.99999999718932
 31
0.0
  0
LINE
  8
SIZE
  6
CONTINUOUS
 62
    30
 10
-598.54334764484088
 20
282.99999999718932
 30
0.0
 11
-598.54334764484088
 21
377.99999999999869
 31
0.0
  0
LINE
  8
SIZE
  6
CONTINUOUS
 62
    30
 10
-598.54334764484088
 20
389.99999999999881
 30
0.0
 11
-598.54334764484088
 21
575.42857142857019
 31
0.0
  0
CIRCLE
  8
SIZE
  6
CONTINUOUS
 62
    30
 10
-598.54334764484088
 20
270.99999999718932
 30
0.0
 40
6.0
  0
LINE
  8
SIZE
  6
CONTINUOUS
 62
    30
 10
-598.54334764484088
 20
270.99999999718932
 30
0.0
 11
-598.54334764484088
 21
282.99999999718932
 31
0.0
  0
CIRCLE
  8
SIZE
  6
CONTINUOUS
 62
    30
 10
-598.54334764484088
 20
389.99999999999881
 30
0.0
 40
6.0
  0
LINE
  8
SIZE
  6
CONTINUOUS
 62
    30
 10
-598.54334764484088
 20
389.99999999999881
 30
0.0
 11
-598.54334764484088
 21
377.99999999999881
 31
0.0
  0
TEXT
  8
SIZE
  6
CONTINUOUS
 62
    30
 10
-623.54334764484076
 20
419.88228571428459
 30
0.0
 40
64.0
  1
119
 50
90.0
 41
0.9
 51
0.0
  7
STANDARD
 71
     0
 72
     1
 11
-623.54334764484065
 21
488.71428571428459
 31
0.0
210
0.0
220
0.0
230
1.0
  0
POINT
  8
DEFPOINTS
  6
CONTINUOUS
 62
    30
 10
-291.40000000000379
 20
389.99999999999892
 30
0.0
  0
POINT
  8
DEFPOINTS
  6
CONTINUOUS
 62
    30
 10
-381.95440110017228
 20
270.99999999718932
 30
0.0
  0
POINT
  8
DEFPOINTS
  6
CONTINUOUS
 62
    30
 10
-598.54334764484088
 20
270.99999999718932
 30
0.0
  0
LINE
  8
SIZE
  6
CONTINUOUS
 62
    30
 10
-224.99999999933519
 20
488.60432251524389
 30
0.0
 11
-224.99999999933519
 21
613.27724053241309
 31
0.0
  0
LINE
  8
SIZE
  6
CONTINUOUS
 62
    30
 10
225.00000000066669
 20
488.60432251524389
 30
0.0
 11
225.00000000066669
 21
613.27724053241309
 31
0.0
  0
LINE
  8
SIZE
  6
CONTINUOUS
 62
    30
 10
-212.99999999933519
 20
593.27724053241309
 30
0.0
 11
213.00000000066669
 21
593.27724053241309
 31
0.0
  0
CIRCLE
  8
SIZE
  6
CONTINUOUS
 62
    30
 10
-224.99999999933519
 20
593.27724053241309
 30
0.0
 40
6.0
  0
LINE
  8
SIZE
  6
CONTINUOUS
 62
    30
 10
-224.99999999933519
 20
593.27724053241309
 30
0.0
 11
-212.99999999933519
 21
593.27724053241309
 31
0.0
  0
CIRCLE
  8
SIZE
  6
CONTINUOUS
 62
    30
 10
225.00000000066669
 20
593.27724053241309
 30
0.0
 40
6.0
  0
LINE
  8
SIZE
  6
CONTINUOUS
 62
    30
 10
225.00000000066669
 20
593.27724053241309
 30
0.0
 11
213.00000000066669
 21
593.27724053241309
 31
0.0
  0
TEXT
  8
SIZE
  6
CONTINUOUS
 62
    30
 10
-81.503999999334255
 20
618.27724053241309
 30
0.0
 40
64.0
  1
450
 50
0.0
 41
0.9
 51
0.0
  7
STANDARD
 71
     0
 72
     1
 11
0.0000000006657501
 21
618.27724053241309
 31
0.0
210
0.0
220
0.0
230
1.0
  0
POINT
  8
DEFPOINTS
  6
CONTINUOUS
 62
    30
 10
-224.99999999933519
 20
468.60432251524389
 30
0.0
  0
POINT
  8
DEFPOINTS
  6
CONTINUOUS
 62
    30
 10
225.00000000066669
 20
468.60432251524389
 30
0.0
  0
POINT
  8
DEFPOINTS
  6
CONTINUOUS
 62
    30
 10
225.00000000066669
 20
593.27724053241309
 30
0.0
  0
LINE
  8
SIZE
  6
CONTINUOUS
 62
    30
 10
305.0
 20
396.40000000002829
 30
0.0
 11
305.0
 21
754.85881384810273
 31
0.0
  0
LINE
  8
SIZE
  6
CONTINUOUS
 62
    30
 10
-304.99999999999591
 20
396.40000000001652
 30
0.0
 11
-304.99999999999591
 21
754.85881384810273
 31
0.0
  0
LINE
  8
SIZE
  6
CONTINUOUS
 62
    30
 10
293.0
 20
734.85881384810273
 30
0.0
 11
-292.99999999999591
 21
734.85881384810273
 31
0.0
  0
CIRCLE
  8
SIZE
  6
CONTINUOUS
 62
    30
 10
305.0
 20
734.85881384810273
 30
0.0
 40
6.0
  0
LINE
  8
SIZE
  6
CONTINUOUS
 62
    30
 10
305.0
 20
734.85881384810273
 30
0.0
 11
293.0
 21
734.85881384810273
 31
0.0
  0
CIRCLE
  8
SIZE
  6
CONTINUOUS
 62
    30
 10
-304.99999999999591
 20
734.85881384810273
 30
0.0
 40
6.0
  0
LINE
  8
SIZE
  6
CONTINUOUS
 62
    30
 10
-304.99999999999591
 20
734.85881384810273
 30
0.0
 11
-292.99999999999591
 21
734.85881384810273
 31
0.0
  0
TEXT
  8
SIZE
  6
CONTINUOUS
 62
    30
 10
-75.16799999999796
 20
759.85881384810273
 30
0.0
 40
64.0
  1
610
 50
0.0
 41
0.9
 51
0.0
  7
STANDARD
 71
     0
 72
     1
 11
0.0000000000020464
 21
759.85881384810273
 31
0.0
210
0.0
220
0.0
230
1.0
  0
POINT
  8
DEFPOINTS
  6
CONTINUOUS
 62
    30
 10
305.0
 20
376.40000000002829
 30
0.0
  0
POINT
  8
DEFPOINTS
  6
CONTINUOUS
 62
    30
 10
-304.99999999999591
 20
376.40000000001652
 30
0.0
  0
POINT
  8
DEFPOINTS
  6
CONTINUOUS
 62
    30
 10
-304.99999999999591
 20
734.85881384810273
 30
0.0
  0
LINE
  8
SIZE
  6
CONTINUOUS
 62
    30
 10
329.00000000000091
 20
-460.50000000141381
 30
0.0
 11
329.00000000000091
 21
-944.70969992276332
 31
0.0
  0
LINE
  8
SIZE
  6
CONTINUOUS
 62
    30
 10
-328.49999999999818
 20
-460.50000000141381
 30
0.0
 11
-328.49999999999818
 21
-944.70969992276332
 31
0.0
  0
LINE
  8
SIZE
  6
CONTINUOUS
 62
    30
 10
317.00000000000091
 20
-924.70969992276332
 30
0.0
 11
-316.49999999999818
 21
-924.70969992276332
 31
0.0
  0
CIRCLE
  8
SIZE
  6
CONTINUOUS
 62
    30
 10
329.00000000000091
 20
-924.70969992276332
 30
0.0
 40
6.0
  0
LINE
  8
SIZE
  6
CONTINUOUS
 62
    30
 10
329.00000000000091
 20
-924.70969992276332
 30
0.0
 11
317.00000000000091
 21
-924.70969992276332
 31
0.0
  0
CIRCLE
  8
SIZE
  6
CONTINUOUS
 62
    30
 10
-328.49999999999818
 20
-924.70969992276332
 30
0.0
 40
6.0
  0
LINE
  8
SIZE
  6
CONTINUOUS
 62
    30
 10
-328.49999999999818
 20
-924.70969992276332
 30
0.0
 11
-316.49999999999818
 21
-924.70969992276332
 31
0.0
  0
TEXT
  8
SIZE
  6
CONTINUOUS
 62
    30
 10
-80.101999999998696
 20
-899.70969992276332
 30
0.0
 40
64.0
  1
658
 50
0.0
 41
0.9
 51
0.0
  7
STANDARD
 71
     0
 72
     1
 11
0.2500000000013074
 21
-899.70969992276332
 31
0.0
210
0.0
220
0.0
230
1.0
  0
POINT
  8
DEFPOINTS
  6
CONTINUOUS
 62
    30
 10
329.00000000000091
 20
-440.50000000141381
 30
0.0
  0
POINT
  8
DEFPOINTS
  6
CONTINUOUS
 62
    30
 10
-328.49999999999818
 20
-440.50000000141381
 30
0.0
  0
POINT
  8
DEFPOINTS
  6
CONTINUOUS
 62
    30
 10
-328.49999999999818
 20
-924.70969992276332
 30
0.0
  0
LINE
  8
SIZE
  6
CONTINUOUS
 62
    30
 10
-329.00000000000091
 20
-460.50000000141381
 30
0.0
 11
-329.00000000000102
 21
-944.70969992276059
 31
0.0
  0
LINE
  8
SIZE
  6
CONTINUOUS
 62
    30
 10
-349.00000000000358
 20
-422.50000000000182
 30
0.0
 11
-349.00000000000369
 21
-944.70969992276059
 31
0.0
  0
LINE
  8
SIZE
  6
CONTINUOUS
 62
    30
 10
-317.00000000000102
 20
-924.70969992276059
 30
0.0
 11
-305.00000000000102
 21
-924.70969992276059
 31
0.0
  0
LINE
  8
SIZE
  6
CONTINUOUS
 62
    30
 10
-361.00000000000369
 20
-924.70969992276059
 30
0.0
 11
-516.25714285714776
 21
-924.70969992276059
 31
0.0
  0
LINE
  8
SIZE
  6
CONTINUOUS
 62
    30
 10
-329.00000000000102
 20
-924.70969992276059
 30
0.0
 11
-349.00000000000369
 21
-924.70969992276059
 31
0.0
  0
CIRCLE
  8
SIZE
  6
CONTINUOUS
 62
    30
 10
-329.00000000000102
 20
-924.70969992276059
 30
0.0
 40
6.0
  0
LINE
  8
SIZE
  6
CONTINUOUS
 62
    30
 10
-329.00000000000102
 20
-924.70969992276059
 30
0.0
 11
-317.00000000000102
 21
-924.70969992276059
 31
0.0
  0
CIRCLE
  8
SIZE
  6
CONTINUOUS
 62
    30
 10
-349.00000000000369
 20
-924.70969992276059
 30
0.0
 40
6.0
  0
LINE
  8
SIZE
  6
CONTINUOUS
 62
    30
 10
-349.00000000000369
 20
-924.70969992276059
 30
0.0
 11
-361.00000000000369
 21
-924.70969992276059
 31
0.0
  0
TEXT
  8
SIZE
  6
CONTINUOUS
 62
    30
 10
-498.77257142857638
 20
-899.70969992276059
 30
0.0
 40
64.0
  1
20
 50
0.0
 41
0.9
 51
0.0
  7
STANDARD
 71
     0
 72
     1
 11
-444.62857142857638
 21
-899.70969992276059
 31
0.0
210
0.0
220
0.0
230
1.0
  0
POINT
  8
DEFPOINTS
  6
CONTINUOUS
 62
    30
 10
-329.00000000000091
 20
-440.50000000141381
 30
0.0
  0
POINT
  8
DEFPOINTS
  6
CONTINUOUS
 62
    30
 10
-349.00000000000358
 20
-402.50000000000182
 30
0.0
  0
POINT
  8
DEFPOINTS
  6
CONTINUOUS
 62
    30
 10
-349.00000000000369
 20
-924.70969992276059
 30
0.0
  0
LINE
  8
SIZE
  6
CONTINUOUS
 62
    30
 10
-413.49999999999949
 20
-371.699999999998
 30
0.0
 11
-413.49999999999949
 21
-788.51758490583143
 31
0.0
  0
LINE
  8
SIZE
  6
CONTINUOUS
 62
    30
 10
-298.49999999999733
 20
-422.50000000000182
 30
0.0
 11
-298.49999999999733
 21
-788.51758490583143
 31
0.0
  0
LINE
  8
SIZE
  6
CONTINUOUS
 62
    30
 10
-310.49999999999733
 20
-768.51758490583143
 30
0.0
 11
-401.49999999999949
 21
-768.51758490583143
 31
0.0
  0
LINE
  8
SIZE
  6
CONTINUOUS
 62
    30
 10
-413.49999999999949
 20
-768.51758490583143
 30
0.0
 11
-601.6714285714296
 21
-768.51758490583143
 31
0.0
  0
CIRCLE
  8
SIZE
  6
CONTINUOUS
 62
    30
 10
-298.49999999999733
 20
-768.51758490583143
 30
0.0
 40
6.0
  0
LINE
  8
SIZE
  6
CONTINUOUS
 62
    30
 10
-298.49999999999733
 20
-768.51758490583143
 30
0.0
 11
-310.49999999999733
 21
-768.51758490583143
 31
0.0
  0
CIRCLE
  8
SIZE
  6
CONTINUOUS
 62
    30
 10
-413.49999999999949
 20
-768.51758490583143
 30
0.0
 40
6.0
  0
LINE
  8
SIZE
  6
CONTINUOUS
 62
    30
 10
-413.49999999999949
 20
-768.51758490583143
 30
0.0
 11
-401.49999999999949
 21
-768.51758490583143
 31
0.0
  0
TEXT
  8
SIZE
  6
CONTINUOUS
 62
    30
 10
-582.41771428571531
 20
-743.51758490583143
 30
0.0
 40
64.0
  1
115
 50
0.0
 41
0.9
 51
0.0
  7
STANDARD
 71
     0
 72
     1
 11
-513.58571428571531
 21
-743.51758490583143
 31
0.0
210
0.0
220
0.0
230
1.0
  0
POINT
  8
DEFPOINTS
  6
CONTINUOUS
 62
    30
 10
-413.49999999999949
 20
-351.699999999998
 30
0.0
  0
POINT
  8
DEFPOINTS
  6
CONTINUOUS
 62
    30
 10
-298.49999999999733
 20
-402.50000000000182
 30
0.0
  0
POINT
  8
DEFPOINTS
  6
CONTINUOUS
 62
    30
 10
-298.49999999999733
 20
-768.51758490583143
 30
0.0
  0
LINE
  8
SIZE
  6
CONTINUOUS
 62
    30
 10
176.25000000000139
 20
-462.61890620132641
 30
0.0
 11
176.25000000000139
 21
-673.53969067847629
 31
0.0
  0
LINE
  8
SIZE
  6
CONTINUOUS
 62
    30
 10
273.75000000000051
 20
-462.61890620132641
 30
0.0
 11
273.75000000000051
 21
-673.53969067847629
 31
0.0
  0
LINE
  8
SIZE
  6
CONTINUOUS
 62
    30
 10
188.25000000000139
 20
-653.53969067847629
 30
0.0
 11
261.75000000000051
 21
-653.53969067847629
 31
0.0
  0
LINE
  8
SIZE
  6
CONTINUOUS
 62
    30
 10
273.75000000000051
 20
-653.53969067847629
 30
0.0
 11
625.47023012097293
 21
-653.53969067847629
 31
0.0
  0
CIRCLE
  8
SIZE
  6
CONTINUOUS
 62
    30
 10
176.25000000000139
 20
-653.53969067847629
 30
0.0
 40
6.0
  0
LINE
  8
SIZE
  6
CONTINUOUS
 62
    30
 10
176.25000000000139
 20
-653.53969067847629
 30
0.0
 11
188.25000000000139
 21
-653.53969067847629
 31
0.0
  0
CIRCLE
  8
SIZE
  6
CONTINUOUS
 62
    30
 10
273.75000000000051
 20
-653.53969067847629
 30
0.0
 40
6.0
  0
LINE
  8
SIZE
  6
CONTINUOUS
 62
    30
 10
273.75000000000051
 20
-653.53969067847629
 30
0.0
 11
261.75000000000051
 21
-653.53969067847629
 31
0.0
  0
TEXT
  8
SIZE
  6
CONTINUOUS
 62
    30
 10
357.90565869240152
 20
-628.53969067847629
 30
0.0
 40
64.0
  1
φ97.5
 50
0.0
 41
0.9
 51
0.0
  7
STANDARD
 71
     0
 72
     1
 11
486.64165869240151
 21
-628.53969067847629
 31
0.0
210
0.0
220
0.0
230
1.0
  0
POINT
  8
DEFPOINTS
  6
CONTINUOUS
 62
    30
 10
176.25000000000139
 20
-442.61890620132641
 30
0.0
  0
POINT
  8
DEFPOINTS
  6
CONTINUOUS
 62
    30
 10
273.75000000000051
 20
-442.61890620132641
 30
0.0
  0
POINT
  8
DEFPOINTS
  6
CONTINUOUS
 62
    30
 10
273.75000000000051
 20
-653.53969067847629
 30
0.0
  0
LINE
  8
SIZE
  6
CONTINUOUS
 62
    30
 10
170.03149724133749
 20
-416.19654278666081
 30
0.0
 11
170.03149724133749
 21
-788.51758490583143
 31
0.0
  0
LINE
  8
SIZE
  6
CONTINUOUS
 62
    30
 10
279.96850276190708
 20
-416.19654276271291
 30
0.0
 11
279.96850276190708
 21
-788.51758490583143
 31
0.0
  0
LINE
  8
SIZE
  6
CONTINUOUS
 62
    30
 10
182.03149724133749
 20
-768.51758490583143
 30
0.0
 11
267.96850276190708
 21
-768.51758490583143
 31
0.0
  0
LINE
  8
SIZE
  6
CONTINUOUS
 62
    30
 10
279.96850276190708
 20
-768.51758490583143
 30
0.0
 11
582.31730431145047
 21
-768.51758490583143
 31
0.0
  0
CIRCLE
  8
SIZE
  6
CONTINUOUS
 62
    30
 10
170.03149724133749
 20
-768.51758490583143
 30
0.0
 40
6.0
  0
LINE
  8
SIZE
  6
CONTINUOUS
 62
    30
 10
170.03149724133749
 20
-768.51758490583143
 30
0.0
 11
182.03149724133749
 21
-768.51758490583143
 31
0.0
  0
CIRCLE
  8
SIZE
  6
CONTINUOUS
 62
    30
 10
279.96850276190708
 20
-768.51758490583143
 30
0.0
 40
6.0
  0
LINE
  8
SIZE
  6
CONTINUOUS
 62
    30
 10
279.96850276190708
 20
-768.51758490583143
 30
0.0
 11
267.96850276190708
 21
-768.51758490583143
 31
0.0
  0
TEXT
  8
SIZE
  6
CONTINUOUS
 62
    30
 10
364.2064471685934
 20
-743.51758490583143
 30
0.0
 40
64.0
  1
φ110
 50
0.0
 41
0.9
 51
0.0
  7
STANDARD
 71
     0
 72
     1
 11
468.17444716859342
 21
-743.51758490583143
 31
0.0
210
0.0
220
0.0
230
1.0
  0
POINT
  8
DEFPOINTS
  6
CONTINUOUS
 62
    30
 10
170.03149724133749
 20
-396.19654278666081
 30
0.0
  0
POINT
  8
DEFPOINTS
  6
CONTINUOUS
 62
    30
 10
279.96850276190708
 20
-396.19654276271291
 30
0.0
  0
POINT
  8
DEFPOINTS
  6
CONTINUOUS
 62
    30
 10
279.96850276190708
 20
-768.51758490583143
 30
0.0
  0
LINE
  8
SIZE
  6
CONTINUOUS
 62
    30
 10
-304.99999999999591
 20
396.40000000001652
 30
0.0
 11
-304.99999999999591
 21
754.85881384810182
 31
0.0
  0
LINE
  8
SIZE
  6
CONTINUOUS
 62
    30
 10
-1005.000000016591
 20
409.99999999999858
 30
0.0
 11
-1005.000000016591
 21
754.85881384810182
 31
0.0
  0
LINE
  8
SIZE
  6
CONTINUOUS
 62
    30
 10
-316.99999999999591
 20
734.85881384810182
 30
0.0
 11
-993.00000001659055
 21
734.85881384810182
 31
0.0
  0
CIRCLE
  8
SIZE
  6
CONTINUOUS
 62
    30
 10
-304.99999999999591
 20
734.85881384810182
 30
0.0
 40
6.0
  0
LINE
  8
SIZE
  6
CONTINUOUS
 62
    30
 10
-304.99999999999591
 20
734.85881384810182
 30
0.0
 11
-316.99999999999591
 21
734.85881384810182
 31
0.0
  0
CIRCLE
  8
SIZE
  6
CONTINUOUS
 62
    30
 10
-1005.000000016591
 20
734.85881384810182
 30
0.0
 40
6.0
  0
LINE
  8
SIZE
  6
CONTINUOUS
 62
    30
 10
-1005.000000016591
 20
734.85881384810182
 30
0.0
 11
-993.000000016591
 21
734.85881384810182
 31
0.0
  0
TEXT
  8
SIZE
  6
CONTINUOUS
 62
    30
 10
-968.92000000829319
 20
759.85881384810182
 30
0.0
 40
64.0
  1
More than 600
 50
0.0
 41
0.9
 51
0.0
  7
STANDARD
 71
     0
 72
     1
 11
-655.00000000829323
 21
759.85881384810182
 31
0.0
210
0.0
220
0.0
230
1.0
  0
POINT
  8
DEFPOINTS
  6
CONTINUOUS
 62
    30
 10
-304.99999999999591
 20
376.40000000001652
 30
0.0
  0
POINT
  8
DEFPOINTS
  6
CONTINUOUS
 62
    30
 10
-1005.000000016591
 20
389.99999999999858
 30
0.0
  0
POINT
  8
DEFPOINTS
  6
CONTINUOUS
 62
    30
 10
-1005.000000016591
 20
734.85881384810182
 30
0.0
  0
LINE
  8
SIZE
  6
CONTINUOUS
 62
    30
 10
-455.00000000409142
 20
244.3999999958605
 30
0.0
 11
-455.00000000409142
 21
613.27724053241354
 31
0.0
  0
LINE
  8
SIZE
  6
CONTINUOUS
 62
    30
 10
-304.99999999999591
 20
396.40000000001652
 30
0.0
 11
-304.99999999999591
 21
613.27724053241354
 31
0.0
  0
LINE
  8
SIZE
  6
CONTINUOUS
 62
    30
 10
-316.99999999999591
 20
593.27724053241354
 30
0.0
 11
-443.00000000409142
 21
593.27724053241354
 31
0.0
  0
LINE
  8
SIZE
  6
CONTINUOUS
 62
    30
 10
-455.00000000409142
 20
593.27724053241354
 30
0.0
 11
-978.34857143266322
 21
593.27724053241354
 31
0.0
  0
CIRCLE
  8
SIZE
  6
CONTINUOUS
 62
    30
 10
-304.99999999999591
 20
593.27724053241354
 30
0.0
 40
6.0
  0
LINE
  8
SIZE
  6
CONTINUOUS
 62
    30
 10
-304.99999999999591
 20
593.27724053241354
 30
0.0
 11
-316.99999999999591
 21
593.27724053241354
 31
0.0
  0
CIRCLE
  8
SIZE
  6
CONTINUOUS
 62
    30
 10
-455.00000000409142
 20
593.27724053241354
 30
0.0
 40
6.0
  0
LINE
  8
SIZE
  6
CONTINUOUS
 62
    30
 10
-455.00000000409142
 20
593.27724053241354
 30
0.0
 11
-443.00000000409142
 21
593.27724053241354
 31
0.0
  0
TEXT
  8
SIZE
  6
CONTINUOUS
 62
    30
 10
-958.54628571837759
 20
618.27724053241354
 30
0.0
 40
64.0
  1
150 to 250
 50
0.0
 41
0.9
 51
0.0
  7
STANDARD
 71
     0
 72
     1
 11
-722.67428571837763
 21
618.27724053241354
 31
0.0
210
0.0
220
0.0
230
1.0
  0
POINT
  8
DEFPOINTS
  6
CONTINUOUS
 62
    30
 10
-455.00000000409142
 20
224.3999999958605
 30
0.0
  0
POINT
  8
DEFPOINTS
  6
CONTINUOUS
 62
    30
 10
-304.99999999999591
 20
376.40000000001652
 30
0.0
  0
POINT
  8
DEFPOINTS
  6
CONTINUOUS
 62
    30
 10
-304.99999999999591
 20
593.27724053241354
 30
0.0
  0
CIRCLE
  8
FIX
  6
CONTINUOUS
 62
    11
 10
329.00000000000142
 20
384.00000000000182
 30
0.0
 40
6.5
  0
CIRCLE
  8
FIX
  6
CONTINUOUS
 62
    11
 10
329.00000000000091
 20
-384.00000000000227
 30
0.0
 40
6.5
  0
CIRCLE
  8
FIX
  6
CONTINUOUS
 62
    11
 10
-328.49999999999818
 20
-383.99999999999858
 30
0.0
 40
6.5
  0
CIRCLE
  8
FIX
  6
CONTINUOUS
 62
    11
 10
-328.99999999999818
 20
384.00000000000182
 30
0.0
 40
6.5
  0
LINE
  8
SIZE
  6
CONTINUOUS
 62
    30
 10
292.35549109867048
 20
443.99999999999659
 30
0.0
 11
813.5042323561421
 21
443.99999999999659
 31
0.0
  0
LINE
  8
SIZE
  6
CONTINUOUS
 62
    30
 10
311.39999999999787
 20
389.99999999999892
 30
0.0
 11
813.5042323561421
 21
389.99999999999892
 31
0.0
  0
LINE
  8
SIZE
  6
CONTINUOUS
 62
    30
 10
793.5042323561421
 20
377.99999999999892
 30
0.0
 11
793.5042323561421
 21
365.99999999999892
 31
0.0
  0
LINE
  8
SIZE
  6
CONTINUOUS
 62
    30
 10
793.5042323561421
 20
455.99999999999659
 30
0.0
 11
793.5042323561421
 21
613.9999999999967
 31
0.0
  0
LINE
  8
SIZE
  6
CONTINUOUS
 62
    30
 10
793.5042323561421
 20
389.99999999999892
 30
0.0
 11
793.5042323561421
 21
443.99999999999659
 31
0.0
  0
CIRCLE
  8
SIZE
  6
CONTINUOUS
 62
    30
 10
793.5042323561421
 20
389.99999999999892
 30
0.0
 40
6.0
  0
LINE
  8
SIZE
  6
CONTINUOUS
 62
    30
 10
793.5042323561421
 20
389.99999999999892
 30
0.0
 11
793.5042323561421
 21
377.99999999999892
 31
0.0
  0
CIRCLE
  8
SIZE
  6
CONTINUOUS
 62
    30
 10
793.5042323561421
 20
443.99999999999659
 30
0.0
 40
6.0
  0
LINE
  8
SIZE
  6
CONTINUOUS
 62
    30
 10
793.5042323561421
 20
443.99999999999659
 30
0.0
 11
793.5042323561421
 21
455.99999999999659
 31
0.0
  0
TEXT
  8
SIZE
  6
CONTINUOUS
 62
    30
 10
768.50423235614198
 20
486.85599999999636
 30
0.0
 40
64.0
  1
54
 50
90.0
 41
0.9
 51
0.0
  7
STANDARD
 71
     0
 72
     1
 11
768.50423235614198
 21
540.99999999999636
 31
0.0
210
0.0
220
0.0
230
1.0
  0
POINT
  8
DEFPOINTS
  6
CONTINUOUS
 62
    30
 10
272.35549109867048
 20
443.99999999999659
 30
0.0
  0
POINT
  8
DEFPOINTS
  6
CONTINUOUS
 62
    30
 10
291.39999999999787
 20
389.99999999999892
 30
0.0
  0
POINT
  8
DEFPOINTS
  6
CONTINUOUS
 62
    30
 10
793.5042323561421
 20
389.99999999999892
 30
0.0
  0
LINE
  8
SIZE
  6
CONTINUOUS
 62
    30
 10
311.40000000000288
 20
-389.99999999999977
 30
0.0
 11
813.50423235614232
 21
-389.99999999999972
 31
0.0
  0
LINE
  8
SIZE
  6
CONTINUOUS
 62
    30
 10
292.35549115066863
 20
-443.9999999999975
 30
0.0
 11
813.50423235614232
 21
-443.99999999999739
 31
0.0
  0
LINE
  8
SIZE
  6
CONTINUOUS
 62
    30
 10
793.50423235614232
 20
-377.99999999999972
 30
0.0
 11
793.50423235614232
 21
-365.99999999999972
 31
0.0
  0
LINE
  8
SIZE
  6
CONTINUOUS
 62
    30
 10
793.50423235614232
 20
-455.99999999999739
 30
0.0
 11
793.50423235614232
 21
-613.99999999999829
 31
0.0
  0
LINE
  8
SIZE
  6
CONTINUOUS
 62
    30
 10
793.50423235614232
 20
-389.99999999999972
 30
0.0
 11
793.50423235614232
 21
-443.99999999999739
 31
0.0
  0
CIRCLE
  8
SIZE
  6
CONTINUOUS
 62
    30
 10
793.50423235614232
 20
-389.99999999999972
 30
0.0
 40
6.0
  0
LINE
  8
SIZE
  6
CONTINUOUS
 62
    30
 10
793.50423235614232
 20
-389.99999999999972
 30
0.0
 11
793.50423235614232
 21
-377.99999999999972
 31
0.0
  0
CIRCLE
  8
SIZE
  6
CONTINUOUS
 62
    30
 10
793.50423235614232
 20
-443.99999999999739
 30
0.0
 40
6.0
  0
LINE
  8
SIZE
  6
CONTINUOUS
 62
    30
 10
793.50423235614232
 20
-443.99999999999739
 30
0.0
 11
793.50423235614232
 21
-455.99999999999739
 31
0.0
  0
TEXT
  8
SIZE
  6
CONTINUOUS
 62
    30
 10
768.50423235614198
 20
-595.14399999999841
 30
0.0
 40
64.0
  1
54
 50
90.0
 41
0.9
 51
0.0
  7
STANDARD
 71
     0
 72
     1
 11
768.50423235614198
 21
-540.99999999999841
 31
0.0
210
0.0
220
0.0
230
1.0
  0
POINT
  8
DEFPOINTS
  6
CONTINUOUS
 62
    30
 10
291.40000000000288
 20
-389.99999999999977
 30
0.0
  0
POINT
  8
DEFPOINTS
  6
CONTINUOUS
 62
    30
 10
272.35549115066863
 20
-443.9999999999975
 30
0.0
  0
POINT
  8
DEFPOINTS
  6
CONTINUOUS
 62
    30
 10
793.50423235614232
 20
-443.99999999999739
 30
0.0
  0
POINT
  8
ARRANGE
  6
CONTINUOUS
 62
     1
 10
0.0
 20
0.0
 30
0.0
 50
270.0
  0
CIRCLE
  8
ARRANGE
  6
CONTINUOUS
 62
     1
 10
0.0
 20
0.0
 30
0.0
 40
40.041025641024042
  0
LINE
  8
OUTLINE
  6
CONTINUOUS
 62
     3
 10
305.0
 20
-358.99999999999449
 30
0.0
 11
349.00000000000358
 21
-358.99999999999449
 31
0.0
  0
LINE
  8
OUTLINE
  6
CONTINUOUS
 62
     3
 10
349.00000000000358
 20
-358.99999999999449
 30
0.0
 11
349.00000000000358
 21
-377.49999999999773
 31
0.0
  0
LINE
  8
OUTLINE
  6
CONTINUOUS
 62
     3
 10
349.00000000000358
 20
-377.49999999999773
 30
0.0
 11
329.00000000000091
 21
-377.49999999999858
 31
0.0
  0
ARC
  8
OUTLINE
  6
CONTINUOUS
 62
     3
 10
329.00000000000091
 20
-383.99999999999858
 30
0.0
 40
6.5
 50
90.0
 51
270.0
  0
LINE
  8
OUTLINE
  6
CONTINUOUS
 62
     3
 10
329.00000000000091
 20
-390.49999999999858
 30
0.0
 11
349.00000000000358
 21
-390.49999999999949
 31
0.0
  0
LINE
  8
OUTLINE
  6
CONTINUOUS
 62
     3
 10
349.00000000000358
 20
-390.49999999999949
 30
0.0
 11
349.00000000000358
 21
-402.50000000000182
 31
0.0
  0
LINE
  8
OUTLINE
  6
CONTINUOUS
 62
     3
 10
349.00000000000358
 20
-402.50000000000182
 30
0.0
 11
298.5
 21
-402.50000000000182
 31
0.0
  0
LINE
  8
OUTLINE
  6
CONTINUOUS
 62
     3
 10
298.5
 20
-402.50000000000182
 30
0.0
 11
298.49999999999949
 21
-389.900000000001
 31
0.0
  0
ARC
  8
OUTLINE
  6
CONTINUOUS
 62
     3
 10
295.29999999999967
 20
-389.900000000001
 30
0.0
 40
3.199999999999811
 50
0.0
 51
102.10732527953661
  0
LINE
  8
OUTLINE
  6
CONTINUOUS
 62
     3
 10
294.62882057274152
 20
-386.77117942725732
 30
0.0
 11
291.39999999999918
 21
-389.99999999999949
 31
0.0
  0
LINE
  8
OUTLINE
  6
CONTINUOUS
 62
     3
 10
291.39999999999918
 20
-389.99999999999949
 30
0.0
 11
280.00000000133468
 21
-389.99999999999909
 31
0.0
  0
LINE
  8
OUTLINE
  6
CONTINUOUS
 62
     3
 10
280.00000000133468
 20
-389.99999999999909
 30
0.0
 11
280.00000000133468
 21
-395.99736049243438
 31
0.0
  0
LINE
  8
OUTLINE
  6
CONTINUOUS
 62
     3
 10
280.00000000133468
 20
-395.99736049243438
 30
0.0
 11
273.98903786715482
 21
-434.00948810140738
 31
0.0
  0
ARC
  8
OUTLINE
  6
CONTINUOUS
 62
     3
 10
293.75000000000284
 20
-437.092404834663
 30
0.0
 40
20.000000000001016
 50
171.13273904870812
 51
180.0
  0
LINE
  8
OUTLINE
  6
CONTINUOUS
 62
     3
 10
273.75000000000182
 20
-437.09240483466419
 30
0.0
 11
273.75000000000182
 21
-442.61890620132641
 31
0.0
  0
ARC
  8
OUTLINE
  6
CONTINUOUS
 62
     3
 10
272.36890620133499
 20
-442.61890620132635
 30
0.0
 40
1.381093798666847
 50
270.0
 51
0.0
  0
LINE
  8
OUTLINE
  6
CONTINUOUS
 62
     3
 10
272.36890620133499
 20
-443.99999999999318
 30
0.0
 11
177.63109379866859
 21
-443.99999999999318
 31
0.0
  0
ARC
  8
OUTLINE
  6
CONTINUOUS
 62
     3
 10
177.63109379866859
 20
-442.61890620132635
 30
0.0
 40
1.3810937986667986
 50
180.0
 51
270.0
  0
LINE
  8
OUTLINE
  6
CONTINUOUS
 62
     3
 10
176.25000000000179
 20
-442.61890620132641
 30
0.0
 11
176.2500000000027
 21
-437.09240483466152
 31
0.0
  0
ARC
  8
OUTLINE
  6
CONTINUOUS
 62
     3
 10
156.25000000001165
 20
-437.09240483466363
 30
0.0
 40
19.999999999991054
 50
0.0
 51
9.1045999441629988
  0
LINE
  8
OUTLINE
  6
CONTINUOUS
 62
     3
 10
175.99802211959059
 20
-433.92765802579203
 30
0.0
 11
170.0
 21
-395.99736050436599
 31
0.0
  0
LINE
  8
OUTLINE
  6
CONTINUOUS
 62
     3
 10
170.0
 20
-395.99736050436599
 30
0.0
 11
170.0
 21
-389.999999999995
 31
0.0
  0
LINE
  8
OUTLINE
  6
CONTINUOUS
 62
     3
 10
170.0
 20
-389.999999999995
 30
0.0
 11
-169.99999999999821
 21
-389.99999999998232
 31
0.0
  0
LINE
  8
OUTLINE
  6
CONTINUOUS
 62
     3
 10
-169.99999999999821
 20
-389.99999999998232
 30
0.0
 11
-169.99999999999861
 21
-395.99736050432239
 31
0.0
  0
LINE
  8
OUTLINE
  6
CONTINUOUS
 62
     3
 10
-169.99999999999861
 20
-395.99736050432239
 30
0.0
 11
-176.0109621326765
 21
-434.0094881003206
 31
0.0
  0
ARC
  8
OUTLINE
  6
CONTINUOUS
 62
     3
 10
-156.24999999999898
 20
-437.09240483466323
 30
0.0
 40
20.000000000000117
 50
171.13273904555592
 51
180.0
  0
LINE
  8
OUTLINE
  6
CONTINUOUS
 62
     3
 10
-176.24999999999909
 20
-437.09240483466459
 30
0.0
 11
-176.24999999999821
 21
-442.61890620132641
 31
0.0
  0
ARC
  8
OUTLINE
  6
CONTINUOUS
 62
     3
 10
-177.63109379866481
 20
-442.61890620132658
 30
0.0
 40
1.3810937986666043
 50
270.0
 51
0.0
  0
LINE
  8
OUTLINE
  6
CONTINUOUS
 62
     3
 10
-177.63109379866501
 20
-443.99999999999318
 30
0.0
 11
-272.36890620133317
 21
-443.99999999999318
 31
0.0
  0
ARC
  8
OUTLINE
  6
CONTINUOUS
 62
     3
 10
-272.36890620133323
 20
-442.61890620132641
 30
0.0
 40
1.38109379866675
 50
180.0
 51
270.0
  0
LINE
  8
OUTLINE
  6
CONTINUOUS
 62
     3
 10
-273.75
 20
-442.61890620132641
 30
0.0
 11
-273.74999999999909
 21
-437.09240483467511
 31
0.0
  0
ARC
  8
OUTLINE
  6
CONTINUOUS
 62
     3
 10
-293.74999999999102
 20
-437.09240483466385
 30
0.0
 40
19.9999999999919
 50
0.0
 51
9.1045999369358697
  0
LINE
  8
OUTLINE
  6
CONTINUOUS
 62
     3
 10
-274.00197788001202
 20
-433.92765802828308
 30
0.0
 11
-279.99999999866532
 21
-396.00000000686208
 31
0.0
  0
LINE
  8
OUTLINE
  6
CONTINUOUS
 62
     3
 10
-279.99999999866532
 20
-396.00000000686208
 30
0.0
 11
-279.99999999866532
 21
-389.99999999997817
 31
0.0
  0
LINE
  8
OUTLINE
  6
CONTINUOUS
 62
     3
 10
-279.99999999866532
 20
-389.99999999997817
 30
0.0
 11
-291.400000000006
 21
-389.99999999997772
 31
0.0
  0
LINE
  8
OUTLINE
  6
CONTINUOUS
 62
     3
 10
-291.400000000006
 20
-389.99999999997772
 30
0.0
 11
-294.62882057273367
 21
-386.77117942725818
 31
0.0
  0
ARC
  8
OUTLINE
  6
CONTINUOUS
 62
     3
 10
-295.29999999999615
 20
-389.90000000000089
 30
0.0
 40
3.199999999999775
 50
77.89267472038415
 51
180.0
  0
LINE
  8
OUTLINE
  6
CONTINUOUS
 62
     3
 10
-298.49999999999591
 20
-389.900000000001
 30
0.0
 11
-298.49999999999733
 21
-402.50000000000182
 31
0.0
  0
LINE
  8
OUTLINE
  6
CONTINUOUS
 62
     3
 10
-298.49999999999733
 20
-402.50000000000182
 30
0.0
 11
-348.5
 21
-402.50000000000182
 31
0.0
  0
LINE
  8
OUTLINE
  6
CONTINUOUS
 62
     3
 10
-348.5
 20
-402.50000000000182
 30
0.0
 11
-348.50000000000051
 21
-390.49999999999949
 31
0.0
  0
LINE
  8
OUTLINE
  6
CONTINUOUS
 62
     3
 10
-348.50000000000051
 20
-390.49999999999949
 30
0.0
 11
-328.49999999999818
 21
-390.49999999999858
 31
0.0
  0
ARC
  8
OUTLINE
  6
CONTINUOUS
 62
     3
 10
-328.49999999999818
 20
-383.99999999999858
 30
0.0
 40
6.5
 50
270.0
 51
90.0
  0
LINE
  8
OUTLINE
  6
CONTINUOUS
 62
     3
 10
-328.49999999999818
 20
-377.49999999999858
 30
0.0
 11
-348.5
 21
-377.49999999999773
 31
0.0
  0
LINE
  8
OUTLINE
  6
CONTINUOUS
 62
     3
 10
-348.5
 20
-377.49999999999773
 30
0.0
 11
-348.5
 21
-358.99999999999449
 31
0.0
  0
LINE
  8
OUTLINE
  6
CONTINUOUS
 62
     3
 10
-348.5
 20
-358.99999999999449
 30
0.0
 11
-304.99999999999642
 21
-358.99999999999449
 31
0.0
  0
LINE
  8
OUTLINE
  6
CONTINUOUS
 62
     3
 10
-304.99999999999642
 20
-358.99999999999449
 30
0.0
 11
-304.99999999999642
 21
-353.30000000000251
 31
0.0
  0
LINE
  8
OUTLINE
  6
CONTINUOUS
 62
     3
 10
-304.99999999999642
 20
-353.30000000000251
 30
0.0
 11
-348.99999999999773
 21
-353.29999999999472
 31
0.0
  0
ARC
  8
OUTLINE
  6
CONTINUOUS
 62
     3
 10
-348.99999999999773
 20
-353.79999999999472
 30
0.0
 40
0.4999999999999902
 50
0.0
 51
90.0
  0
LINE
  8
OUTLINE
  6
CONTINUOUS
 62
     3
 10
-348.49999999999773
 20
-353.79999999999472
 30
0.0
 11
-348.49999999999773
 21
-353.92449980000401
 31
0.0
  0
ARC
  8
OUTLINE
  6
CONTINUOUS
 62
     3
 10
-348.9999999999979
 20
-353.92449979984417
 30
0.0
 40
0.5000000000001447
 50
231.31781256423915
 51
0.0
  0
ARC
  8
OUTLINE
  6
CONTINUOUS
 62
     3
 10
-348.49999999999994
 20
-353.30000000000229
 30
0.0
 40
1.3000000000004583
 50
209.40091418834959
 51
231.31781255345595
  0
LINE
  8
OUTLINE
  6
CONTINUOUS
 62
     3
 10
-349.63256777185143
 20
-353.93819295057801
 30
0.0
 11
-354.80000000000058
 21
-356.85000000000173
 31
0.0
  0
LINE
  8
OUTLINE
  6
CONTINUOUS
 62
     3
 10
-354.80000000000058
 20
-356.85000000000173
 30
0.0
 11
-354.80000000000058
 21
-360.44999999999658
 31
0.0
  0
LINE
  8
OUTLINE
  6
CONTINUOUS
 62
     3
 10
-354.80000000000058
 20
-360.44999999999658
 30
0.0
 11
-352.79999999999882
 21
-360.44999999999658
 31
0.0
  0
LINE
  8
OUTLINE
  6
CONTINUOUS
 62
     3
 10
-352.79999999999882
 20
-360.44999999999658
 30
0.0
 11
-352.79999999999882
 21
-364.29999999999882
 31
0.0
  0
LINE
  8
OUTLINE
  6
CONTINUOUS
 62
     3
 10
-352.79999999999882
 20
-364.29999999999882
 30
0.0
 11
-354.49999999999773
 21
-364.29999999999882
 31
0.0
  0
LINE
  8
OUTLINE
  6
CONTINUOUS
 62
     3
 10
-354.49999999999773
 20
-364.29999999999882
 30
0.0
 11
-354.49999999999773
 21
-381.90000000000151
 31
0.0
  0
LINE
  8
OUTLINE
  6
CONTINUOUS
 62
     3
 10
-354.49999999999773
 20
-381.90000000000151
 30
0.0
 11
-362.49999999999733
 21
-381.90000000000151
 31
0.0
  0
LINE
  8
OUTLINE
  6
CONTINUOUS
 62
     3
 10
-362.49999999999733
 20
-381.90000000000151
 30
0.0
 11
-362.49999999999733
 21
-364.29999999999882
 31
0.0
  0
LINE
  8
OUTLINE
  6
CONTINUOUS
 62
     3
 10
-362.49999999999733
 20
-364.29999999999882
 30
0.0
 11
-364.19999999999618
 21
-364.29999999999882
 31
0.0
  0
LINE
  8
OUTLINE
  6
CONTINUOUS
 62
     3
 10
-364.19999999999618
 20
-364.29999999999882
 30
0.0
 11
-364.19999999999618
 21
-360.69999999999658
 31
0.0
  0
LINE
  8
OUTLINE
  6
CONTINUOUS
 62
     3
 10
-364.19999999999618
 20
-360.69999999999658
 30
0.0
 11
-362.20000000000209
 21
-360.69999999999658
 31
0.0
  0
LINE
  8
OUTLINE
  6
CONTINUOUS
 62
     3
 10
-362.20000000000209
 20
-360.69999999999658
 30
0.0
 11
-362.20000000000158
 21
-356.39999999999782
 31
0.0
  0
LINE
  8
OUTLINE
  6
CONTINUOUS
 62
     3
 10
-362.20000000000158
 20
-356.39999999999782
 30
0.0
 11
-367.3335652697715
 21
-353.87395994644839
 31
0.0
  0
ARC
  8
OUTLINE
  6
CONTINUOUS
 62
     3
 10
-368.50000000001666
 20
-353.30000000003997
 30
0.0
 40
1.300000000001271
 50
308.68274796752371
 51
333.79988516735852
  0
ARC
  8
OUTLINE
  6
CONTINUOUS
 62
     3
 10
-367.99999999999915
 20
-353.92449979999498
 30
0.0
 40
0.4999999999999332
 50
180.0
 51
308.68364479666059
  0
LINE
  8
OUTLINE
  6
CONTINUOUS
 62
     3
 10
-368.49999999999909
 20
-353.92449979999492
 30
0.0
 11
-368.49999999999909
 21
-353.79999999999472
 31
0.0
  0
ARC
  8
OUTLINE
  6
CONTINUOUS
 62
     3
 10
-367.99999999999909
 20
-353.79999999999472
 30
0.0
 40
0.4999999999999902
 50
90.0
 51
180.0
  0
LINE
  8
OUTLINE
  6
CONTINUOUS
 62
     3
 10
-367.99999999999909
 20
-353.29999999999472
 30
0.0
 11
-375.5
 21
-353.30000000000251
 31
0.0
  0
ARC
  8
OUTLINE
  6
CONTINUOUS
 62
     3
 10
-378.49999999999994
 20
-353.30000000000257
 30
0.0
 40
2.9999999999999418
 50
270.0
 51
0.0
  0
LINE
  8
OUTLINE
  6
CONTINUOUS
 62
     3
 10
-378.5
 20
-356.30000000000251
 30
0.0
 11
-404.50000000000182
 21
-356.30000000000251
 31
0.0
  0
ARC
  8
OUTLINE
  6
CONTINUOUS
 62
     3
 10
-404.50000000000136
 20
-353.30000000000246
 30
0.0
 40
3.0000000000000386
 50
180.0
 51
270.0
  0
LINE
  8
OUTLINE
  6
CONTINUOUS
 62
     3
 10
-407.50000000000142
 20
-353.30000000000251
 30
0.0
 11
-411.89999999999742
 21
-353.29999999999791
 31
0.0
  0
ARC
  8
OUTLINE
  6
CONTINUOUS
 62
     3
 10
-411.89999999999742
 20
-351.699999999998
 30
0.0
 40
1.5999999999998913
 50
180.0
 51
270.0
  0
LINE
  8
OUTLINE
  6
CONTINUOUS
 62
     3
 10
-413.49999999999733
 20
-351.699999999998
 30
0.0
 11
-413.5
 21
-349.29999999999927
 31
0.0
  0
LINE
  8
OUTLINE
  6
CONTINUOUS
 62
     3
 10
-413.5
 20
-349.29999999999927
 30
0.0
 11
-414.09999999999582
 21
-349.29999999999927
 31
0.0
  0
LINE
  8
OUTLINE
  6
CONTINUOUS
 62
     3
 10
-414.09999999999582
 20
-349.29999999999927
 30
0.0
 11
-414.09999999999582
 21
-191.49999999999321
 31
0.0
  0
LINE
  8
OUTLINE
  6
CONTINUOUS
 62
     3
 10
-414.09999999999582
 20
-191.49999999999321
 30
0.0
 11
-414.69999999999749
 21
-191.49999999999321
 31
0.0
  0
LINE
  8
OUTLINE
  6
CONTINUOUS
 62
     3
 10
-414.69999999999749
 20
-191.49999999999321
 30
0.0
 11
-414.69999999999982
 21
-180.09999999999579
 31
0.0
  0
ARC
  8
OUTLINE
  6
CONTINUOUS
 62
     3
 10
-413.5
 20
-180.09999999999582
 30
0.0
 40
1.1999999999998212
 50
90.0
 51
180.0
  0
LINE
  8
OUTLINE
  6
CONTINUOUS
 62
     3
 10
-413.5
 20
-178.899999999996
 30
0.0
 11
-304.99999999999591
 21
-178.89999999999961
 31
0.0
  0
LINE
  8
OUTLINE
  6
CONTINUOUS
 62
     3
 10
-304.99999999999591
 20
-178.89999999999961
 30
0.0
 11
-304.99999999999642
 21
-159.199999999993
 31
0.0
  0
LINE
  8
OUTLINE
  6
CONTINUOUS
 62
     3
 10
-304.99999999999642
 20
-159.199999999993
 30
0.0
 11
-316.49999999999733
 21
-159.20000000000161
 31
0.0
  0
ARC
  8
OUTLINE
  6
CONTINUOUS
 62
     3
 10
-316.49999999999744
 20
-156.80000000000152
 30
0.0
 40
2.4000000000000812
 50
149.99999999990661
 51
270.0
  0
LINE
  8
OUTLINE
  6
CONTINUOUS
 62
     3
 10
-318.57846096907821
 20
-155.59999999999809
 30
0.0
 11
-332.59999999999809
 21
-155.59999999999809
 31
0.0
  0
ARC
  8
OUTLINE
  6
CONTINUOUS
 62
     3
 10
-332.59999999999803
 20
-155.09999999999829
 30
0.0
 40
0.4999999999998011
 50
90.0
 51
270.0
  0
LINE
  8
OUTLINE
  6
CONTINUOUS
 62
     3
 10
-332.59999999999809
 20
-154.59999999999849
 30
0.0
 11
-317.67676900400062
 21
-154.599999999999
 31
0.0
  0
LINE
  8
OUTLINE
  6
CONTINUOUS
 62
     3
 10
-317.67676900400062
 20
-154.599999999999
 30
0.0
 11
-313.77920730666528
 21
-150.83616841866521
 31
0.0
  0
LINE
  8
OUTLINE
  6
CONTINUOUS
 62
     3
 10
-313.77920730666528
 20
-150.83616841866521
 30
0.0
 11
-312.94561726266647
 21
-151.69937617999679
 31
0.0
  0
LINE
  8
OUTLINE
  6
CONTINUOUS
 62
     3
 10
-312.94561726266647
 20
-151.69937617999679
 30
0.0
 11
-315.94930115733359
 21
-154.599999999999
 31
0.0
  0
LINE
  8
OUTLINE
  6
CONTINUOUS
 62
     3
 10
-315.94930115733359
 20
-154.599999999999
 30
0.0
 11
-312.59999999999633
 21
-154.599999999999
 31
0.0
  0
LINE
  8
OUTLINE
  6
CONTINUOUS
 62
     3
 10
-312.59999999999633
 20
-154.599999999999
 30
0.0
 11
-312.59999999999633
 21
153.59999999999951
 31
0.0
  0
LINE
  8
OUTLINE
  6
CONTINUOUS
 62
     3
 10
-312.59999999999633
 20
153.59999999999951
 30
0.0
 11
-318.49999999999909
 21
153.60000000000039
 31
0.0
  0
ARC
  8
OUTLINE
  6
CONTINUOUS
 62
     3
 10
-318.49999999999892
 20
152.60000000000036
 30
0.0
 40
1.0000000000000258
 50
90.0
 51
209.99999999997124
  0
LINE
  8
OUTLINE
  6
CONTINUOUS
 62
     3
 10
-319.36602540378362
 20
152.10000000000079
 30
0.0
 11
-320.599999999999
 21
152.10000000000079
 31
0.0
  0
LINE
  8
OUTLINE
  6
CONTINUOUS
 62
     3
 10
-320.599999999999
 20
152.10000000000079
 30
0.0
 11
-320.599999999999
 21
148.60000000000451
 31
0.0
  0
LINE
  8
OUTLINE
  6
CONTINUOUS
 62
     3
 10
-320.599999999999
 20
148.60000000000451
 30
0.0
 11
-323.59999999999809
 21
148.60000000000451
 31
0.0
  0
LINE
  8
OUTLINE
  6
CONTINUOUS
 62
     3
 10
-323.59999999999809
 20
148.60000000000451
 30
0.0
 11
-323.59999999999809
 21
152.10000000000079
 31
0.0
  0
LINE
  8
OUTLINE
  6
CONTINUOUS
 62
     3
 10
-323.59999999999809
 20
152.10000000000079
 30
0.0
 11
-324.83397459621352
 21
152.10000000000079
 31
0.0
  0
ARC
  8
OUTLINE
  6
CONTINUOUS
 62
     3
 10
-325.69999999999817
 20
152.60000000000042
 30
0.0
 40
0.9999999999999761
 50
330.00000000002433
 51
90.0
  0
LINE
  8
OUTLINE
  6
CONTINUOUS
 62
     3
 10
-325.699999999998
 20
153.60000000000039
 30
0.0
 11
-332.76664524988882
 21
153.59999999999951
 31
0.0
  0
LINE
  8
OUTLINE
  6
CONTINUOUS
 62
     3
 10
-332.76664524988882
 20
153.59999999999951
 30
0.0
 11
-324.85809641319071
 21
142.3054217423587
 31
0.0
  0
ARC
  8
OUTLINE
  6
CONTINUOUS
 62
     3
 10
-327.97087418133219
 20
140.12583128400129
 30
0.0
 40
3.7999999999998146
 50
334.9999999968253
 51
35.000000004114725
  0
LINE
  8
OUTLINE
  6
CONTINUOUS
 62
     3
 10
-324.52690459068208
 20
138.51988188919589
 30
0.0
 11
-333.70027442940551
 21
118.8475267857407
 31
0.0
  0
ARC
  8
OUTLINE
  6
CONTINUOUS
 62
     3
 10
-334.69722444993459
 20
119.31238230799158
 30
0.0
 40
1.100000000000019
 50
155.00141182297693
 51
335.00141182297943
  0
LINE
  8
OUTLINE
  6
CONTINUOUS
 62
     3
 10
-335.69417447046362
 20
119.7772378302425
 30
0.0
 11
-326.52078172207348
 21
139.4496420652172
 31
0.0
  0
ARC
  8
OUTLINE
  6
CONTINUOUS
 62
     3
 10
-327.97087418133282
 20
140.12583128400169
 30
0.0
 40
1.6000000000003629
 50
335.00000000003115
 51
35.000000004110518
  0
LINE
  8
OUTLINE
  6
CONTINUOUS
 62
     3
 10
-326.66023091053597
 20
141.0435535822576
 30
0.0
 11
-329.1504815014232
 21
144.6000000000013
 31
0.0
  0
LINE
  8
OUTLINE
  6
CONTINUOUS
 62
     3
 10
-329.1504815014232
 20
144.6000000000013
 30
0.0
 11
-334.09999999999849
 21
144.6000000000013
 31
0.0
  0
LINE
  8
OUTLINE
  6
CONTINUOUS
 62
     3
 10
-334.09999999999849
 20
144.6000000000013
 30
0.0
 11
-334.09999999999849
 21
143.3660254037832
 31
0.0
  0
ARC
  8
OUTLINE
  6
CONTINUOUS
 62
     3
 10
-334.59999999999593
 20
142.49999999999739
 30
0.0
 40
0.9999999999999019
 50
60.000000000166267
 51
180.0
  0
LINE
  8
OUTLINE
  6
CONTINUOUS
 62
     3
 10
-335.59999999999582
 20
142.4999999999973
 30
0.0
 11
-335.59999999999849
 21
139.6000000000063
 31
0.0
  0
LINE
  8
OUTLINE
  6
CONTINUOUS
 62
     3
 10
-335.59999999999849
 20
139.6000000000063
 30
0.0
 11
-340.59999999999718
 21
139.60000000000309
 31
0.0
  0
ARC
  8
OUTLINE
  6
CONTINUOUS
 62
     3
 10
-340.59999999999724
 20
142.60000000000304
 30
0.0
 40
2.9999999999999418
 50
180.0
 51
270.0
  0
LINE
  8
OUTLINE
  6
CONTINUOUS
 62
     3
 10
-343.59999999999718
 20
142.60000000000309
 30
0.0
 11
-343.59999999999718
 21
149.600000000004
 31
0.0
  0
ARC
  8
OUTLINE
  6
CONTINUOUS
 62
     3
 10
-340.59999999999707
 20
149.6000000000034
 30
0.0
 40
3.000000000000087
 50
90.0
 51
180.0
  0
LINE
  8
OUTLINE
  6
CONTINUOUS
 62
     3
 10
-340.59999999999718
 20
152.60000000000349
 30
0.0
 11
-336.59999999999633
 21
152.60000000000079
 31
0.0
  0
ARC
  8
OUTLINE
  6
CONTINUOUS
 62
     3
 10
-334.5999999999957
 20
152.60000000000753
 30
0.0
 40
2.0000000000006528
 50
122.87356824840714
 51
180.0
  0
ARC
  8
OUTLINE
  6
CONTINUOUS
 62
     3
 10
-332.03986559199518
 20
155.35156595333859
 30
0.0
 40
3.8000000000003036
 50
94.999999998950784
 51
196.38314723354961
  0
LINE
  8
OUTLINE
  6
CONTINUOUS
 62
     3
 10
-332.37105741436699
 20
159.13710580609359
 30
0.0
 11
-304.99999999999591
 21
161.53176303866849
 31
0.0
  0
LINE
  8
OUTLINE
  6
CONTINUOUS
 62
     3
 10
-304.99999999999591
 20
161.53176303866849
 30
0.0
 11
-304.99999999999591
 21
359.00000000000819
 31
0.0
  0
LINE
  8
OUTLINE
  6
CONTINUOUS
 62
     3
 10
-304.99999999999591
 20
359.00000000000819
 30
0.0
 11
-349.0
 21
359.00000000000819
 31
0.0
  0
LINE
  8
OUTLINE
  6
CONTINUOUS
 62
     3
 10
-349.0
 20
359.00000000000819
 30
0.0
 11
-349.0
 21
377.49999999999733
 31
0.0
  0
LINE
  8
OUTLINE
  6
CONTINUOUS
 62
     3
 10
-349.0
 20
377.49999999999733
 30
0.0
 11
-328.99999999999818
 21
377.49999999999773
 31
0.0
  0
ARC
  8
OUTLINE
  6
CONTINUOUS
 62
     3
 10
-328.99999999999818
 20
383.99999999999773
 30
0.0
 40
6.5
 50
270.0
 51
90.0
  0
LINE
  8
OUTLINE
  6
CONTINUOUS
 62
     3
 10
-328.99999999999818
 20
390.49999999999773
 30
0.0
 11
-349.0
 21
390.49999999999858
 31
0.0
  0
LINE
  8
OUTLINE
  6
CONTINUOUS
 62
     3
 10
-349.0
 20
390.49999999999858
 30
0.0
 11
-349.0
 21
402.50000000000142
 31
0.0
  0
LINE
  8
OUTLINE
  6
CONTINUOUS
 62
     3
 10
-349.0
 20
402.50000000000142
 30
0.0
 11
-298.49999999999733
 21
402.50000000000142
 31
0.0
  0
LINE
  8
OUTLINE
  6
CONTINUOUS
 62
     3
 10
-298.49999999999733
 20
402.50000000000142
 30
0.0
 11
-298.49999999999733
 21
390.31606230935682
 31
0.0
  0
ARC
  8
OUTLINE
  6
CONTINUOUS
 62
     3
 10
-295.29221317935827
 20
389.93292015742117
 30
0.0
 40
3.2305872833365075
 50
173.18878674415998
 51
281.84983458909733
  0
LINE
  8
OUTLINE
  6
CONTINUOUS
 62
     3
 10
-294.62882057274243
 20
386.77117942726272
 30
0.0
 11
-291.400000000011
 21
389.99999999999858
 31
0.0
  0
LINE
  8
OUTLINE
  6
CONTINUOUS
 62
     3
 10
-291.400000000011
 20
389.99999999999858
 30
0.0
 11
-279.99999999866492
 21
389.99999999999858
 31
0.0
  0
LINE
  8
OUTLINE
  6
CONTINUOUS
 62
     3
 10
-279.99999999866492
 20
389.99999999999858
 30
0.0
 11
-279.99999999866532
 21
395.99736051172022
 31
0.0
  0
LINE
  8
OUTLINE
  6
CONTINUOUS
 62
     3
 10
-279.99999999866532
 20
395.99736051172022
 30
0.0
 11
-273.98903796548979
 21
434.00948747242001
 31
0.0
  0
ARC
  8
OUTLINE
  6
CONTINUOUS
 62
     3
 10
-293.75000000001506
 20
437.09240483600428
 30
0.0
 40
20.000000000015955
 50
351.13273722111285
 51
0.0
  0
LINE
  8
OUTLINE
  6
CONTINUOUS
 62
     3
 10
-273.74999999999909
 20
437.09240483600388
 30
0.0
 11
-273.75
 21
442.61890620134051
 31
0.0
  0
ARC
  8
OUTLINE
  6
CONTINUOUS
 62
     3
 10
-272.36890620133317
 20
442.61890620134
 30
0.0
 40
1.381093798666847
 50
90.0
 51
180.0
  0
LINE
  8
OUTLINE
  6
CONTINUOUS
 62
     3
 10
-272.36890620133317
 20
444.00000000000682
 30
0.0
 11
-177.63109379866501
 21
444.00000000000682
 31
0.0
  0
ARC
  8
OUTLINE
  6
CONTINUOUS
 62
     3
 10
-177.63109379866501
 20
442.61890620134
 30
0.0
 40
1.3810937986667988
 50
0.0
 51
90.0
  0
LINE
  8
OUTLINE
  6
CONTINUOUS
 62
     3
 10
-176.24999999999821
 20
442.61890620134
 30
0.0
 11
-176.24999999999909
 21
437.09240483600121
 31
0.0
  0
ARC
  8
OUTLINE
  6
CONTINUOUS
 62
     3
 10
-156.24999999999167
 20
437.09240483600388
 30
0.0
 40
20.000000000007429
 50
180.0
 51
189.10460176673951
  0
LINE
  8
OUTLINE
  6
CONTINUOUS
 62
     3
 10
-175.99802201891629
 20
433.92765739894588
 30
0.0
 11
-169.99999999999821
 21
395.99736050432148
 31
0.0
  0
LINE
  8
OUTLINE
  6
CONTINUOUS
 62
     3
 10
-169.99999999999821
 20
395.99736050432148
 30
0.0
 11
-169.99999999999821
 21
389.99999999999858
 31
0.0
  0
LINE
  8
OUTLINE
  6
CONTINUOUS
 62
     3
 10
-169.99999999999821
 20
389.99999999999858
 30
0.0
 11
170.00000000000051
 21
389.99999999999858
 31
0.0
  0
LINE
  8
OUTLINE
  6
CONTINUOUS
 62
     3
 10
170.00000000000051
 20
389.99999999999858
 30
0.0
 11
170.00000000000051
 21
395.99736050436559
 31
0.0
  0
LINE
  8
OUTLINE
  6
CONTINUOUS
 62
     3
 10
170.00000000000051
 20
395.99736050436559
 30
0.0
 11
176.01096203462251
 21
434.00948747312708
 31
0.0
  0
ARC
  8
OUTLINE
  6
CONTINUOUS
 62
     3
 10
156.24999999999488
 20
437.0924048360024
 30
0.0
 40
20.000000000007802
 50
351.1327372231649
 51
0.0
  0
LINE
  8
OUTLINE
  6
CONTINUOUS
 62
     3
 10
176.2500000000027
 20
437.09240483600342
 30
0.0
 11
176.2500000000023
 21
442.61890620133948
 31
0.0
  0
ARC
  8
OUTLINE
  6
CONTINUOUS
 62
     3
 10
177.6310937986691
 20
442.61890620134
 30
0.0
 40
1.381093798666799
 50
90.0
 51
180.0
  0
LINE
  8
OUTLINE
  6
CONTINUOUS
 62
     3
 10
177.6310937986691
 20
444.00000000000682
 30
0.0
 11
272.36890620133539
 21
444.00000000000682
 31
0.0
  0
ARC
  8
OUTLINE
  6
CONTINUOUS
 62
     3
 10
272.36890620133516
 20
442.61890620134017
 30
0.0
 40
1.3810937986666532
 50
0.0
 51
90.0
  0
LINE
  8
OUTLINE
  6
CONTINUOUS
 62
     3
 10
273.75000000000182
 20
442.61890620134
 30
0.0
 11
273.75000000000182
 21
437.09240483600797
 31
0.0
  0
ARC
  8
OUTLINE
  6
CONTINUOUS
 62
     3
 10
293.74999999998323
 20
437.09240483600331
 30
0.0
 40
19.999999999981423
 50
180.0
 51
189.10460177282141
  0
LINE
  8
OUTLINE
  6
CONTINUOUS
 62
     3
 10
274.00197798142023
 20
433.92765739685319
 30
0.0
 11
280.00000000133832
 21
395.999999989956
 31
0.0
  0
LINE
  8
OUTLINE
  6
CONTINUOUS
 62
     3
 10
280.00000000133832
 20
395.999999989956
 30
0.0
 11
280.00000000133832
 21
389.99999999999858
 31
0.0
  0
LINE
  8
OUTLINE
  6
CONTINUOUS
 62
     3
 10
280.00000000133832
 20
389.99999999999858
 30
0.0
 11
291.40000000000242
 21
389.99999999999858
 31
0.0
  0
LINE
  8
OUTLINE
  6
CONTINUOUS
 62
     3
 10
291.40000000000242
 20
389.99999999999858
 30
0.0
 11
294.6288205727401
 21
386.77117942726358
 31
0.0
  0
ARC
  8
OUTLINE
  6
CONTINUOUS
 62
     3
 10
295.29999999999944
 20
389.90000000000725
 30
0.0
 40
3.2000000000000224
 50
257.89267472044253
 51
0.0
  0
LINE
  8
OUTLINE
  6
CONTINUOUS
 62
     3
 10
298.49999999999949
 20
389.90000000000742
 30
0.0
 11
298.5
 21
402.50000000000142
 31
0.0
  0
LINE
  8
OUTLINE
  6
CONTINUOUS
 62
     3
 10
298.5
 20
402.50000000000142
 30
0.0
 11
349.00000000000409
 21
402.50000000000142
 31
0.0
  0
LINE
  8
OUTLINE
  6
CONTINUOUS
 62
     3
 10
349.00000000000409
 20
402.50000000000142
 30
0.0
 11
349.00000000000409
 21
390.49999999999858
 31
0.0
  0
LINE
  8
OUTLINE
  6
CONTINUOUS
 62
     3
 10
349.00000000000409
 20
390.49999999999858
 30
0.0
 11
329.00000000000091
 21
390.49999999999773
 31
0.0
  0
ARC
  8
OUTLINE
  6
CONTINUOUS
 62
     3
 10
329.00000000000091
 20
383.99999999999773
 30
0.0
 40
6.5
 50
90.0
 51
270.0
  0
LINE
  8
OUTLINE
  6
CONTINUOUS
 62
     3
 10
329.00000000000091
 20
377.49999999999773
 30
0.0
 11
349.00000000000409
 21
377.49999999999733
 31
0.0
  0
LINE
  8
OUTLINE
  6
CONTINUOUS
 62
     3
 10
349.00000000000409
 20
377.49999999999733
 30
0.0
 11
349.00000000000409
 21
359.00000000000819
 31
0.0
  0
LINE
  8
OUTLINE
  6
CONTINUOUS
 62
     3
 10
349.00000000000409
 20
359.00000000000819
 30
0.0
 11
305.0
 21
359.00000000000819
 31
0.0
  0
LINE
  8
OUTLINE
  6
CONTINUOUS
 62
     3
 10
305.0
 20
359.00000000000819
 30
0.0
 11
305.0
 21
-358.99999999999449
 31
0.0
  0
TEXT
  8
NOTE
  6
CONTINUOUS
 62
     4
 10
-273.86404890738231
 20
-538.64766226364486
 30
0.0
 40
64.065641025638456
  1
SA
 41
0.9
  0
TEXT
  8
NOTE
  6
CONTINUOUS
 62
     4
 10
185.2733067980798
 20
-538.64766226364486
 30
0.0
 40
64.065641025638456
  1
RA
 41
0.9
  0
TEXT
  8
NOTE
  6
CONTINUOUS
 62
     4
 10
-273.86404890738231
 20
474.58202123800629
 30
0.0
 40
64.065641025638456
  1
OA
 41
0.9
  0
TEXT
  8
NOTE
  6
CONTINUOUS
 62
     4
 10
175.0199170392543
 20
474.58202123800629
 30
0.0
 40
64.065641025638456
  1
EA
 41
0.9
  0
TEXT
  8
ETC
  6
CONTINUOUS
 62
    61
 10
595.99715162931261
 20
1228.599820797735
 30
0.0
 40
64.065641025638456
  1
LGH-15RVX3-E_1
 41
0.9
  0
TEXT
  8
ETC
  6
CONTINUOUS
 62
    61
 10
591.80686430213245
 20
1110.5235309777649
 30
0.0
 40
64.065641025638456
  1
LOSSNAY
 41
0.9
  0
TEXT
  8
ETC
  6
CONTINUOUS
 62
    61
 10
642.56026398478753
 20
1002.263836273199
 30
0.0
 40
40.041025641024042
  1
LGH-15RVX3-E
 50
0.0
 41
0.9
 51
0.0
  7
STANDARD
 71
     0
 11
0.0
 21
0.0
 31
0.0
210
0.0
220
0.0
230
1.0
  0
TEXT
  8
NOTE
  6
CONTINUOUS
 62
     4
 10
-893.70582797818088
 20
124.24307955851634
 30
0.0
 40
64.0
  1
Inspection
 50
0.0
 41
0.9
 51
0.0
  7
STANDARD
 71
     0
 72
     1
 11
-675.6898279781808
 21
124.24307955851634
 31
0.0
210
0.0
220
0.0
230
1.0
  0
TEXT
  8
NOTE
  6
CONTINUOUS
 62
     4
 10
-841.28982797818082
 20
18.643079558516348
 30
0.0
 40
64.0
  1
opening
 50
0.0
 41
0.9
 51
0.0
  7
STANDARD
 71
     0
 72
     1
 11
-675.6898279781808
 21
18.643079558516348
 31
0.0
210
0.0
220
0.0
230
1.0
  0
TEXT
  8
NOTE
  6
CONTINUOUS
 62
     4
 10
-866.05782797818085
 20
-86.956920441483646
 30
0.0
 40
64.0
  1
450X450
 50
0.0
 41
0.9
 51
0.0
  7
STANDARD
 71
     0
 72
     1
 11
-675.6898279781808
 21
-86.956920441483646
 31
0.0
210
0.0
220
0.0
230
1.0
  0
TEXT
  8
NOTE
  6
CONTINUOUS
 62
     4
 10
-845.03382797818085
 20
-192.55692044148364
 30
0.0
 40
64.0
  1
or more
 50
0.0
 41
0.9
 51
0.0
  7
STANDARD
 71
     0
 72
     1
 11
-675.6898279781808
 21
-192.55692044148364
 31
0.0
210
0.0
220
0.0
230
1.0
  0
TEXT
  8
NOTE
  6
CONTINUOUS
 62
     4
 10
470.00887299170881
 20
833.50919782024584
 30
0.0
 40
69.0
  1
Ceiling suspension fixture
 50
0.0
 41
0.9
 51
0.0
  7
STANDARD
 71
     0
 11
0.0
 21
0.0
 31
0.0
210
0.0
220
0.0
230
1.0
  0
TEXT
  8
NOTE
  6
CONTINUOUS
 62
     4
 10
470.00887299170881
 20
719.65919782024582
 30
0.0
 40
69.0
  1
(4-13X20 oval)
 50
0.0
 41
0.9
 51
0.0
  7
STANDARD
 71
     0
 11
0.0
 21
0.0
 31
0.0
210
0.0
220
0.0
230
1.0
  0
LINE
  8
NOTE
  6
CONTINUOUS
 62
     4
 10
460.00887299170881
 20
682.36634067738851
 30
0.0
 11
1676.5231587059941
 21
682.36634067738851
 31
0.0
  0
LINE
  8
NOTE
  6
CONTINUOUS
 62
     4
 10
350.3865501983164
 20
412.8778547243345
 30
0.0
 11
328.49999999999909
 21
384.00000000001268
 31
0.0
  0
LINE
  8
NOTE
  6
CONTINUOUS
 62
     4
 10
328.49999999999909
 20
384.00000000001268
 30
0.0
 11
333.01532693279
 21
419.95223770161499
 31
0.0
  0
LINE
  8
NOTE
  6
CONTINUOUS
 62
     4
 10
328.49999999999909
 20
384.00000000001268
 30
0.0
 11
354.90187713110731
 21
448.83009242593681
 31
0.0
  0
LINE
  8
NOTE
  6
CONTINUOUS
 62
     4
 10
354.9018771311072
 20
448.83009242593693
 30
0.0
 11
450.00887299170881
 21
682.36634067738851
 31
0.0
  0
LINE
  8
NOTE
  6
CONTINUOUS
 62
     4
 10
450.00887299170881
 20
682.36634067738851
 30
0.0
 11
460.00887299170881
 21
682.36634067738851
 31
0.0
  0
TEXT
  8
NOTE
  6
CONTINUOUS
 62
     4
 10
-1114.2541472795897
 20
-499.10777452298862
 30
0.0
 40
69.0
  1
Power supply
 50
0.0
 41
0.9
 51
0.0
  7
STANDARD
 71
     0
 72
     2
 11
-510.02114727958951
 21
-499.10777452298862
 31
0.0
210
0.0
220
0.0
230
1.0
  0
TEXT
  8
NOTE
  6
CONTINUOUS
 62
     4
 10
-1142.1991472795896
 20
-612.95777452298864
 30
0.0
 40
69.0
  1
cable opening
 50
0.0
 41
0.9
 51
0.0
  7
STANDARD
 71
     0
 72
     2
 11
-510.02114727958951
 21
-612.95777452298864
 31
0.0
210
0.0
220
0.0
230
1.0
  0
LINE
  8
NOTE
  6
CONTINUOUS
 62
     4
 10
-500.02114727958951
 20
-637.10777452298862
 30
0.0
 11
-1151.72114727959
 21
-637.10777452298862
 31
0.0
  0
LINE
  8
NOTE
  6
CONTINUOUS
 62
     4
 10
-411.93663731937886
 20
-386.22148773270902
 30
0.0
 11
-391.50000000000068
 21
-356.29999999999927
 31
0.0
  0
LINE
  8
NOTE
  6
CONTINUOUS
 62
     4
 10
-391.50000000000068
 20
-356.29999999999927
 30
0.0
 11
-394.23784877263785
 21
-392.43109128106454
 31
0.0
  0
LINE
  8
NOTE
  6
CONTINUOUS
 62
     4
 10
-391.50000000000068
 20
-356.29999999999927
 30
0.0
 11
-414.67448609201602
 21
-422.35257901377429
 31
0.0
  0
LINE
  8
NOTE
  6
CONTINUOUS
 62
     4
 10
-414.67448609201602
 20
-422.35257901377429
 30
0.0
 11
-490.02114727958951
 21
-637.10777452298862
 31
0.0
  0
LINE
  8
NOTE
  6
CONTINUOUS
 62
     4
 10
-490.02114727958951
 20
-637.10777452298862
 30
0.0
 11
-500.02114727958951
 21
-637.10777452298862
 31
0.0
  0
ENDSEC
  0
EOF
