  0
SECTION
  2
HEADER
  9
$ACADVER
  1
AC1009
  9
$DWGCODEPAGE
  3
dos932
  9
$INSBASE
 10
0.0
 20
0.0
 30
0.0
  9
$EXTMIN
 10
-838.39414872740781
 20
-533.20311339712134
 30
-0.0015258207003583
  9
$EXTMAX
 10
1688.571179330545
 20
863.89160990236633
 30
0.0000000349246037
  9
$LIMMIN
 10
-2970.0
 20
-2100.0
  9
$LIMMAX
 10
2970.0
 20
2100.0
  9
$ORTHOMODE
 70
     1
  9
$REGENMODE
 70
     1
  9
$FILLMODE
 70
     1
  9
$QTEXTMODE
 70
     0
  9
$MIRRTEXT
 70
     0
  9
$LTSCALE
 40
20.0
  9
$ATTMODE
 70
     1
  9
$TEXTSIZE
 40
64.0
  9
$TRACEWID
 40
0.05
  9
$TEXTSTYLE
  7
STANDARD
  9
$CLAYER
  8
SIZE
  9
$CELTYPE
  6
CONTINUOUS
  9
$CECOLOR
 62
     7
  9
$DIMSCALE
 40
1.0
  9
$DIMASZ
 40
12.0
  9
$DIMEXO
 40
20.0
  9
$DIMDLI
 40
200.0
  9
$DIMRND
 40
0.0
  9
$DIMDLE
 40
0.0
  9
$DIMEXE
 40
20.0
  9
$DIMTP
 40
0.0
  9
$DIMTM
 40
0.0
  9
$DIMTXT
 40
64.0
  9
$DIMCEN
 40
0.09
  9
$DIMTSZ
 40
0.0
  9
$DIMTOL
 70
     0
  9
$DIMLIM
 70
     0
  9
$DIMTIH
 70
     0
  9
$DIMTOH
 70
     0
  9
$DIMSE1
 70
     0
  9
$DIMSE2
 70
     0
  9
$DIMTAD
 70
     1
  9
$DIMZIN
 70
     8
  9
$DIMBLK
  1

  9
$DIMASO
 70
     1
  9
$DIMSHO
 70
     0
  9
$DIMPOST
  1

  9
$DIMAPOST
  1

  9
$DIMALT
 70
     0
  9
$DIMALTD
 70
     2
  9
$DIMALTF
 40
25.399999999999999
  9
$DIMLFAC
 40
1.0
  9
$DIMTOFL
 70
     1
  9
$DIMTVP
 40
0.0
  9
$DIMTIX
 70
     1
  9
$DIMSOXD
 70
     0
  9
$DIMSAH
 70
     0
  9
$DIMBLK1
  1

  9
$DIMBLK2
  1

  9
$DIMSTYLE
  2
STANDARD
  9
$DIMCLRD
 70
     7
  9
$DIMCLRE
 70
     7
  9
$DIMCLRT
 70
     7
  9
$DIMTFAC
 40
1.0
  9
$DIMGAP
 40
25.0
  9
$LUNITS
 70
     2
  9
$LUPREC
 70
     4
  9
$SKETCHINC
 40
0.1
  9
$FILLETRAD
 40
3.0
  9
$AUNITS
 70
     1
  9
$AUPREC
 70
     3
  9
$MENU
  1
ACAD
  9
$ELEVATION
 40
0.0
  9
$PELEVATION
 40
0.0
  9
$THICKNESS
 40
0.0
  9
$LIMCHECK
 70
     0
  9
$CHAMFERA
 40
0.0
  9
$CHAMFERB
 40
0.0
  9
$SKPOLY
 70
     0
  9
$TDCREATE
 40
2453019.62301037
  9
$TDUPDATE
 40
2460045.42758
  9
$TDINDWG
 40
1.7564280208
  9
$TDUSRTIMER
 40
1.7564280208
  9
$USRTIMER
 70
     1
  9
$ANGBASE
 50
0.0
  9
$ANGDIR
 70
     0
  9
$PDMODE
 70
     3
  9
$PDSIZE
 40
-2.0
  9
$PLINEWID
 40
0.0
  9
$SPLFRAME
 70
     0
  9
$SPLINETYPE
 70
     6
  9
$SPLINESEGS
 70
     8
  9
$SURFTAB1
 70
     6
  9
$SURFTAB2
 70
     6
  9
$SURFTYPE
 70
     6
  9
$SURFU
 70
     6
  9
$SURFV
 70
     6
  9
$UCSNAME
  2

  9
$UCSORG
 10
0.0
 20
0.0
 30
0.0
  9
$UCSXDIR
 10
1.0
 20
0.0
 30
0.0
  9
$UCSYDIR
 10
0.0
 20
1.0
 30
0.0
  9
$PUCSNAME
  2

  9
$PUCSORG
 10
0.0
 20
0.0
 30
0.0
  9
$PUCSXDIR
 10
1.0
 20
0.0
 30
0.0
  9
$PUCSYDIR
 10
0.0
 20
1.0
 30
0.0
  9
$USERI1
 70
     0
  9
$USERI2
 70
     0
  9
$USERI3
 70
     0
  9
$USERI4
 70
     0
  9
$USERI5
 70
     0
  9
$USERR1
 40
20.0
  9
$USERR2
 40
0.0
  9
$USERR3
 40
0.0
  9
$USERR4
 40
0.0
  9
$USERR5
 40
0.0
  9
$WORLDVIEW
 70
     1
  9
$SHADEDGE
 70
     3
  9
$SHADEDIF
 70
    70
  9
$TILEMODE
 70
     1
  9
$MAXACTVP
 70
    48
  9
$PINSBASE
 10
0.0
 20
0.0
 30
0.0
  9
$PLIMCHECK
 70
     0
  9
$PEXTMIN
 10
-100000000000000000000.0
 20
-100000000000000000000.0
 30
-100000000000000000000.0
  9
$PEXTMAX
 10
100000000000000000000.0
 20
100000000000000000000.0
 30
100000000000000000000.0
  9
$PLIMMIN
 10
0.0
 20
0.0
  9
$PLIMMAX
 10
12.0
 20
9.0
  9
$UNITMODE
 70
     0
  9
$VISRETAIN
 70
     0
  9
$PLINEGEN
 70
     0
  9
$PSLTSCALE
 70
     0
  9
$TREEDEPTH
 70
  3020
  9
$ATTDIA
 70
     0
  9
$ATTREQ
 70
     1
  9
$BLIPMODE
 70
     1
  9
$COORDS
 70
     1
  9
$DRAGMODE
 70
     2
  9
$OSMODE
 70
     0
  9
$HANDLING
 70
     0
  9
$HANDSEED
  5
10277
  0
ENDSEC
  0
SECTION
  2
TABLES
  0
TABLE
  2
LTYPE
 70
     3
  0
LTYPE
  2
CONTINUOUS
 70
     0
  3
実線
 72
    65
 73
     0
 40
0.0
  0
LTYPE
  2
DASHDOT
 70
     0
  3
____ _ ____ _ ____ _ ____ _ ____ _ ____ _ ____
 72
    65
 73
     4
 40
5.5
 49
4.0
 49
-0.6
 49
0.3
 49
-0.6
  0
LTYPE
  2
DASHED
 70
     0
  3
-- -- -- -- -- -- -- -- -- -- -- -- -- -- --
 72
    65
 73
     2
 40
0.75
 49
0.5
 49
-0.25
  0
ENDTAB
  0
TABLE
  2
LAYER
 70
    12
  0
LAYER
  2
0
 70
     0
 62
     7
  6
CONTINUOUS
  0
LAYER
  2
BASIS
 70
     0
 62
     6
  6
DASHDOT
  0
LAYER
  2
OUTLINE
 70
     0
 62
     3
  6
CONTINUOUS
  0
LAYER
  2
DETAIL
 70
     0
 62
     5
  6
CONTINUOUS
  0
LAYER
  2
SIZE
 70
     0
 62
    30
  6
CONTINUOUS
  0
LAYER
  2
ARRANGE
 70
     0
 62
     1
  6
CONTINUOUS
  0
LAYER
  2
DEFPOINTS
 70
     0
 62
     7
  6
CONTINUOUS
  0
LAYER
  2
ETC
 70
     0
 62
    61
  6
CONTINUOUS
  0
LAYER
  2
FIX
 70
     0
 62
    11
  6
CONTINUOUS
  0
LAYER
  2
NOTE
 70
     0
 62
     4
  6
CONTINUOUS
  0
LAYER
  2
SERVICESPACE
 70
    64
 62
     2
  6
DASHDOT
  0
LAYER
  2
SYMBOLLINE
 70
    64
 62
    15
  6
CONTINUOUS
  0
ENDTAB
  0
TABLE
  2
STYLE
 70
     1
  0
STYLE
  2
STANDARD
 70
     0
 40
64.0
 41
0.9
 50
0.0
 71
     0
 42
64.0
  3
SIMPLEX.shx
  4
BIGFONT.shx
  0
ENDTAB
  0
TABLE
  2
APPID
 70
    23
  0
APPID
  2
ACAD
 70
     0
  0
APPID
  2
AUTOCAD_POSTSCRIPT_FIGURE
 70
     0
  0
APPID
  2
ACAD_EXEMPT_FROM_CAD_STANDARDS
 70
     0
  0
APPID
  2
ACAD_PSEXT
 70
     0
  0
APPID
  2
ACAUTHENVIRON
 70
     0
  0
APPID
  2
GENIUS_GENOENT_13
 70
     0
  0
APPID
  2
GENIUS_GENCFG_13
 70
     0
  0
APPID
  2
GENIUS_GENCFG0_13
 70
     0
  0
APPID
  2
GENIUS_GENCFG1_13
 70
     0
  0
APPID
  2
GENIUS_GENCFG2_13
 70
     0
  0
APPID
  2
GENIUS_GENCFG3_13
 70
     0
  0
APPID
  2
GENIUS_GENCFG4_13
 70
     0
  0
APPID
  2
GENIUS_GEVCFG0_13
 70
     0
  0
APPID
  2
CONTENTBLOCKICON
 70
     0
  0
APPID
  2
CONTENTBLOCKDESCRIPTION
 70
     0
  0
APPID
  2
ACAD_NAV_VCDISPLAY
 70
     0
  0
APPID
  2
ACAD_MLEADERVER
 70
     0
  0
APPID
  2
ACDBDYNAMICBLOCKTRUENAME
 70
     0
  0
APPID
  2
ACDBDYNAMICBLOCKGUID
 70
     0
  0
APPID
  2
GENIUS_GENODEF_13
 70
     0
  0
APPID
  2
GENIUS_GENOBJ-N-CEN_13
 70
     0
  0
APPID
  2
GENIUS_GENCEN_19
 70
     0
  0
APPID
  2
ACAD_DSTYLE_DIMRADIAL_EXTENSION
 70
     0
  0
ENDTAB
  0
TABLE
  2
DIMSTYLE
 70
     1
  0
DIMSTYLE
  2
STANDARD
 70
     0
  3

  4

  5
_ORIGIN
  6

  7

 40
1.0
 41
12.0
 42
20.0
 43
200.0
 44
20.0
 45
0.0
 46
0.0
 47
0.0
 48
0.0
140
64.0
141
0.09
142
0.0
143
25.399999999999999
144
1.0
145
0.0
146
1.0
147
25.0
 71
     0
 72
     0
 73
     0
 74
     0
 75
     0
 76
     0
 77
     1
 78
     8
170
     0
171
     2
172
     1
173
     0
174
     1
175
     0
176
     7
177
     7
178
     7
  0
ENDTAB
  0
TABLE
  2
VIEW
 70
     1
  0
VIEW
  2
ALL
 70
     0
 40
4282.6198079999986
 10
0.0
 20
41.309904000000003
 41
5940.0
 11
0.0
 21
0.0
 31
1.0
 12
0.0
 22
0.0
 32
0.0
 42
50.0
 43
0.0
 44
0.0
 50
0.0
 71
     0
  0
ENDTAB
  0
TABLE
  2
UCS
 70
     0
  0
ENDTAB
  0
TABLE
  2
VPORT
 70
     1
  0
VPORT
  2
*ACTIVE
 70
     0
 10
0.0
 20
0.0
 11
1.0
 21
1.0
 12
425.0885153015688
 22
165.34424825262249
 13
0.0
 23
0.0
 14
1.0
 24
1.0
 15
0.0
 25
0.0
 16
0.0
 26
0.0
 36
1.0
 17
0.0
 27
0.0
 37
0.0
 40
1424.00023770956
 41
1.781285231116122
 42
50.0
 43
0.0
 44
0.0
 50
0.0
 51
0.0
 71
     0
 72
  1000
 73
     1
 74
     3
 75
     0
 76
     0
 77
     0
 78
     0
  0
ENDTAB
  0
ENDSEC
  0
SECTION
  2
BLOCKS
  0
BLOCK
  8
0
  2
_ORIGIN
 70
     0
 10
0.0
 20
0.0
 30
0.0
  3
_ORIGIN
  1
_ORIGIN
  0
CIRCLE
  8
0
  6
CONTINUOUS
 62
     7
 10
0.0
 20
0.0
 30
0.0
 40
0.5
  0
LINE
  8
0
  6
CONTINUOUS
 62
     7
 10
0.0
 20
0.0
 30
0.0
 11
-1.0
 21
0.0
 31
0.0
  0
ENDBLK
  8
0
  0
ENDSEC
  0
SECTION
  2
ENTITIES
  0
LINE
  8
DETAIL
  6
CONTINUOUS
 62
     5
 10
444.00004999999328
 20
-147.14450884933629
 30
0.0
 11
444.00004999999328
 21
-241.8554911506676
 31
0.0
  0
LINE
  8
DETAIL
  6
CONTINUOUS
 62
     5
 10
402.00004999999828
 20
-109.9999999999993
 30
0.0
 11
402.00004999999828
 21
-65.000000000000455
 31
0.0
  0
LINE
  8
DETAIL
  6
CONTINUOUS
 62
     5
 10
390.00004999999561
 20
-72.000000000000909
 30
0.0
 11
390.00004999999561
 21
-65.000000000000455
 31
0.0
  0
LINE
  8
DETAIL
  6
CONTINUOUS
 62
     5
 10
388.50005000000419
 20
-288.39999999999782
 30
0.0
 11
388.50005000000419
 21
-287.90000000000049
 31
0.0
  0
LINE
  8
DETAIL
  6
CONTINUOUS
 62
     5
 10
388.50005000000419
 20
-1.1000000000010459
 30
0.0
 11
388.50005000000419
 21
-0.5999999999996817
 31
0.0
  0
LINE
  8
DETAIL
  6
CONTINUOUS
 62
     5
 10
384.00004999999419
 20
-262.00000000000108
 30
0.0
 11
384.00004999999419
 21
-127.0000000000027
 31
0.0
  0
LINE
  8
DETAIL
  6
CONTINUOUS
 62
     5
 10
383.50004999999459
 20
-287.400000000001
 30
0.0
 11
383.50004999999459
 21
-88.000000000001364
 31
0.0
  0
LINE
  8
DETAIL
  6
CONTINUOUS
 62
     5
 10
383.50004999999459
 20
-65.000000000000455
 30
0.0
 11
383.50004999999459
 21
-1.599999999998545
 31
0.0
  0
LINE
  8
DETAIL
  6
CONTINUOUS
 62
     5
 10
383.0000499999951
 20
-1.599999999998545
 30
0.0
 11
383.0000499999951
 21
-2.5999999999976349
 31
0.0
  0
LINE
  8
DETAIL
  6
CONTINUOUS
 62
     5
 10
383.0000499999951
 20
-287.400000000001
 30
0.0
 11
383.0000499999951
 21
-286.40000000000009
 31
0.0
  0
LINE
  8
DETAIL
  6
CONTINUOUS
 62
     5
 10
381.50004999999692
 20
-288.39999999999782
 30
0.0
 11
381.50004999999692
 21
-286.40000000000009
 31
0.0
  0
LINE
  8
DETAIL
  6
CONTINUOUS
 62
     5
 10
381.50004999999692
 20
-2.5999999999976349
 30
0.0
 11
381.50004999999692
 21
-0.5999999999996817
 31
0.0
  0
LINE
  8
DETAIL
  6
CONTINUOUS
 62
     5
 10
381.40004999999837
 20
0.0
 30
0.0
 11
381.40004999999837
 21
-0.5999999999996817
 31
0.0
  0
LINE
  8
DETAIL
  6
CONTINUOUS
 62
     5
 10
381.40004999999837
 20
-289.00000000000318
 30
0.0
 11
381.40004999999837
 21
-288.39999999999782
 31
0.0
  0
LINE
  8
DETAIL
  6
CONTINUOUS
 62
     5
 10
377.00004999999419
 20
-61.20000000000141
 30
0.0
 11
377.00004999999419
 21
-68.200000000001637
 31
0.0
  0
LINE
  8
DETAIL
  6
CONTINUOUS
 62
     5
 10
382.96011823867087
 20
-1.056422129337989
 30
0.0
 11
382.82507267333767
 21
-2.5999999999976349
 31
0.0
  0
LINE
  8
DETAIL
  6
CONTINUOUS
 62
     5
 10
382.36240142000179
 20
-1.0041286826685789
 30
0.0
 11
382.22278077066898
 21
-2.5999999999976349
 31
0.0
  0
LINE
  8
DETAIL
  6
CONTINUOUS
 62
     5
 10
358.5000500000051
 20
-82.999999999999091
 30
0.0
 11
358.5000500000051
 21
-61.20000000000141
 31
0.0
  0
LINE
  8
DETAIL
  6
CONTINUOUS
 62
     5
 10
382.82507267333767
 20
-286.40000000000009
 30
0.0
 11
382.93615918133128
 21
-287.66972459466842
 31
0.0
  0
LINE
  8
DETAIL
  6
CONTINUOUS
 62
     5
 10
382.22278077066898
 20
-286.40000000000009
 30
0.0
 11
382.33844236266941
 21
-287.72201803999951
 31
0.0
  0
LINE
  8
DETAIL
  6
CONTINUOUS
 62
     5
 10
333.50005000000101
 20
-157.0000000000002
 30
0.0
 11
333.50005000000101
 21
-232.00000000000051
 31
0.0
  0
LINE
  8
DETAIL
  6
CONTINUOUS
 62
     5
 10
333.50005000000101
 20
-232.00000000000051
 30
0.0
 11
308.50004999999652
 21
-257.00000000000051
 31
0.0
  0
LINE
  8
DETAIL
  6
CONTINUOUS
 62
     5
 10
308.50004999999652
 20
-132.00000000000139
 30
0.0
 11
333.50005000000101
 21
-157.0000000000002
 31
0.0
  0
LINE
  8
DETAIL
  6
CONTINUOUS
 62
     5
 10
208.50004999999419
 20
-232.00000000000051
 30
0.0
 11
208.50004999999419
 21
-157.0000000000002
 31
0.0
  0
LINE
  8
DETAIL
  6
CONTINUOUS
 62
     5
 10
377.50005000001511
 20
-289.000000000005
 30
0.0
 11
375.80004999999801
 21
-287.29999999999882
 31
0.0
  0
LINE
  8
DETAIL
  6
CONTINUOUS
 62
     5
 10
-396.19659278666398
 20
-249.46850275866339
 30
0.0
 11
-433.92770770799552
 21
-243.50197793199959
 31
0.0
  0
LINE
  8
DETAIL
  6
CONTINUOUS
 62
     5
 10
-389.15004999999792
 20
-288.99999999999773
 30
0.0
 11
-383.73311493866822
 21
-289.00000000000318
 31
0.0
  0
LINE
  8
DETAIL
  6
CONTINUOUS
 62
     5
 10
383.73311493999432
 20
-289.00000000000318
 30
0.0
 11
389.15004999999792
 21
-288.99999999999773
 31
0.0
  0
LINE
  8
DETAIL
  6
CONTINUOUS
 62
     5
 10
381.40004999999837
 20
-289.00000000000318
 30
0.0
 11
-381.40004999999792
 21
-289.00000000000318
 31
0.0
  0
LINE
  8
DETAIL
  6
CONTINUOUS
 62
     5
 10
396.1965927866645
 20
-249.46850275866339
 30
0.0
 11
433.92770770933612
 21
-243.50197793199959
 31
0.0
  0
LINE
  8
DETAIL
  6
CONTINUOUS
 62
     5
 10
377.50005000000777
 20
0.0
 30
0.0
 11
375.80004999999801
 21
-1.700000000000728
 31
0.0
  0
LINE
  8
DETAIL
  6
CONTINUOUS
 62
     5
 10
208.50004999999419
 20
-157.0000000000002
 30
0.0
 11
233.50004999999831
 21
-132.00000000000139
 31
0.0
  0
LINE
  8
DETAIL
  6
CONTINUOUS
 62
     5
 10
-396.19659278666398
 20
-249.46850275866339
 30
0.0
 11
-395.80099939466658
 21
-249.5000000000027
 31
0.0
  0
LINE
  8
DETAIL
  6
CONTINUOUS
 62
     5
 10
-389.15004999998291
 20
-288.39999999999782
 30
0.0
 11
-383.73311493866822
 21
-288.39999999999782
 31
0.0
  0
LINE
  8
DETAIL
  6
CONTINUOUS
 62
     5
 10
-381.50004999999652
 20
-288.39999999999782
 30
0.0
 11
-376.90004999999519
 21
-288.39999999999958
 31
0.0
  0
LINE
  8
DETAIL
  6
CONTINUOUS
 62
     5
 10
383.73311493999432
 20
-288.39999999999782
 30
0.0
 11
389.15004999997609
 21
-288.39999999999782
 31
0.0
  0
LINE
  8
DETAIL
  6
CONTINUOUS
 62
     5
 10
381.50004999999692
 20
-288.39999999999782
 30
0.0
 11
376.9000500000102
 21
-288.39999999999958
 31
0.0
  0
LINE
  8
DETAIL
  6
CONTINUOUS
 62
     5
 10
389.15004999997609
 20
-287.90000000000049
 30
0.0
 11
384.00004999999419
 21
-287.90000000000049
 31
0.0
  0
LINE
  8
DETAIL
  6
CONTINUOUS
 62
     5
 10
-384.00005000000152
 20
-287.90000000000049
 30
0.0
 11
-389.15004999998291
 21
-287.90000000000049
 31
0.0
  0
LINE
  8
DETAIL
  6
CONTINUOUS
 62
     5
 10
-383.50005000000192
 20
-286.40000000000009
 30
0.0
 11
-381.50004999999652
 21
-286.40000000000009
 31
0.0
  0
LINE
  8
DETAIL
  6
CONTINUOUS
 62
     5
 10
383.50004999999459
 20
-286.40000000000009
 30
0.0
 11
381.50004999999692
 21
-286.40000000000009
 31
0.0
  0
LINE
  8
DETAIL
  6
CONTINUOUS
 62
     5
 10
383.50004999999459
 20
-262.00000000000108
 30
0.0
 11
384.00004999999419
 21
-262.00000000000108
 31
0.0
  0
LINE
  8
DETAIL
  6
CONTINUOUS
 62
     5
 10
-383.50005000000192
 20
-262.00000000000108
 30
0.0
 11
-384.00005000000152
 21
-262.00000000000108
 31
0.0
  0
LINE
  8
DETAIL
  6
CONTINUOUS
 62
     5
 10
396.1965927866645
 20
-249.46850275866339
 30
0.0
 11
395.8009993959995
 21
-249.5000000000027
 31
0.0
  0
LINE
  8
DETAIL
  6
CONTINUOUS
 62
     5
 10
308.50004999999652
 20
-257.00000000000051
 30
0.0
 11
233.50004999999831
 21
-257.00000000000051
 31
0.0
  0
LINE
  8
DETAIL
  6
CONTINUOUS
 62
     5
 10
-395.80099939466658
 20
-249.5000000000027
 30
0.0
 11
-386.00004999999919
 21
-249.5000000000027
 31
0.0
  0
LINE
  8
DETAIL
  6
CONTINUOUS
 62
     5
 10
395.8009993959995
 20
-249.5000000000027
 30
0.0
 11
386.00004999999243
 21
-249.5000000000027
 31
0.0
  0
LINE
  8
DETAIL
  6
CONTINUOUS
 62
     5
 10
-442.61895620132958
 20
-243.25000000000159
 30
0.0
 11
-437.09245483466748
 21
-243.25000000000159
 31
0.0
  0
LINE
  8
DETAIL
  6
CONTINUOUS
 62
     5
 10
442.61895620133691
 20
-243.25000000000159
 30
0.0
 11
437.09245483600029
 21
-243.25000000000159
 31
0.0
  0
LINE
  8
DETAIL
  6
CONTINUOUS
 62
     5
 10
233.50004999999831
 20
-257.00000000000051
 30
0.0
 11
208.50004999999419
 21
-232.00000000000051
 31
0.0
  0
LINE
  8
BASIS
  6
DASHDOT
 62
     6
 10
464.94263661439851
 20
-194.50000000000301
 30
0.0
 11
194.84522354951881
 21
-194.50000000000111
 31
0.0
  0
LINE
  8
BASIS
  6
DASHDOT
 62
     6
 10
0.0000499999969179
 20
27.58672574798516
 30
0.0
 11
0.0000499999969179
 21
-315.88955436261131
 31
0.0
  0
LINE
  8
DETAIL
  6
CONTINUOUS
 62
     5
 10
-442.61895620132958
 20
-145.75000000000051
 30
0.0
 11
-437.09245483466748
 21
-145.75000000000051
 31
0.0
  0
LINE
  8
DETAIL
  6
CONTINUOUS
 62
     5
 10
442.61895620133691
 20
-145.75000000000051
 30
0.0
 11
437.09245483600029
 21
-145.75000000000051
 31
0.0
  0
LINE
  8
BASIS
  6
DASHDOT
 62
     6
 10
-447.89846712347031
 20
-144.4999999999998
 30
0.0
 11
510.16671666666161
 21
-144.4999999999998
 31
0.0
  0
LINE
  8
DETAIL
  6
CONTINUOUS
 62
     5
 10
233.50004999999831
 20
-132.00000000000139
 30
0.0
 11
308.50004999999652
 21
-132.00000000000139
 31
0.0
  0
LINE
  8
DETAIL
  6
CONTINUOUS
 62
     5
 10
383.50004999999459
 20
-115.0
 30
0.0
 11
397.00005000000328
 21
-115.0
 31
0.0
  0
LINE
  8
DETAIL
  6
CONTINUOUS
 62
     5
 10
-383.50005000000192
 20
-115.0
 30
0.0
 11
-397.00004999999561
 21
-115.0
 31
0.0
  0
LINE
  8
DETAIL
  6
CONTINUOUS
 62
     5
 10
396.19659278950479
 20
-139.53149724156449
 30
0.0
 11
433.92770770933612
 21
-145.49802206933529
 31
0.0
  0
LINE
  8
DETAIL
  6
CONTINUOUS
 62
     5
 10
383.52646510933619
 20
-94.000000000002501
 30
0.0
 11
386.90005000000752
 21
-94.000000000002501
 31
0.0
  0
LINE
  8
DETAIL
  6
CONTINUOUS
 62
     5
 10
-383.52646510800292
 20
-94.000000000002501
 30
0.0
 11
-386.90004999999968
 21
-94.000000000002501
 31
0.0
  0
LINE
  8
DETAIL
  6
CONTINUOUS
 62
     5
 10
363.5000500000001
 20
-88.000000000001364
 30
0.0
 11
386.90005000000752
 21
-88.000000000001364
 31
0.0
  0
LINE
  8
DETAIL
  6
CONTINUOUS
 62
     5
 10
-363.5000500000001
 20
-88.000000000001364
 30
0.0
 11
-386.90004999999968
 21
-88.000000000001364
 31
0.0
  0
LINE
  8
DETAIL
  6
CONTINUOUS
 62
     5
 10
-372.50004999999828
 20
-82.999999999999091
 30
0.0
 11
-370.5000500000001
 21
-82.999999999999091
 31
0.0
  0
LINE
  8
DETAIL
  6
CONTINUOUS
 62
     5
 10
372.50004999999828
 20
-82.999999999999091
 30
0.0
 11
370.50005000000061
 21
-82.999999999999091
 31
0.0
  0
LINE
  8
DETAIL
  6
CONTINUOUS
 62
     5
 10
370.50005000000061
 20
-77.000000000003183
 30
0.0
 11
372.50004999999828
 21
-77.000000000003183
 31
0.0
  0
LINE
  8
DETAIL
  6
CONTINUOUS
 62
     5
 10
-370.5000500000001
 20
-77.000000000003183
 30
0.0
 11
-372.50004999999828
 21
-77.000000000003183
 31
0.0
  0
LINE
  8
DETAIL
  6
CONTINUOUS
 62
     5
 10
-399.00005000000101
 20
-74.999999999999773
 30
0.0
 11
-393.00004999999959
 21
-74.999999999999773
 31
0.0
  0
LINE
  8
DETAIL
  6
CONTINUOUS
 62
     5
 10
399.00005000000101
 20
-74.999999999999773
 30
0.0
 11
393.0000500000001
 21
-74.999999999999773
 31
0.0
  0
LINE
  8
DETAIL
  6
CONTINUOUS
 62
     5
 10
-396.19659280654793
 20
-139.53149724425751
 30
0.0
 11
-433.92770770799552
 21
-145.49802206933529
 31
0.0
  0
LINE
  8
DETAIL
  6
CONTINUOUS
 62
     5
 10
390.00004999999561
 20
-68.200000000001637
 30
0.0
 11
358.5000500000051
 21
-68.200000000001637
 31
0.0
  0
LINE
  8
DETAIL
  6
CONTINUOUS
 62
     5
 10
-358.50004999999783
 20
-68.200000000001637
 30
0.0
 11
-390.00005000000277
 21
-68.200000000001637
 31
0.0
  0
LINE
  8
DETAIL
  6
CONTINUOUS
 62
     5
 10
377.00004999999419
 20
-65.000000000000455
 30
0.0
 11
402.00004999999828
 21
-65.000000000000455
 31
0.0
  0
LINE
  8
DETAIL
  6
CONTINUOUS
 62
     5
 10
-377.00005000000101
 20
-65.000000000000455
 30
0.0
 11
-402.0000500000051
 21
-65.000000000000455
 31
0.0
  0
LINE
  8
DETAIL
  6
CONTINUOUS
 62
     5
 10
361.50005000000192
 20
-58.199999999998909
 30
0.0
 11
374.00004999999692
 21
-58.199999999998909
 31
0.0
  0
LINE
  8
DETAIL
  6
CONTINUOUS
 62
     5
 10
-361.50005000000192
 20
-58.199999999998909
 30
0.0
 11
-374.00004999999692
 21
-58.199999999998909
 31
0.0
  0
LINE
  8
DETAIL
  6
CONTINUOUS
 62
     5
 10
-383.50005000000192
 20
-2.5999999999976349
 30
0.0
 11
-381.50004999999652
 21
-2.5999999999976349
 31
0.0
  0
LINE
  8
DETAIL
  6
CONTINUOUS
 62
     5
 10
383.50004999999459
 20
-2.5999999999976349
 30
0.0
 11
381.50004999999692
 21
-2.5999999999976349
 31
0.0
  0
LINE
  8
DETAIL
  6
CONTINUOUS
 62
     5
 10
384.00004999999419
 20
-1.1000000000010459
 30
0.0
 11
389.15004999997609
 21
-1.0999999999992269
 31
0.0
  0
LINE
  8
DETAIL
  6
CONTINUOUS
 62
     5
 10
-384.00005000000152
 20
-1.1000000000010459
 30
0.0
 11
-389.15004999998291
 21
-1.0999999999992269
 31
0.0
  0
LINE
  8
DETAIL
  6
CONTINUOUS
 62
     5
 10
-381.50004999999652
 20
-0.5999999999996817
 30
0.0
 11
-376.90005000000252
 21
-0.5999999999996817
 31
0.0
  0
LINE
  8
DETAIL
  6
CONTINUOUS
 62
     5
 10
389.15004999997609
 20
-0.5999999999996817
 30
0.0
 11
383.45821558666239
 21
-0.5999999999996817
 31
0.0
  0
LINE
  8
DETAIL
  6
CONTINUOUS
 62
     5
 10
381.50004999999692
 20
-0.5999999999996817
 30
0.0
 11
376.9000500000102
 21
-0.5999999999996817
 31
0.0
  0
LINE
  8
DETAIL
  6
CONTINUOUS
 62
     5
 10
-383.45821558666972
 20
-0.5999999999996817
 30
0.0
 11
-389.15004999998291
 21
-0.5999999999996817
 31
0.0
  0
LINE
  8
DETAIL
  6
CONTINUOUS
 62
     5
 10
389.15004999999792
 20
0.0
 30
0.0
 11
383.45821558666239
 21
0.0
 31
0.0
  0
LINE
  8
DETAIL
  6
CONTINUOUS
 62
     5
 10
381.40004999999837
 20
0.0
 30
0.0
 11
-381.40004999999792
 21
0.0
 31
0.0
  0
LINE
  8
DETAIL
  6
CONTINUOUS
 62
     5
 10
-383.45821558666972
 20
0.0
 30
0.0
 11
-389.15004999999792
 21
0.0
 31
0.0
  0
LINE
  8
DETAIL
  6
CONTINUOUS
 62
     5
 10
-377.50005000000777
 20
-289.000000000005
 30
0.0
 11
-375.80004999999801
 21
-287.29999999999882
 31
0.0
  0
LINE
  8
DETAIL
  6
CONTINUOUS
 62
     5
 10
-377.50005000000777
 20
0.0
 30
0.0
 11
-375.80004999999801
 21
-1.700000000000728
 31
0.0
  0
LINE
  8
DETAIL
  6
CONTINUOUS
 62
     5
 10
-382.33844236133649
 20
-287.72201803999951
 30
0.0
 11
-382.22278077066181
 21
-286.40000000000009
 31
0.0
  0
LINE
  8
DETAIL
  6
CONTINUOUS
 62
     5
 10
-382.93615918000569
 20
-287.66972459466842
 30
0.0
 11
-382.82507267199748
 21
-286.40000000000009
 31
0.0
  0
LINE
  8
DETAIL
  6
CONTINUOUS
 62
     5
 10
-358.50004999999783
 20
-82.999999999999091
 30
0.0
 11
-358.50004999999783
 21
-61.20000000000141
 31
0.0
  0
LINE
  8
DETAIL
  6
CONTINUOUS
 62
     5
 10
-377.00005000000101
 20
-61.20000000000141
 30
0.0
 11
-377.00005000000101
 21
-68.200000000001637
 31
0.0
  0
LINE
  8
DETAIL
  6
CONTINUOUS
 62
     5
 10
-382.22278077066181
 20
-2.5999999999976349
 30
0.0
 11
-382.36240141866119
 21
-1.0041286826685789
 31
0.0
  0
LINE
  8
DETAIL
  6
CONTINUOUS
 62
     5
 10
-382.82507267199748
 20
-2.5999999999976349
 30
0.0
 11
-382.96011823733028
 21
-1.056422129337989
 31
0.0
  0
LINE
  8
DETAIL
  6
CONTINUOUS
 62
     5
 10
-381.40004999999792
 20
0.0
 30
0.0
 11
-381.40004999999792
 21
-0.5999999999996817
 31
0.0
  0
LINE
  8
DETAIL
  6
CONTINUOUS
 62
     5
 10
-381.40004999999792
 20
-289.00000000000318
 30
0.0
 11
-381.40004999999792
 21
-288.39999999999782
 31
0.0
  0
LINE
  8
DETAIL
  6
CONTINUOUS
 62
     5
 10
-381.50004999999652
 20
-0.5999999999996817
 30
0.0
 11
-381.50004999999652
 21
-2.5999999999976349
 31
0.0
  0
LINE
  8
DETAIL
  6
CONTINUOUS
 62
     5
 10
-381.50004999999652
 20
-288.39999999999782
 30
0.0
 11
-381.50004999999652
 21
-286.40000000000009
 31
0.0
  0
LINE
  8
DETAIL
  6
CONTINUOUS
 62
     5
 10
-383.00005000000237
 20
-1.599999999998545
 30
0.0
 11
-383.00005000000237
 21
-2.5999999999976349
 31
0.0
  0
LINE
  8
DETAIL
  6
CONTINUOUS
 62
     5
 10
-383.00005000000237
 20
-287.400000000001
 30
0.0
 11
-383.00005000000237
 21
-286.40000000000009
 31
0.0
  0
LINE
  8
DETAIL
  6
CONTINUOUS
 62
     5
 10
-383.50005000000192
 20
-287.400000000001
 30
0.0
 11
-383.50005000000192
 21
-88.000000000001364
 31
0.0
  0
LINE
  8
DETAIL
  6
CONTINUOUS
 62
     5
 10
-383.50005000000192
 20
-65.000000000000455
 30
0.0
 11
-383.50005000000192
 21
-1.599999999998545
 31
0.0
  0
LINE
  8
DETAIL
  6
CONTINUOUS
 62
     5
 10
-384.00005000000152
 20
-127.0000000013392
 30
0.0
 11
-384.00005000000152
 21
-262.00000000000108
 31
0.0
  0
LINE
  8
DETAIL
  6
CONTINUOUS
 62
     5
 10
-385.5000500000001
 20
-0.5999999999996817
 30
0.0
 11
-385.5000500000001
 21
-1.700000000000728
 31
0.0
  0
LINE
  8
DETAIL
  6
CONTINUOUS
 62
     5
 10
-388.50004999999692
 20
-0.5999999999996817
 30
0.0
 11
-388.50004999999692
 21
-1.1000000000010459
 31
0.0
  0
LINE
  8
DETAIL
  6
CONTINUOUS
 62
     5
 10
-388.50004999999692
 20
-287.90000000000049
 30
0.0
 11
-388.50004999999692
 21
-288.39999999999782
 31
0.0
  0
LINE
  8
DETAIL
  6
CONTINUOUS
 62
     5
 10
-390.00005000000277
 20
-72.000000000000909
 30
0.0
 11
-390.00005000000277
 21
-65.000000000000455
 31
0.0
  0
LINE
  8
DETAIL
  6
CONTINUOUS
 62
     5
 10
-402.0000500000051
 20
-109.9999999999993
 30
0.0
 11
-402.0000500000051
 21
-65.000000000000455
 31
0.0
  0
LINE
  8
DETAIL
  6
CONTINUOUS
 62
     5
 10
-444.00005000000061
 20
-241.85549109866949
 30
0.0
 11
-444.00005000000061
 21
-147.14450890266721
 31
0.0
  0
ARC
  8
DETAIL
  6
CONTINUOUS
 62
     5
 10
437.09245483600029
 20
-263.25
 30
0.0
 40
19.999999999999961
 50
90.000000000000014
 51
99.104600865424302
  0
CIRCLE
  8
DETAIL
  6
CONTINUOUS
 62
     5
 10
315.19422382399631
 20
-238.6941738240034
 30
0.0
 40
4.6999999999999922
  0
ARC
  8
DETAIL
  6
CONTINUOUS
 62
     5
 10
386.00004999999243
 20
-251.50000000000071
 30
0.0
 40
1.9999999999999969
 50
90.000000000000014
 51
180.0
  0
ARC
  8
DETAIL
  6
CONTINUOUS
 62
     5
 10
383.73311493999432
 20
-287.60000000000127
 30
0.0
 40
1.3999999999999979
 50
185.00000000005221
 51
270.0
  0
ARC
  8
DETAIL
  6
CONTINUOUS
 62
     5
 10
442.61895620133691
 20
-241.86890620133249
 30
0.0
 40
1.3810937986666649
 50
270.0
 51
0.000000000000007
  0
ARC
  8
DETAIL
  6
CONTINUOUS
 62
     5
 10
384.00004999999419
 20
-287.400000000001
 30
0.0
 40
0.9999999999999987
 50
180.0
 51
270.0
  0
ARC
  8
DETAIL
  6
CONTINUOUS
 62
     5
 10
383.73311493999432
 20
-287.60000000000127
 30
0.0
 40
0.7999999999999989
 50
185.00000000005221
 51
270.0
  0
ARC
  8
DETAIL
  6
CONTINUOUS
 62
     5
 10
384.00004999999419
 20
-287.400000000001
 30
0.0
 40
0.4999999999999993
 50
180.0
 51
270.0
  0
CIRCLE
  8
DETAIL
  6
CONTINUOUS
 62
     5
 10
315.19422382399631
 20
-150.305826175997
 30
0.0
 40
4.6999999999999922
  0
ARC
  8
DETAIL
  6
CONTINUOUS
 62
     5
 10
442.61895620133691
 20
-147.13109379866771
 30
0.0
 40
1.3810937986666649
 50
0.0
 51
90.000000000000014
  0
CIRCLE
  8
DETAIL
  6
CONTINUOUS
 62
     5
 10
226.80587617599889
 20
-238.6941738240034
 30
0.0
 40
4.6999999999999922
  0
CIRCLE
  8
DETAIL
  6
CONTINUOUS
 62
     5
 10
226.80587617599889
 20
-150.305826175997
 30
0.0
 40
4.6999999999999922
  0
ARC
  8
DETAIL
  6
CONTINUOUS
 62
     5
 10
437.09245483600029
 20
-125.7500000000002
 30
0.0
 40
19.999999999999961
 50
260.89539913457571
 51
270.0
  0
ARC
  8
DETAIL
  6
CONTINUOUS
 62
     5
 10
363.5000500000001
 20
-82.999999999999091
 30
0.0
 40
4.9999999999999938
 50
180.0
 51
270.0
  0
ARC
  8
DETAIL
  6
CONTINUOUS
 62
     5
 10
397.00005000000328
 20
-109.9999999999993
 30
0.0
 40
4.9999999999999938
 50
270.0
 51
0.000000000000007
  0
ARC
  8
DETAIL
  6
CONTINUOUS
 62
     5
 10
386.90005000000752
 20
-91.000000000000227
 30
0.0
 40
2.999999999999996
 50
270.0
 51
90.000000000000014
  0
ARC
  8
DETAIL
  6
CONTINUOUS
 62
     5
 10
370.50005000000061
 20
-80.000000000000227
 30
0.0
 40
2.999999999999996
 50
90.000000000000014
 51
270.0
  0
ARC
  8
DETAIL
  6
CONTINUOUS
 62
     5
 10
361.50005000000192
 20
-61.20000000000141
 30
0.0
 40
2.999999999999996
 50
90.000000000000014
 51
180.0
  0
ARC
  8
DETAIL
  6
CONTINUOUS
 62
     5
 10
374.00004999999692
 20
-61.20000000000141
 30
0.0
 40
2.999999999999996
 50
0.000000000000007
 51
90.000000000000014
  0
ARC
  8
DETAIL
  6
CONTINUOUS
 62
     5
 10
372.50004999999828
 20
-80.000000000000227
 30
0.0
 40
2.999999999999996
 50
270.0
 51
90.000000000000014
  0
ARC
  8
DETAIL
  6
CONTINUOUS
 62
     5
 10
393.0000500000001
 20
-72.000000000000909
 30
0.0
 40
2.999999999999996
 50
180.0
 51
270.0
  0
ARC
  8
DETAIL
  6
CONTINUOUS
 62
     5
 10
399.00005000000101
 20
-72.000000000000909
 30
0.0
 40
2.999999999999996
 50
270.0
 51
0.000000000000007
  0
CIRCLE
  8
DETAIL
  6
CONTINUOUS
 62
     5
 10
371.50004999999959
 20
-80.000000000000227
 30
0.0
 40
2.4999999999999969
  0
ARC
  8
DETAIL
  6
CONTINUOUS
 62
     5
 10
383.45821558666239
 20
-1.1000000000010459
 30
0.0
 40
1.099999999999999
 50
90.000000000000014
 51
174.99999999994779
  0
ARC
  8
DETAIL
  6
CONTINUOUS
 62
     5
 10
384.00004999999419
 20
-1.599999999998545
 30
0.0
 40
0.9999999999999987
 50
90.000000000000014
 51
180.0
  0
ARC
  8
DETAIL
  6
CONTINUOUS
 62
     5
 10
384.00004999999419
 20
-1.599999999998545
 30
0.0
 40
0.4999999999999993
 50
90.000000000000014
 51
180.0
  0
ARC
  8
DETAIL
  6
CONTINUOUS
 62
     5
 10
383.45821558666239
 20
-1.1000000000010459
 30
0.0
 40
0.4999999999999993
 50
90.000000000000014
 51
175.0000000000787
  0
ARC
  8
DETAIL
  6
CONTINUOUS
 62
     5
 10
-437.09245483466748
 20
-263.25
 30
0.0
 40
19.999999999999961
 50
80.895399134575726
 51
90.000000000000014
  0
ARC
  8
DETAIL
  6
CONTINUOUS
 62
     5
 10
-386.00004999999919
 20
-251.50000000000071
 30
0.0
 40
1.9999999999999969
 50
0.000000000000007
 51
90.000000000000014
  0
ARC
  8
DETAIL
  6
CONTINUOUS
 62
     5
 10
-383.73311493866822
 20
-287.60000000000127
 30
0.0
 40
1.3999999999999979
 50
270.0
 51
354.99999999994782
  0
ARC
  8
DETAIL
  6
CONTINUOUS
 62
     5
 10
-442.61895620132958
 20
-241.86890620133249
 30
0.0
 40
1.3810937986666649
 50
180.0
 51
270.0
  0
ARC
  8
DETAIL
  6
CONTINUOUS
 62
     5
 10
-384.00005000000152
 20
-287.400000000001
 30
0.0
 40
0.9999999999999987
 50
270.0
 51
0.000000000000007
  0
ARC
  8
DETAIL
  6
CONTINUOUS
 62
     5
 10
-383.73311493866822
 20
-287.60000000000127
 30
0.0
 40
0.7999999999999989
 50
270.0
 51
355.00000000007873
  0
ARC
  8
DETAIL
  6
CONTINUOUS
 62
     5
 10
-384.00005000000152
 20
-287.400000000001
 30
0.0
 40
0.4999999999999993
 50
270.0
 51
0.000000000000007
  0
ARC
  8
DETAIL
  6
CONTINUOUS
 62
     5
 10
-442.61895620132958
 20
-147.13109379866771
 30
0.0
 40
1.3810937986666649
 50
90.000000000000014
 51
180.0
  0
ARC
  8
DETAIL
  6
CONTINUOUS
 62
     5
 10
-437.09245483466748
 20
-125.7500000000002
 30
0.0
 40
19.999999999999961
 50
270.0
 51
279.10460086542429
  0
ARC
  8
DETAIL
  6
CONTINUOUS
 62
     5
 10
-397.00004999999561
 20
-109.9999999999993
 30
0.0
 40
4.9999999999999938
 50
180.0
 51
270.0
  0
ARC
  8
DETAIL
  6
CONTINUOUS
 62
     5
 10
-363.5000500000001
 20
-82.999999999999091
 30
0.0
 40
4.9999999999999938
 50
270.0
 51
0.000000000000007
  0
ARC
  8
DETAIL
  6
CONTINUOUS
 62
     5
 10
-386.90004999999968
 20
-91.000000000000227
 30
0.0
 40
2.999999999999996
 50
90.000000000000014
 51
270.0
  0
ARC
  8
DETAIL
  6
CONTINUOUS
 62
     5
 10
-370.5000500000001
 20
-80.000000000000227
 30
0.0
 40
2.999999999999996
 50
270.0
 51
90.000000000000014
  0
ARC
  8
DETAIL
  6
CONTINUOUS
 62
     5
 10
-372.50004999999828
 20
-80.000000000000227
 30
0.0
 40
2.999999999999996
 50
90.000000000000014
 51
270.0
  0
ARC
  8
DETAIL
  6
CONTINUOUS
 62
     5
 10
-393.00004999999959
 20
-72.000000000000909
 30
0.0
 40
2.999999999999996
 50
270.0
 51
0.000000000000007
  0
ARC
  8
DETAIL
  6
CONTINUOUS
 62
     5
 10
-399.00005000000101
 20
-72.000000000000909
 30
0.0
 40
2.999999999999996
 50
180.0
 51
270.0
  0
CIRCLE
  8
DETAIL
  6
CONTINUOUS
 62
     5
 10
-371.50004999999919
 20
-80.000000000000227
 30
0.0
 40
2.4999999999999969
  0
ARC
  8
DETAIL
  6
CONTINUOUS
 62
     5
 10
-361.50005000000192
 20
-61.20000000000141
 30
0.0
 40
2.999999999999996
 50
0.000000000000007
 51
90.000000000000014
  0
ARC
  8
DETAIL
  6
CONTINUOUS
 62
     5
 10
-374.00004999999692
 20
-61.20000000000141
 30
0.0
 40
2.999999999999996
 50
90.000000000000014
 51
180.0
  0
ARC
  8
DETAIL
  6
CONTINUOUS
 62
     5
 10
-383.45821558666972
 20
-1.1000000000010459
 30
0.0
 40
1.099999999999999
 50
5.0000000000522133
 51
90.000000000000014
  0
ARC
  8
DETAIL
  6
CONTINUOUS
 62
     5
 10
-384.00005000000152
 20
-1.599999999998545
 30
0.0
 40
0.9999999999999987
 50
0.000000000000007
 51
89.999999999895792
  0
ARC
  8
DETAIL
  6
CONTINUOUS
 62
     5
 10
-383.45821558666972
 20
-1.1000000000010459
 30
0.0
 40
0.4999999999999993
 50
4.9999999999213021
 51
90.000000000000014
  0
ARC
  8
DETAIL
  6
CONTINUOUS
 62
     5
 10
-384.00005000000152
 20
-1.599999999998545
 30
0.0
 40
0.4999999999999993
 50
0.000000000000007
 51
90.000000000000014
  0
LINE
  8
BASIS
  6
DASHDOT
 62
     6
 10
-449.00005000012652
 20
-194.50000000066939
 30
0.0
 11
-376.37827785463651
 21
-194.50000000066939
 31
0.0
1001
GENIUS_GENODEF_13
1002
{
1000
HIER
1070
     0
1002
}
1002
{
1000
MANEDIT
1070
     0
1002
}
1002
{
1000
NOSEL
1070
     0
1002
}
1002
{
1000
BEHIND
1070
     0
1002
}
1002
{
1000
OTHER
1070
     0
1002
}
1002
{
1000
REACTOR
1002
}
1001
GENIUS_GENOBJ-N-CEN_13
1002
{
1000
OWNER
1000
GEN
1002
}
1001
GENIUS_GENCEN_19
1002
{
1040
5.0
1002
}
  0
LINE
  8
DETAIL
  6
CONTINUOUS
 62
     5
 10
-385.5000500000001
 20
-1.700000000000728
 30
0.0
 11
-389.15004999999792
 21
-1.700000000002547
 31
0.0
  0
ARC
  8
DETAIL
  6
CONTINUOUS
 62
     5
 10
-389.15004999999792
 20
-0.8500000000012733
 30
0.0
 40
0.8500000000006169
 50
91.904872881073302
 51
270.0
  0
ARC
  8
DETAIL
  6
CONTINUOUS
 62
     5
 10
-389.15004999998291
 20
-0.8499999999994543
 30
0.0
 40
0.2499999999998977
 50
90.000000000000014
 51
270.0
  0
LINE
  8
DETAIL
  6
CONTINUOUS
 62
     5
 10
385.50004999999283
 20
-1.1000000000010459
 30
0.0
 11
385.5000500000001
 21
-1.700000000000728
 31
0.0
  0
LINE
  8
DETAIL
  6
CONTINUOUS
 62
     5
 10
385.5000500000001
 20
-1.700000000000728
 30
0.0
 11
389.15004999999792
 21
-1.700000000002547
 31
0.0
  0
ARC
  8
DETAIL
  6
CONTINUOUS
 62
     5
 10
389.15004999999792
 20
-0.8500000000012733
 30
0.0
 40
0.8500000000006169
 50
270.0
 51
90.000000000000014
  0
ARC
  8
DETAIL
  6
CONTINUOUS
 62
     5
 10
389.15004999997609
 20
-0.8499999999994543
 30
0.0
 40
0.2499999999998977
 50
270.0
 51
90.000000000000014
  0
LINE
  8
DETAIL
  6
CONTINUOUS
 62
     5
 10
375.80004999999801
 20
-1.700000000000728
 30
0.0
 11
-375.80004999999801
 21
-1.700000000000728
 31
0.0
  0
LINE
  8
DETAIL
  6
CONTINUOUS
 62
     5
 10
-396.19659280654793
 20
-139.53149724425751
 30
0.0
 11
-395.80099939466658
 21
-139.50000000133761
 31
0.0
  0
LINE
  8
DETAIL
  6
CONTINUOUS
 62
     5
 10
-383.50005000000192
 20
-127.0000000013392
 30
0.0
 11
-384.00005000000152
 21
-127.0000000013392
 31
0.0
  0
LINE
  8
DETAIL
  6
CONTINUOUS
 62
     5
 10
-395.80099939466658
 20
-139.50000000133761
 30
0.0
 11
-386.00004999999919
 21
-139.50000000133761
 31
0.0
  0
ARC
  8
DETAIL
  6
CONTINUOUS
 62
     5
 10
-386.00004999999919
 20
-137.50000000133971
 30
0.0
 40
1.9999999999999969
 50
270.0
 51
0.000000000000007
  0
LINE
  8
DETAIL
  6
CONTINUOUS
 62
     5
 10
-385.5000500000001
 20
-287.90000000000049
 30
0.0
 11
-385.5000500000001
 21
-287.29999999999882
 31
0.0
  0
LINE
  8
DETAIL
  6
CONTINUOUS
 62
     5
 10
-385.5000500000001
 20
-287.29999999999882
 30
0.0
 11
-389.15004999999792
 21
-287.299999999997
 31
0.0
  0
ARC
  8
DETAIL
  6
CONTINUOUS
 62
     5
 10
-389.15004999999792
 20
-288.14999999999827
 30
0.0
 40
0.8500000000006169
 50
90.000000000000014
 51
270.0
  0
ARC
  8
DETAIL
  6
CONTINUOUS
 62
     5
 10
-389.15004999998291
 20
-288.15000000000009
 30
0.0
 40
0.2499999999998977
 50
90.000000000000014
 51
270.0
  0
LINE
  8
DETAIL
  6
CONTINUOUS
 62
     5
 10
385.50004999999283
 20
-287.90000000000242
 30
0.0
 11
385.5000500000001
 21
-287.29999999999882
 31
0.0
  0
LINE
  8
DETAIL
  6
CONTINUOUS
 62
     5
 10
385.5000500000001
 20
-287.29999999999882
 30
0.0
 11
389.15004999999792
 21
-287.299999999997
 31
0.0
  0
ARC
  8
DETAIL
  6
CONTINUOUS
 62
     5
 10
389.15004999999792
 20
-288.14999999999827
 30
0.0
 40
0.8500000000006169
 50
270.0
 51
90.000000000000014
  0
ARC
  8
DETAIL
  6
CONTINUOUS
 62
     5
 10
389.15004999997609
 20
-288.15000000000009
 30
0.0
 40
0.2499999999998977
 50
270.0
 51
90.000000000000014
  0
LINE
  8
DETAIL
  6
CONTINUOUS
 62
     5
 10
375.80004999999801
 20
-287.29999999999882
 30
0.0
 11
-375.80004999999801
 21
-287.29999999999882
 31
0.0
  0
LINE
  8
DETAIL
  6
CONTINUOUS
 62
     5
 10
-437.09245483466748
 20
-145.75000000000051
 30
0.0
 11
-437.09245483466748
 21
-243.2499999999998
 31
0.0
  0
LINE
  8
DETAIL
  6
CONTINUOUS
 62
     5
 10
437.09245483466748
 20
-145.75000000000051
 30
0.0
 11
437.09245483466748
 21
-243.2499999999998
 31
0.0
  0
CIRCLE
  8
DETAIL
  6
DASHED
 62
     5
 10
271.00005000000459
 20
-194.50000000000139
 30
0.0
 40
55.000000001374922
  0
LINE
  8
DETAIL
  6
CONTINUOUS
 62
     5
 10
383.50004999999459
 20
-127.0000000000027
 30
0.0
 11
384.00004999999419
 21
-127.0000000000027
 31
0.0
  0
LINE
  8
DETAIL
  6
CONTINUOUS
 62
     5
 10
396.19659278950479
 20
-139.53149724156449
 30
0.0
 11
395.8009993959995
 21
-139.50000000000301
 31
0.0
  0
LINE
  8
DETAIL
  6
CONTINUOUS
 62
     5
 10
395.8009993959995
 20
-139.50000000000301
 30
0.0
 11
386.00004999999243
 21
-139.50000000000301
 31
0.0
  0
ARC
  8
DETAIL
  6
CONTINUOUS
 62
     5
 10
386.00004999999243
 20
-137.50000000000321
 30
0.0
 40
1.9999999999999969
 50
180.0
 51
270.0
  0
LINE
  8
BASIS
  6
DASHDOT
 62
     6
 10
271.00005000000459
 20
-122.9471788702276
 30
0.0
 11
271.00005000000459
 21
-266.83392764028622
 31
0.0
  0
LINE
  8
SIZE
  6
CONTINUOUS
 62
    30
 10
390.00004999999868
 20
19.14999999999873
 30
0.0
 11
390.00004999999868
 21
299.93919198804042
 31
0.0
  0
LINE
  8
SIZE
  6
CONTINUOUS
 62
    30
 10
-389.99993256280322
 20
19.13587097169739
 30
0.0
 11
-389.99993256280322
 21
299.93919198804042
 31
0.0
  0
LINE
  8
SIZE
  6
CONTINUOUS
 62
    30
 10
378.00004999999868
 20
279.93919198804042
 30
0.0
 11
-377.99993256280322
 21
279.93919198804042
 31
0.0
  0
CIRCLE
  8
SIZE
  6
CONTINUOUS
 62
    30
 10
390.00004999999868
 20
279.93919198804042
 30
0.0
 40
6.0
  0
LINE
  8
SIZE
  6
CONTINUOUS
 62
    30
 10
390.00004999999868
 20
279.93919198804042
 30
0.0
 11
378.00004999999868
 21
279.93919198804042
 31
0.0
  0
CIRCLE
  8
SIZE
  6
CONTINUOUS
 62
    30
 10
-389.99993256280322
 20
279.93919198804042
 30
0.0
 40
6.0
  0
LINE
  8
SIZE
  6
CONTINUOUS
 62
    30
 10
-389.99993256280322
 20
279.93919198804042
 30
0.0
 11
-377.99993256280322
 21
279.93919198804042
 31
0.0
  0
TEXT
  8
SIZE
  6
CONTINUOUS
 62
    30
 10
-80.927941281402241
 20
304.93919198804042
 30
0.0
 40
64.0
  1
780
 50
0.0
 41
0.9
 51
0.0
  7
STANDARD
 71
     0
 72
     1
 11
0.0000587185977565
 21
304.93919198804042
 31
0.0
210
0.0
220
0.0
230
1.0
  0
POINT
  8
DEFPOINTS
  6
CONTINUOUS
 62
    30
 10
390.00004999999868
 20
-0.8500000000012733
 30
0.0
  0
POINT
  8
DEFPOINTS
  6
CONTINUOUS
 62
    30
 10
-389.99993256280322
 20
-0.8641290283026137
 30
0.0
  0
POINT
  8
DEFPOINTS
  6
CONTINUOUS
 62
    30
 10
-389.99993256280322
 20
279.93919198804042
 30
0.0
  0
LINE
  8
SIZE
  6
CONTINUOUS
 62
    30
 10
390.00004999999868
 20
19.14999999999873
 30
0.0
 11
390.00004999999868
 21
299.93919198804042
 31
0.0
  0
LINE
  8
SIZE
  6
CONTINUOUS
 62
    30
 10
444.00004999999328
 20
-127.1445088493363
 30
0.0
 11
444.00004999999328
 21
299.93919198804042
 31
0.0
  0
LINE
  8
SIZE
  6
CONTINUOUS
 62
    30
 10
378.00004999999868
 20
279.93919198804042
 30
0.0
 11
366.00004999999868
 21
279.93919198804042
 31
0.0
  0
LINE
  8
SIZE
  6
CONTINUOUS
 62
    30
 10
456.00004999999328
 20
279.93919198804042
 30
0.0
 11
468.00004999999328
 21
279.93919198804042
 31
0.0
  0
LINE
  8
SIZE
  6
CONTINUOUS
 62
    30
 10
390.00004999999868
 20
279.93919198804042
 30
0.0
 11
444.00004999999328
 21
279.93919198804042
 31
0.0
  0
CIRCLE
  8
SIZE
  6
CONTINUOUS
 62
    30
 10
390.00004999999868
 20
279.93919198804042
 30
0.0
 40
6.0
  0
LINE
  8
SIZE
  6
CONTINUOUS
 62
    30
 10
390.00004999999868
 20
279.93919198804042
 30
0.0
 11
378.00004999999868
 21
279.93919198804042
 31
0.0
  0
CIRCLE
  8
SIZE
  6
CONTINUOUS
 62
    30
 10
444.00004999999328
 20
279.93919198804042
 30
0.0
 40
6.0
  0
LINE
  8
SIZE
  6
CONTINUOUS
 62
    30
 10
444.00004999999328
 20
279.93919198804042
 30
0.0
 11
456.00004999999328
 21
279.93919198804042
 31
0.0
  0
TEXT
  8
SIZE
  6
CONTINUOUS
 62
    30
 10
362.856049999996
 20
304.93919198804042
 30
0.0
 40
64.0
  1
54
 50
0.0
 41
0.9
 51
0.0
  7
STANDARD
 71
     0
 72
     1
 11
417.00004999999601
 21
304.93919198804042
 31
0.0
210
0.0
220
0.0
230
1.0
  0
POINT
  8
DEFPOINTS
  6
CONTINUOUS
 62
    30
 10
390.00004999999868
 20
-0.8500000000012733
 30
0.0
  0
POINT
  8
DEFPOINTS
  6
CONTINUOUS
 62
    30
 10
444.00004999999328
 20
-147.14450884933629
 30
0.0
  0
POINT
  8
DEFPOINTS
  6
CONTINUOUS
 62
    30
 10
444.00004999999328
 20
279.93919198804042
 30
0.0
  0
LINE
  8
SIZE
  6
CONTINUOUS
 62
    30
 10
-389.99993256280322
 20
19.13587097169739
 30
0.0
 11
-389.99993256280322
 21
299.50229183457708
 31
0.0
  0
LINE
  8
SIZE
  6
CONTINUOUS
 62
    30
 10
-444.00005000000061
 20
-127.1445089026672
 30
0.0
 11
-444.00005000000061
 21
299.50229183457708
 31
0.0
  0
LINE
  8
SIZE
  6
CONTINUOUS
 62
    30
 10
-377.99993256280322
 20
279.50229183457708
 30
0.0
 11
-365.99993256280322
 21
279.50229183457708
 31
0.0
  0
LINE
  8
SIZE
  6
CONTINUOUS
 62
    30
 10
-456.00005000000061
 20
279.50229183457708
 30
0.0
 11
-468.00005000000061
 21
279.50229183457708
 31
0.0
  0
LINE
  8
SIZE
  6
CONTINUOUS
 62
    30
 10
-389.99993256280322
 20
279.50229183457708
 30
0.0
 11
-444.00005000000061
 21
279.50229183457708
 31
0.0
  0
CIRCLE
  8
SIZE
  6
CONTINUOUS
 62
    30
 10
-389.99993256280322
 20
279.50229183457708
 30
0.0
 40
6.0
  0
LINE
  8
SIZE
  6
CONTINUOUS
 62
    30
 10
-389.99993256280322
 20
279.50229183457708
 30
0.0
 11
-377.99993256280322
 21
279.50229183457708
 31
0.0
  0
CIRCLE
  8
SIZE
  6
CONTINUOUS
 62
    30
 10
-444.00005000000061
 20
279.50229183457708
 30
0.0
 40
6.0
  0
LINE
  8
SIZE
  6
CONTINUOUS
 62
    30
 10
-444.00005000000061
 20
279.50229183457708
 30
0.0
 11
-456.00005000000061
 21
279.50229183457708
 31
0.0
  0
TEXT
  8
SIZE
  6
CONTINUOUS
 62
    30
 10
-471.1439912814019
 20
304.50229183457708
 30
0.0
 40
64.0
  1
54
 50
0.0
 41
0.9
 51
0.0
  7
STANDARD
 71
     0
 72
     1
 11
-416.99999128140189
 21
304.50229183457708
 31
0.0
210
0.0
220
0.0
230
1.0
  0
POINT
  8
DEFPOINTS
  6
CONTINUOUS
 62
    30
 10
-389.99993256280322
 20
-0.8641290283026137
 30
0.0
  0
POINT
  8
DEFPOINTS
  6
CONTINUOUS
 62
    30
 10
-444.00005000000061
 20
-147.14450890266721
 30
0.0
  0
POINT
  8
DEFPOINTS
  6
CONTINUOUS
 62
    30
 10
-444.00005000000061
 20
279.50229183457708
 30
0.0
  0
LINE
  8
SIZE
  6
CONTINUOUS
 62
    30
 10
530.16671666666173
 20
-144.4999999999998
 30
0.0
 11
770.07082028910247
 21
-144.4999999999998
 31
0.0
  0
LINE
  8
SIZE
  6
CONTINUOUS
 62
    30
 10
484.94263661439868
 20
-194.5000000000031
 30
0.0
 11
770.07082028910247
 21
-194.50000000000301
 31
0.0
  0
LINE
  8
SIZE
  6
CONTINUOUS
 62
    30
 10
750.07082028910236
 20
-132.4999999999998
 30
0.0
 11
750.07082028910236
 21
-120.4999999999998
 31
0.0
  0
LINE
  8
SIZE
  6
CONTINUOUS
 62
    30
 10
750.07082028910236
 20
-206.50000000000301
 30
0.0
 11
750.07082028910247
 21
-428.33359639167418
 31
0.0
  0
LINE
  8
SIZE
  6
CONTINUOUS
 62
    30
 10
750.07082028910236
 20
-144.4999999999998
 30
0.0
 11
750.07082028910236
 21
-194.50000000000301
 31
0.0
  0
CIRCLE
  8
SIZE
  6
CONTINUOUS
 62
    30
 10
750.07082028910236
 20
-144.4999999999998
 30
0.0
 40
6.0
  0
LINE
  8
SIZE
  6
CONTINUOUS
 62
    30
 10
750.07082028910236
 20
-144.4999999999998
 30
0.0
 11
750.07082028910236
 21
-132.4999999999998
 31
0.0
  0
CIRCLE
  8
SIZE
  6
CONTINUOUS
 62
    30
 10
750.07082028910236
 20
-194.50000000000301
 30
0.0
 40
6.0
  0
LINE
  8
SIZE
  6
CONTINUOUS
 62
    30
 10
750.07082028910236
 20
-194.50000000000301
 30
0.0
 11
750.07082028910236
 21
-206.50000000000301
 31
0.0
  0
TEXT
  8
SIZE
  6
CONTINUOUS
 62
    30
 10
725.07082028910224
 20
-410.84902496310292
 30
0.0
 40
64.0
  1
50
 50
90.0
 41
0.9
 51
0.0
  7
STANDARD
 71
     0
 72
     1
 11
725.07082028910224
 21
-356.70502496310291
 31
0.0
210
0.0
220
0.0
230
1.0
  0
POINT
  8
DEFPOINTS
  6
CONTINUOUS
 62
    30
 10
510.16671666666178
 20
-144.4999999999998
 30
0.0
  0
POINT
  8
DEFPOINTS
  6
CONTINUOUS
 62
    30
 10
464.94263661439868
 20
-194.5000000000031
 30
0.0
  0
POINT
  8
DEFPOINTS
  6
CONTINUOUS
 62
    30
 10
750.07082028910236
 20
-194.50000000000301
 30
0.0
  0
LINE
  8
SIZE
  6
CONTINUOUS
 62
    30
 10
-462.61895620132992
 20
-145.75000000000051
 30
0.0
 11
-645.9500796704325
 21
-145.7500000000006
 31
0.0
  0
LINE
  8
SIZE
  6
CONTINUOUS
 62
    30
 10
-462.61895620132992
 20
-243.25000000000171
 30
0.0
 11
-645.9500796704325
 21
-243.25000000000179
 31
0.0
  0
LINE
  8
SIZE
  6
CONTINUOUS
 62
    30
 10
-625.9500796704325
 20
-157.7500000000006
 30
0.0
 11
-625.9500796704325
 21
-231.25000000000179
 31
0.0
  0
LINE
  8
SIZE
  6
CONTINUOUS
 62
    30
 10
-625.9500796704325
 20
-243.25000000000179
 30
0.0
 11
-625.95007967043239
 21
-532.90714285714648
 31
0.0
  0
CIRCLE
  8
SIZE
  6
CONTINUOUS
 62
    30
 10
-625.9500796704325
 20
-145.7500000000006
 30
0.0
 40
6.0
  0
LINE
  8
SIZE
  6
CONTINUOUS
 62
    30
 10
-625.9500796704325
 20
-145.7500000000006
 30
0.0
 11
-625.9500796704325
 21
-157.7500000000006
 31
0.0
  0
CIRCLE
  8
SIZE
  6
CONTINUOUS
 62
    30
 10
-625.9500796704325
 20
-243.25000000000179
 30
0.0
 40
6.0
  0
LINE
  8
SIZE
  6
CONTINUOUS
 62
    30
 10
-625.9500796704325
 20
-243.25000000000179
 30
0.0
 11
-625.9500796704325
 21
-231.25000000000179
 31
0.0
  0
TEXT
  8
SIZE
  6
CONTINUOUS
 62
    30
 10
-650.95007967043239
 20
-522.81457142857471
 30
0.0
 40
64.0
  1
φ97.5
 50
90.0
 41
0.9
 51
0.0
  7
STANDARD
 71
     0
 72
     1
 11
-650.95007967043239
 21
-394.07857142857478
 31
0.0
210
0.0
220
0.0
230
1.0
  0
POINT
  8
DEFPOINTS
  6
CONTINUOUS
 62
    30
 10
-442.61895620132992
 20
-145.75000000000051
 30
0.0
  0
POINT
  8
DEFPOINTS
  6
CONTINUOUS
 62
    30
 10
-442.61895620132992
 20
-243.25000000000171
 30
0.0
  0
POINT
  8
DEFPOINTS
  6
CONTINUOUS
 62
    30
 10
-625.9500796704325
 20
-243.25000000000179
 30
0.0
  0
LINE
  8
SIZE
  6
CONTINUOUS
 62
    30
 10
-415.80099939466692
 20
-139.5000000013377
 30
0.0
 11
-769.21075429878533
 21
-139.50000000133781
 31
0.0
  0
LINE
  8
SIZE
  6
CONTINUOUS
 62
    30
 10
-415.80099939466692
 20
-249.50000000000281
 30
0.0
 11
-769.21075429878533
 21
-249.5000000000029
 31
0.0
  0
LINE
  8
SIZE
  6
CONTINUOUS
 62
    30
 10
-749.21075429878522
 20
-151.50000000133781
 30
0.0
 11
-749.21075429878522
 21
-237.5000000000029
 31
0.0
  0
LINE
  8
SIZE
  6
CONTINUOUS
 62
    30
 10
-749.21075429878522
 20
-249.5000000000029
 30
0.0
 11
-749.2107542987851
 21
-489.78571428571928
 31
0.0
  0
CIRCLE
  8
SIZE
  6
CONTINUOUS
 62
    30
 10
-749.21075429878522
 20
-139.50000000133781
 30
0.0
 40
6.0
  0
LINE
  8
SIZE
  6
CONTINUOUS
 62
    30
 10
-749.21075429878522
 20
-139.50000000133781
 30
0.0
 11
-749.21075429878522
 21
-151.50000000133781
 31
0.0
  0
CIRCLE
  8
SIZE
  6
CONTINUOUS
 62
    30
 10
-749.21075429878522
 20
-249.5000000000029
 30
0.0
 40
6.0
  0
LINE
  8
SIZE
  6
CONTINUOUS
 62
    30
 10
-749.21075429878522
 20
-249.5000000000029
 30
0.0
 11
-749.21075429878522
 21
-237.5000000000029
 31
0.0
  0
TEXT
  8
SIZE
  6
CONTINUOUS
 62
    30
 10
-774.2107542987851
 20
-479.61085714286196
 30
0.0
 40
64.0
  1
φ110
 50
90.0
 41
0.9
 51
0.0
  7
STANDARD
 71
     0
 72
     1
 11
-774.2107542987851
 21
-375.64285714286189
 31
0.0
210
0.0
220
0.0
230
1.0
  0
POINT
  8
DEFPOINTS
  6
CONTINUOUS
 62
    30
 10
-395.80099939466692
 20
-139.5000000013377
 30
0.0
  0
POINT
  8
DEFPOINTS
  6
CONTINUOUS
 62
    30
 10
-395.80099939466692
 20
-249.50000000000281
 30
0.0
  0
POINT
  8
DEFPOINTS
  6
CONTINUOUS
 62
    30
 10
-749.21075429878522
 20
-249.5000000000029
 30
0.0
  0
LINE
  8
SIZE
  6
CONTINUOUS
 62
    30
 10
-409.15004999999809
 20
-0.0000000000000032
 30
0.0
 11
-645.9500796704325
 21
-0.0000000000000413
 31
0.0
  0
LINE
  8
SIZE
  6
CONTINUOUS
 62
    30
 10
-460.50005000141778
 20
-65.000000000000483
 30
0.0
 11
-645.9500796704325
 21
-65.000000000000512
 31
0.0
  0
LINE
  8
SIZE
  6
CONTINUOUS
 62
    30
 10
-625.9500796704325
 20
-77.000000000000512
 30
0.0
 11
-625.9500796704325
 21
-89.000000000000512
 31
0.0
  0
LINE
  8
SIZE
  6
CONTINUOUS
 62
    30
 10
-625.9500796704325
 20
11.99999999999997
 30
0.0
 11
-625.9500796704325
 21
167.25714285714281
 31
0.0
  0
LINE
  8
SIZE
  6
CONTINUOUS
 62
    30
 10
-625.9500796704325
 20
-65.000000000000512
 30
0.0
 11
-625.9500796704325
 21
-0.0000000000000381
 31
0.0
  0
CIRCLE
  8
SIZE
  6
CONTINUOUS
 62
    30
 10
-625.9500796704325
 20
-65.000000000000512
 30
0.0
 40
6.0
  0
LINE
  8
SIZE
  6
CONTINUOUS
 62
    30
 10
-625.9500796704325
 20
-65.000000000000512
 30
0.0
 11
-625.9500796704325
 21
-77.000000000000512
 31
0.0
  0
CIRCLE
  8
SIZE
  6
CONTINUOUS
 62
    30
 10
-625.9500796704325
 20
-0.0000000000000381
 30
0.0
 40
6.0
  0
LINE
  8
SIZE
  6
CONTINUOUS
 62
    30
 10
-625.9500796704325
 20
-0.0000000000000381
 30
0.0
 11
-625.9500796704325
 21
11.999999999999963
 31
0.0
  0
TEXT
  8
SIZE
  6
CONTINUOUS
 62
    30
 10
-650.95007967043239
 20
42.060571428571578
 30
0.0
 40
64.0
  1
65
 50
90.0
 41
0.9
 51
0.0
  7
STANDARD
 71
     0
 72
     1
 11
-650.95007967043239
 21
95.628571428571561
 31
0.0
210
0.0
220
0.0
230
1.0
  0
POINT
  8
DEFPOINTS
  6
CONTINUOUS
 62
    30
 10
-389.15004999999809
 20
0.0
 30
0.0
  0
POINT
  8
DEFPOINTS
  6
CONTINUOUS
 62
    30
 10
-440.50005000141778
 20
-65.000000000000483
 30
0.0
  0
POINT
  8
DEFPOINTS
  6
CONTINUOUS
 62
    30
 10
-625.9500796704325
 20
-65.000000000000512
 30
0.0
  0
LINE
  8
SIZE
  6
CONTINUOUS
 62
    30
 10
409.15004999999809
 20
-288.99999999999778
 30
0.0
 11
899.70608288336905
 21
-288.99999999999778
 31
0.0
  0
LINE
  8
SIZE
  6
CONTINUOUS
 62
    30
 10
409.15004999999809
 20
0.0000000000000032
 30
0.0
 11
899.70608288336894
 21
0.0000000000000821
 31
0.0
  0
LINE
  8
SIZE
  6
CONTINUOUS
 62
    30
 10
879.70608288336905
 20
-276.99999999999778
 30
0.0
 11
879.70608288336894
 21
-11.999999999999931
 31
0.0
  0
CIRCLE
  8
SIZE
  6
CONTINUOUS
 62
    30
 10
879.70608288336905
 20
-288.99999999999778
 30
0.0
 40
6.0
  0
LINE
  8
SIZE
  6
CONTINUOUS
 62
    30
 10
879.70608288336905
 20
-288.99999999999778
 30
0.0
 11
879.70608288336905
 21
-276.99999999999778
 31
0.0
  0
CIRCLE
  8
SIZE
  6
CONTINUOUS
 62
    30
 10
879.70608288336894
 20
0.0000000000000789
 30
0.0
 40
6.0
  0
LINE
  8
SIZE
  6
CONTINUOUS
 62
    30
 10
879.70608288336894
 20
0.0000000000000789
 30
0.0
 11
879.70608288336894
 21
-11.999999999999922
 31
0.0
  0
TEXT
  8
SIZE
  6
CONTINUOUS
 62
    30
 10
854.70608288336871
 20
-224.85199999999907
 30
0.0
 40
64.0
  1
289
 50
90.0
 41
0.9
 51
0.0
  7
STANDARD
 71
     0
 72
     1
 11
854.70608288336871
 21
-144.49999999999909
 31
0.0
210
0.0
220
0.0
230
1.0
  0
POINT
  8
DEFPOINTS
  6
CONTINUOUS
 62
    30
 10
389.15004999999809
 20
-288.99999999999778
 30
0.0
  0
POINT
  8
DEFPOINTS
  6
CONTINUOUS
 62
    30
 10
389.15004999999809
 20
0.0
 30
0.0
  0
POINT
  8
DEFPOINTS
  6
CONTINUOUS
 62
    30
 10
879.70608288336894
 20
0.0000000000000789
 30
0.0
  0
LINE
  8
SIZE
  6
CONTINUOUS
 62
    30
 10
390.00004999999868
 20
-308.14999999999827
 30
0.0
 11
390.00004999999868
 21
-470.01018716656341
 31
0.0
  0
LINE
  8
SIZE
  6
CONTINUOUS
 62
    30
 10
271.00005000000459
 20
-286.83392764028622
 30
0.0
 11
271.00005000000459
 21
-470.01018716656341
 31
0.0
  0
LINE
  8
SIZE
  6
CONTINUOUS
 62
    30
 10
283.00005000000459
 20
-450.01018716656341
 30
0.0
 11
378.00004999999868
 21
-450.01018716656341
 31
0.0
  0
LINE
  8
SIZE
  6
CONTINUOUS
 62
    30
 10
390.00004999999868
 20
-450.01018716656341
 30
0.0
 11
575.42862142857018
 21
-450.01018716656341
 31
0.0
  0
CIRCLE
  8
SIZE
  6
CONTINUOUS
 62
    30
 10
271.00005000000459
 20
-450.01018716656341
 30
0.0
 40
6.0
  0
LINE
  8
SIZE
  6
CONTINUOUS
 62
    30
 10
271.00005000000459
 20
-450.01018716656341
 30
0.0
 11
283.00005000000459
 21
-450.01018716656341
 31
0.0
  0
CIRCLE
  8
SIZE
  6
CONTINUOUS
 62
    30
 10
390.00004999999868
 20
-450.01018716656341
 30
0.0
 40
6.0
  0
LINE
  8
SIZE
  6
CONTINUOUS
 62
    30
 10
390.00004999999868
 20
-450.01018716656341
 30
0.0
 11
378.00004999999868
 21
-450.01018716656341
 31
0.0
  0
TEXT
  8
SIZE
  6
CONTINUOUS
 62
    30
 10
419.88233571428452
 20
-425.01018716656341
 30
0.0
 40
64.0
  1
119
 50
0.0
 41
0.9
 51
0.0
  7
STANDARD
 71
     0
 72
     1
 11
488.71433571428452
 21
-425.01018716656341
 31
0.0
210
0.0
220
0.0
230
1.0
  0
POINT
  8
DEFPOINTS
  6
CONTINUOUS
 62
    30
 10
390.00004999999868
 20
-288.14999999999827
 30
0.0
  0
POINT
  8
DEFPOINTS
  6
CONTINUOUS
 62
    30
 10
271.00005000000459
 20
-266.83392764028622
 30
0.0
  0
POINT
  8
DEFPOINTS
  6
CONTINUOUS
 62
    30
 10
271.00005000000459
 20
-450.01018716656341
 30
0.0
  0
LINE
  8
SIZE
  6
CONTINUOUS
 62
    30
 10
409.15004999999809
 20
0.0000000000000032
 30
0.0
 11
770.07082028910258
 21
0.0000000000000613
 31
0.0
  0
LINE
  8
SIZE
  6
CONTINUOUS
 62
    30
 10
460.50005000140959
 20
-65.000000000000483
 30
0.0
 11
770.07082028910258
 21
-65.000000000000426
 31
0.0
  0
LINE
  8
SIZE
  6
CONTINUOUS
 62
    30
 10
750.07082028910247
 20
-77.000000000000426
 30
0.0
 11
750.07082028910247
 21
-89.000000000000426
 31
0.0
  0
LINE
  8
SIZE
  6
CONTINUOUS
 62
    30
 10
750.07082028910247
 20
12.00000000000006
 30
0.0
 11
750.07082028910247
 21
167.25714285714321
 31
0.0
  0
LINE
  8
SIZE
  6
CONTINUOUS
 62
    30
 10
750.07082028910247
 20
-65.000000000000426
 30
0.0
 11
750.07082028910247
 21
0.000000000000058
 31
0.0
  0
CIRCLE
  8
SIZE
  6
CONTINUOUS
 62
    30
 10
750.07082028910247
 20
-65.000000000000426
 30
0.0
 40
6.0
  0
LINE
  8
SIZE
  6
CONTINUOUS
 62
    30
 10
750.07082028910247
 20
-65.000000000000426
 30
0.0
 11
750.07082028910247
 21
-77.000000000000426
 31
0.0
  0
CIRCLE
  8
SIZE
  6
CONTINUOUS
 62
    30
 10
750.07082028910247
 20
0.000000000000058
 30
0.0
 40
6.0
  0
LINE
  8
SIZE
  6
CONTINUOUS
 62
    30
 10
750.07082028910247
 20
0.000000000000058
 30
0.0
 11
750.07082028910247
 21
12.000000000000059
 31
0.0
  0
TEXT
  8
SIZE
  6
CONTINUOUS
 62
    30
 10
725.07082028910236
 20
42.060571428571578
 30
0.0
 40
64.0
  1
65
 50
90.0
 41
0.9
 51
0.0
  7
STANDARD
 71
     0
 72
     1
 11
725.07082028910236
 21
95.628571428571561
 31
0.0
210
0.0
220
0.0
230
1.0
  0
POINT
  8
DEFPOINTS
  6
CONTINUOUS
 62
    30
 10
389.15004999999809
 20
0.0
 30
0.0
  0
POINT
  8
DEFPOINTS
  6
CONTINUOUS
 62
    30
 10
440.50005000140959
 20
-65.000000000000483
 30
0.0
  0
POINT
  8
DEFPOINTS
  6
CONTINUOUS
 62
    30
 10
750.07082028910247
 20
-65.000000000000426
 30
0.0
  0
LINE
  8
BASIS
  6
DASHDOT
 62
     6
 10
384.00004999999828
 20
-8.4999999985873274
 30
0.0
 11
384.00004999999828
 21
-121.5000000014138
 31
0.0
  0
LINE
  8
BASIS
  6
DASHDOT
 62
     6
 10
327.50004999858669
 20
-65.000000000000455
 30
0.0
 11
440.50005000140942
 21
-65.000000000000455
 31
0.0
  0
LINE
  8
BASIS
  6
DASHDOT
 62
     6
 10
-384.00005000000237
 20
-8.4999999985875547
 30
0.0
 11
-384.00005000000237
 21
-121.5000000014138
 31
0.0
  0
LINE
  8
BASIS
  6
DASHDOT
 62
     6
 10
-440.50005000141749
 20
-65.000000000000455
 30
0.0
 11
-327.49994999859427
 21
-65.000000000000455
 31
0.0
  0
LINE
  8
SIZE
  6
CONTINUOUS
 62
    30
 10
383.50004999999419
 20
11.000000001413349
 30
0.0
 11
383.50004999999419
 21
192.67319364170291
 31
0.0
  0
LINE
  8
SIZE
  6
CONTINUOUS
 62
    30
 10
-384.00005000000237
 20
11.000000001413349
 30
0.0
 11
-384.00005000000237
 21
192.67319364170291
 31
0.0
  0
LINE
  8
SIZE
  6
CONTINUOUS
 62
    30
 10
371.50004999999419
 20
172.67319364170291
 30
0.0
 11
-372.00005000000237
 21
172.67319364170291
 31
0.0
  0
CIRCLE
  8
SIZE
  6
CONTINUOUS
 62
    30
 10
383.50004999999419
 20
172.67319364170291
 30
0.0
 40
6.0
  0
LINE
  8
SIZE
  6
CONTINUOUS
 62
    30
 10
383.50004999999419
 20
172.67319364170291
 30
0.0
 11
371.50004999999419
 21
172.67319364170291
 31
0.0
  0
CIRCLE
  8
SIZE
  6
CONTINUOUS
 62
    30
 10
-384.00005000000237
 20
172.67319364170291
 30
0.0
 40
6.0
  0
LINE
  8
SIZE
  6
CONTINUOUS
 62
    30
 10
-384.00005000000237
 20
172.67319364170291
 30
0.0
 11
-372.00005000000237
 21
172.67319364170291
 31
0.0
  0
TEXT
  8
SIZE
  6
CONTINUOUS
 62
    30
 10
-80.602000000004097
 20
197.67319364170294
 30
0.0
 40
64.0
  1
768
 50
0.0
 41
0.9
 51
0.0
  7
STANDARD
 71
     0
 72
     1
 11
-0.2500000000040927
 21
197.67319364170294
 31
0.0
210
0.0
220
0.0
230
1.0
  0
POINT
  8
DEFPOINTS
  6
CONTINUOUS
 62
    30
 10
383.50004999999419
 20
-8.9999999985866452
 30
0.0
  0
POINT
  8
DEFPOINTS
  6
CONTINUOUS
 62
    30
 10
-384.00005000000237
 20
-8.9999999985866452
 30
0.0
  0
POINT
  8
DEFPOINTS
  6
CONTINUOUS
 62
    30
 10
-384.00005000000237
 20
172.67319364170291
 30
0.0
  0
CIRCLE
  8
FIX
  6
CONTINUOUS
 62
    11
 10
384.00004999999828
 20
-65.000000000000455
 30
0.0
 40
6.5
  0
CIRCLE
  8
FIX
  6
CONTINUOUS
 62
    11
 10
-384.00005000000601
 20
-65.000000000000455
 30
0.0
 40
6.5
  0
TEXT
  8
NOTE
  6
CONTINUOUS
 62
     4
 10
-568.757722268051
 20
-225.60433168443461
 30
0.0
 40
64.065641025638456
  1
RA
 41
0.9
  0
TEXT
  8
NOTE
  6
CONTINUOUS
 62
     4
 10
464.42224974057638
 20
-225.60433168443461
 30
0.0
 40
64.065641025638456
  1
EA
 41
0.9
  0
POINT
  8
ARRANGE
  6
CONTINUOUS
 62
     1
 10
0.0
 20
0.0
 30
0.0
 50
180.0
  0
CIRCLE
  8
ARRANGE
  6
CONTINUOUS
 62
     1
 10
0.0
 20
0.0
 30
0.0
 40
40.041025641024042
  0
LINE
  8
OUTLINE
  6
CONTINUOUS
 62
     3
 10
386.00004999999243
 20
-249.50000000000111
 30
0.0
 11
395.99741050430612
 21
-249.5000000000027
 31
0.0
  0
LINE
  8
OUTLINE
  6
CONTINUOUS
 62
     3
 10
395.99741050430612
 20
-249.5000000000027
 30
0.0
 11
434.00953810249479
 21
-243.48903786719211
 31
0.0
  0
ARC
  8
OUTLINE
  6
CONTINUOUS
 62
     3
 10
437.0924548360008
 20
-263.24999999999699
 30
0.0
 40
19.999999999997009
 50
90.0
 51
98.867260952019706
  0
LINE
  8
OUTLINE
  6
CONTINUOUS
 62
     3
 10
437.09245483600131
 20
-243.25
 30
0.0
 11
442.61895620133652
 21
-243.24999999999909
 31
0.0
  0
ARC
  8
OUTLINE
  6
CONTINUOUS
 62
     3
 10
442.61895620133646
 20
-241.86890620133224
 30
0.0
 40
1.3810937986668472
 50
270.0
 51
0.0
  0
LINE
  8
OUTLINE
  6
CONTINUOUS
 62
     3
 10
444.00005000000328
 20
-241.86890620133229
 30
0.0
 11
444.00005000000368
 21
-147.13109379866819
 31
0.0
  0
ARC
  8
OUTLINE
  6
CONTINUOUS
 62
     3
 10
442.61895620133635
 20
-147.13109379866825
 30
0.0
 40
1.3810937986673324
 50
0.0
 51
90.0
  0
LINE
  8
OUTLINE
  6
CONTINUOUS
 62
     3
 10
442.61895620133691
 20
-145.75000000000091
 30
0.0
 11
437.09245483599852
 21
-145.7500000000002
 31
0.0
  0
ARC
  8
OUTLINE
  6
CONTINUOUS
 62
     3
 10
437.09245483599494
 20
-125.75000000007552
 30
0.0
 40
19.999999999924682
 50
260.89540005668573
 51
270.0
  0
LINE
  8
OUTLINE
  6
CONTINUOUS
 62
     3
 10
433.92770802742638
 20
-145.49802211963581
 30
0.0
 11
395.9974105057936
 21
-139.50000000000301
 31
0.0
  0
LINE
  8
OUTLINE
  6
CONTINUOUS
 62
     3
 10
395.9974105057936
 20
-139.50000000000301
 30
0.0
 11
386.00004999999243
 21
-139.50000000000321
 31
0.0
  0
ARC
  8
OUTLINE
  6
CONTINUOUS
 62
     3
 10
386.00004999999197
 20
-137.50000000000364
 30
0.0
 40
1.9999999999995726
 50
180.0
 51
270.0
  0
LINE
  8
OUTLINE
  6
CONTINUOUS
 62
     3
 10
384.00004999999243
 20
-137.50000000000321
 30
0.0
 11
384.00004999999419
 21
-127.0000000000027
 31
0.0
  0
LINE
  8
OUTLINE
  6
CONTINUOUS
 62
     3
 10
384.00004999999419
 20
-127.0000000000027
 30
0.0
 11
383.50004999999459
 21
-127.0000000000027
 31
0.0
  0
LINE
  8
OUTLINE
  6
CONTINUOUS
 62
     3
 10
383.50004999999459
 20
-127.0000000000027
 30
0.0
 11
383.50004999999459
 21
-115.0
 31
0.0
  0
LINE
  8
OUTLINE
  6
CONTINUOUS
 62
     3
 10
383.50004999999459
 20
-115.0
 30
0.0
 11
397.00005000000328
 21
-114.9999999999993
 31
0.0
  0
ARC
  8
OUTLINE
  6
CONTINUOUS
 62
     3
 10
397.0000500000038
 20
-109.99999999999979
 30
0.0
 40
4.9999999999995142
 50
270.0
 51
0.0
  0
LINE
  8
OUTLINE
  6
CONTINUOUS
 62
     3
 10
402.00005000000328
 20
-109.9999999999993
 30
0.0
 11
402.00004999999828
 21
-65.000000000000455
 31
0.0
  0
LINE
  8
OUTLINE
  6
CONTINUOUS
 62
     3
 10
402.00004999999828
 20
-65.000000000000455
 30
0.0
 11
383.50004999999459
 21
-65.000000000000455
 31
0.0
  0
LINE
  8
OUTLINE
  6
CONTINUOUS
 62
     3
 10
383.50004999999459
 20
-65.000000000000455
 30
0.0
 11
383.50004999999419
 21
-1.599999999998545
 31
0.0
  0
ARC
  8
OUTLINE
  6
CONTINUOUS
 62
     3
 10
384.00004999999419
 20
-1.5999999999985353
 30
0.0
 40
0.4999999999999902
 50
90.0
 51
180.0
  0
LINE
  8
OUTLINE
  6
CONTINUOUS
 62
     3
 10
384.00004999999419
 20
-1.099999999998545
 30
0.0
 11
385.50004999999283
 21
-1.099999999998772
 31
0.0
  0
LINE
  8
OUTLINE
  6
CONTINUOUS
 62
     3
 10
385.50004999999283
 20
-1.099999999998772
 30
0.0
 11
385.5000500000001
 21
-1.700000000000728
 31
0.0
  0
LINE
  8
OUTLINE
  6
CONTINUOUS
 62
     3
 10
385.5000500000001
 20
-1.700000000000728
 30
0.0
 11
389.15004999999752
 21
-1.700000000001864
 31
0.0
  0
ARC
  8
OUTLINE
  6
CONTINUOUS
 62
     3
 10
389.15004999999707
 20
-0.8500000000010457
 30
0.0
 40
0.8500000000008183
 50
270.0
 51
90.0
  0
LINE
  8
OUTLINE
  6
CONTINUOUS
 62
     3
 10
389.15004999999661
 20
-0.0000000000002274
 30
0.0
 11
383.45821558666239
 21
-0.0000000000011369
 31
0.0
  0
ARC
  8
OUTLINE
  6
CONTINUOUS
 62
     3
 10
383.45821558666256
 20
-1.1000000000017893
 30
0.0
 40
1.1000000000006525
 50
90.0
 51
174.99731431413966
  0
LINE
  8
OUTLINE
  6
CONTINUOUS
 62
     3
 10
382.36240591384279
 20
-1.004077317824567
 30
0.0
 11
382.22278077066898
 21
-2.5999999999976349
 31
0.0
  0
LINE
  8
OUTLINE
  6
CONTINUOUS
 62
     3
 10
382.22278077066898
 20
-2.5999999999976349
 30
0.0
 11
381.50004999999692
 21
-2.5999999999976349
 31
0.0
  0
LINE
  8
OUTLINE
  6
CONTINUOUS
 62
     3
 10
381.50004999999692
 20
-2.5999999999976349
 30
0.0
 11
381.50004999999692
 21
-0.5999999999996817
 31
0.0
  0
LINE
  8
OUTLINE
  6
CONTINUOUS
 62
     3
 10
381.50004999999692
 20
-0.5999999999996817
 30
0.0
 11
381.40004999999837
 21
-0.5999999999996817
 31
0.0
  0
LINE
  8
OUTLINE
  6
CONTINUOUS
 62
     3
 10
381.40004999999837
 20
-0.5999999999996817
 30
0.0
 11
381.40004999999837
 21
0.0
 31
0.0
  0
LINE
  8
OUTLINE
  6
CONTINUOUS
 62
     3
 10
381.40004999999837
 20
0.0
 30
0.0
 11
-381.40004999999792
 21
0.0
 31
0.0
  0
LINE
  8
OUTLINE
  6
CONTINUOUS
 62
     3
 10
-381.40004999999792
 20
0.0
 30
0.0
 11
-381.40004999999792
 21
-0.5999999999996817
 31
0.0
  0
LINE
  8
OUTLINE
  6
CONTINUOUS
 62
     3
 10
-381.40004999999792
 20
-0.5999999999996817
 30
0.0
 11
-381.50004999999652
 21
-0.5999999999996817
 31
0.0
  0
LINE
  8
OUTLINE
  6
CONTINUOUS
 62
     3
 10
-381.50004999999652
 20
-0.5999999999996817
 30
0.0
 11
-381.50004999999652
 21
-2.5999999999976349
 31
0.0
  0
LINE
  8
OUTLINE
  6
CONTINUOUS
 62
     3
 10
-381.50004999999652
 20
-2.5999999999976349
 30
0.0
 11
-382.22278077066181
 21
-2.5999999999976349
 31
0.0
  0
LINE
  8
OUTLINE
  6
CONTINUOUS
 62
     3
 10
-382.22278077066181
 20
-2.5999999999976349
 30
0.0
 11
-382.36240141872622
 21
-1.004128683464387
 31
0.0
  0
ARC
  8
OUTLINE
  6
CONTINUOUS
 62
     3
 10
-383.45821558667012
 20
-1.1000000000016603
 30
0.0
 40
1.1000000000005237
 50
4.9999999746309527
 51
90.0
  0
LINE
  8
OUTLINE
  6
CONTINUOUS
 62
     3
 10
-383.45821558666972
 20
-0.0000000000011369
 30
0.0
 11
-389.15004999999792
 21
-0.0000000000004547
 31
0.0
  0
ARC
  8
OUTLINE
  6
CONTINUOUS
 62
     3
 10
-389.15004999999746
 20
-0.8500000000012733
 30
0.0
 40
0.8500000000008186
 50
90.0
 51
270.0
  0
LINE
  8
OUTLINE
  6
CONTINUOUS
 62
     3
 10
-389.15004999999701
 20
-1.7000000000020921
 30
0.0
 11
-385.5000500000001
 21
-1.700000000000728
 31
0.0
  0
LINE
  8
OUTLINE
  6
CONTINUOUS
 62
     3
 10
-385.5000500000001
 20
-1.700000000000728
 30
0.0
 11
-385.5000500000001
 21
-1.1000000000005909
 31
0.0
  0
LINE
  8
OUTLINE
  6
CONTINUOUS
 62
     3
 10
-385.5000500000001
 20
-1.1000000000005909
 30
0.0
 11
-384.00005000000152
 21
-1.099999999998545
 31
0.0
  0
ARC
  8
OUTLINE
  6
CONTINUOUS
 62
     3
 10
-384.00005000000129
 20
-1.5999999999983412
 30
0.0
 40
0.4999999999997962
 50
0.0
 51
90.0
  0
LINE
  8
OUTLINE
  6
CONTINUOUS
 62
     3
 10
-383.50005000000152
 20
-1.599999999998545
 30
0.0
 11
-383.50005000000192
 21
-65.000000000000455
 31
0.0
  0
LINE
  8
OUTLINE
  6
CONTINUOUS
 62
     3
 10
-383.50005000000192
 20
-65.000000000000455
 30
0.0
 11
-402.0000500000051
 21
-65.000000000000455
 31
0.0
  0
LINE
  8
OUTLINE
  6
CONTINUOUS
 62
     3
 10
-402.0000500000051
 20
-65.000000000000455
 30
0.0
 11
-402.00004999999561
 21
-109.9999999999995
 31
0.0
  0
ARC
  8
OUTLINE
  6
CONTINUOUS
 62
     3
 10
-397.00004999999561
 20
-109.9999999999995
 30
0.0
 40
4.9999999999999991
 50
180.0
 51
270.0
  0
LINE
  8
OUTLINE
  6
CONTINUOUS
 62
     3
 10
-397.00004999999601
 20
-114.9999999999995
 30
0.0
 11
-383.50005000000192
 21
-115.0
 31
0.0
  0
LINE
  8
OUTLINE
  6
CONTINUOUS
 62
     3
 10
-383.50005000000192
 20
-115.0
 30
0.0
 11
-383.50005000000192
 21
-127.0000000013392
 31
0.0
  0
LINE
  8
OUTLINE
  6
CONTINUOUS
 62
     3
 10
-383.50005000000192
 20
-127.0000000013392
 30
0.0
 11
-384.00005000000152
 21
-127.0000000013392
 31
0.0
  0
LINE
  8
OUTLINE
  6
CONTINUOUS
 62
     3
 10
-384.00005000000152
 20
-127.0000000013392
 30
0.0
 11
-384.00004999999919
 21
-137.50000000133991
 31
0.0
  0
ARC
  8
OUTLINE
  6
CONTINUOUS
 62
     3
 10
-386.00004999999908
 20
-137.50000000134006
 30
0.0
 40
1.9999999999998641
 50
270.0
 51
0.0
  0
LINE
  8
OUTLINE
  6
CONTINUOUS
 62
     3
 10
-386.00004999999868
 20
-139.50000000133991
 30
0.0
 11
-395.99741051425372
 21
-139.50000000133761
 31
0.0
  0
LINE
  8
OUTLINE
  6
CONTINUOUS
 62
     3
 10
-395.99741051425372
 20
-139.50000000133761
 30
0.0
 11
-434.00953746988807
 21
-145.5109620343228
 31
0.0
  0
ARC
  8
OUTLINE
  6
CONTINUOUS
 62
     3
 10
-437.0924548346668
 20
-125.75000000001373
 30
0.0
 40
19.999999999986471
 50
270.0
 51
278.86726278236347
  0
LINE
  8
OUTLINE
  6
CONTINUOUS
 62
     3
 10
-437.09245483466788
 20
-145.7500000000002
 30
0.0
 11
-442.61895620132958
 21
-145.75000000000111
 31
0.0
  0
ARC
  8
OUTLINE
  6
CONTINUOUS
 62
     3
 10
-442.61895620133112
 20
-147.13109379866688
 30
0.0
 40
1.3810937986657796
 50
90.0
 51
180.0
  0
LINE
  8
OUTLINE
  6
CONTINUOUS
 62
     3
 10
-444.00004999999692
 20
-147.13109379866771
 30
0.0
 11
-444.00004999999652
 21
-241.86890620133161
 31
0.0
  0
ARC
  8
OUTLINE
  6
CONTINUOUS
 62
     3
 10
-442.61895620132793
 20
-241.86890620133121
 30
0.0
 40
1.3810937986685938
 50
180.0
 51
270.0
  0
LINE
  8
OUTLINE
  6
CONTINUOUS
 62
     3
 10
-442.61895620132958
 20
-243.2499999999998
 30
0.0
 11
-437.09245483465929
 21
-243.25
 31
0.0
  0
ARC
  8
OUTLINE
  6
CONTINUOUS
 62
     3
 10
-437.09245483466935
 20
-263.25000000002092
 30
0.0
 40
20.000000000020933
 50
80.895398234952893
 51
90.0
  0
LINE
  8
OUTLINE
  6
CONTINUOUS
 62
     3
 10
-433.92770739819252
 20
-243.50197798098949
 30
0.0
 11
-395.99741050431288
 21
-249.5000000000027
 31
0.0
  0
LINE
  8
OUTLINE
  6
CONTINUOUS
 62
     3
 10
-395.99741050431288
 20
-249.5000000000027
 30
0.0
 11
-386.00004999999919
 21
-249.50000000000071
 31
0.0
  0
ARC
  8
OUTLINE
  6
CONTINUOUS
 62
     3
 10
-386.00004999999965
 20
-251.50000000000117
 30
0.0
 40
2.0000000000004463
 50
0.0
 51
90.0
  0
LINE
  8
OUTLINE
  6
CONTINUOUS
 62
     3
 10
-384.00004999999919
 20
-251.50000000000071
 30
0.0
 11
-384.00005000000152
 21
-262.00000000000108
 31
0.0
  0
LINE
  8
OUTLINE
  6
CONTINUOUS
 62
     3
 10
-384.00005000000152
 20
-262.00000000000108
 30
0.0
 11
-383.50005000000192
 21
-262.00000000000108
 31
0.0
  0
LINE
  8
OUTLINE
  6
CONTINUOUS
 62
     3
 10
-383.50005000000192
 20
-262.00000000000108
 30
0.0
 11
-383.50005000000152
 21
-287.400000000001
 31
0.0
  0
ARC
  8
OUTLINE
  6
CONTINUOUS
 62
     3
 10
-384.00005000000152
 20
-287.400000000001
 30
0.0
 40
0.4999999999999902
 50
270.0
 51
0.0
  0
LINE
  8
OUTLINE
  6
CONTINUOUS
 62
     3
 10
-384.00005000000152
 20
-287.900000000001
 30
0.0
 11
-385.5000500000001
 21
-287.900000000001
 31
0.0
  0
LINE
  8
OUTLINE
  6
CONTINUOUS
 62
     3
 10
-385.5000500000001
 20
-287.900000000001
 30
0.0
 11
-385.5000500000001
 21
-287.29999999999882
 31
0.0
  0
LINE
  8
OUTLINE
  6
CONTINUOUS
 62
     3
 10
-385.5000500000001
 20
-287.29999999999882
 30
0.0
 11
-389.15004999999752
 21
-287.29999999999768
 31
0.0
  0
ARC
  8
OUTLINE
  6
CONTINUOUS
 62
     3
 10
-389.15004999999792
 20
-288.14999999999833
 30
0.0
 40
0.8500000000006197
 50
90.0
 51
270.0
  0
LINE
  8
OUTLINE
  6
CONTINUOUS
 62
     3
 10
-389.15004999999837
 20
-288.99999999999892
 30
0.0
 11
-383.73311493866908
 21
-289.00000000000142
 31
0.0
  0
ARC
  8
OUTLINE
  6
CONTINUOUS
 62
     3
 10
-383.73311493866822
 20
-287.60000000000122
 30
0.0
 40
1.4000000000001838
 50
270.0
 51
355.00000003449099
  0
LINE
  8
OUTLINE
  6
CONTINUOUS
 62
     3
 10
-382.33844236126612
 20
-287.72201803900839
 30
0.0
 11
-382.22278077066181
 21
-286.40000000000009
 31
0.0
  0
LINE
  8
OUTLINE
  6
CONTINUOUS
 62
     3
 10
-382.22278077066181
 20
-286.40000000000009
 30
0.0
 11
-381.50004999999652
 21
-286.40000000000009
 31
0.0
  0
LINE
  8
OUTLINE
  6
CONTINUOUS
 62
     3
 10
-381.50004999999652
 20
-286.40000000000009
 30
0.0
 11
-381.50004999999652
 21
-288.39999999999782
 31
0.0
  0
LINE
  8
OUTLINE
  6
CONTINUOUS
 62
     3
 10
-381.50004999999652
 20
-288.39999999999782
 30
0.0
 11
-381.40004999999792
 21
-288.39999999999782
 31
0.0
  0
LINE
  8
OUTLINE
  6
CONTINUOUS
 62
     3
 10
-381.40004999999792
 20
-288.39999999999782
 30
0.0
 11
-381.40004999999792
 21
-289.00000000000318
 31
0.0
  0
LINE
  8
OUTLINE
  6
CONTINUOUS
 62
     3
 10
-381.40004999999792
 20
-289.00000000000318
 30
0.0
 11
381.40004999999837
 21
-289.00000000000318
 31
0.0
  0
LINE
  8
OUTLINE
  6
CONTINUOUS
 62
     3
 10
381.40004999999837
 20
-289.00000000000318
 30
0.0
 11
381.40004999999837
 21
-288.39999999999782
 31
0.0
  0
LINE
  8
OUTLINE
  6
CONTINUOUS
 62
     3
 10
381.40004999999837
 20
-288.39999999999782
 30
0.0
 11
381.50004999999692
 21
-288.39999999999782
 31
0.0
  0
LINE
  8
OUTLINE
  6
CONTINUOUS
 62
     3
 10
381.50004999999692
 20
-288.39999999999782
 30
0.0
 11
381.50004999999692
 21
-286.40000000000009
 31
0.0
  0
LINE
  8
OUTLINE
  6
CONTINUOUS
 62
     3
 10
381.50004999999692
 20
-286.40000000000009
 30
0.0
 11
382.22278077066898
 21
-286.40000000000009
 31
0.0
  0
LINE
  8
OUTLINE
  6
CONTINUOUS
 62
     3
 10
382.22278077066898
 20
-286.40000000000009
 30
0.0
 11
382.33844236271352
 21
-287.72201804039628
 31
0.0
  0
ARC
  8
OUTLINE
  6
CONTINUOUS
 62
     3
 10
383.73311493999427
 20
-287.60000000000031
 30
0.0
 40
1.4000000000003643
 50
185.00000002256297
 51
270.0
  0
LINE
  8
OUTLINE
  6
CONTINUOUS
 62
     3
 10
383.73311493999557
 20
-289.00000000000068
 30
0.0
 11
389.15004999999837
 21
-288.99999999999892
 31
0.0
  0
ARC
  8
OUTLINE
  6
CONTINUOUS
 62
     3
 10
389.15004999999837
 20
-288.1499999999985
 30
0.0
 40
0.8500000000004206
 50
270.0
 51
90.0
  0
LINE
  8
OUTLINE
  6
CONTINUOUS
 62
     3
 10
389.15004999999837
 20
-287.29999999999808
 30
0.0
 11
385.5000500000001
 21
-287.29999999999882
 31
0.0
  0
LINE
  8
OUTLINE
  6
CONTINUOUS
 62
     3
 10
385.5000500000001
 20
-287.29999999999882
 30
0.0
 11
385.50004999999283
 21
-287.90000000000049
 31
0.0
  0
LINE
  8
OUTLINE
  6
CONTINUOUS
 62
     3
 10
385.50004999999283
 20
-287.90000000000049
 30
0.0
 11
384.00004999999419
 21
-287.900000000001
 31
0.0
  0
ARC
  8
OUTLINE
  6
CONTINUOUS
 62
     3
 10
384.00004999999396
 20
-287.40000000000123
 30
0.0
 40
0.4999999999997962
 50
180.0
 51
270.0
  0
LINE
  8
OUTLINE
  6
CONTINUOUS
 62
     3
 10
383.50004999999419
 20
-287.400000000001
 30
0.0
 11
383.50004999999419
 21
-262.00000000000108
 31
0.0
  0
LINE
  8
OUTLINE
  6
CONTINUOUS
 62
     3
 10
383.50004999999419
 20
-262.00000000000108
 30
0.0
 11
384.00004999999419
 21
-262.00000000000108
 31
0.0
  0
LINE
  8
OUTLINE
  6
CONTINUOUS
 62
     3
 10
384.00004999999419
 20
-262.00000000000108
 30
0.0
 11
384.00004999999243
 21
-251.50000000000159
 31
0.0
  0
ARC
  8
OUTLINE
  6
CONTINUOUS
 62
     3
 10
386.00004999999339
 20
-251.50000000000207
 30
0.0
 40
2.0000000000009797
 50
90.0
 51
180.0
  0
TEXT
  8
ETC
  6
CONTINUOUS
 62
    61
 10
772.06728004951128
 20
799.53931228992155
 30
0.0
 40
64.065641025638456
  1
LGH-15RVX3-E_4
 41
0.9
  0
TEXT
  8
ETC
  6
CONTINUOUS
 62
    61
 10
767.87699272233112
 20
681.46302246995174
 30
0.0
 40
64.065641025638456
  1
LOSSNAY
 41
0.9
  0
TEXT
  8
ETC
  6
CONTINUOUS
 62
    61
 10
818.6303924049862
 20
573.20332776538578
 30
0.0
 40
40.041025641024042
  1
LGH-15RVX3-E
 50
0.0
 41
0.9
 51
0.0
  7
STANDARD
 71
     0
 11
0.0
 21
0.0
 31
0.0
210
0.0
220
0.0
230
1.0
  0
TEXT
  8
NOTE
  6
CONTINUOUS
 62
     4
 10
525.508927226987
 20
384.50919809606012
 30
0.0
 40
69.0
  1
Ceiling suspension fixture
 50
0.0
 41
0.9
 51
0.0
  7
STANDARD
 71
     0
 11
0.0
 21
0.0
 31
0.0
210
0.0
220
0.0
230
1.0
  0
TEXT
  8
NOTE
  6
CONTINUOUS
 62
     4
 10
525.508927226987
 20
270.65919809606009
 30
0.0
 40
69.0
  1
(4-13X20 oval)
 50
0.0
 41
0.9
 51
0.0
  7
STANDARD
 71
     0
 11
0.0
 21
0.0
 31
0.0
210
0.0
220
0.0
230
1.0
  0
LINE
  8
NOTE
  6
CONTINUOUS
 62
     4
 10
515.508927226987
 20
233.36634095320281
 30
0.0
 11
1732.023212941273
 21
233.36634095320281
 31
0.0
  0
LINE
  8
NOTE
  6
CONTINUOUS
 62
     4
 10
405.88660443359458
 20
-36.122144999851145
 30
0.0
 11
384.00005423527728
 21
-64.999999724172994
 31
0.0
  0
LINE
  8
NOTE
  6
CONTINUOUS
 62
     4
 10
384.00005423527728
 20
-64.999999724172994
 30
0.0
 11
388.51538116806819
 21
-29.047762022570708
 31
0.0
  0
LINE
  8
NOTE
  6
CONTINUOUS
 62
     4
 10
384.00005423527728
 20
-64.999999724172994
 30
0.0
 11
410.4019313663855
 21
-0.1699072982488588
 31
0.0
  0
LINE
  8
NOTE
  6
CONTINUOUS
 62
     4
 10
410.40193136638538
 20
-0.1699072982488303
 30
0.0
 11
505.508927226987
 21
233.36634095320281
 31
0.0
  0
LINE
  8
NOTE
  6
CONTINUOUS
 62
     4
 10
505.508927226987
 20
233.36634095320281
 30
0.0
 11
515.508927226987
 21
233.36634095320281
 31
0.0
  0
ENDSEC
  0
EOF
