  0
SECTION
  2
HEADER
  9
$ACADVER
  1
AC1009
  9
$DWGCODEPAGE
  3
dos932
  9
$INSBASE
 10
0.0
 20
0.0
 30
0.0
  9
$EXTMIN
 10
-846.55149736971725
 20
-514.29747372667589
 30
-0.0000000000112498
  9
$EXTMAX
 10
1688.571179330545
 20
863.89160990236633
 30
0.0000000000002956
  9
$LIMMIN
 10
-2970.0
 20
-2100.0
  9
$LIMMAX
 10
2970.0
 20
2100.0
  9
$ORTHOMODE
 70
     1
  9
$REGENMODE
 70
     1
  9
$FILLMODE
 70
     1
  9
$QTEXTMODE
 70
     0
  9
$MIRRTEXT
 70
     0
  9
$LTSCALE
 40
20.0
  9
$ATTMODE
 70
     1
  9
$TEXTSIZE
 40
64.0
  9
$TRACEWID
 40
0.05
  9
$TEXTSTYLE
  7
STANDARD
  9
$CLAYER
  8
SIZE
  9
$CELTYPE
  6
CONTINUOUS
  9
$CECOLOR
 62
     7
  9
$DIMSCALE
 40
1.0
  9
$DIMASZ
 40
12.0
  9
$DIMEXO
 40
20.0
  9
$DIMDLI
 40
200.0
  9
$DIMRND
 40
0.0
  9
$DIMDLE
 40
0.0
  9
$DIMEXE
 40
20.0
  9
$DIMTP
 40
0.0
  9
$DIMTM
 40
0.0
  9
$DIMTXT
 40
64.0
  9
$DIMCEN
 40
0.09
  9
$DIMTSZ
 40
0.0
  9
$DIMTOL
 70
     0
  9
$DIMLIM
 70
     0
  9
$DIMTIH
 70
     0
  9
$DIMTOH
 70
     0
  9
$DIMSE1
 70
     0
  9
$DIMSE2
 70
     0
  9
$DIMTAD
 70
     1
  9
$DIMZIN
 70
     8
  9
$DIMBLK
  1

  9
$DIMASO
 70
     1
  9
$DIMSHO
 70
     0
  9
$DIMPOST
  1

  9
$DIMAPOST
  1

  9
$DIMALT
 70
     0
  9
$DIMALTD
 70
     2
  9
$DIMALTF
 40
25.399999999999999
  9
$DIMLFAC
 40
1.0
  9
$DIMTOFL
 70
     1
  9
$DIMTVP
 40
0.0
  9
$DIMTIX
 70
     1
  9
$DIMSOXD
 70
     0
  9
$DIMSAH
 70
     0
  9
$DIMBLK1
  1

  9
$DIMBLK2
  1

  9
$DIMSTYLE
  2
STANDARD
  9
$DIMCLRD
 70
     7
  9
$DIMCLRE
 70
     7
  9
$DIMCLRT
 70
     7
  9
$DIMTFAC
 40
1.0
  9
$DIMGAP
 40
25.0
  9
$LUNITS
 70
     2
  9
$LUPREC
 70
     4
  9
$SKETCHINC
 40
0.1
  9
$FILLETRAD
 40
3.0
  9
$AUNITS
 70
     1
  9
$AUPREC
 70
     3
  9
$MENU
  1
ACAD
  9
$ELEVATION
 40
0.0
  9
$PELEVATION
 40
0.0
  9
$THICKNESS
 40
0.0
  9
$LIMCHECK
 70
     0
  9
$CHAMFERA
 40
0.0
  9
$CHAMFERB
 40
0.0
  9
$SKPOLY
 70
     0
  9
$TDCREATE
 40
2453019.62301037
  9
$TDUPDATE
 40
2460045.427634421
  9
$TDINDWG
 40
1.7508493171
  9
$TDUSRTIMER
 40
1.7508493171
  9
$USRTIMER
 70
     1
  9
$ANGBASE
 50
0.0
  9
$ANGDIR
 70
     0
  9
$PDMODE
 70
     3
  9
$PDSIZE
 40
-2.0
  9
$PLINEWID
 40
0.0
  9
$SPLFRAME
 70
     0
  9
$SPLINETYPE
 70
     6
  9
$SPLINESEGS
 70
     8
  9
$SURFTAB1
 70
     6
  9
$SURFTAB2
 70
     6
  9
$SURFTYPE
 70
     6
  9
$SURFU
 70
     6
  9
$SURFV
 70
     6
  9
$UCSNAME
  2

  9
$UCSORG
 10
0.0
 20
0.0
 30
0.0
  9
$UCSXDIR
 10
1.0
 20
0.0
 30
0.0
  9
$UCSYDIR
 10
0.0
 20
1.0
 30
0.0
  9
$PUCSNAME
  2

  9
$PUCSORG
 10
0.0
 20
0.0
 30
0.0
  9
$PUCSXDIR
 10
1.0
 20
0.0
 30
0.0
  9
$PUCSYDIR
 10
0.0
 20
1.0
 30
0.0
  9
$USERI1
 70
     0
  9
$USERI2
 70
     0
  9
$USERI3
 70
     0
  9
$USERI4
 70
     0
  9
$USERI5
 70
     0
  9
$USERR1
 40
20.0
  9
$USERR2
 40
0.0
  9
$USERR3
 40
0.0
  9
$USERR4
 40
0.0
  9
$USERR5
 40
0.0
  9
$WORLDVIEW
 70
     1
  9
$SHADEDGE
 70
     3
  9
$SHADEDIF
 70
    70
  9
$TILEMODE
 70
     1
  9
$MAXACTVP
 70
    48
  9
$PINSBASE
 10
0.0
 20
0.0
 30
0.0
  9
$PLIMCHECK
 70
     0
  9
$PEXTMIN
 10
-100000000000000000000.0
 20
-100000000000000000000.0
 30
-100000000000000000000.0
  9
$PEXTMAX
 10
100000000000000000000.0
 20
100000000000000000000.0
 30
100000000000000000000.0
  9
$PLIMMIN
 10
0.0
 20
0.0
  9
$PLIMMAX
 10
12.0
 20
9.0
  9
$UNITMODE
 70
     0
  9
$VISRETAIN
 70
     0
  9
$PLINEGEN
 70
     0
  9
$PSLTSCALE
 70
     0
  9
$TREEDEPTH
 70
  3020
  9
$ATTDIA
 70
     0
  9
$ATTREQ
 70
     1
  9
$BLIPMODE
 70
     1
  9
$COORDS
 70
     1
  9
$DRAGMODE
 70
     2
  9
$OSMODE
 70
     0
  9
$HANDLING
 70
     0
  9
$HANDSEED
  5
10278
  0
ENDSEC
  0
SECTION
  2
TABLES
  0
TABLE
  2
LTYPE
 70
     3
  0
LTYPE
  2
CONTINUOUS
 70
     0
  3
実線
 72
    65
 73
     0
 40
0.0
  0
LTYPE
  2
DASHDOT
 70
     0
  3
____ _ ____ _ ____ _ ____ _ ____ _ ____ _ ____
 72
    65
 73
     4
 40
5.5
 49
4.0
 49
-0.6
 49
0.3
 49
-0.6
  0
LTYPE
  2
DASHED
 70
     0
  3
-- -- -- -- -- -- -- -- -- -- -- -- -- -- --
 72
    65
 73
     2
 40
0.75
 49
0.5
 49
-0.25
  0
ENDTAB
  0
TABLE
  2
LAYER
 70
    12
  0
LAYER
  2
0
 70
     0
 62
     7
  6
CONTINUOUS
  0
LAYER
  2
BASIS
 70
     0
 62
     6
  6
DASHDOT
  0
LAYER
  2
OUTLINE
 70
     0
 62
     3
  6
CONTINUOUS
  0
LAYER
  2
DETAIL
 70
     0
 62
     5
  6
CONTINUOUS
  0
LAYER
  2
SIZE
 70
     0
 62
    30
  6
CONTINUOUS
  0
LAYER
  2
ARRANGE
 70
     0
 62
     1
  6
CONTINUOUS
  0
LAYER
  2
DEFPOINTS
 70
     0
 62
     7
  6
CONTINUOUS
  0
LAYER
  2
ETC
 70
     0
 62
    61
  6
CONTINUOUS
  0
LAYER
  2
FIX
 70
     0
 62
    11
  6
CONTINUOUS
  0
LAYER
  2
NOTE
 70
     0
 62
     4
  6
CONTINUOUS
  0
LAYER
  2
SERVICESPACE
 70
    64
 62
     2
  6
DASHDOT
  0
LAYER
  2
SYMBOLLINE
 70
    64
 62
    15
  6
CONTINUOUS
  0
ENDTAB
  0
TABLE
  2
STYLE
 70
     1
  0
STYLE
  2
STANDARD
 70
     0
 40
64.0
 41
0.9
 50
0.0
 71
     0
 42
64.0
  3
SIMPLEX.shx
  4
BIGFONT.shx
  0
ENDTAB
  0
TABLE
  2
APPID
 70
    23
  0
APPID
  2
ACAD
 70
     0
  0
APPID
  2
AUTOCAD_POSTSCRIPT_FIGURE
 70
     0
  0
APPID
  2
ACAD_EXEMPT_FROM_CAD_STANDARDS
 70
     0
  0
APPID
  2
ACAD_PSEXT
 70
     0
  0
APPID
  2
ACAUTHENVIRON
 70
     0
  0
APPID
  2
GENIUS_GENOENT_13
 70
     0
  0
APPID
  2
GENIUS_GENCFG_13
 70
     0
  0
APPID
  2
GENIUS_GENCFG0_13
 70
     0
  0
APPID
  2
GENIUS_GENCFG1_13
 70
     0
  0
APPID
  2
GENIUS_GENCFG2_13
 70
     0
  0
APPID
  2
GENIUS_GENCFG3_13
 70
     0
  0
APPID
  2
GENIUS_GENCFG4_13
 70
     0
  0
APPID
  2
GENIUS_GEVCFG0_13
 70
     0
  0
APPID
  2
CONTENTBLOCKICON
 70
     0
  0
APPID
  2
CONTENTBLOCKDESCRIPTION
 70
     0
  0
APPID
  2
ACAD_NAV_VCDISPLAY
 70
     0
  0
APPID
  2
ACAD_MLEADERVER
 70
     0
  0
APPID
  2
ACDBDYNAMICBLOCKTRUENAME
 70
     0
  0
APPID
  2
ACDBDYNAMICBLOCKGUID
 70
     0
  0
APPID
  2
GENIUS_GENODEF_13
 70
     0
  0
APPID
  2
GENIUS_GENOBJ-N-CEN_13
 70
     0
  0
APPID
  2
GENIUS_GENCEN_19
 70
     0
  0
APPID
  2
ACAD_DSTYLE_DIMRADIAL_EXTENSION
 70
     0
  0
ENDTAB
  0
TABLE
  2
DIMSTYLE
 70
     1
  0
DIMSTYLE
  2
STANDARD
 70
     0
  3

  4

  5
_ORIGIN
  6

  7

 40
1.0
 41
12.0
 42
20.0
 43
200.0
 44
20.0
 45
0.0
 46
0.0
 47
0.0
 48
0.0
140
64.0
141
0.09
142
0.0
143
25.399999999999999
144
1.0
145
0.0
146
1.0
147
25.0
 71
     0
 72
     0
 73
     0
 74
     0
 75
     0
 76
     0
 77
     1
 78
     8
170
     0
171
     2
172
     1
173
     0
174
     1
175
     0
176
     7
177
     7
178
     7
  0
ENDTAB
  0
TABLE
  2
VIEW
 70
     1
  0
VIEW
  2
ALL
 70
     0
 40
4282.6198079999986
 10
0.0
 20
41.309904000000003
 41
5940.0
 11
0.0
 21
0.0
 31
1.0
 12
0.0
 22
0.0
 32
0.0
 42
50.0
 43
0.0
 44
0.0
 50
0.0
 71
     0
  0
ENDTAB
  0
TABLE
  2
UCS
 70
     0
  0
ENDTAB
  0
TABLE
  2
VPORT
 70
     1
  0
VPORT
  2
*ACTIVE
 70
     0
 10
0.0
 20
0.0
 11
1.0
 21
1.0
 12
421.00984098041408
 22
174.79706808784519
 13
0.0
 23
0.0
 14
1.0
 24
1.0
 15
0.0
 25
0.0
 16
0.0
 26
0.0
 36
1.0
 17
0.0
 27
0.0
 37
0.0
 40
1428.59708210499
 41
1.781285231116122
 42
50.0
 43
0.0
 44
0.0
 50
0.0
 51
0.0
 71
     0
 72
  1000
 73
     1
 74
     3
 75
     0
 76
     0
 77
     0
 78
     0
  0
ENDTAB
  0
ENDSEC
  0
SECTION
  2
BLOCKS
  0
BLOCK
  8
0
  2
_ORIGIN
 70
     0
 10
0.0
 20
0.0
 30
0.0
  3
_ORIGIN
  1
_ORIGIN
  0
CIRCLE
  8
0
  6
CONTINUOUS
 62
     7
 10
0.0
 20
0.0
 30
0.0
 40
0.5
  0
LINE
  8
0
  6
CONTINUOUS
 62
     7
 10
0.0
 20
0.0
 30
0.0
 11
-1.0
 21
0.0
 31
0.0
  0
ENDBLK
  8
0
  0
ENDSEC
  0
SECTION
  2
ENTITIES
  0
LINE
  8
DETAIL
  6
CONTINUOUS
 62
     5
 10
-444.00004999999328
 20
-147.14450884933629
 30
0.0
 11
-444.00004999999328
 21
-241.8554911506676
 31
0.0
  0
LINE
  8
DETAIL
  6
CONTINUOUS
 62
     5
 10
-402.00004999999828
 20
-109.9999999999993
 30
0.0
 11
-402.00004999999828
 21
-65.000000000000455
 31
0.0
  0
LINE
  8
DETAIL
  6
CONTINUOUS
 62
     5
 10
-390.00004999999561
 20
-72.000000000000909
 30
0.0
 11
-390.00004999999561
 21
-65.000000000000455
 31
0.0
  0
LINE
  8
DETAIL
  6
CONTINUOUS
 62
     5
 10
-388.50005000000419
 20
-288.39999999999782
 30
0.0
 11
-388.50005000000419
 21
-287.90000000000049
 31
0.0
  0
LINE
  8
DETAIL
  6
CONTINUOUS
 62
     5
 10
-388.50005000000419
 20
-1.1000000000010459
 30
0.0
 11
-388.50005000000419
 21
-0.5999999999996817
 31
0.0
  0
LINE
  8
DETAIL
  6
CONTINUOUS
 62
     5
 10
-384.00004999999419
 20
-262.00000000000108
 30
0.0
 11
-384.00004999999419
 21
-127.0000000000027
 31
0.0
  0
LINE
  8
DETAIL
  6
CONTINUOUS
 62
     5
 10
-383.50004999999459
 20
-287.400000000001
 30
0.0
 11
-383.50004999999459
 21
-88.000000000001364
 31
0.0
  0
LINE
  8
DETAIL
  6
CONTINUOUS
 62
     5
 10
-383.50004999999459
 20
-65.000000000000455
 30
0.0
 11
-383.50004999999459
 21
-1.599999999998545
 31
0.0
  0
LINE
  8
DETAIL
  6
CONTINUOUS
 62
     5
 10
-383.0000499999951
 20
-1.599999999998545
 30
0.0
 11
-383.0000499999951
 21
-2.5999999999976349
 31
0.0
  0
LINE
  8
DETAIL
  6
CONTINUOUS
 62
     5
 10
-383.0000499999951
 20
-287.400000000001
 30
0.0
 11
-383.0000499999951
 21
-286.40000000000009
 31
0.0
  0
LINE
  8
DETAIL
  6
CONTINUOUS
 62
     5
 10
-381.50004999999692
 20
-288.39999999999782
 30
0.0
 11
-381.50004999999692
 21
-286.40000000000009
 31
0.0
  0
LINE
  8
DETAIL
  6
CONTINUOUS
 62
     5
 10
-381.50004999999692
 20
-2.5999999999976349
 30
0.0
 11
-381.50004999999692
 21
-0.5999999999996817
 31
0.0
  0
LINE
  8
DETAIL
  6
CONTINUOUS
 62
     5
 10
-381.40004999999837
 20
0.0
 30
0.0
 11
-381.40004999999837
 21
-0.5999999999996817
 31
0.0
  0
LINE
  8
DETAIL
  6
CONTINUOUS
 62
     5
 10
-381.40004999999837
 20
-289.00000000000318
 30
0.0
 11
-381.40004999999837
 21
-288.39999999999782
 31
0.0
  0
LINE
  8
DETAIL
  6
CONTINUOUS
 62
     5
 10
-377.00004999999419
 20
-61.20000000000141
 30
0.0
 11
-377.00004999999419
 21
-68.200000000001637
 31
0.0
  0
LINE
  8
DETAIL
  6
CONTINUOUS
 62
     5
 10
-382.96011823867087
 20
-1.056422129337989
 30
0.0
 11
-382.82507267333767
 21
-2.5999999999976349
 31
0.0
  0
LINE
  8
DETAIL
  6
CONTINUOUS
 62
     5
 10
-382.36240142000179
 20
-1.0041286826685789
 30
0.0
 11
-382.22278077066898
 21
-2.5999999999976349
 31
0.0
  0
LINE
  8
DETAIL
  6
CONTINUOUS
 62
     5
 10
-358.5000500000051
 20
-82.999999999999091
 30
0.0
 11
-358.5000500000051
 21
-61.20000000000141
 31
0.0
  0
LINE
  8
DETAIL
  6
CONTINUOUS
 62
     5
 10
-382.82507267333767
 20
-286.40000000000009
 30
0.0
 11
-382.93615918133128
 21
-287.66972459466842
 31
0.0
  0
LINE
  8
DETAIL
  6
CONTINUOUS
 62
     5
 10
-382.22278077066898
 20
-286.40000000000009
 30
0.0
 11
-382.33844236266941
 21
-287.72201803999951
 31
0.0
  0
LINE
  8
DETAIL
  6
CONTINUOUS
 62
     5
 10
-333.50005000000101
 20
-157.0000000000002
 30
0.0
 11
-333.50005000000101
 21
-232.00000000000051
 31
0.0
  0
LINE
  8
DETAIL
  6
CONTINUOUS
 62
     5
 10
-333.50005000000101
 20
-232.00000000000051
 30
0.0
 11
-308.50004999999652
 21
-257.00000000000051
 31
0.0
  0
LINE
  8
DETAIL
  6
CONTINUOUS
 62
     5
 10
-308.50004999999652
 20
-132.00000000000139
 30
0.0
 11
-333.50005000000101
 21
-157.0000000000002
 31
0.0
  0
LINE
  8
DETAIL
  6
CONTINUOUS
 62
     5
 10
-208.50004999999419
 20
-232.00000000000051
 30
0.0
 11
-208.50004999999419
 21
-157.0000000000002
 31
0.0
  0
LINE
  8
DETAIL
  6
CONTINUOUS
 62
     5
 10
-166.88402459599911
 20
-152.00000000000139
 30
0.0
 11
-166.88402459599911
 21
-164.39999999999961
 31
0.0
  0
LINE
  8
DETAIL
  6
CONTINUOUS
 62
     5
 10
-166.88402459599911
 20
-137.00000000000179
 30
0.0
 11
-166.88402459599911
 21
-124.59999999999989
 31
0.0
  0
LINE
  8
DETAIL
  6
CONTINUOUS
 62
     5
 10
-162.6920746933292
 20
-152.00000000000139
 30
0.0
 11
-162.6920746933292
 21
-164.39999999999961
 31
0.0
  0
LINE
  8
DETAIL
  6
CONTINUOUS
 62
     5
 10
-162.6920746933292
 20
-137.00000000000179
 30
0.0
 11
-162.6920746933292
 21
-124.59999999999989
 31
0.0
  0
LINE
  8
DETAIL
  6
CONTINUOUS
 62
     5
 10
-159.5000500000065
 20
-179.62995170133439
 30
0.0
 11
-159.5000500000065
 21
-173.97004829866859
 31
0.0
  0
LINE
  8
DETAIL
  6
CONTINUOUS
 62
     5
 10
-159.1080253066693
 20
-164.39999999999961
 30
0.0
 11
-159.1080253066693
 21
-152.00000000000139
 31
0.0
  0
LINE
  8
DETAIL
  6
CONTINUOUS
 62
     5
 10
-159.1080253066693
 20
-137.00000000000179
 30
0.0
 11
-159.1080253066693
 21
-124.59999999999989
 31
0.0
  0
LINE
  8
DETAIL
  6
CONTINUOUS
 62
     5
 10
-156.60005000000049
 20
-180.80000000000109
 30
0.0
 11
-156.60005000000049
 21
-172.80000000000541
 31
0.0
  0
LINE
  8
DETAIL
  6
CONTINUOUS
 62
     5
 10
-155.6000500000018
 20
-5.0
 30
0.0
 11
-155.6000500000018
 21
-119.7000000000035
 31
0.0
  0
LINE
  8
DETAIL
  6
CONTINUOUS
 62
     5
 10
-155.6000500000018
 20
-121.90000000000011
 30
0.0
 11
-155.6000500000018
 21
-167.09999999999951
 31
0.0
  0
LINE
  8
DETAIL
  6
CONTINUOUS
 62
     5
 10
-155.6000500000018
 20
-169.30000000000001
 30
0.0
 11
-155.6000500000018
 21
-284.00000000000142
 31
0.0
  0
LINE
  8
DETAIL
  6
CONTINUOUS
 62
     5
 10
-154.60005000000271
 20
-4.0000000000029559
 30
0.0
 11
-154.60005000000271
 21
-119.7000000000035
 31
0.0
  0
LINE
  8
DETAIL
  6
CONTINUOUS
 62
     5
 10
-154.60005000000271
 20
-121.90000000000011
 30
0.0
 11
-154.60005000000271
 21
-167.09999999999951
 31
0.0
  0
LINE
  8
DETAIL
  6
CONTINUOUS
 62
     5
 10
-154.60005000000271
 20
-285.00000000000227
 30
0.0
 11
-154.60005000000271
 21
-169.30000000000001
 31
0.0
  0
LINE
  8
DETAIL
  6
CONTINUOUS
 62
     5
 10
-153.6000499999964
 20
-156.79999999999771
 30
0.0
 11
-153.6000499999964
 21
-167.09999999999951
 31
0.0
  0
LINE
  8
DETAIL
  6
CONTINUOUS
 62
     5
 10
-153.6000499999964
 20
-169.30000000000001
 30
0.0
 11
-153.6000499999964
 21
-170.800000000002
 31
0.0
  0
LINE
  8
DETAIL
  6
CONTINUOUS
 62
     5
 10
-153.6000499999964
 20
-196.80000000000149
 30
0.0
 11
-153.6000499999964
 21
-188.6000000000017
 31
0.0
  0
LINE
  8
DETAIL
  6
CONTINUOUS
 62
     5
 10
-152.60004999999731
 20
-188.6000000000017
 30
0.0
 11
-152.60004999999731
 21
-190.6000000000017
 31
0.0
  0
LINE
  8
DETAIL
  6
CONTINUOUS
 62
     5
 10
-152.60004999999731
 20
-170.800000000002
 30
0.0
 11
-152.60004999999731
 21
-159.80000000000021
 31
0.0
  0
LINE
  8
DETAIL
  6
CONTINUOUS
 62
     5
 10
-377.50005000001511
 20
-289.000000000005
 30
0.0
 11
-375.80004999999801
 21
-287.29999999999882
 31
0.0
  0
LINE
  8
DETAIL
  6
CONTINUOUS
 62
     5
 10
396.19659278666398
 20
-249.46850275866339
 30
0.0
 11
433.92770770799552
 21
-243.50197793199959
 31
0.0
  0
LINE
  8
DETAIL
  6
CONTINUOUS
 62
     5
 10
389.15004999999792
 20
-288.99999999999773
 30
0.0
 11
383.73311493866822
 21
-289.00000000000318
 31
0.0
  0
LINE
  8
DETAIL
  6
CONTINUOUS
 62
     5
 10
-383.73311493999432
 20
-289.00000000000318
 30
0.0
 11
-389.15004999999792
 21
-288.99999999999773
 31
0.0
  0
LINE
  8
DETAIL
  6
CONTINUOUS
 62
     5
 10
-381.40004999999837
 20
-289.00000000000318
 30
0.0
 11
381.40004999999792
 21
-289.00000000000318
 31
0.0
  0
LINE
  8
DETAIL
  6
CONTINUOUS
 62
     5
 10
-396.1965927866645
 20
-249.46850275866339
 30
0.0
 11
-433.92770770933612
 21
-243.50197793199959
 31
0.0
  0
LINE
  8
DETAIL
  6
CONTINUOUS
 62
     5
 10
-377.50005000000777
 20
0.0
 30
0.0
 11
-375.80004999999801
 21
-1.700000000000728
 31
0.0
  0
LINE
  8
DETAIL
  6
CONTINUOUS
 62
     5
 10
-208.50004999999419
 20
-157.0000000000002
 30
0.0
 11
-233.50004999999831
 21
-132.00000000000139
 31
0.0
  0
LINE
  8
DETAIL
  6
CONTINUOUS
 62
     5
 10
-146.60004999999589
 20
-190.6000000000017
 30
0.0
 11
-146.60004999999589
 21
-193.80000000000291
 31
0.0
  0
LINE
  8
DETAIL
  6
CONTINUOUS
 62
     5
 10
-139.60005000000319
 20
-159.80000000000021
 30
0.0
 11
-139.60005000000319
 21
-190.6000000000017
 31
0.0
  0
LINE
  8
DETAIL
  6
CONTINUOUS
 62
     5
 10
396.19659278666398
 20
-249.46850275866339
 30
0.0
 11
395.80099939466658
 21
-249.5000000000027
 31
0.0
  0
LINE
  8
DETAIL
  6
CONTINUOUS
 62
     5
 10
389.15004999998291
 20
-288.39999999999782
 30
0.0
 11
383.73311493866822
 21
-288.39999999999782
 31
0.0
  0
LINE
  8
DETAIL
  6
CONTINUOUS
 62
     5
 10
381.50004999999652
 20
-288.39999999999782
 30
0.0
 11
376.90004999999519
 21
-288.39999999999958
 31
0.0
  0
LINE
  8
DETAIL
  6
CONTINUOUS
 62
     5
 10
-383.73311493999432
 20
-288.39999999999782
 30
0.0
 11
-389.15004999997609
 21
-288.39999999999782
 31
0.0
  0
LINE
  8
DETAIL
  6
CONTINUOUS
 62
     5
 10
-381.50004999999692
 20
-288.39999999999782
 30
0.0
 11
-376.9000500000102
 21
-288.39999999999958
 31
0.0
  0
LINE
  8
DETAIL
  6
CONTINUOUS
 62
     5
 10
-389.15004999997609
 20
-287.90000000000049
 30
0.0
 11
-384.00004999999419
 21
-287.90000000000049
 31
0.0
  0
LINE
  8
DETAIL
  6
CONTINUOUS
 62
     5
 10
384.00005000000152
 20
-287.90000000000049
 30
0.0
 11
389.15004999998291
 21
-287.90000000000049
 31
0.0
  0
LINE
  8
DETAIL
  6
CONTINUOUS
 62
     5
 10
383.50005000000192
 20
-286.40000000000009
 30
0.0
 11
381.50004999999652
 21
-286.40000000000009
 31
0.0
  0
LINE
  8
DETAIL
  6
CONTINUOUS
 62
     5
 10
-383.50004999999459
 20
-286.40000000000009
 30
0.0
 11
-381.50004999999692
 21
-286.40000000000009
 31
0.0
  0
LINE
  8
DETAIL
  6
CONTINUOUS
 62
     5
 10
154.59995000000211
 20
-285.00000000000227
 30
0.0
 11
-154.60005000000271
 21
-285.00000000000227
 31
0.0
  0
LINE
  8
DETAIL
  6
CONTINUOUS
 62
     5
 10
155.5999500000012
 20
-284.00000000000142
 30
0.0
 11
-155.60004999999461
 21
-284.00000000000142
 31
0.0
  0
LINE
  8
DETAIL
  6
CONTINUOUS
 62
     5
 10
180.0999499999989
 20
-272.30000000000138
 30
0.0
 11
191.49994999999629
 21
-272.30000000000138
 31
0.0
  0
LINE
  8
DETAIL
  6
CONTINUOUS
 62
     5
 10
180.0999499999989
 20
-271.69999999999601
 30
0.0
 11
349.29995000000241
 21
-271.69999999999601
 31
0.0
  0
LINE
  8
DETAIL
  6
CONTINUOUS
 62
     5
 10
177.49994999999541
 20
-271.10000000000019
 30
0.0
 11
188.49994999999899
 21
-271.10000000000019
 31
0.0
  0
LINE
  8
DETAIL
  6
CONTINUOUS
 62
     5
 10
351.69995000000108
 20
-270.34999999999877
 30
0.0
 11
349.29995000000241
 21
-270.34999999999877
 31
0.0
  0
LINE
  8
DETAIL
  6
CONTINUOUS
 62
     5
 10
353.29995000000548
 20
-268.75000000000011
 30
0.0
 11
368.30005000000529
 21
-268.75000000000011
 31
0.0
  0
LINE
  8
DETAIL
  6
CONTINUOUS
 62
     5
 10
-383.50004999999459
 20
-262.00000000000108
 30
0.0
 11
-384.00004999999419
 21
-262.00000000000108
 31
0.0
  0
LINE
  8
DETAIL
  6
CONTINUOUS
 62
     5
 10
383.50005000000192
 20
-262.00000000000108
 30
0.0
 11
384.00005000000152
 21
-262.00000000000108
 31
0.0
  0
LINE
  8
DETAIL
  6
CONTINUOUS
 62
     5
 10
-396.1965927866645
 20
-249.46850275866339
 30
0.0
 11
-395.8009993959995
 21
-249.5000000000027
 31
0.0
  0
LINE
  8
DETAIL
  6
CONTINUOUS
 62
     5
 10
-120.4124323693309
 20
-124.7000000000003
 30
0.0
 11
-120.4124323693309
 21
-164.29998952133559
 31
0.0
  0
LINE
  8
DETAIL
  6
CONTINUOUS
 62
     5
 10
-118.2124323693361
 20
-124.7000000000003
 30
0.0
 11
-118.2124323693361
 21
-164.29998952133559
 31
0.0
  0
LINE
  8
DETAIL
  6
CONTINUOUS
 62
     5
 10
-308.50004999999652
 20
-257.00000000000051
 30
0.0
 11
-233.50004999999831
 21
-257.00000000000051
 31
0.0
  0
LINE
  8
DETAIL
  6
CONTINUOUS
 62
     5
 10
154.1306304760042
 20
-254.49999999999949
 30
0.0
 11
152.92009353066439
 21
-254.49999999999949
 31
0.0
  0
LINE
  8
DETAIL
  6
CONTINUOUS
 62
     5
 10
154.59995000000211
 20
-252.49999999999949
 30
0.0
 11
153.26742271599821
 21
-252.49999999999949
 31
0.0
  0
LINE
  8
DETAIL
  6
CONTINUOUS
 62
     5
 10
155.5999500000012
 20
-252.49999999999949
 30
0.0
 11
172.9999499999999
 21
-252.49999999999949
 31
0.0
  0
LINE
  8
DETAIL
  6
CONTINUOUS
 62
     5
 10
395.80099939466658
 20
-249.5000000000027
 30
0.0
 11
386.00004999999919
 21
-249.5000000000027
 31
0.0
  0
LINE
  8
DETAIL
  6
CONTINUOUS
 62
     5
 10
-395.8009993959995
 20
-249.5000000000027
 30
0.0
 11
-386.00004999999243
 21
-249.5000000000027
 31
0.0
  0
LINE
  8
DETAIL
  6
CONTINUOUS
 62
     5
 10
442.61895620132958
 20
-243.25000000000159
 30
0.0
 11
437.09245483466748
 21
-243.25000000000159
 31
0.0
  0
LINE
  8
DETAIL
  6
CONTINUOUS
 62
     5
 10
-442.61895620133691
 20
-243.25000000000159
 30
0.0
 11
-437.09245483600029
 21
-243.25000000000159
 31
0.0
  0
LINE
  8
DETAIL
  6
CONTINUOUS
 62
     5
 10
-233.50004999999831
 20
-257.00000000000051
 30
0.0
 11
-208.50004999999419
 21
-232.00000000000051
 31
0.0
  0
LINE
  8
DETAIL
  6
CONTINUOUS
 62
     5
 10
348.29994999999599
 20
-219.59999999999809
 30
0.0
 11
348.0999499999989
 21
-219.59999999999809
 31
0.0
  0
LINE
  8
DETAIL
  6
CONTINUOUS
 62
     5
 10
154.59995000000211
 20
-206.5
 30
0.0
 11
153.26742271599821
 21
-206.5
 31
0.0
  0
LINE
  8
DETAIL
  6
CONTINUOUS
 62
     5
 10
155.5999500000012
 20
-206.5
 30
0.0
 11
172.9999499999999
 21
-206.5
 31
0.0
  0
LINE
  8
DETAIL
  6
CONTINUOUS
 62
     5
 10
348.29994999999599
 20
-204.59999999999849
 30
0.0
 11
348.0999499999989
 21
-204.59999999999849
 31
0.0
  0
LINE
  8
DETAIL
  6
CONTINUOUS
 62
     5
 10
154.1306304760042
 20
-204.50000000000051
 30
0.0
 11
152.92009353066439
 21
-204.50000000000051
 31
0.0
  0
LINE
  8
DETAIL
  6
CONTINUOUS
 62
     5
 10
-154.60005000000271
 20
-196.80000000000149
 30
0.0
 11
-149.60005000000049
 21
-196.80000000000149
 31
0.0
  0
LINE
  8
BASIS
  6
DASHDOT
 62
     6
 10
-464.94263661439851
 20
-194.50000000000301
 30
0.0
 11
-194.84522354951881
 21
-194.50000000000111
 31
0.0
  0
LINE
  8
DETAIL
  6
CONTINUOUS
 62
     5
 10
-156.60005000000049
 20
-180.80000000000109
 30
0.0
 11
-158.5872057426632
 21
-180.62614639999791
 31
0.0
  0
LINE
  8
DETAIL
  6
CONTINUOUS
 62
     5
 10
-139.60005000000319
 20
-190.6000000000017
 30
0.0
 11
-152.60004999999731
 21
-190.6000000000017
 31
0.0
  0
LINE
  8
DETAIL
  6
CONTINUOUS
 62
     5
 10
-152.60004999999731
 20
-189.599999999999
 30
0.0
 11
-139.60005000000319
 21
-189.599999999999
 31
0.0
  0
LINE
  8
DETAIL
  6
CONTINUOUS
 62
     5
 10
-152.60004999999731
 20
-188.6000000000017
 30
0.0
 11
-154.60005000000271
 21
-188.6000000000017
 31
0.0
  0
LINE
  8
DETAIL
  6
CONTINUOUS
 62
     5
 10
368.30005000000529
 20
-186.60000000000011
 30
0.0
 11
360.50004999999561
 21
-186.60000000000011
 31
0.0
  0
LINE
  8
DETAIL
  6
CONTINUOUS
 62
     5
 10
-156.60005000000049
 20
-179.29999999999899
 30
0.0
 11
-155.6000500000018
 21
-179.29999999999899
 31
0.0
  0
LINE
  8
DETAIL
  6
CONTINUOUS
 62
     5
 10
-156.60005000000049
 20
-174.29999999999859
 30
0.0
 11
-155.6000500000018
 21
-174.29999999999859
 31
0.0
  0
LINE
  8
DETAIL
  6
CONTINUOUS
 62
     5
 10
-152.60004999999731
 20
-170.800000000002
 30
0.0
 11
-154.60005000000271
 21
-170.800000000002
 31
0.0
  0
LINE
  8
DETAIL
  6
CONTINUOUS
 62
     5
 10
-122.84702727999959
 20
-169.30000000000001
 30
0.0
 11
-139.60005000000319
 21
-169.30000000000001
 31
0.0
  0
LINE
  8
DETAIL
  6
CONTINUOUS
 62
     5
 10
-152.60004999999731
 20
-169.30000000000001
 30
0.0
 11
-160.560143129338
 21
-169.30000000000001
 31
0.0
  0
LINE
  8
DETAIL
  6
CONTINUOUS
 62
     5
 10
-122.84702727999959
 20
-167.09999999999951
 30
0.0
 11
-139.60005000000319
 21
-167.09999999999951
 31
0.0
  0
LINE
  8
DETAIL
  6
CONTINUOUS
 62
     5
 10
-152.60004999999731
 20
-167.09999999999951
 30
0.0
 11
-160.560143129338
 21
-167.09999999999951
 31
0.0
  0
LINE
  8
DETAIL
  6
CONTINUOUS
 62
     5
 10
-166.88402459599911
 20
-164.39999999999961
 30
0.0
 11
-155.6000500000018
 21
-164.39999999999961
 31
0.0
  0
LINE
  8
BASIS
  6
DASHDOT
 62
     6
 10
-0.0000499999969179
 20
27.58672574798516
 30
0.0
 11
-0.0000499999969179
 21
-315.88955436261131
 31
0.0
  0
LINE
  8
DETAIL
  6
CONTINUOUS
 62
     5
 10
-156.60005000000049
 20
-172.80000000000541
 30
0.0
 11
-158.5872057426632
 21
-172.9738535999995
 31
0.0
  0
LINE
  8
DETAIL
  6
CONTINUOUS
 62
     5
 10
-142.60005000000001
 20
-156.79999999999771
 30
0.0
 11
-154.60005000000271
 21
-156.79999999999771
 31
0.0
  0
LINE
  8
DETAIL
  6
CONTINUOUS
 62
     5
 10
442.61895620132958
 20
-145.75000000000051
 30
0.0
 11
437.09245483466748
 21
-145.75000000000051
 31
0.0
  0
LINE
  8
DETAIL
  6
CONTINUOUS
 62
     5
 10
-442.61895620133691
 20
-145.75000000000051
 30
0.0
 11
-437.09245483600029
 21
-145.75000000000051
 31
0.0
  0
LINE
  8
BASIS
  6
DASHDOT
 62
     6
 10
447.89846712347031
 20
-144.4999999999998
 30
0.0
 11
-510.16671666666161
 21
-144.4999999999998
 31
0.0
  0
LINE
  8
DETAIL
  6
CONTINUOUS
 62
     5
 10
-233.50004999999831
 20
-132.00000000000139
 30
0.0
 11
-308.50004999999652
 21
-132.00000000000139
 31
0.0
  0
LINE
  8
DETAIL
  6
CONTINUOUS
 62
     5
 10
-166.88402459599911
 20
-124.59999999999989
 30
0.0
 11
-155.6000500000018
 21
-124.59999999999989
 31
0.0
  0
LINE
  8
DETAIL
  6
CONTINUOUS
 62
     5
 10
-160.560143129338
 20
-121.90000000000011
 30
0.0
 11
-122.84702727999959
 21
-121.90000000000011
 31
0.0
  0
LINE
  8
DETAIL
  6
CONTINUOUS
 62
     5
 10
-160.560143129338
 20
-119.7000000000035
 30
0.0
 11
-122.84702727999959
 21
-119.7000000000035
 31
0.0
  0
LINE
  8
DETAIL
  6
CONTINUOUS
 62
     5
 10
-383.50004999999459
 20
-115.0
 30
0.0
 11
-397.00005000000328
 21
-115.0
 31
0.0
  0
LINE
  8
DETAIL
  6
CONTINUOUS
 62
     5
 10
383.50005000000192
 20
-115.0
 30
0.0
 11
397.00004999999561
 21
-115.0
 31
0.0
  0
LINE
  8
DETAIL
  6
CONTINUOUS
 62
     5
 10
166.49994999999899
 20
-113.59999999999989
 30
0.0
 11
171.49995000000129
 21
-113.59999999999989
 31
0.0
  0
LINE
  8
DETAIL
  6
CONTINUOUS
 62
     5
 10
-396.19659278950479
 20
-139.53149724156449
 30
0.0
 11
-433.92770770933612
 21
-145.49802206933529
 31
0.0
  0
LINE
  8
DETAIL
  6
CONTINUOUS
 62
     5
 10
-383.52646510933619
 20
-94.000000000002501
 30
0.0
 11
-386.90005000000752
 21
-94.000000000002501
 31
0.0
  0
LINE
  8
DETAIL
  6
CONTINUOUS
 62
     5
 10
383.52646510800292
 20
-94.000000000002501
 30
0.0
 11
386.90004999999968
 21
-94.000000000002501
 31
0.0
  0
LINE
  8
DETAIL
  6
CONTINUOUS
 62
     5
 10
-363.5000500000001
 20
-88.000000000001364
 30
0.0
 11
-386.90005000000752
 21
-88.000000000001364
 31
0.0
  0
LINE
  8
DETAIL
  6
CONTINUOUS
 62
     5
 10
363.5000500000001
 20
-88.000000000001364
 30
0.0
 11
386.90004999999968
 21
-88.000000000001364
 31
0.0
  0
LINE
  8
DETAIL
  6
CONTINUOUS
 62
     5
 10
166.49994999999899
 20
-85.600000000000591
 30
0.0
 11
171.49995000000129
 21
-85.600000000000591
 31
0.0
  0
LINE
  8
DETAIL
  6
CONTINUOUS
 62
     5
 10
154.1306304760042
 20
-84.499999999999545
 30
0.0
 11
152.92009353066439
 21
-84.499999999999545
 31
0.0
  0
LINE
  8
DETAIL
  6
CONTINUOUS
 62
     5
 10
372.50004999999828
 20
-82.999999999999091
 30
0.0
 11
370.5000500000001
 21
-82.999999999999091
 31
0.0
  0
LINE
  8
DETAIL
  6
CONTINUOUS
 62
     5
 10
-372.50004999999828
 20
-82.999999999999091
 30
0.0
 11
-370.50005000000061
 21
-82.999999999999091
 31
0.0
  0
LINE
  8
DETAIL
  6
CONTINUOUS
 62
     5
 10
154.59995000000211
 20
-82.500000000003183
 30
0.0
 11
153.26742271599821
 21
-82.500000000003183
 31
0.0
  0
LINE
  8
DETAIL
  6
CONTINUOUS
 62
     5
 10
155.5999500000012
 20
-82.500000000003183
 30
0.0
 11
172.9999499999999
 21
-82.500000000003183
 31
0.0
  0
LINE
  8
DETAIL
  6
CONTINUOUS
 62
     5
 10
348.29994999999599
 20
-78.600000000001955
 30
0.0
 11
348.0999499999989
 21
-78.600000000001955
 31
0.0
  0
LINE
  8
DETAIL
  6
CONTINUOUS
 62
     5
 10
-370.50005000000061
 20
-77.000000000003183
 30
0.0
 11
-372.50004999999828
 21
-77.000000000003183
 31
0.0
  0
LINE
  8
DETAIL
  6
CONTINUOUS
 62
     5
 10
370.5000500000001
 20
-77.000000000003183
 30
0.0
 11
372.50004999999828
 21
-77.000000000003183
 31
0.0
  0
LINE
  8
DETAIL
  6
CONTINUOUS
 62
     5
 10
363.10004999999859
 20
-76.265506931998971
 30
0.0
 11
361.90004999999559
 21
-76.265506931998971
 31
0.0
  0
LINE
  8
DETAIL
  6
CONTINUOUS
 62
     5
 10
399.00005000000101
 20
-74.999999999999773
 30
0.0
 11
393.00004999999959
 21
-74.999999999999773
 31
0.0
  0
LINE
  8
DETAIL
  6
CONTINUOUS
 62
     5
 10
-399.00005000000101
 20
-74.999999999999773
 30
0.0
 11
-393.0000500000001
 21
-74.999999999999773
 31
0.0
  0
LINE
  8
DETAIL
  6
CONTINUOUS
 62
     5
 10
396.19659280654793
 20
-139.53149724425751
 30
0.0
 11
433.92770770799552
 21
-145.49802206933529
 31
0.0
  0
LINE
  8
DETAIL
  6
CONTINUOUS
 62
     5
 10
361.90004999999559
 20
-68.200000000001637
 30
0.0
 11
358.50004999999783
 21
-68.200000000001637
 31
0.0
  0
LINE
  8
DETAIL
  6
CONTINUOUS
 62
     5
 10
-390.00004999999561
 20
-68.200000000001637
 30
0.0
 11
-358.5000500000051
 21
-68.200000000001637
 31
0.0
  0
LINE
  8
DETAIL
  6
CONTINUOUS
 62
     5
 10
363.10004999999859
 20
-68.200000000001637
 30
0.0
 11
390.00005000000277
 21
-68.200000000001637
 31
0.0
  0
LINE
  8
DETAIL
  6
CONTINUOUS
 62
     5
 10
-377.00004999999419
 20
-65.000000000000455
 30
0.0
 11
-402.00004999999828
 21
-65.000000000000455
 31
0.0
  0
LINE
  8
DETAIL
  6
CONTINUOUS
 62
     5
 10
377.00005000000101
 20
-65.000000000000455
 30
0.0
 11
402.0000500000051
 21
-65.000000000000455
 31
0.0
  0
LINE
  8
DETAIL
  6
CONTINUOUS
 62
     5
 10
348.29994999999599
 20
-63.60000000000241
 30
0.0
 11
348.0999499999989
 21
-63.60000000000241
 31
0.0
  0
LINE
  8
DETAIL
  6
CONTINUOUS
 62
     5
 10
-361.50005000000192
 20
-58.199999999998909
 30
0.0
 11
-374.00004999999692
 21
-58.199999999998909
 31
0.0
  0
LINE
  8
DETAIL
  6
CONTINUOUS
 62
     5
 10
361.50005000000192
 20
-58.199999999998909
 30
0.0
 11
361.90004999999559
 21
-58.199999999998909
 31
0.0
  0
LINE
  8
DETAIL
  6
CONTINUOUS
 62
     5
 10
363.10004999999859
 20
-58.199999999998909
 30
0.0
 11
374.00004999999692
 21
-58.199999999998909
 31
0.0
  0
LINE
  8
DETAIL
  6
CONTINUOUS
 62
     5
 10
356.29995000000241
 20
-52.600000000000591
 30
0.0
 11
364.3000500000021
 21
-52.600000000000591
 31
0.0
  0
LINE
  8
DETAIL
  6
CONTINUOUS
 62
     5
 10
364.3000500000021
 20
-43.799999999999272
 30
0.0
 11
371.90005000000019
 21
-43.799999999999272
 31
0.0
  0
LINE
  8
DETAIL
  6
CONTINUOUS
 62
     5
 10
356.29995000000241
 20
-42.600000000001501
 30
0.0
 11
371.90005000000019
 21
-42.600000000001501
 31
0.0
  0
LINE
  8
DETAIL
  6
CONTINUOUS
 62
     5
 10
154.59995000000211
 20
-36.500000000001592
 30
0.0
 11
153.26742271599821
 21
-36.500000000001592
 31
0.0
  0
LINE
  8
DETAIL
  6
CONTINUOUS
 62
     5
 10
155.5999500000012
 20
-36.500000000001592
 30
0.0
 11
172.9999499999999
 21
-36.500000000001592
 31
0.0
  0
LINE
  8
DETAIL
  6
CONTINUOUS
 62
     5
 10
154.1306304760042
 20
-34.5
 30
0.0
 11
152.92009353066439
 21
-34.5
 31
0.0
  0
LINE
  8
DETAIL
  6
CONTINUOUS
 62
     5
 10
353.29995000000548
 20
-14.25000000000027
 30
0.0
 11
368.30005000000529
 21
-14.25000000000027
 31
0.0
  0
LINE
  8
DETAIL
  6
CONTINUOUS
 62
     5
 10
349.29995000000241
 20
-12.6500000000015
 30
0.0
 11
351.69995000000108
 21
-12.6500000000015
 31
0.0
  0
LINE
  8
DETAIL
  6
CONTINUOUS
 62
     5
 10
177.49994999999541
 20
-11.90000000000218
 30
0.0
 11
188.49994999999899
 21
-11.90000000000218
 31
0.0
  0
LINE
  8
DETAIL
  6
CONTINUOUS
 62
     5
 10
349.29995000000241
 20
-11.300000000002269
 30
0.0
 11
180.0999499999989
 21
-11.300000000002269
 31
0.0
  0
LINE
  8
DETAIL
  6
CONTINUOUS
 62
     5
 10
180.0999499999989
 20
-10.700000000000999
 30
0.0
 11
191.49994999999629
 21
-10.700000000000999
 31
0.0
  0
LINE
  8
DETAIL
  6
CONTINUOUS
 62
     5
 10
174.76789919200519
 20
-191.06410161600019
 30
0.0
 11
176.49994999999629
 21
-194.06410161599931
 31
0.0
  0
LINE
  8
DETAIL
  6
CONTINUOUS
 62
     5
 10
150.83611841866829
 20
-251.50000000000051
 30
0.0
 11
150.83611841866829
 21
-207.5000000000027
 31
0.0
  0
LINE
  8
DETAIL
  6
CONTINUOUS
 62
     5
 10
150.83611841866829
 20
-81.500000000000682
 30
0.0
 11
150.83611841866829
 21
-37.500000000002501
 31
0.0
  0
LINE
  8
DETAIL
  6
CONTINUOUS
 62
     5
 10
153.26742271599821
 20
-34.5
 30
0.0
 11
153.26742271599821
 21
-36.500000000001592
 31
0.0
  0
LINE
  8
DETAIL
  6
CONTINUOUS
 62
     5
 10
153.26742271599821
 20
-204.50000000000051
 30
0.0
 11
153.26742271599821
 21
-206.5
 31
0.0
  0
LINE
  8
DETAIL
  6
CONTINUOUS
 62
     5
 10
153.26742271599821
 20
-254.49999999999949
 30
0.0
 11
153.26742271599821
 21
-252.49999999999949
 31
0.0
  0
LINE
  8
DETAIL
  6
CONTINUOUS
 62
     5
 10
153.26742271599821
 20
-84.499999999999545
 30
0.0
 11
153.26742271599821
 21
-82.500000000003183
 31
0.0
  0
LINE
  8
DETAIL
  6
CONTINUOUS
 62
     5
 10
154.1306304760042
 20
-34.5
 30
0.0
 11
154.1306304760042
 21
-36.500000000001592
 31
0.0
  0
LINE
  8
DETAIL
  6
CONTINUOUS
 62
     5
 10
154.1306304760042
 20
-204.50000000000051
 30
0.0
 11
154.1306304760042
 21
-206.5
 31
0.0
  0
LINE
  8
DETAIL
  6
CONTINUOUS
 62
     5
 10
154.1306304760042
 20
-254.49999999999949
 30
0.0
 11
154.1306304760042
 21
-252.49999999999949
 31
0.0
  0
LINE
  8
DETAIL
  6
CONTINUOUS
 62
     5
 10
154.1306304760042
 20
-84.499999999999545
 30
0.0
 11
154.1306304760042
 21
-82.500000000003183
 31
0.0
  0
LINE
  8
DETAIL
  6
CONTINUOUS
 62
     5
 10
154.59995000000211
 20
-285.00000000000227
 30
0.0
 11
154.59995000000211
 21
-4.0000000000029559
 31
0.0
  0
LINE
  8
DETAIL
  6
CONTINUOUS
 62
     5
 10
155.5999500000012
 20
-284.00000000000142
 30
0.0
 11
155.5999500000012
 21
-5.0
 31
0.0
  0
LINE
  8
DETAIL
  6
CONTINUOUS
 62
     5
 10
159.19994999999611
 20
-252.49999999999949
 30
0.0
 11
159.19994999999611
 21
-206.5
 31
0.0
  0
LINE
  8
DETAIL
  6
CONTINUOUS
 62
     5
 10
159.19994999999611
 20
-82.500000000003183
 30
0.0
 11
159.19994999999611
 21
-36.500000000001592
 31
0.0
  0
LINE
  8
DETAIL
  6
CONTINUOUS
 62
     5
 10
176.49994999999629
 20
-151.1358983853365
 30
0.0
 11
174.76789919200519
 21
-154.13589838533539
 31
0.0
  0
LINE
  8
DETAIL
  6
CONTINUOUS
 62
     5
 10
-155.6000500000018
 20
-5.0
 30
0.0
 11
155.59995000000839
 21
-5.0
 31
0.0
  0
LINE
  8
DETAIL
  6
CONTINUOUS
 62
     5
 10
-154.60005000000271
 20
-4.0000000000029559
 30
0.0
 11
154.59995000000211
 21
-4.0000000000029559
 31
0.0
  0
LINE
  8
DETAIL
  6
CONTINUOUS
 62
     5
 10
383.50005000000192
 20
-2.5999999999976349
 30
0.0
 11
381.50004999999652
 21
-2.5999999999976349
 31
0.0
  0
LINE
  8
DETAIL
  6
CONTINUOUS
 62
     5
 10
-383.50004999999459
 20
-2.5999999999976349
 30
0.0
 11
-381.50004999999692
 21
-2.5999999999976349
 31
0.0
  0
LINE
  8
DETAIL
  6
CONTINUOUS
 62
     5
 10
-384.00004999999419
 20
-1.1000000000010459
 30
0.0
 11
-389.15004999997609
 21
-1.0999999999992269
 31
0.0
  0
LINE
  8
DETAIL
  6
CONTINUOUS
 62
     5
 10
384.00005000000152
 20
-1.1000000000010459
 30
0.0
 11
389.15004999998291
 21
-1.0999999999992269
 31
0.0
  0
LINE
  8
DETAIL
  6
CONTINUOUS
 62
     5
 10
381.50004999999652
 20
-0.5999999999996817
 30
0.0
 11
376.90005000000252
 21
-0.5999999999996817
 31
0.0
  0
LINE
  8
DETAIL
  6
CONTINUOUS
 62
     5
 10
-389.15004999997609
 20
-0.5999999999996817
 30
0.0
 11
-383.45821558666239
 21
-0.5999999999996817
 31
0.0
  0
LINE
  8
DETAIL
  6
CONTINUOUS
 62
     5
 10
-381.50004999999692
 20
-0.5999999999996817
 30
0.0
 11
-376.9000500000102
 21
-0.5999999999996817
 31
0.0
  0
LINE
  8
DETAIL
  6
CONTINUOUS
 62
     5
 10
383.45821558666972
 20
-0.5999999999996817
 30
0.0
 11
389.15004999998291
 21
-0.5999999999996817
 31
0.0
  0
LINE
  8
DETAIL
  6
CONTINUOUS
 62
     5
 10
-389.15004999999792
 20
0.0
 30
0.0
 11
-383.45821558666239
 21
0.0
 31
0.0
  0
LINE
  8
DETAIL
  6
CONTINUOUS
 62
     5
 10
-381.40004999999837
 20
0.0
 30
0.0
 11
381.40004999999792
 21
0.0
 31
0.0
  0
LINE
  8
DETAIL
  6
CONTINUOUS
 62
     5
 10
383.45821558666972
 20
0.0
 30
0.0
 11
389.15004999999792
 21
0.0
 31
0.0
  0
LINE
  8
DETAIL
  6
CONTINUOUS
 62
     5
 10
377.50005000000777
 20
-289.000000000005
 30
0.0
 11
375.80004999999801
 21
-287.29999999999882
 31
0.0
  0
LINE
  8
DETAIL
  6
CONTINUOUS
 62
     5
 10
174.76789919200519
 20
-135.06410161600141
 30
0.0
 11
176.49994999999629
 21
-138.06410161600391
 31
0.0
  0
LINE
  8
DETAIL
  6
CONTINUOUS
 62
     5
 10
163.4999500000022
 20
-88.600000000003092
 30
0.0
 11
163.4999500000022
 21
-110.5999999999992
 31
0.0
  0
LINE
  8
DETAIL
  6
CONTINUOUS
 62
     5
 10
172.9999499999999
 20
-252.49999999999949
 30
0.0
 11
172.9999499999999
 21
-206.5
 31
0.0
  0
LINE
  8
DETAIL
  6
CONTINUOUS
 62
     5
 10
172.9999499999999
 20
-82.500000000003183
 30
0.0
 11
172.9999499999999
 21
-36.500000000001592
 31
0.0
  0
LINE
  8
DETAIL
  6
CONTINUOUS
 62
     5
 10
174.49994999999851
 20
-14.900000000004679
 30
0.0
 11
174.49994999999851
 21
-82.600000000001728
 31
0.0
  0
LINE
  8
DETAIL
  6
CONTINUOUS
 62
     5
 10
174.49994999999851
 20
-268.1000000000011
 30
0.0
 11
174.49994999999851
 21
-211.13589838533471
 31
0.0
  0
LINE
  8
DETAIL
  6
CONTINUOUS
 62
     5
 10
174.49994999999851
 20
-190.06410161600121
 30
0.0
 11
174.49994999999851
 21
-155.13589838533429
 31
0.0
  0
LINE
  8
DETAIL
  6
CONTINUOUS
 62
     5
 10
174.49994999999851
 20
-134.0641016160005
 30
0.0
 11
174.49994999999851
 21
-116.60000000000061
 31
0.0
  0
LINE
  8
DETAIL
  6
CONTINUOUS
 62
     5
 10
176.49994999999629
 20
-138.06410161600391
 30
0.0
 11
176.49994999999629
 21
-151.1358983853365
 31
0.0
  0
LINE
  8
DETAIL
  6
CONTINUOUS
 62
     5
 10
176.49994999999629
 20
-194.06410161599931
 30
0.0
 11
176.49994999999629
 21
-207.1358983853338
 31
0.0
  0
LINE
  8
DETAIL
  6
CONTINUOUS
 62
     5
 10
178.89995000000269
 20
-271.10000000000019
 30
0.0
 11
178.89995000000269
 21
-11.90000000000218
 31
0.0
  0
LINE
  8
DETAIL
  6
CONTINUOUS
 62
     5
 10
180.0999499999989
 20
-271.10000000000019
 30
0.0
 11
180.0999499999989
 21
-271.69999999999601
 31
0.0
  0
LINE
  8
DETAIL
  6
CONTINUOUS
 62
     5
 10
180.0999499999989
 20
-11.90000000000218
 30
0.0
 11
180.0999499999989
 21
-11.300000000002269
 31
0.0
  0
LINE
  8
DETAIL
  6
CONTINUOUS
 62
     5
 10
191.49994999999629
 20
-14.900000000004679
 30
0.0
 11
191.49994999999629
 21
-268.1000000000011
 31
0.0
  0
LINE
  8
DETAIL
  6
CONTINUOUS
 62
     5
 10
191.49994999999629
 20
-271.69999999999601
 30
0.0
 11
191.49994999999629
 21
-272.30000000000138
 31
0.0
  0
LINE
  8
DETAIL
  6
CONTINUOUS
 62
     5
 10
191.49994999999629
 20
-11.300000000002269
 30
0.0
 11
191.49994999999629
 21
-10.700000000000999
 31
0.0
  0
LINE
  8
DETAIL
  6
CONTINUOUS
 62
     5
 10
176.49994999999629
 20
-207.1358983853338
 30
0.0
 11
174.76789919200519
 21
-210.13589838533429
 31
0.0
  0
LINE
  8
DETAIL
  6
CONTINUOUS
 62
     5
 10
377.50005000000777
 20
0.0
 30
0.0
 11
375.80004999999801
 21
-1.700000000000728
 31
0.0
  0
LINE
  8
DETAIL
  6
CONTINUOUS
 62
     5
 10
371.30005000000261
 20
-189.599999999999
 30
0.0
 11
368.30005000000529
 21
-186.60000000000011
 31
0.0
  0
LINE
  8
DETAIL
  6
CONTINUOUS
 62
     5
 10
348.0999499999989
 20
-219.59999999999809
 30
0.0
 11
348.0999499999989
 21
-204.59999999999849
 31
0.0
  0
LINE
  8
DETAIL
  6
CONTINUOUS
 62
     5
 10
348.0999499999989
 20
-78.600000000001955
 30
0.0
 11
348.0999499999989
 21
-63.60000000000241
 31
0.0
  0
LINE
  8
DETAIL
  6
CONTINUOUS
 62
     5
 10
349.29995000000241
 20
-271.69999999999601
 30
0.0
 11
349.29995000000241
 21
-220.60000000000079
 31
0.0
  0
LINE
  8
DETAIL
  6
CONTINUOUS
 62
     5
 10
349.29995000000241
 20
-203.6000000000015
 30
0.0
 11
349.29995000000241
 21
-79.599999999999227
 31
0.0
  0
LINE
  8
DETAIL
  6
CONTINUOUS
 62
     5
 10
349.29995000000241
 20
-62.60000000000332
 30
0.0
 11
349.29995000000241
 21
-11.300000000002269
 31
0.0
  0
LINE
  8
DETAIL
  6
CONTINUOUS
 62
     5
 10
371.30005000000261
 20
-17.250000000002551
 30
0.0
 11
368.30005000000529
 21
-14.25000000000027
 31
0.0
  0
LINE
  8
DETAIL
  6
CONTINUOUS
 62
     5
 10
382.33844236133649
 20
-287.72201803999951
 30
0.0
 11
382.22278077066181
 21
-286.40000000000009
 31
0.0
  0
LINE
  8
DETAIL
  6
CONTINUOUS
 62
     5
 10
382.93615918000569
 20
-287.66972459466842
 30
0.0
 11
382.82507267199748
 21
-286.40000000000009
 31
0.0
  0
LINE
  8
DETAIL
  6
CONTINUOUS
 62
     5
 10
353.29995000000548
 20
-268.75000000000011
 30
0.0
 11
353.29995000000548
 21
-14.25000000000027
 31
0.0
  0
LINE
  8
DETAIL
  6
CONTINUOUS
 62
     5
 10
354.42444979999749
 20
-46.970367141336283
 30
0.0
 11
354.42444979999749
 21
-45.529632860000447
 31
0.0
  0
LINE
  8
DETAIL
  6
CONTINUOUS
 62
     5
 10
356.29995000000241
 20
-22.750000000002501
 30
0.0
 11
356.29995000000241
 21
-42.750000000002728
 31
0.0
  0
LINE
  8
DETAIL
  6
CONTINUOUS
 62
     5
 10
356.29995000000241
 20
-49.749999999999552
 30
0.0
 11
356.29995000000241
 21
-69.749999999999545
 31
0.0
  0
LINE
  8
DETAIL
  6
CONTINUOUS
 62
     5
 10
356.29995000000241
 20
-220.44999999999959
 30
0.0
 11
356.29995000000241
 21
-240.449999999998
 31
0.0
  0
LINE
  8
DETAIL
  6
CONTINUOUS
 62
     5
 10
356.3999500000009
 20
-42.600000000001501
 30
0.0
 11
356.3999500000009
 21
-52.600000000000591
 31
0.0
  0
LINE
  8
DETAIL
  6
CONTINUOUS
 62
     5
 10
357.49994999999848
 20
-183.6000000000013
 30
0.0
 11
357.49994999999848
 21
-64.599999999999682
 31
0.0
  0
LINE
  8
DETAIL
  6
CONTINUOUS
 62
     5
 10
358.50004999999783
 20
-82.999999999999091
 30
0.0
 11
358.50004999999783
 21
-61.20000000000141
 31
0.0
  0
LINE
  8
DETAIL
  6
CONTINUOUS
 62
     5
 10
360.70004999999992
 20
-52.600000000000591
 30
0.0
 11
360.70004999999992
 21
-42.600000000001501
 31
0.0
  0
LINE
  8
DETAIL
  6
CONTINUOUS
 62
     5
 10
361.90004999999559
 20
-33.799999999999947
 30
0.0
 11
361.90004999999559
 21
-42.600000000001501
 31
0.0
  0
LINE
  8
DETAIL
  6
CONTINUOUS
 62
     5
 10
361.90004999999559
 20
-76.265506931998971
 30
0.0
 11
361.90004999999559
 21
-52.600000000000591
 31
0.0
  0
LINE
  8
DETAIL
  6
CONTINUOUS
 62
     5
 10
363.10004999999859
 20
-33.799999999999947
 30
0.0
 11
363.10004999999859
 21
-42.600000000001501
 31
0.0
  0
LINE
  8
DETAIL
  6
CONTINUOUS
 62
     5
 10
363.10004999999859
 20
-52.600000000000591
 30
0.0
 11
363.10004999999859
 21
-76.265506931998971
 31
0.0
  0
LINE
  8
DETAIL
  6
CONTINUOUS
 62
     5
 10
364.3000500000021
 20
-42.600000000001501
 30
0.0
 11
364.3000500000021
 21
-52.600000000000591
 31
0.0
  0
LINE
  8
DETAIL
  6
CONTINUOUS
 62
     5
 10
371.30005000000261
 20
-17.250000000002551
 30
0.0
 11
371.30005000000261
 21
-23.828730513333539
 31
0.0
  0
LINE
  8
DETAIL
  6
CONTINUOUS
 62
     5
 10
371.30005000000261
 20
-25.03232991466848
 30
0.0
 11
371.30005000000261
 21
-42.600000000001501
 31
0.0
  0
LINE
  8
DETAIL
  6
CONTINUOUS
 62
     5
 10
371.30005000000261
 20
-43.799999999999272
 30
0.0
 11
371.30005000000261
 21
-58.199999999998909
 31
0.0
  0
LINE
  8
DETAIL
  6
CONTINUOUS
 62
     5
 10
371.30005000000261
 20
-189.599999999999
 30
0.0
 11
371.30005000000261
 21
-265.74999999999778
 31
0.0
  0
LINE
  8
DETAIL
  6
CONTINUOUS
 62
     5
 10
377.00005000000101
 20
-61.20000000000141
 30
0.0
 11
377.00005000000101
 21
-68.200000000001637
 31
0.0
  0
LINE
  8
DETAIL
  6
CONTINUOUS
 62
     5
 10
382.22278077066181
 20
-2.5999999999976349
 30
0.0
 11
382.36240141866119
 21
-1.0041286826685789
 31
0.0
  0
LINE
  8
DETAIL
  6
CONTINUOUS
 62
     5
 10
382.82507267199748
 20
-2.5999999999976349
 30
0.0
 11
382.96011823733028
 21
-1.056422129337989
 31
0.0
  0
LINE
  8
DETAIL
  6
CONTINUOUS
 62
     5
 10
368.30005000000529
 20
-268.75000000000011
 30
0.0
 11
371.30005000000261
 21
-265.74999999999778
 31
0.0
  0
LINE
  8
DETAIL
  6
CONTINUOUS
 62
     5
 10
381.40004999999792
 20
0.0
 30
0.0
 11
381.40004999999792
 21
-0.5999999999996817
 31
0.0
  0
LINE
  8
DETAIL
  6
CONTINUOUS
 62
     5
 10
381.40004999999792
 20
-289.00000000000318
 30
0.0
 11
381.40004999999792
 21
-288.39999999999782
 31
0.0
  0
LINE
  8
DETAIL
  6
CONTINUOUS
 62
     5
 10
381.50004999999652
 20
-0.5999999999996817
 30
0.0
 11
381.50004999999652
 21
-2.5999999999976349
 31
0.0
  0
LINE
  8
DETAIL
  6
CONTINUOUS
 62
     5
 10
381.50004999999652
 20
-288.39999999999782
 30
0.0
 11
381.50004999999652
 21
-286.40000000000009
 31
0.0
  0
LINE
  8
DETAIL
  6
CONTINUOUS
 62
     5
 10
383.00005000000237
 20
-1.599999999998545
 30
0.0
 11
383.00005000000237
 21
-2.5999999999976349
 31
0.0
  0
LINE
  8
DETAIL
  6
CONTINUOUS
 62
     5
 10
383.00005000000237
 20
-287.400000000001
 30
0.0
 11
383.00005000000237
 21
-286.40000000000009
 31
0.0
  0
LINE
  8
DETAIL
  6
CONTINUOUS
 62
     5
 10
383.50005000000192
 20
-287.400000000001
 30
0.0
 11
383.50005000000192
 21
-88.000000000001364
 31
0.0
  0
LINE
  8
DETAIL
  6
CONTINUOUS
 62
     5
 10
383.50005000000192
 20
-65.000000000000455
 30
0.0
 11
383.50005000000192
 21
-1.599999999998545
 31
0.0
  0
LINE
  8
DETAIL
  6
CONTINUOUS
 62
     5
 10
384.00005000000152
 20
-127.0000000013392
 30
0.0
 11
384.00005000000152
 21
-262.00000000000108
 31
0.0
  0
LINE
  8
DETAIL
  6
CONTINUOUS
 62
     5
 10
385.5000500000001
 20
-0.5999999999996817
 30
0.0
 11
385.5000500000001
 21
-1.700000000000728
 31
0.0
  0
LINE
  8
DETAIL
  6
CONTINUOUS
 62
     5
 10
388.50004999999692
 20
-0.5999999999996817
 30
0.0
 11
388.50004999999692
 21
-1.1000000000010459
 31
0.0
  0
LINE
  8
DETAIL
  6
CONTINUOUS
 62
     5
 10
388.50004999999692
 20
-287.90000000000049
 30
0.0
 11
388.50004999999692
 21
-288.39999999999782
 31
0.0
  0
LINE
  8
DETAIL
  6
CONTINUOUS
 62
     5
 10
390.00005000000277
 20
-72.000000000000909
 30
0.0
 11
390.00005000000277
 21
-65.000000000000455
 31
0.0
  0
LINE
  8
DETAIL
  6
CONTINUOUS
 62
     5
 10
402.0000500000051
 20
-109.9999999999993
 30
0.0
 11
402.0000500000051
 21
-65.000000000000455
 31
0.0
  0
LINE
  8
DETAIL
  6
CONTINUOUS
 62
     5
 10
444.00005000000061
 20
-241.85549109866949
 30
0.0
 11
444.00005000000061
 21
-147.14450890266721
 31
0.0
  0
ARC
  8
DETAIL
  6
CONTINUOUS
 62
     5
 10
-437.09245483600029
 20
-263.25
 30
0.0
 40
19.999999999999961
 50
80.895399134575712
 51
90.0
  0
CIRCLE
  8
DETAIL
  6
CONTINUOUS
 62
     5
 10
-315.19422382399631
 20
-238.6941738240034
 30
0.0
 40
4.6999999999999922
  0
ARC
  8
DETAIL
  6
CONTINUOUS
 62
     5
 10
-386.00004999999243
 20
-251.50000000000071
 30
0.0
 40
1.9999999999999969
 50
0.0
 51
90.0
  0
ARC
  8
DETAIL
  6
CONTINUOUS
 62
     5
 10
-383.73311493999432
 20
-287.60000000000127
 30
0.0
 40
1.3999999999999979
 50
270.0
 51
354.99999999994782
  0
ARC
  8
DETAIL
  6
CONTINUOUS
 62
     5
 10
-442.61895620133691
 20
-241.86890620133249
 30
0.0
 40
1.3810937986666649
 50
180.0
 51
270.0
  0
ARC
  8
DETAIL
  6
CONTINUOUS
 62
     5
 10
-384.00004999999419
 20
-287.400000000001
 30
0.0
 40
0.9999999999999987
 50
270.0
 51
0.0
  0
ARC
  8
DETAIL
  6
CONTINUOUS
 62
     5
 10
-383.73311493999432
 20
-287.60000000000127
 30
0.0
 40
0.7999999999999989
 50
270.0
 51
354.99999999994782
  0
ARC
  8
DETAIL
  6
CONTINUOUS
 62
     5
 10
-384.00004999999419
 20
-287.400000000001
 30
0.0
 40
0.4999999999999993
 50
270.0
 51
0.0
  0
CIRCLE
  8
DETAIL
  6
CONTINUOUS
 62
     5
 10
-315.19422382399631
 20
-150.305826175997
 30
0.0
 40
4.6999999999999922
  0
ARC
  8
DETAIL
  6
CONTINUOUS
 62
     5
 10
-442.61895620133691
 20
-147.13109379866771
 30
0.0
 40
1.3810937986666649
 50
90.0
 51
180.0000000000521
  0
CIRCLE
  8
DETAIL
  6
CONTINUOUS
 62
     5
 10
-226.80587617599889
 20
-238.6941738240034
 30
0.0
 40
4.6999999999999922
  0
ARC
  8
DETAIL
  6
CONTINUOUS
 62
     5
 10
-160.90005000000659
 20
-152.00000000000139
 30
0.0
 40
5.9839745959999924
 50
27.620060806120708
 51
180.0
  0
CIRCLE
  8
DETAIL
  6
CONTINUOUS
 62
     5
 10
-226.80587617599889
 20
-150.305826175997
 30
0.0
 40
4.6999999999999922
  0
CIRCLE
  8
DETAIL
  6
CONTINUOUS
 62
     5
 10
-146.10005000000359
 20
-163.29999999999859
 30
0.0
 40
4.6999999999999922
  0
ARC
  8
DETAIL
  6
CONTINUOUS
 62
     5
 10
-149.60005000000049
 20
-193.80000000000291
 30
0.0
 40
2.999999999999996
 50
270.0
 51
0.0
  0
ARC
  8
DETAIL
  6
CONTINUOUS
 62
     5
 10
-149.60005000000049
 20
-159.80000000000021
 30
0.0
 40
2.999999999999996
 50
90.0
 51
180.0
  0
ARC
  8
DETAIL
  6
CONTINUOUS
 62
     5
 10
-142.60005000000001
 20
-159.80000000000021
 30
0.0
 40
2.999999999999996
 50
0.0
 51
90.0
  0
ARC
  8
DETAIL
  6
CONTINUOUS
 62
     5
 10
-154.0053131586678
 20
-166.80000000000061
 30
0.0
 40
2.5947368426666628
 50
127.9300673426978
 51
186.65105007010339
  0
ARC
  8
DETAIL
  6
CONTINUOUS
 62
     5
 10
-154.0053131586678
 20
-186.799999999997
 30
0.0
 40
2.5947368426666628
 50
127.9300673435565
 51
232.0699326563184
  0
ARC
  8
DETAIL
  6
CONTINUOUS
 62
     5
 10
-160.90005000000659
 20
-169.40000000000191
 30
0.0
 40
2.4499999999999971
 50
113.9785865930654
 51
2.3444741262147382
  0
ARC
  8
DETAIL
  6
CONTINUOUS
 62
     5
 10
-160.90005000000659
 20
-152.00000000000139
 30
0.0
 40
1.792024693333331
 50
0.0
 51
180.0
  0
ARC
  8
DETAIL
  6
CONTINUOUS
 62
     5
 10
-158.5000500000001
 20
-173.97004829866859
 30
0.0
 40
0.9999999999999987
 50
95.000000008160029
 51
180.0
  0
ARC
  8
DETAIL
  6
CONTINUOUS
 62
     5
 10
-158.5000500000001
 20
-179.62995170133439
 30
0.0
 40
0.9999999999999987
 50
180.0
 51
264.99999999184001
  0
ARC
  8
DETAIL
  6
CONTINUOUS
 62
     5
 10
-437.09245483600029
 20
-125.7500000000002
 30
0.0
 40
19.999999999999961
 50
270.0
 51
279.10460086542429
  0
ARC
  8
DETAIL
  6
CONTINUOUS
 62
     5
 10
-160.90005000000659
 20
-137.00000000000179
 30
0.0
 40
5.9839745959999924
 50
180.0
 51
332.3799391938793
  0
ARC
  8
DETAIL
  6
CONTINUOUS
 62
     5
 10
-363.5000500000001
 20
-82.999999999999091
 30
0.0
 40
4.9999999999999938
 50
270.0
 51
0.0
  0
ARC
  8
DETAIL
  6
CONTINUOUS
 62
     5
 10
-397.00005000000328
 20
-109.9999999999993
 30
0.0
 40
4.9999999999999938
 50
180.0
 51
270.0
  0
ARC
  8
DETAIL
  6
CONTINUOUS
 62
     5
 10
-386.90005000000752
 20
-91.000000000000227
 30
0.0
 40
2.999999999999996
 50
90.0
 51
270.0
  0
ARC
  8
DETAIL
  6
CONTINUOUS
 62
     5
 10
-370.50005000000061
 20
-80.000000000000227
 30
0.0
 40
2.999999999999996
 50
270.0
 51
90.0
  0
ARC
  8
DETAIL
  6
CONTINUOUS
 62
     5
 10
-361.50005000000192
 20
-61.20000000000141
 30
0.0
 40
2.999999999999996
 50
0.0
 51
90.0
  0
ARC
  8
DETAIL
  6
CONTINUOUS
 62
     5
 10
-374.00004999999692
 20
-61.20000000000141
 30
0.0
 40
2.999999999999996
 50
90.0
 51
180.0
  0
ARC
  8
DETAIL
  6
CONTINUOUS
 62
     5
 10
-372.50004999999828
 20
-80.000000000000227
 30
0.0
 40
2.999999999999996
 50
90.0
 51
270.0
  0
ARC
  8
DETAIL
  6
CONTINUOUS
 62
     5
 10
-393.0000500000001
 20
-72.000000000000909
 30
0.0
 40
2.999999999999996
 50
270.0
 51
0.0
  0
ARC
  8
DETAIL
  6
CONTINUOUS
 62
     5
 10
-399.00005000000101
 20
-72.000000000000909
 30
0.0
 40
2.999999999999996
 50
180.0
 51
270.0
  0
CIRCLE
  8
DETAIL
  6
CONTINUOUS
 62
     5
 10
-371.50004999999959
 20
-80.000000000000227
 30
0.0
 40
2.4999999999999969
  0
ARC
  8
DETAIL
  6
CONTINUOUS
 62
     5
 10
-160.90005000000659
 20
-119.5999999999995
 30
0.0
 40
1.9499999999999971
 50
357.05523552819898
 51
241.21087504801599
  0
ARC
  8
DETAIL
  6
CONTINUOUS
 62
     5
 10
-160.90005000000659
 20
-137.00000000000179
 30
0.0
 40
1.792024693333331
 50
180.0
 51
0.0
  0
ARC
  8
DETAIL
  6
CONTINUOUS
 62
     5
 10
-383.45821558666239
 20
-1.1000000000010459
 30
0.0
 40
1.099999999999999
 50
5.0000000000522231
 51
90.0
  0
ARC
  8
DETAIL
  6
CONTINUOUS
 62
     5
 10
-384.00004999999419
 20
-1.599999999998545
 30
0.0
 40
0.9999999999999987
 50
0.0
 51
90.0
  0
ARC
  8
DETAIL
  6
CONTINUOUS
 62
     5
 10
-384.00004999999419
 20
-1.599999999998545
 30
0.0
 40
0.4999999999999993
 50
0.0
 51
90.0
  0
ARC
  8
DETAIL
  6
CONTINUOUS
 62
     5
 10
-383.45821558666239
 20
-1.1000000000010459
 30
0.0
 40
0.4999999999999993
 50
4.9999999999213074
 51
90.0
  0
CIRCLE
  8
DETAIL
  6
CONTINUOUS
 62
     5
 10
165.99994999999939
 20
-222.00000000000091
 30
0.0
 40
4.6999999999999922
  0
CIRCLE
  8
DETAIL
  6
CONTINUOUS
 62
     5
 10
165.99994999999939
 20
-246.99999999999949
 30
0.0
 40
4.6999999999999922
  0
ARC
  8
DETAIL
  6
CONTINUOUS
 62
     5
 10
177.49994999999541
 20
-268.1000000000011
 30
0.0
 40
2.999999999999996
 50
180.0
 51
270.0
  0
ARC
  8
DETAIL
  6
CONTINUOUS
 62
     5
 10
188.49994999999899
 20
-268.1000000000011
 30
0.0
 40
2.999999999999996
 50
270.0
 51
0.0
  0
ARC
  8
DETAIL
  6
CONTINUOUS
 62
     5
 10
180.0999499999989
 20
-271.10000000000019
 30
0.0
 40
1.1999999999999991
 50
180.0
 51
270.0
  0
ARC
  8
DETAIL
  6
CONTINUOUS
 62
     5
 10
180.0999499999989
 20
-271.10000000000019
 30
0.0
 40
0.5999999999999993
 50
180.0
 51
270.0
  0
ARC
  8
DETAIL
  6
CONTINUOUS
 62
     5
 10
176.49994999999629
 20
-190.06410161600121
 30
0.0
 40
1.9999999999999969
 50
180.0
 51
209.9999999999975
  0
ARC
  8
DETAIL
  6
CONTINUOUS
 62
     5
 10
176.49994999999629
 20
-155.13589838533429
 30
0.0
 40
1.9999999999999969
 50
150.0000000000025
 51
180.0
  0
ARC
  8
DETAIL
  6
CONTINUOUS
 62
     5
 10
176.49994999999629
 20
-211.13589838533471
 30
0.0
 40
1.9999999999999969
 50
150.0000000000025
 51
180.0
  0
ARC
  8
DETAIL
  6
CONTINUOUS
 62
     5
 10
437.09245483466748
 20
-263.25
 30
0.0
 40
19.999999999999961
 50
90.0
 51
99.104600865424288
  0
CIRCLE
  8
DETAIL
  6
CONTINUOUS
 62
     5
 10
363.30004999999568
 20
-241.60000000000011
 30
0.0
 40
4.6999999999999922
  0
CIRCLE
  8
DETAIL
  6
CONTINUOUS
 62
     5
 10
342.49994999999899
 20
-246.60000000000079
 30
0.0
 40
4.6999999999999922
  0
ARC
  8
DETAIL
  6
CONTINUOUS
 62
     5
 10
353.29995000000548
 20
-220.44999999999959
 30
0.0
 40
2.999999999999996
 50
0.0
 51
90.0
  0
ARC
  8
DETAIL
  6
CONTINUOUS
 62
     5
 10
353.29995000000548
 20
-240.449999999998
 30
0.0
 40
2.999999999999996
 50
270.0
 51
0.0
  0
ARC
  8
DETAIL
  6
CONTINUOUS
 62
     5
 10
386.00004999999919
 20
-251.50000000000071
 30
0.0
 40
1.9999999999999969
 50
90.0
 51
180.0
  0
ARC
  8
DETAIL
  6
CONTINUOUS
 62
     5
 10
351.69995000000108
 20
-268.75000000000011
 30
0.0
 40
1.5999999999999981
 50
270.0
 51
0.0
  0
ARC
  8
DETAIL
  6
CONTINUOUS
 62
     5
 10
383.73311493866822
 20
-287.60000000000127
 30
0.0
 40
1.3999999999999979
 50
185.00000000005221
 51
270.0
  0
ARC
  8
DETAIL
  6
CONTINUOUS
 62
     5
 10
442.61895620132958
 20
-241.86890620133249
 30
0.0
 40
1.3810937986666649
 50
270.0
 51
0.0
  0
ARC
  8
DETAIL
  6
CONTINUOUS
 62
     5
 10
384.00005000000152
 20
-287.400000000001
 30
0.0
 40
0.9999999999999987
 50
180.0
 51
270.0
  0
ARC
  8
DETAIL
  6
CONTINUOUS
 62
     5
 10
348.29994999999599
 20
-220.60000000000079
 30
0.0
 40
0.9999999999999987
 50
0.0
 51
90.0
  0
ARC
  8
DETAIL
  6
CONTINUOUS
 62
     5
 10
383.73311493866822
 20
-287.60000000000127
 30
0.0
 40
0.7999999999999989
 50
184.9999999999213
 51
270.0
  0
ARC
  8
DETAIL
  6
CONTINUOUS
 62
     5
 10
384.00005000000152
 20
-287.400000000001
 30
0.0
 40
0.4999999999999993
 50
180.0
 51
270.0
  0
ARC
  8
DETAIL
  6
CONTINUOUS
 62
     5
 10
360.50003535554288
 20
-183.5999146432753
 30
0.0
 40
3.0000853567617871
 50
180.00163014701079
 51
270.00027968048829
  0
ARC
  8
DETAIL
  6
CONTINUOUS
 62
     5
 10
442.61895620132958
 20
-147.13109379866771
 30
0.0
 40
1.3810937986666649
 50
0.0
 51
90.0
  0
ARC
  8
DETAIL
  6
CONTINUOUS
 62
     5
 10
348.29994999999599
 20
-203.6000000000017
 30
0.0
 40
0.9999999999999987
 50
270.0
 51
0.0
  0
CIRCLE
  8
DETAIL
  6
CONTINUOUS
 62
     5
 10
165.99994999999939
 20
-77.000000000001364
 30
0.0
 40
4.6999999999999922
  0
CIRCLE
  8
DETAIL
  6
CONTINUOUS
 62
     5
 10
169.49995000000351
 20
-99.599999999999454
 30
0.0
 40
4.6999999999999922
  0
ARC
  8
DETAIL
  6
CONTINUOUS
 62
     5
 10
166.49994999999899
 20
-110.5999999999992
 30
0.0
 40
2.999999999999996
 50
180.0
 51
270.0
  0
ARC
  8
DETAIL
  6
CONTINUOUS
 62
     5
 10
166.49994999999899
 20
-88.600000000003092
 30
0.0
 40
2.999999999999996
 50
90.0
 51
180.0
  0
ARC
  8
DETAIL
  6
CONTINUOUS
 62
     5
 10
171.49995000000129
 20
-82.600000000001728
 30
0.0
 40
2.999999999999996
 50
270.0
 51
0.0
  0
ARC
  8
DETAIL
  6
CONTINUOUS
 62
     5
 10
171.49995000000129
 20
-116.60000000000061
 30
0.0
 40
2.999999999999996
 50
0.0
 51
90.0
  0
ARC
  8
DETAIL
  6
CONTINUOUS
 62
     5
 10
176.49994999999629
 20
-134.0641016160005
 30
0.0
 40
1.9999999999999969
 50
180.0
 51
209.9999999999975
  0
CIRCLE
  8
DETAIL
  6
CONTINUOUS
 62
     5
 10
165.99994999999939
 20
-52.000000000000909
 30
0.0
 40
4.6999999999999922
  0
ARC
  8
DETAIL
  6
CONTINUOUS
 62
     5
 10
177.49994999999541
 20
-14.900000000004679
 30
0.0
 40
2.999999999999996
 50
90.0
 51
180.0
  0
ARC
  8
DETAIL
  6
CONTINUOUS
 62
     5
 10
188.49994999999899
 20
-14.900000000004679
 30
0.0
 40
2.999999999999996
 50
0.0
 51
90.0
  0
ARC
  8
DETAIL
  6
CONTINUOUS
 62
     5
 10
180.0999499999989
 20
-11.90000000000218
 30
0.0
 40
1.1999999999999991
 50
90.0
 51
180.0
  0
ARC
  8
DETAIL
  6
CONTINUOUS
 62
     5
 10
180.0999499999989
 20
-11.90000000000218
 30
0.0
 40
0.5999999999999993
 50
90.0
 51
180.0
  0
ARC
  8
DETAIL
  6
CONTINUOUS
 62
     5
 10
437.09245483466748
 20
-125.7500000000002
 30
0.0
 40
19.999999999999961
 50
260.89539913457571
 51
270.0
  0
ARC
  8
DETAIL
  6
CONTINUOUS
 62
     5
 10
397.00004999999561
 20
-109.9999999999993
 30
0.0
 40
4.9999999999999938
 50
270.0
 51
0.0
  0
ARC
  8
DETAIL
  6
CONTINUOUS
 62
     5
 10
363.5000500000001
 20
-82.999999999999091
 30
0.0
 40
4.9999999999999938
 50
180.0
 51
270.0
  0
ARC
  8
DETAIL
  6
CONTINUOUS
 62
     5
 10
386.90004999999968
 20
-91.000000000000227
 30
0.0
 40
2.999999999999996
 50
270.0
 51
90.0
  0
ARC
  8
DETAIL
  6
CONTINUOUS
 62
     5
 10
370.5000500000001
 20
-80.000000000000227
 30
0.0
 40
2.999999999999996
 50
90.0
 51
270.0
  0
ARC
  8
DETAIL
  6
CONTINUOUS
 62
     5
 10
372.50004999999828
 20
-80.000000000000227
 30
0.0
 40
2.999999999999996
 50
270.0
 51
90.0
  0
ARC
  8
DETAIL
  6
CONTINUOUS
 62
     5
 10
393.00004999999959
 20
-72.000000000000909
 30
0.0
 40
2.999999999999996
 50
180.0
 51
270.0
  0
ARC
  8
DETAIL
  6
CONTINUOUS
 62
     5
 10
399.00005000000101
 20
-72.000000000000909
 30
0.0
 40
2.999999999999996
 50
270.0
 51
0.0
  0
CIRCLE
  8
DETAIL
  6
CONTINUOUS
 62
     5
 10
371.50004999999919
 20
-80.000000000000227
 30
0.0
 40
2.4999999999999969
  0
ARC
  8
DETAIL
  6
CONTINUOUS
 62
     5
 10
348.29994999999599
 20
-79.599999999999227
 30
0.0
 40
0.9999999999999987
 50
0.0
 51
90.0
  0
ARC
  8
DETAIL
  6
CONTINUOUS
 62
     5
 10
371.90005000000019
 20
-33.799999999999947
 30
0.0
 40
9.9999999999999876
 50
270.0
 51
180.0
  0
ARC
  8
DETAIL
  6
CONTINUOUS
 62
     5
 10
371.90005000000019
 20
-33.799999999999947
 30
0.0
 40
8.7999999999999883
 50
270.0
 51
180.0
  0
ARC
  8
DETAIL
  6
CONTINUOUS
 62
     5
 10
363.30004999999568
 20
-33.600000000003092
 30
0.0
 40
5.4999999999999929
 50
131.97416068464301
 51
255.24000878685109
  0
ARC
  8
DETAIL
  6
CONTINUOUS
 62
     5
 10
363.30004999999568
 20
-33.600000000003092
 30
0.0
 40
5.4999999999999929
 50
267.91752440261052
 51
48.025839315357011
  0
ARC
  8
DETAIL
  6
CONTINUOUS
 62
     5
 10
363.30004999999568
 20
-26.600000000000819
 30
0.0
 40
4.6999999999999922
 50
22.833675615687341
 51
257.24802663447008
  0
ARC
  8
DETAIL
  6
CONTINUOUS
 62
     5
 10
363.30004999999568
 20
-26.600000000000819
 30
0.0
 40
4.6999999999999922
 50
272.24859668200719
 51
7.89241666071295
  0
CIRCLE
  8
DETAIL
  6
CONTINUOUS
 62
     5
 10
342.49994999999899
 20
-36.600000000000144
 30
0.0
 40
4.6999999999999922
  0
ARC
  8
DETAIL
  6
CONTINUOUS
 62
     5
 10
353.29995000000548
 20
-49.749999999999552
 30
0.0
 40
2.999999999999996
 50
0.0
 51
90.0
  0
ARC
  8
DETAIL
  6
CONTINUOUS
 62
     5
 10
353.29995000000548
 20
-69.749999999999545
 30
0.0
 40
2.999999999999996
 50
270.0
 51
0.0
  0
ARC
  8
DETAIL
  6
CONTINUOUS
 62
     5
 10
353.29995000000548
 20
-22.750000000002501
 30
0.0
 40
2.999999999999996
 50
0.0
 51
90.0
  0
ARC
  8
DETAIL
  6
CONTINUOUS
 62
     5
 10
353.29995000000548
 20
-42.750000000002728
 30
0.0
 40
2.999999999999996
 50
270.0
 51
0.0
  0
ARC
  8
DETAIL
  6
CONTINUOUS
 62
     5
 10
361.50005000000192
 20
-61.20000000000141
 30
0.0
 40
2.999999999999996
 50
90.0
 51
180.0
  0
ARC
  8
DETAIL
  6
CONTINUOUS
 62
     5
 10
374.00004999999692
 20
-61.20000000000141
 30
0.0
 40
2.999999999999996
 50
0.0
 51
90.0
  0
ARC
  8
DETAIL
  6
CONTINUOUS
 62
     5
 10
360.50004565282012
 20
-64.600132311097013
 30
0.0
 40
3.0000956557425198
 50
131.85015718519301
 51
179.99747312474159
  0
ARC
  8
DETAIL
  6
CONTINUOUS
 62
     5
 10
351.69995000000108
 20
-14.25000000000027
 30
0.0
 40
1.5999999999999981
 50
0.0
 51
90.0
  0
ARC
  8
DETAIL
  6
CONTINUOUS
 62
     5
 10
383.45821558666972
 20
-1.1000000000010459
 30
0.0
 40
1.099999999999999
 50
90.0
 51
174.99999999994779
  0
ARC
  8
DETAIL
  6
CONTINUOUS
 62
     5
 10
384.00005000000152
 20
-1.599999999998545
 30
0.0
 40
0.9999999999999987
 50
90.000000000104222
 51
180.0
  0
ARC
  8
DETAIL
  6
CONTINUOUS
 62
     5
 10
348.29994999999599
 20
-62.60000000000332
 30
0.0
 40
0.9999999999999987
 50
270.0
 51
0.0
  0
ARC
  8
DETAIL
  6
CONTINUOUS
 62
     5
 10
383.45821558666972
 20
-1.1000000000010459
 30
0.0
 40
0.4999999999999993
 50
90.0
 51
175.0000000000787
  0
ARC
  8
DETAIL
  6
CONTINUOUS
 62
     5
 10
384.00005000000152
 20
-1.599999999998545
 30
0.0
 40
0.4999999999999993
 50
90.0
 51
180.0
  0
LINE
  8
DETAIL
  6
CONTINUOUS
 62
     5
 10
152.92009353066439
 20
-204.50000000000051
 30
0.0
 11
152.52258196688433
 21
-204.55683629795783
 31
0.0
  0
LINE
  8
DETAIL
  6
CONTINUOUS
 62
     5
 10
152.52258196688433
 20
-204.55683629795783
 30
0.0
 11
152.14859502321139
 21
-204.71337297436455
 31
0.0
  0
LINE
  8
DETAIL
  6
CONTINUOUS
 62
     5
 10
152.14859502321139
 20
-204.71337297436455
 30
0.0
 11
151.82208598674686
 21
-204.94876480602895
 31
0.0
  0
LINE
  8
DETAIL
  6
CONTINUOUS
 62
     5
 10
151.82208598674686
 20
-204.94876480602895
 30
0.0
 11
151.54707387101558
 21
-205.24273198948586
 31
0.0
  0
LINE
  8
DETAIL
  6
CONTINUOUS
 62
     5
 10
151.54707387101558
 20
-205.24273198948586
 30
0.0
 11
151.32133026668464
 21
-205.57559720963377
 31
0.0
  0
LINE
  8
DETAIL
  6
CONTINUOUS
 62
     5
 10
151.32133026668464
 20
-205.57559720963377
 30
0.0
 11
151.14212503743011
 21
-205.93458092052268
 31
0.0
  0
LINE
  8
DETAIL
  6
CONTINUOUS
 62
     5
 10
151.14212503743011
 20
-205.93458092052268
 30
0.0
 11
151.00632311996506
 21
-206.31249324815732
 31
0.0
  0
LINE
  8
DETAIL
  6
CONTINUOUS
 62
     5
 10
151.00632311996506
 20
-206.31249324815732
 30
0.0
 11
150.91102303006775
 21
-206.70261705167238
 31
0.0
  0
LINE
  8
DETAIL
  6
CONTINUOUS
 62
     5
 10
150.91102303006775
 20
-206.70261705167238
 30
0.0
 11
150.85465913123849
 21
-207.09993368241669
 31
0.0
  0
LINE
  8
DETAIL
  6
CONTINUOUS
 62
     5
 10
150.85465913123849
 20
-207.09993368241669
 30
0.0
 11
150.83611841866829
 21
-207.5000000000027
 31
0.0
  0
LINE
  8
DETAIL
  6
CONTINUOUS
 62
     5
 10
150.83611841866829
 20
-251.50000000000051
 30
0.0
 11
150.85465913123849
 21
-251.90006631778019
 31
0.0
  0
LINE
  8
DETAIL
  6
CONTINUOUS
 62
     5
 10
150.85465913123849
 20
-251.90006631778019
 30
0.0
 11
150.91102303006775
 21
-252.29738294889111
 31
0.0
  0
LINE
  8
DETAIL
  6
CONTINUOUS
 62
     5
 10
150.91102303006775
 20
-252.29738294889111
 30
0.0
 11
151.00632311996503
 21
-252.68750675262424
 31
0.0
  0
LINE
  8
DETAIL
  6
CONTINUOUS
 62
     5
 10
151.00632311996503
 20
-252.68750675262424
 30
0.0
 11
151.14212503743011
 21
-253.06541908015009
 31
0.0
  0
LINE
  8
DETAIL
  6
CONTINUOUS
 62
     5
 10
151.14212503743011
 20
-253.06541908015009
 30
0.0
 11
151.32133026668464
 21
-253.42440279084641
 31
0.0
  0
LINE
  8
DETAIL
  6
CONTINUOUS
 62
     5
 10
151.32133026668464
 20
-253.42440279084641
 30
0.0
 11
151.54707387101556
 21
-253.75726801102925
 31
0.0
  0
LINE
  8
DETAIL
  6
CONTINUOUS
 62
     5
 10
151.54707387101556
 20
-253.75726801102925
 30
0.0
 11
151.82208598674688
 21
-254.05123519472448
 31
0.0
  0
LINE
  8
DETAIL
  6
CONTINUOUS
 62
     5
 10
151.82208598674688
 20
-254.05123519472448
 30
0.0
 11
152.14859502321141
 21
-254.28662702639309
 31
0.0
  0
LINE
  8
DETAIL
  6
CONTINUOUS
 62
     5
 10
152.14859502321141
 20
-254.28662702639309
 30
0.0
 11
152.5225819668843
 21
-254.44316370235498
 31
0.0
  0
LINE
  8
DETAIL
  6
CONTINUOUS
 62
     5
 10
152.5225819668843
 20
-254.44316370235498
 30
0.0
 11
152.92009353066439
 21
-254.49999999999949
 31
0.0
  0
LINE
  8
DETAIL
  6
CONTINUOUS
 62
     5
 10
152.92009353066439
 20
-34.5
 30
0.0
 11
152.52258196688433
 21
-34.556836297957759
 31
0.0
  0
LINE
  8
DETAIL
  6
CONTINUOUS
 62
     5
 10
152.52258196688433
 20
-34.556836297957759
 30
0.0
 11
152.14859502321139
 21
-34.713372974365107
 31
0.0
  0
LINE
  8
DETAIL
  6
CONTINUOUS
 62
     5
 10
152.14859502321139
 20
-34.713372974365107
 30
0.0
 11
151.82208598674686
 21
-34.94876480602916
 31
0.0
  0
LINE
  8
DETAIL
  6
CONTINUOUS
 62
     5
 10
151.82208598674686
 20
-34.94876480602916
 30
0.0
 11
151.54707387101558
 21
-35.24273198948525
 31
0.0
  0
LINE
  8
DETAIL
  6
CONTINUOUS
 62
     5
 10
151.54707387101558
 20
-35.24273198948525
 30
0.0
 11
151.32133026668464
 21
-35.575597209632832
 31
0.0
  0
LINE
  8
DETAIL
  6
CONTINUOUS
 62
     5
 10
151.32133026668464
 20
-35.575597209632832
 30
0.0
 11
151.14212503743011
 21
-35.934580920521974
 31
0.0
  0
LINE
  8
DETAIL
  6
CONTINUOUS
 62
     5
 10
151.14212503743011
 20
-35.934580920521974
 30
0.0
 11
151.00632311996506
 21
-36.312493248157061
 31
0.0
  0
LINE
  8
DETAIL
  6
CONTINUOUS
 62
     5
 10
151.00632311996506
 20
-36.312493248157061
 30
0.0
 11
150.91102303006775
 21
-36.702617051672213
 31
0.0
  0
LINE
  8
DETAIL
  6
CONTINUOUS
 62
     5
 10
150.91102303006775
 20
-36.702617051672213
 30
0.0
 11
150.85465913123849
 21
-37.099933682416491
 31
0.0
  0
LINE
  8
DETAIL
  6
CONTINUOUS
 62
     5
 10
150.85465913123849
 20
-37.099933682416491
 30
0.0
 11
150.83611841866829
 21
-37.500000000002501
 31
0.0
  0
LINE
  8
DETAIL
  6
CONTINUOUS
 62
     5
 10
150.83611841866829
 20
-81.500000000000682
 30
0.0
 11
150.85465913123849
 21
-81.900066317779959
 31
0.0
  0
LINE
  8
DETAIL
  6
CONTINUOUS
 62
     5
 10
150.85465913123849
 20
-81.900066317779959
 30
0.0
 11
150.91102303006775
 21
-82.29738294889016
 31
0.0
  0
LINE
  8
DETAIL
  6
CONTINUOUS
 62
     5
 10
150.91102303006775
 20
-82.29738294889016
 30
0.0
 11
151.00632311996503
 21
-82.687506752622625
 31
0.0
  0
LINE
  8
DETAIL
  6
CONTINUOUS
 62
     5
 10
151.00632311996503
 20
-82.687506752622625
 30
0.0
 11
151.14212503743011
 21
-83.065419080148118
 31
0.0
  0
LINE
  8
DETAIL
  6
CONTINUOUS
 62
     5
 10
151.14212503743011
 20
-83.065419080148118
 30
0.0
 11
151.32133026668464
 21
-83.42440279084478
 31
0.0
  0
LINE
  8
DETAIL
  6
CONTINUOUS
 62
     5
 10
151.32133026668464
 20
-83.42440279084478
 30
0.0
 11
151.54707387101556
 21
-83.757268011028785
 31
0.0
  0
LINE
  8
DETAIL
  6
CONTINUOUS
 62
     5
 10
151.54707387101556
 20
-83.757268011028785
 30
0.0
 11
151.82208598674688
 21
-84.051235194725564
 31
0.0
  0
LINE
  8
DETAIL
  6
CONTINUOUS
 62
     5
 10
151.82208598674688
 20
-84.051235194725564
 30
0.0
 11
152.14859502321141
 21
-84.286627026394797
 31
0.0
  0
LINE
  8
DETAIL
  6
CONTINUOUS
 62
     5
 10
152.14859502321141
 20
-84.286627026394797
 30
0.0
 11
152.5225819668843
 21
-84.443163702355832
 31
0.0
  0
LINE
  8
DETAIL
  6
CONTINUOUS
 62
     5
 10
152.5225819668843
 20
-84.443163702355832
 30
0.0
 11
152.92009353066439
 21
-84.499999999999545
 31
0.0
  0
LINE
  8
DETAIL
  6
CONTINUOUS
 62
     5
 10
-118.2124323693361
 20
-164.2999999999995
 30
0.0
 11
-118.265381323573
 21
-165.05205315311707
 31
0.0
  0
LINE
  8
DETAIL
  6
CONTINUOUS
 62
     5
 10
-118.265381323573
 20
-165.05205315311707
 30
0.0
 11
-118.42346260453857
 21
-165.7920098713592
 31
0.0
  0
LINE
  8
DETAIL
  6
CONTINUOUS
 62
     5
 10
-118.42346260453857
 20
-165.7920098713592
 30
0.0
 11
-118.68546541852119
 21
-166.50216521673283
 31
0.0
  0
LINE
  8
DETAIL
  6
CONTINUOUS
 62
     5
 10
-118.68546541852119
 20
-166.50216521673283
 30
0.0
 11
-119.04816416280963
 21
-167.16567635965018
 31
0.0
  0
LINE
  8
DETAIL
  6
CONTINUOUS
 62
     5
 10
-119.04816416280963
 20
-167.16567635965018
 30
0.0
 11
-119.50593259323415
 21
-167.76672767120567
 31
0.0
  0
LINE
  8
DETAIL
  6
CONTINUOUS
 62
     5
 10
-119.50593259323415
 20
-167.76672767120567
 30
0.0
 11
-120.05212888634412
 21
-168.28953021084934
 31
0.0
  0
LINE
  8
DETAIL
  6
CONTINUOUS
 62
     5
 10
-120.05212888634412
 20
-168.28953021084934
 30
0.0
 11
-120.67546165258003
 21
-168.71811775374229
 31
0.0
  0
LINE
  8
DETAIL
  6
CONTINUOUS
 62
     5
 10
-120.67546165258003
 20
-168.71811775374229
 30
0.0
 11
-121.36291463621841
 21
-169.03658823517685
 31
0.0
  0
LINE
  8
DETAIL
  6
CONTINUOUS
 62
     5
 10
-121.36291463621841
 20
-169.03658823517685
 30
0.0
 11
-122.09547857608985
 21
-169.23297752741121
 31
0.0
  0
LINE
  8
DETAIL
  6
CONTINUOUS
 62
     5
 10
-122.09547857608985
 20
-169.23297752741121
 30
0.0
 11
-122.84702540666009
 21
-169.30000000000001
 31
0.0
  0
LINE
  8
DETAIL
  6
CONTINUOUS
 62
     5
 10
-120.4124323693309
 20
-164.2999999999995
 30
0.0
 11
-120.44667249841814
 21
-164.75337347853252
 31
0.0
  0
LINE
  8
DETAIL
  6
CONTINUOUS
 62
     5
 10
-120.44667249841814
 20
-164.75337347853252
 30
0.0
 11
-120.54783987009262
 21
-165.20337604804766
 31
0.0
  0
LINE
  8
DETAIL
  6
CONTINUOUS
 62
     5
 10
-120.54783987009262
 20
-165.20337604804766
 30
0.0
 11
-120.71360499124987
 21
-165.63575978482038
 31
0.0
  0
LINE
  8
DETAIL
  6
CONTINUOUS
 62
     5
 10
-120.71360499124987
 20
-165.63575978482038
 30
0.0
 11
-120.94163836878549
 21
-166.03627676512636
 31
0.0
  0
LINE
  8
DETAIL
  6
CONTINUOUS
 62
     5
 10
-120.94163836878549
 20
-166.03627676512636
 30
0.0
 11
-121.22959829540326
 21
-166.39068567177765
 31
0.0
  0
LINE
  8
DETAIL
  6
CONTINUOUS
 62
     5
 10
-121.22959829540326
 20
-166.39068567177765
 30
0.0
 11
-121.57356286643609
 21
-166.68559990086078
 31
0.0
  0
LINE
  8
DETAIL
  6
CONTINUOUS
 62
     5
 10
-121.57356286643609
 20
-166.68559990086078
 30
0.0
 11
-121.96648417267038
 21
-166.90932350022763
 31
0.0
  0
LINE
  8
DETAIL
  6
CONTINUOUS
 62
     5
 10
-121.96648417267038
 20
-166.90932350022763
 30
0.0
 11
-122.39790570048373
 21
-167.05073620396536
 31
0.0
  0
LINE
  8
DETAIL
  6
CONTINUOUS
 62
     5
 10
-122.39790570048373
 20
-167.05073620396536
 30
0.0
 11
-122.8470291546646
 21
-167.09999999999951
 31
0.0
  0
LINE
  8
DETAIL
  6
CONTINUOUS
 62
     5
 10
-122.84702540666009
 20
-119.7000000000035
 30
0.0
 11
-122.09547875687566
 21
-119.76702245371827
 31
0.0
  0
LINE
  8
DETAIL
  6
CONTINUOUS
 62
     5
 10
-122.09547875687566
 20
-119.76702245371827
 30
0.0
 11
-121.3629150100183
 21
-119.96341168823687
 31
0.0
  0
LINE
  8
DETAIL
  6
CONTINUOUS
 62
     5
 10
-121.3629150100183
 20
-119.96341168823687
 30
0.0
 11
-120.67546215143825
 21
-120.28188206149255
 31
0.0
  0
LINE
  8
DETAIL
  6
CONTINUOUS
 62
     5
 10
-120.67546215143825
 20
-120.28188206149255
 30
0.0
 11
-120.05212938432273
 21
-120.7104694278203
 31
0.0
  0
LINE
  8
DETAIL
  6
CONTINUOUS
 62
     5
 10
-120.05212938432273
 20
-120.7104694278203
 30
0.0
 11
-119.50593305820504
 21
-121.23327178668342
 31
0.0
  0
LINE
  8
DETAIL
  6
CONTINUOUS
 62
     5
 10
-119.50593305820504
 20
-121.23327178668342
 30
0.0
 11
-119.04816464023661
 21
-121.83432295565611
 31
0.0
  0
LINE
  8
DETAIL
  6
CONTINUOUS
 62
     5
 10
-119.04816464023661
 20
-121.83432295565611
 30
0.0
 11
-118.6854658929968
 21
-122.49783394789459
 31
0.0
  0
LINE
  8
DETAIL
  6
CONTINUOUS
 62
     5
 10
-118.6854658929968
 20
-122.49783394789459
 30
0.0
 11
-118.42346297784786
 21
-123.20798908008355
 31
0.0
  0
LINE
  8
DETAIL
  6
CONTINUOUS
 62
     5
 10
-118.42346297784786
 20
-123.20798908008355
 30
0.0
 11
-118.26538152255372
 21
-123.94794555434933
 31
0.0
  0
LINE
  8
DETAIL
  6
CONTINUOUS
 62
     5
 10
-118.26538152255372
 20
-123.94794555434933
 30
0.0
 11
-118.2124323693361
 21
-124.699998507999
 31
0.0
  0
LINE
  8
DETAIL
  6
CONTINUOUS
 62
     5
 10
-122.8470291546646
 20
-121.90000000000011
 30
0.0
 11
-122.39790577296326
 21
-121.94926379019374
 31
0.0
  0
LINE
  8
DETAIL
  6
CONTINUOUS
 62
     5
 10
-122.39790577296326
 20
-121.94926379019374
 30
0.0
 11
-121.96648427210572
 21
-122.09067644267058
 31
0.0
  0
LINE
  8
DETAIL
  6
CONTINUOUS
 62
     5
 10
-121.96648427210572
 20
-122.09067644267058
 30
0.0
 11
-121.57356298200646
 21
-122.31439991716087
 31
0.0
  0
LINE
  8
DETAIL
  6
CONTINUOUS
 62
     5
 10
-121.57356298200646
 20
-122.31439991716087
 30
0.0
 11
-121.22959845497805
 21
-122.60931398789921
 31
0.0
  0
LINE
  8
DETAIL
  6
CONTINUOUS
 62
     5
 10
-121.22959845497805
 20
-122.60931398789921
 30
0.0
 11
-120.94163855741279
 21
-122.96372274871328
 31
0.0
  0
LINE
  8
DETAIL
  6
CONTINUOUS
 62
     5
 10
-120.94163855741279
 20
-122.96372274871328
 30
0.0
 11
-120.71360518031869
 21
-123.36423960801369
 31
0.0
  0
LINE
  8
DETAIL
  6
CONTINUOUS
 62
     5
 10
-120.71360518031869
 20
-123.36423960801369
 30
0.0
 11
-120.54784002911799
 21
-123.79662324227549
 31
0.0
  0
LINE
  8
DETAIL
  6
CONTINUOUS
 62
     5
 10
-120.54784002911799
 20
-123.79662324227549
 30
0.0
 11
-120.44667259504425
 21
-124.24662572124527
 31
0.0
  0
LINE
  8
DETAIL
  6
CONTINUOUS
 62
     5
 10
-120.44667259504425
 20
-124.24662572124527
 30
0.0
 11
-120.4124323693309
 21
-124.6999991146695
 31
0.0
  0
LINE
  8
DETAIL
  6
CONTINUOUS
 62
     5
 10
-159.79993437999701
 20
-124.59988520800179
 30
0.0
 11
-159.79775744020063
 21
-124.26196894944717
 31
0.0
  0
LINE
  8
DETAIL
  6
CONTINUOUS
 62
     5
 10
-159.79775744020063
 20
-124.26196894944717
 30
0.0
 11
-159.79300340594804
 21
-123.92405466531876
 31
0.0
  0
LINE
  8
DETAIL
  6
CONTINUOUS
 62
     5
 10
-159.79300340594804
 20
-123.92405466531876
 30
0.0
 11
-159.78591981882707
 21
-123.58608994234054
 31
0.0
  0
LINE
  8
DETAIL
  6
CONTINUOUS
 62
     5
 10
-159.78591981882707
 20
-123.58608994234054
 30
0.0
 11
-159.77604658864419
 21
-123.24813811698237
 31
0.0
  0
LINE
  8
DETAIL
  6
CONTINUOUS
 62
     5
 10
-159.77604658864419
 20
-123.24813811698237
 30
0.0
 11
-159.76254527360356
 21
-122.91032441397726
 31
0.0
  0
LINE
  8
DETAIL
  6
CONTINUOUS
 62
     5
 10
-159.76254527360356
 20
-122.91032441397726
 30
0.0
 11
-159.74457386230506
 21
-122.57277464195046
 31
0.0
  0
LINE
  8
DETAIL
  6
CONTINUOUS
 62
     5
 10
-159.74457386230506
 20
-122.57277464195046
 30
0.0
 11
-159.72129034334884
 21
-122.23561460952719
 31
0.0
  0
LINE
  8
DETAIL
  6
CONTINUOUS
 62
     5
 10
-159.72129034334884
 20
-122.23561460952719
 30
0.0
 11
-159.6918527053349
 21
-121.8989701253327
 31
0.0
  0
LINE
  8
DETAIL
  6
CONTINUOUS
 62
     5
 10
-161.9999400360048
 20
-124.5998956973358
 30
0.0
 11
-161.99653732713008
 21
-124.13734292013572
 31
0.0
  0
LINE
  8
DETAIL
  6
CONTINUOUS
 62
     5
 10
-161.99653732713008
 20
-124.13734292013572
 30
0.0
 11
-161.98822747846313
 21
-123.67484629795781
 31
0.0
  0
LINE
  8
DETAIL
  6
CONTINUOUS
 62
     5
 10
-161.98822747846313
 20
-123.67484629795781
 30
0.0
 11
-161.97481076367467
 21
-123.21242249390438
 31
0.0
  0
LINE
  8
DETAIL
  6
CONTINUOUS
 62
     5
 10
-161.97481076367467
 20
-123.21242249390438
 30
0.0
 11
-161.95607385239632
 21
-122.75009024258516
 31
0.0
  0
LINE
  8
DETAIL
  6
CONTINUOUS
 62
     5
 10
-161.95607385239632
 20
-122.75009024258516
 30
0.0
 11
-161.93066517487981
 21
-122.28804160001634
 31
0.0
  0
LINE
  8
DETAIL
  6
CONTINUOUS
 62
     5
 10
-161.93066517487981
 20
-122.28804160001634
 30
0.0
 11
-161.89525357947551
 21
-121.82677005610049
 31
0.0
  0
LINE
  8
DETAIL
  6
CONTINUOUS
 62
     5
 10
-161.89525357947551
 20
-121.82677005610049
 30
0.0
 11
-161.846256050227
 21
-121.36680982893034
 31
0.0
  0
LINE
  8
DETAIL
  6
CONTINUOUS
 62
     5
 10
-161.846256050227
 20
-121.36680982893034
 30
0.0
 11
-161.77496819462507
 21
-120.90970763483152
 31
0.0
  0
LINE
  8
DETAIL
  6
CONTINUOUS
 62
     5
 10
-161.77496819462507
 20
-120.90970763483152
 30
0.0
 11
-161.6469610165002
 21
-120.46498647680963
 31
0.0
  0
LINE
  8
DETAIL
  6
CONTINUOUS
 62
     5
 10
-161.6469610165002
 20
-120.46498647680963
 30
0.0
 11
-161.40024548766891
 21
-120.07116537645187
 31
0.0
  0
LINE
  8
DETAIL
  6
CONTINUOUS
 62
     5
 10
-161.40024548766891
 20
-120.07116537645187
 30
0.0
 11
-161.01753884143938
 21
-119.79921121402708
 31
0.0
  0
LINE
  8
DETAIL
  6
CONTINUOUS
 62
     5
 10
-161.01753884143938
 20
-119.79921121402708
 30
0.0
 11
-160.56016262666799
 21
-119.7000000000035
 31
0.0
  0
LINE
  8
DETAIL
  6
CONTINUOUS
 62
     5
 10
-159.69193871199471
 20
-167.1001235453341
 30
0.0
 11
-159.72072330166864
 21
-166.76351656858594
 31
0.0
  0
LINE
  8
DETAIL
  6
CONTINUOUS
 62
     5
 10
-159.72072330166864
 20
-166.76351656858594
 30
0.0
 11
-159.74331618614997
 21
-166.42640850026666
 31
0.0
  0
LINE
  8
DETAIL
  6
CONTINUOUS
 62
     5
 10
-159.74331618614997
 20
-166.42640850026666
 30
0.0
 11
-159.76147426668783
 21
-166.08902602524898
 31
0.0
  0
LINE
  8
DETAIL
  6
CONTINUOUS
 62
     5
 10
-159.76147426668783
 20
-166.08902602524898
 30
0.0
 11
-159.77566097736621
 21
-165.75143695937587
 31
0.0
  0
LINE
  8
DETAIL
  6
CONTINUOUS
 62
     5
 10
-159.77566097736621
 20
-165.75143695937587
 30
0.0
 11
-159.78623832644428
 21
-165.41369666094752
 31
0.0
  0
LINE
  8
DETAIL
  6
CONTINUOUS
 62
     5
 10
-159.78623832644428
 20
-165.41369666094752
 30
0.0
 11
-159.79356832218105
 21
-165.07586048826414
 31
0.0
  0
LINE
  8
DETAIL
  6
CONTINUOUS
 62
     5
 10
-159.79356832218105
 20
-165.07586048826414
 30
0.0
 11
-159.79801297283572
 21
-164.73798379962605
 31
0.0
  0
LINE
  8
DETAIL
  6
CONTINUOUS
 62
     5
 10
-159.79801297283572
 20
-164.73798379962605
 30
0.0
 11
-159.79993428666739
 21
-164.40012195333341
 31
0.0
  0
LINE
  8
DETAIL
  6
CONTINUOUS
 62
     5
 10
-160.56016262666799
 20
-169.30000000000001
 30
0.0
 11
-161.01747812277867
 21
-169.20067711342546
 31
0.0
  0
LINE
  8
DETAIL
  6
CONTINUOUS
 62
     5
 10
-161.01747812277867
 20
-169.20067711342546
 30
0.0
 11
-161.40020085778281
 21
-168.92864931205534
 31
0.0
  0
LINE
  8
DETAIL
  6
CONTINUOUS
 62
     5
 10
-161.40020085778281
 20
-168.92864931205534
 30
0.0
 11
-161.64702504113748
 21
-168.53492282158516
 31
0.0
  0
LINE
  8
DETAIL
  6
CONTINUOUS
 62
     5
 10
-161.64702504113748
 20
-168.53492282158516
 30
0.0
 11
-161.77499953747716
 21
-168.09021084975268
 31
0.0
  0
LINE
  8
DETAIL
  6
CONTINUOUS
 62
     5
 10
-161.77499953747716
 20
-168.09021084975268
 30
0.0
 11
-161.84626147664457
 21
-167.63311085367596
 31
0.0
  0
LINE
  8
DETAIL
  6
CONTINUOUS
 62
     5
 10
-161.84626147664457
 20
-167.63311085367596
 30
0.0
 11
-161.89526535106486
 21
-167.17316678369588
 31
0.0
  0
LINE
  8
DETAIL
  6
CONTINUOUS
 62
     5
 10
-161.89526535106486
 20
-167.17316678369588
 30
0.0
 11
-161.93067490404326
 21
-166.71190561025705
 31
0.0
  0
LINE
  8
DETAIL
  6
CONTINUOUS
 62
     5
 10
-161.93067490404326
 20
-166.71190561025705
 30
0.0
 11
-161.95607783396528
 21
-166.24986484942832
 31
0.0
  0
LINE
  8
DETAIL
  6
CONTINUOUS
 62
     5
 10
-161.95607783396528
 20
-166.24986484942832
 30
0.0
 11
-161.97481033190533
 21
-165.78754129717092
 31
0.0
  0
LINE
  8
DETAIL
  6
CONTINUOUS
 62
     5
 10
-161.97481033190533
 20
-165.78754129717092
 30
0.0
 11
-161.98822623318324
 21
-165.32512787765688
 31
0.0
  0
LINE
  8
DETAIL
  6
CONTINUOUS
 62
     5
 10
-161.98822623318324
 20
-165.32512787765688
 30
0.0
 11
-161.99653693641193
 21
-164.86264239296696
 31
0.0
  0
LINE
  8
DETAIL
  6
CONTINUOUS
 62
     5
 10
-161.99653693641193
 20
-164.86264239296696
 30
0.0
 11
-161.9999400893266
 21
-164.40010053733411
 31
0.0
  0
LINE
  8
BASIS
  6
DASHDOT
 62
     6
 10
449.00005000012652
 20
-194.50000000066939
 30
0.0
 11
376.37827785463651
 21
-194.50000000066939
 31
0.0
1001
GENIUS_GENODEF_13
1002
{
1000
HIER
1070
     0
1002
}
1002
{
1000
MANEDIT
1070
     0
1002
}
1002
{
1000
NOSEL
1070
     0
1002
}
1002
{
1000
BEHIND
1070
     0
1002
}
1002
{
1000
OTHER
1070
     0
1002
}
1002
{
1000
REACTOR
1002
}
1001
GENIUS_GENOBJ-N-CEN_13
1002
{
1000
OWNER
1000
GEN
1002
}
1001
GENIUS_GENCEN_19
1002
{
1040
5.0
1002
}
  0
LINE
  8
DETAIL
  6
CONTINUOUS
 62
     5
 10
385.5000500000001
 20
-1.700000000000728
 30
0.0
 11
389.15004999999792
 21
-1.700000000002547
 31
0.0
  0
ARC
  8
DETAIL
  6
CONTINUOUS
 62
     5
 10
389.15004999999792
 20
-0.8500000000012733
 30
0.0
 40
0.8500000000006169
 50
270.0
 51
88.095127118926712
  0
ARC
  8
DETAIL
  6
CONTINUOUS
 62
     5
 10
389.15004999998291
 20
-0.8499999999994543
 30
0.0
 40
0.2499999999998977
 50
270.0
 51
90.0
  0
LINE
  8
DETAIL
  6
CONTINUOUS
 62
     5
 10
-385.50004999999283
 20
-1.1000000000010459
 30
0.0
 11
-385.5000500000001
 21
-1.700000000000728
 31
0.0
  0
LINE
  8
DETAIL
  6
CONTINUOUS
 62
     5
 10
-385.5000500000001
 20
-1.700000000000728
 30
0.0
 11
-389.15004999999792
 21
-1.700000000002547
 31
0.0
  0
ARC
  8
DETAIL
  6
CONTINUOUS
 62
     5
 10
-389.15004999999792
 20
-0.8500000000012733
 30
0.0
 40
0.8500000000006169
 50
90.0
 51
270.0
  0
ARC
  8
DETAIL
  6
CONTINUOUS
 62
     5
 10
-389.15004999997609
 20
-0.8499999999994543
 30
0.0
 40
0.2499999999998977
 50
90.0
 51
270.0
  0
LINE
  8
DETAIL
  6
CONTINUOUS
 62
     5
 10
-375.80004999999801
 20
-1.700000000000728
 30
0.0
 11
375.80004999999801
 21
-1.700000000000728
 31
0.0
  0
LINE
  8
DETAIL
  6
CONTINUOUS
 62
     5
 10
396.19659280654793
 20
-139.53149724425751
 30
0.0
 11
395.80099939466658
 21
-139.50000000133761
 31
0.0
  0
LINE
  8
DETAIL
  6
CONTINUOUS
 62
     5
 10
383.50005000000192
 20
-127.0000000013392
 30
0.0
 11
384.00005000000152
 21
-127.0000000013392
 31
0.0
  0
LINE
  8
DETAIL
  6
CONTINUOUS
 62
     5
 10
395.80099939466658
 20
-139.50000000133761
 30
0.0
 11
386.00004999999919
 21
-139.50000000133761
 31
0.0
  0
ARC
  8
DETAIL
  6
CONTINUOUS
 62
     5
 10
386.00004999999919
 20
-137.50000000133971
 30
0.0
 40
1.9999999999999969
 50
180.0
 51
270.0
  0
LINE
  8
DETAIL
  6
CONTINUOUS
 62
     5
 10
385.5000500000001
 20
-287.90000000000049
 30
0.0
 11
385.5000500000001
 21
-287.29999999999882
 31
0.0
  0
LINE
  8
DETAIL
  6
CONTINUOUS
 62
     5
 10
385.5000500000001
 20
-287.29999999999882
 30
0.0
 11
389.15004999999792
 21
-287.299999999997
 31
0.0
  0
ARC
  8
DETAIL
  6
CONTINUOUS
 62
     5
 10
389.15004999999792
 20
-288.14999999999827
 30
0.0
 40
0.8500000000006169
 50
270.0
 51
90.0
  0
ARC
  8
DETAIL
  6
CONTINUOUS
 62
     5
 10
389.15004999998291
 20
-288.15000000000009
 30
0.0
 40
0.2499999999998977
 50
270.0
 51
90.0
  0
LINE
  8
DETAIL
  6
CONTINUOUS
 62
     5
 10
-385.50004999999283
 20
-287.90000000000242
 30
0.0
 11
-385.5000500000001
 21
-287.29999999999882
 31
0.0
  0
LINE
  8
DETAIL
  6
CONTINUOUS
 62
     5
 10
-385.5000500000001
 20
-287.29999999999882
 30
0.0
 11
-389.15004999999792
 21
-287.299999999997
 31
0.0
  0
ARC
  8
DETAIL
  6
CONTINUOUS
 62
     5
 10
-389.15004999999792
 20
-288.14999999999827
 30
0.0
 40
0.8500000000006169
 50
90.0
 51
270.0
  0
ARC
  8
DETAIL
  6
CONTINUOUS
 62
     5
 10
-389.15004999997609
 20
-288.15000000000009
 30
0.0
 40
0.2499999999998977
 50
90.0
 51
270.0
  0
LINE
  8
DETAIL
  6
CONTINUOUS
 62
     5
 10
-375.80004999999801
 20
-287.29999999999882
 30
0.0
 11
375.80004999999801
 21
-287.29999999999882
 31
0.0
  0
LINE
  8
DETAIL
  6
CONTINUOUS
 62
     5
 10
437.09245483466748
 20
-145.75000000000051
 30
0.0
 11
437.09245483466748
 21
-243.2499999999998
 31
0.0
  0
LINE
  8
DETAIL
  6
CONTINUOUS
 62
     5
 10
-437.09245483466748
 20
-145.75000000000051
 30
0.0
 11
-437.09245483466748
 21
-243.2499999999998
 31
0.0
  0
CIRCLE
  8
DETAIL
  6
DASHED
 62
     5
 10
-271.00005000000459
 20
-194.50000000000139
 30
0.0
 40
55.000000001374922
  0
LINE
  8
DETAIL
  6
CONTINUOUS
 62
     5
 10
-383.50004999999459
 20
-127.0000000000027
 30
0.0
 11
-384.00004999999419
 21
-127.0000000000027
 31
0.0
  0
LINE
  8
DETAIL
  6
CONTINUOUS
 62
     5
 10
-396.19659278950479
 20
-139.53149724156449
 30
0.0
 11
-395.8009993959995
 21
-139.50000000000301
 31
0.0
  0
LINE
  8
DETAIL
  6
CONTINUOUS
 62
     5
 10
-395.8009993959995
 20
-139.50000000000301
 30
0.0
 11
-386.00004999999243
 21
-139.50000000000301
 31
0.0
  0
ARC
  8
DETAIL
  6
CONTINUOUS
 62
     5
 10
-386.00004999999243
 20
-137.50000000000321
 30
0.0
 40
1.9999999999999969
 50
270.0
 51
0.0
  0
LINE
  8
BASIS
  6
DASHDOT
 62
     6
 10
-271.00005000000459
 20
-122.9471788702276
 30
0.0
 11
-271.00005000000459
 21
-266.83392764028622
 31
0.0
  0
LINE
  8
SIZE
  6
CONTINUOUS
 62
    30
 10
-390.00004999999868
 20
19.14999999999873
 30
0.0
 11
-390.00004999999868
 21
299.93919198804042
 31
0.0
  0
LINE
  8
SIZE
  6
CONTINUOUS
 62
    30
 10
389.99993256280322
 20
19.13587097169739
 30
0.0
 11
389.99993256280322
 21
299.93919198804042
 31
0.0
  0
LINE
  8
SIZE
  6
CONTINUOUS
 62
    30
 10
-378.00004999999868
 20
279.93919198804042
 30
0.0
 11
377.99993256280322
 21
279.93919198804042
 31
0.0
  0
CIRCLE
  8
SIZE
  6
CONTINUOUS
 62
    30
 10
-390.00004999999868
 20
279.93919198804042
 30
0.0
 40
6.0
  0
LINE
  8
SIZE
  6
CONTINUOUS
 62
    30
 10
-390.00004999999868
 20
279.93919198804042
 30
0.0
 11
-378.00004999999868
 21
279.93919198804042
 31
0.0
  0
CIRCLE
  8
SIZE
  6
CONTINUOUS
 62
    30
 10
389.99993256280322
 20
279.93919198804042
 30
0.0
 40
6.0
  0
LINE
  8
SIZE
  6
CONTINUOUS
 62
    30
 10
389.99993256280322
 20
279.93919198804042
 30
0.0
 11
377.99993256280322
 21
279.93919198804042
 31
0.0
  0
TEXT
  8
SIZE
  6
CONTINUOUS
 62
    30
 10
-80.928058718597754
 20
304.93919198804042
 30
0.0
 40
64.0
  1
780
 50
0.0
 41
0.9
 51
0.0
  7
STANDARD
 71
     0
 72
     1
 11
-0.0000587185977565
 21
304.93919198804042
 31
0.0
210
0.0
220
0.0
230
1.0
  0
POINT
  8
DEFPOINTS
  6
CONTINUOUS
 62
    30
 10
-390.00004999999868
 20
-0.8500000000012733
 30
0.0
  0
POINT
  8
DEFPOINTS
  6
CONTINUOUS
 62
    30
 10
389.99993256280322
 20
-0.8641290283026137
 30
0.0
  0
POINT
  8
DEFPOINTS
  6
CONTINUOUS
 62
    30
 10
389.99993256280322
 20
279.93919198804042
 30
0.0
  0
LINE
  8
SIZE
  6
CONTINUOUS
 62
    30
 10
-390.00004999999868
 20
19.14999999999873
 30
0.0
 11
-390.00004999999868
 21
299.93919198804042
 31
0.0
  0
LINE
  8
SIZE
  6
CONTINUOUS
 62
    30
 10
-444.00004999999328
 20
-127.1445088493363
 30
0.0
 11
-444.00004999999328
 21
299.93919198804042
 31
0.0
  0
LINE
  8
SIZE
  6
CONTINUOUS
 62
    30
 10
-378.00004999999868
 20
279.93919198804042
 30
0.0
 11
-366.00004999999868
 21
279.93919198804042
 31
0.0
  0
LINE
  8
SIZE
  6
CONTINUOUS
 62
    30
 10
-456.00004999999328
 20
279.93919198804042
 30
0.0
 11
-468.00004999999328
 21
279.93919198804042
 31
0.0
  0
LINE
  8
SIZE
  6
CONTINUOUS
 62
    30
 10
-390.00004999999868
 20
279.93919198804042
 30
0.0
 11
-444.00004999999328
 21
279.93919198804042
 31
0.0
  0
CIRCLE
  8
SIZE
  6
CONTINUOUS
 62
    30
 10
-390.00004999999868
 20
279.93919198804042
 30
0.0
 40
6.0
  0
LINE
  8
SIZE
  6
CONTINUOUS
 62
    30
 10
-390.00004999999868
 20
279.93919198804042
 30
0.0
 11
-378.00004999999868
 21
279.93919198804042
 31
0.0
  0
CIRCLE
  8
SIZE
  6
CONTINUOUS
 62
    30
 10
-444.00004999999328
 20
279.93919198804042
 30
0.0
 40
6.0
  0
LINE
  8
SIZE
  6
CONTINUOUS
 62
    30
 10
-444.00004999999328
 20
279.93919198804042
 30
0.0
 11
-456.00004999999328
 21
279.93919198804042
 31
0.0
  0
TEXT
  8
SIZE
  6
CONTINUOUS
 62
    30
 10
-471.14404999999601
 20
304.93919198804042
 30
0.0
 40
64.0
  1
54
 50
0.0
 41
0.9
 51
0.0
  7
STANDARD
 71
     0
 72
     1
 11
-417.00004999999601
 21
304.93919198804042
 31
0.0
210
0.0
220
0.0
230
1.0
  0
POINT
  8
DEFPOINTS
  6
CONTINUOUS
 62
    30
 10
-390.00004999999868
 20
-0.8500000000012733
 30
0.0
  0
POINT
  8
DEFPOINTS
  6
CONTINUOUS
 62
    30
 10
-444.00004999999328
 20
-147.14450884933629
 30
0.0
  0
POINT
  8
DEFPOINTS
  6
CONTINUOUS
 62
    30
 10
-444.00004999999328
 20
279.93919198804042
 30
0.0
  0
LINE
  8
SIZE
  6
CONTINUOUS
 62
    30
 10
389.99993256280322
 20
19.13587097169739
 30
0.0
 11
389.99993256280322
 21
299.50229183457708
 31
0.0
  0
LINE
  8
SIZE
  6
CONTINUOUS
 62
    30
 10
444.00005000000061
 20
-127.1445089026672
 30
0.0
 11
444.00005000000061
 21
299.50229183457708
 31
0.0
  0
LINE
  8
SIZE
  6
CONTINUOUS
 62
    30
 10
377.99993256280322
 20
279.50229183457708
 30
0.0
 11
365.99993256280322
 21
279.50229183457708
 31
0.0
  0
LINE
  8
SIZE
  6
CONTINUOUS
 62
    30
 10
456.00005000000061
 20
279.50229183457708
 30
0.0
 11
468.00005000000061
 21
279.50229183457708
 31
0.0
  0
LINE
  8
SIZE
  6
CONTINUOUS
 62
    30
 10
389.99993256280322
 20
279.50229183457708
 30
0.0
 11
444.00005000000061
 21
279.50229183457708
 31
0.0
  0
CIRCLE
  8
SIZE
  6
CONTINUOUS
 62
    30
 10
389.99993256280322
 20
279.50229183457708
 30
0.0
 40
6.0
  0
LINE
  8
SIZE
  6
CONTINUOUS
 62
    30
 10
389.99993256280322
 20
279.50229183457708
 30
0.0
 11
377.99993256280322
 21
279.50229183457708
 31
0.0
  0
CIRCLE
  8
SIZE
  6
CONTINUOUS
 62
    30
 10
444.00005000000061
 20
279.50229183457708
 30
0.0
 40
6.0
  0
LINE
  8
SIZE
  6
CONTINUOUS
 62
    30
 10
444.00005000000061
 20
279.50229183457708
 30
0.0
 11
456.00005000000061
 21
279.50229183457708
 31
0.0
  0
TEXT
  8
SIZE
  6
CONTINUOUS
 62
    30
 10
362.85599128140188
 20
304.50229183457708
 30
0.0
 40
64.0
  1
54
 50
0.0
 41
0.9
 51
0.0
  7
STANDARD
 71
     0
 72
     1
 11
416.99999128140189
 21
304.50229183457708
 31
0.0
210
0.0
220
0.0
230
1.0
  0
POINT
  8
DEFPOINTS
  6
CONTINUOUS
 62
    30
 10
389.99993256280322
 20
-0.8641290283026137
 30
0.0
  0
POINT
  8
DEFPOINTS
  6
CONTINUOUS
 62
    30
 10
444.00005000000061
 20
-147.14450890266721
 30
0.0
  0
POINT
  8
DEFPOINTS
  6
CONTINUOUS
 62
    30
 10
444.00005000000061
 20
279.50229183457708
 30
0.0
  0
LINE
  8
SIZE
  6
CONTINUOUS
 62
    30
 10
-530.16671666666196
 20
-144.4999999999998
 30
0.0
 11
-647.74308277080559
 21
-144.49999999999989
 31
0.0
  0
LINE
  8
SIZE
  6
CONTINUOUS
 62
    30
 10
-484.94263661439868
 20
-194.5000000000031
 30
0.0
 11
-647.74308277080559
 21
-194.5000000000031
 31
0.0
  0
LINE
  8
SIZE
  6
CONTINUOUS
 62
    30
 10
-627.74308277080559
 20
-132.49999999999989
 30
0.0
 11
-627.74308277080559
 21
-120.4999999999999
 31
0.0
  0
LINE
  8
SIZE
  6
CONTINUOUS
 62
    30
 10
-627.74308277080559
 20
-206.5000000000031
 30
0.0
 11
-627.74308277080559
 21
-218.5000000000031
 31
0.0
  0
LINE
  8
SIZE
  6
CONTINUOUS
 62
    30
 10
-627.74308277080559
 20
-144.49999999999989
 30
0.0
 11
-627.74308277080559
 21
-194.5000000000031
 31
0.0
  0
CIRCLE
  8
SIZE
  6
CONTINUOUS
 62
    30
 10
-627.74308277080559
 20
-144.49999999999989
 30
0.0
 40
6.0
  0
LINE
  8
SIZE
  6
CONTINUOUS
 62
    30
 10
-627.74308277080559
 20
-144.49999999999989
 30
0.0
 11
-627.74308277080559
 21
-132.49999999999989
 31
0.0
  0
CIRCLE
  8
SIZE
  6
CONTINUOUS
 62
    30
 10
-627.74308277080559
 20
-194.5000000000031
 30
0.0
 40
6.0
  0
LINE
  8
SIZE
  6
CONTINUOUS
 62
    30
 10
-627.74308277080559
 20
-194.5000000000031
 30
0.0
 11
-627.74308277080559
 21
-206.5000000000031
 31
0.0
  0
TEXT
  8
SIZE
  6
CONTINUOUS
 62
    30
 10
-652.74308277080547
 20
-223.64400000000131
 30
0.0
 40
64.0
  1
50
 50
90.0
 41
0.9
 51
0.0
  7
STANDARD
 71
     0
 72
     1
 11
-652.74308277080547
 21
-169.50000000000131
 31
0.0
210
0.0
220
0.0
230
1.0
  0
POINT
  8
DEFPOINTS
  6
CONTINUOUS
 62
    30
 10
-510.16671666666178
 20
-144.4999999999998
 30
0.0
  0
POINT
  8
DEFPOINTS
  6
CONTINUOUS
 62
    30
 10
-464.94263661439868
 20
-194.5000000000031
 30
0.0
  0
POINT
  8
DEFPOINTS
  6
CONTINUOUS
 62
    30
 10
-627.74308277080559
 20
-194.5000000000031
 30
0.0
  0
LINE
  8
SIZE
  6
CONTINUOUS
 62
    30
 10
462.61895620132992
 20
-145.75000000000051
 30
0.0
 11
795.03552755219266
 21
-145.75000000000051
 31
0.0
  0
LINE
  8
SIZE
  6
CONTINUOUS
 62
    30
 10
462.61895620132992
 20
-243.25000000000171
 30
0.0
 11
795.03552755219266
 21
-243.25000000000159
 31
0.0
  0
LINE
  8
SIZE
  6
CONTINUOUS
 62
    30
 10
775.03552755219266
 20
-231.25000000000159
 30
0.0
 11
775.03552755219266
 21
-157.75000000000051
 31
0.0
  0
LINE
  8
SIZE
  6
CONTINUOUS
 62
    30
 10
775.03552755219266
 20
-145.75000000000051
 30
0.0
 11
775.03552755219266
 21
143.9071428571425
 31
0.0
  0
CIRCLE
  8
SIZE
  6
CONTINUOUS
 62
    30
 10
775.03552755219266
 20
-243.25000000000159
 30
0.0
 40
6.0
  0
LINE
  8
SIZE
  6
CONTINUOUS
 62
    30
 10
775.03552755219266
 20
-243.25000000000159
 30
0.0
 11
775.03552755219266
 21
-231.25000000000159
 31
0.0
  0
CIRCLE
  8
SIZE
  6
CONTINUOUS
 62
    30
 10
775.03552755219266
 20
-145.75000000000051
 30
0.0
 40
6.0
  0
LINE
  8
SIZE
  6
CONTINUOUS
 62
    30
 10
775.03552755219266
 20
-145.75000000000051
 30
0.0
 11
775.03552755219266
 21
-157.75000000000051
 31
0.0
  0
TEXT
  8
SIZE
  6
CONTINUOUS
 62
    30
 10
750.03552755219243
 20
-123.65742857142916
 30
0.0
 40
64.0
  1
φ97.5
 50
90.0
 41
0.9
 51
0.0
  7
STANDARD
 71
     0
 72
     1
 11
750.03552755219243
 21
5.0785714285708199
 31
0.0
210
0.0
220
0.0
230
1.0
  0
POINT
  8
DEFPOINTS
  6
CONTINUOUS
 62
    30
 10
442.61895620132992
 20
-145.75000000000051
 30
0.0
  0
POINT
  8
DEFPOINTS
  6
CONTINUOUS
 62
    30
 10
442.61895620132992
 20
-243.25000000000171
 30
0.0
  0
POINT
  8
DEFPOINTS
  6
CONTINUOUS
 62
    30
 10
775.03552755219266
 20
-243.25000000000159
 30
0.0
  0
LINE
  8
SIZE
  6
CONTINUOUS
 62
    30
 10
415.80099939466692
 20
-139.5000000013377
 30
0.0
 11
918.29620218054538
 21
-139.50000000133761
 31
0.0
  0
LINE
  8
SIZE
  6
CONTINUOUS
 62
    30
 10
415.80099939466692
 20
-249.50000000000281
 30
0.0
 11
918.29620218054538
 21
-249.50000000000281
 31
0.0
  0
LINE
  8
SIZE
  6
CONTINUOUS
 62
    30
 10
898.29620218054538
 20
-237.50000000000281
 30
0.0
 11
898.29620218054538
 21
-151.50000000133761
 31
0.0
  0
LINE
  8
SIZE
  6
CONTINUOUS
 62
    30
 10
898.29620218054538
 20
-139.50000000133761
 30
0.0
 11
898.29620218054538
 21
100.7857142843767
 31
0.0
  0
CIRCLE
  8
SIZE
  6
CONTINUOUS
 62
    30
 10
898.29620218054538
 20
-249.50000000000281
 30
0.0
 40
6.0
  0
LINE
  8
SIZE
  6
CONTINUOUS
 62
    30
 10
898.29620218054538
 20
-249.50000000000281
 30
0.0
 11
898.29620218054538
 21
-237.50000000000281
 31
0.0
  0
CIRCLE
  8
SIZE
  6
CONTINUOUS
 62
    30
 10
898.29620218054538
 20
-139.50000000133761
 30
0.0
 40
6.0
  0
LINE
  8
SIZE
  6
CONTINUOUS
 62
    30
 10
898.29620218054538
 20
-139.50000000133761
 30
0.0
 11
898.29620218054538
 21
-151.50000000133761
 31
0.0
  0
TEXT
  8
SIZE
  6
CONTINUOUS
 62
    30
 10
873.29620218054515
 20
-117.32514285848076
 30
0.0
 40
64.0
  1
φ110
 50
90.0
 41
0.9
 51
0.0
  7
STANDARD
 71
     0
 72
     1
 11
873.29620218054515
 21
-13.357142858480682
 31
0.0
210
0.0
220
0.0
230
1.0
  0
POINT
  8
DEFPOINTS
  6
CONTINUOUS
 62
    30
 10
395.80099939466692
 20
-139.5000000013377
 30
0.0
  0
POINT
  8
DEFPOINTS
  6
CONTINUOUS
 62
    30
 10
395.80099939466692
 20
-249.50000000000281
 30
0.0
  0
POINT
  8
DEFPOINTS
  6
CONTINUOUS
 62
    30
 10
898.29620218054538
 20
-249.50000000000281
 30
0.0
  0
LINE
  8
SIZE
  6
CONTINUOUS
 62
    30
 10
409.15004999999809
 20
0.0000000000000032
 30
0.0
 11
645.9500796704325
 21
0.0000000000000413
 31
0.0
  0
LINE
  8
SIZE
  6
CONTINUOUS
 62
    30
 10
460.50005000141778
 20
-65.000000000000483
 30
0.0
 11
645.9500796704325
 21
-65.000000000000455
 31
0.0
  0
LINE
  8
SIZE
  6
CONTINUOUS
 62
    30
 10
625.9500796704325
 20
-77.000000000000455
 30
0.0
 11
625.9500796704325
 21
-89.000000000000455
 31
0.0
  0
LINE
  8
SIZE
  6
CONTINUOUS
 62
    30
 10
625.9500796704325
 20
12.000000000000041
 30
0.0
 11
625.9500796704325
 21
167.2571428571429
 31
0.0
  0
LINE
  8
SIZE
  6
CONTINUOUS
 62
    30
 10
625.9500796704325
 20
-65.000000000000455
 30
0.0
 11
625.9500796704325
 21
0.0000000000000381
 31
0.0
  0
CIRCLE
  8
SIZE
  6
CONTINUOUS
 62
    30
 10
625.9500796704325
 20
-65.000000000000455
 30
0.0
 40
6.0
  0
LINE
  8
SIZE
  6
CONTINUOUS
 62
    30
 10
625.9500796704325
 20
-65.000000000000455
 30
0.0
 11
625.9500796704325
 21
-77.000000000000455
 31
0.0
  0
CIRCLE
  8
SIZE
  6
CONTINUOUS
 62
    30
 10
625.9500796704325
 20
0.0000000000000381
 30
0.0
 40
6.0
  0
LINE
  8
SIZE
  6
CONTINUOUS
 62
    30
 10
625.9500796704325
 20
0.0000000000000381
 30
0.0
 11
625.9500796704325
 21
12.000000000000037
 31
0.0
  0
TEXT
  8
SIZE
  6
CONTINUOUS
 62
    30
 10
600.95007967043239
 20
42.060571428571308
 30
0.0
 40
64.0
  1
65
 50
90.0
 41
0.9
 51
0.0
  7
STANDARD
 71
     0
 72
     1
 11
600.95007967043239
 21
95.628571428571291
 31
0.0
210
0.0
220
0.0
230
1.0
  0
POINT
  8
DEFPOINTS
  6
CONTINUOUS
 62
    30
 10
389.15004999999809
 20
0.0
 30
0.0
  0
POINT
  8
DEFPOINTS
  6
CONTINUOUS
 62
    30
 10
440.50005000141778
 20
-65.000000000000483
 30
0.0
  0
POINT
  8
DEFPOINTS
  6
CONTINUOUS
 62
    30
 10
625.9500796704325
 20
-65.000000000000455
 30
0.0
  0
LINE
  8
SIZE
  6
CONTINUOUS
 62
    30
 10
-409.15004999999809
 20
-288.99999999999778
 30
0.0
 11
-777.37834536507307
 21
-288.9999999999979
 31
0.0
  0
LINE
  8
SIZE
  6
CONTINUOUS
 62
    30
 10
-409.15004999999809
 20
-0.0000000000000032
 30
0.0
 11
-777.37834536507319
 21
-0.0000000000000624
 31
0.0
  0
LINE
  8
SIZE
  6
CONTINUOUS
 62
    30
 10
-757.37834536507296
 20
-276.9999999999979
 30
0.0
 11
-757.37834536507307
 21
-12.00000000000006
 31
0.0
  0
CIRCLE
  8
SIZE
  6
CONTINUOUS
 62
    30
 10
-757.37834536507296
 20
-288.9999999999979
 30
0.0
 40
6.0
  0
LINE
  8
SIZE
  6
CONTINUOUS
 62
    30
 10
-757.37834536507296
 20
-288.9999999999979
 30
0.0
 11
-757.37834536507296
 21
-276.9999999999979
 31
0.0
  0
CIRCLE
  8
SIZE
  6
CONTINUOUS
 62
    30
 10
-757.37834536507307
 20
-0.0000000000000592
 30
0.0
 40
6.0
  0
LINE
  8
SIZE
  6
CONTINUOUS
 62
    30
 10
-757.37834536507307
 20
-0.0000000000000592
 30
0.0
 11
-757.37834536507307
 21
-12.000000000000059
 31
0.0
  0
TEXT
  8
SIZE
  6
CONTINUOUS
 62
    30
 10
-782.37834536507296
 20
-224.85199999999867
 30
0.0
 40
64.0
  1
289
 50
90.0
 41
0.9
 51
0.0
  7
STANDARD
 71
     0
 72
     1
 11
-782.37834536507296
 21
-144.49999999999869
 31
0.0
210
0.0
220
0.0
230
1.0
  0
POINT
  8
DEFPOINTS
  6
CONTINUOUS
 62
    30
 10
-389.15004999999809
 20
-288.99999999999778
 30
0.0
  0
POINT
  8
DEFPOINTS
  6
CONTINUOUS
 62
    30
 10
-389.15004999999809
 20
0.0
 30
0.0
  0
POINT
  8
DEFPOINTS
  6
CONTINUOUS
 62
    30
 10
-757.37834536507307
 20
-0.0000000000000592
 30
0.0
  0
LINE
  8
SIZE
  6
CONTINUOUS
 62
    30
 10
-390.00004999999868
 20
-308.14999999999827
 30
0.0
 11
-390.00004999999868
 21
-470.01018716656341
 31
0.0
  0
LINE
  8
SIZE
  6
CONTINUOUS
 62
    30
 10
-271.00005000000459
 20
-286.83392764028622
 30
0.0
 11
-271.00005000000459
 21
-470.01018716656341
 31
0.0
  0
LINE
  8
SIZE
  6
CONTINUOUS
 62
    30
 10
-283.00005000000459
 20
-450.01018716656341
 30
0.0
 11
-378.00004999999868
 21
-450.01018716656341
 31
0.0
  0
LINE
  8
SIZE
  6
CONTINUOUS
 62
    30
 10
-390.00004999999868
 20
-450.01018716656341
 30
0.0
 11
-575.42862142857018
 21
-450.01018716656341
 31
0.0
  0
CIRCLE
  8
SIZE
  6
CONTINUOUS
 62
    30
 10
-271.00005000000459
 20
-450.01018716656341
 30
0.0
 40
6.0
  0
LINE
  8
SIZE
  6
CONTINUOUS
 62
    30
 10
-271.00005000000459
 20
-450.01018716656341
 30
0.0
 11
-283.00005000000459
 21
-450.01018716656341
 31
0.0
  0
CIRCLE
  8
SIZE
  6
CONTINUOUS
 62
    30
 10
-390.00004999999868
 20
-450.01018716656341
 30
0.0
 40
6.0
  0
LINE
  8
SIZE
  6
CONTINUOUS
 62
    30
 10
-390.00004999999868
 20
-450.01018716656341
 30
0.0
 11
-378.00004999999868
 21
-450.01018716656341
 31
0.0
  0
TEXT
  8
SIZE
  6
CONTINUOUS
 62
    30
 10
-557.54633571428451
 20
-425.01018716656341
 30
0.0
 40
64.0
  1
119
 50
0.0
 41
0.9
 51
0.0
  7
STANDARD
 71
     0
 72
     1
 11
-488.71433571428452
 21
-425.01018716656341
 31
0.0
210
0.0
220
0.0
230
1.0
  0
POINT
  8
DEFPOINTS
  6
CONTINUOUS
 62
    30
 10
-390.00004999999868
 20
-288.14999999999827
 30
0.0
  0
POINT
  8
DEFPOINTS
  6
CONTINUOUS
 62
    30
 10
-271.00005000000459
 20
-266.83392764028622
 30
0.0
  0
POINT
  8
DEFPOINTS
  6
CONTINUOUS
 62
    30
 10
-271.00005000000459
 20
-450.01018716656341
 30
0.0
  0
LINE
  8
SIZE
  6
CONTINUOUS
 62
    30
 10
-409.15004999999809
 20
-0.0000000000000032
 30
0.0
 11
-647.74308277080729
 21
-0.0000000000000416
 31
0.0
  0
LINE
  8
SIZE
  6
CONTINUOUS
 62
    30
 10
-460.50005000140959
 20
-65.000000000000483
 30
0.0
 11
-647.74308277080729
 21
-65.000000000000512
 31
0.0
  0
LINE
  8
SIZE
  6
CONTINUOUS
 62
    30
 10
-627.74308277080729
 20
-77.000000000000512
 30
0.0
 11
-627.74308277080729
 21
-89.000000000000512
 31
0.0
  0
LINE
  8
SIZE
  6
CONTINUOUS
 62
    30
 10
-627.74308277080729
 20
11.99999999999997
 30
0.0
 11
-627.74308277080729
 21
167.25714285714281
 31
0.0
  0
LINE
  8
SIZE
  6
CONTINUOUS
 62
    30
 10
-627.74308277080729
 20
-65.000000000000512
 30
0.0
 11
-627.74308277080729
 21
-0.0000000000000384
 31
0.0
  0
CIRCLE
  8
SIZE
  6
CONTINUOUS
 62
    30
 10
-627.74308277080729
 20
-65.000000000000512
 30
0.0
 40
6.0
  0
LINE
  8
SIZE
  6
CONTINUOUS
 62
    30
 10
-627.74308277080729
 20
-65.000000000000512
 30
0.0
 11
-627.74308277080729
 21
-77.000000000000512
 31
0.0
  0
CIRCLE
  8
SIZE
  6
CONTINUOUS
 62
    30
 10
-627.74308277080729
 20
-0.0000000000000384
 30
0.0
 40
6.0
  0
LINE
  8
SIZE
  6
CONTINUOUS
 62
    30
 10
-627.74308277080729
 20
-0.0000000000000384
 30
0.0
 11
-627.74308277080729
 21
11.999999999999961
 31
0.0
  0
TEXT
  8
SIZE
  6
CONTINUOUS
 62
    30
 10
-652.74308277080718
 20
42.060571428571578
 30
0.0
 40
64.0
  1
65
 50
90.0
 41
0.9
 51
0.0
  7
STANDARD
 71
     0
 72
     1
 11
-652.74308277080718
 21
95.628571428571561
 31
0.0
210
0.0
220
0.0
230
1.0
  0
POINT
  8
DEFPOINTS
  6
CONTINUOUS
 62
    30
 10
-389.15004999999809
 20
0.0
 30
0.0
  0
POINT
  8
DEFPOINTS
  6
CONTINUOUS
 62
    30
 10
-440.50005000140959
 20
-65.000000000000483
 30
0.0
  0
POINT
  8
DEFPOINTS
  6
CONTINUOUS
 62
    30
 10
-627.74308277080729
 20
-65.000000000000512
 30
0.0
  0
LINE
  8
BASIS
  6
DASHDOT
 62
     6
 10
-384.00004999999828
 20
-8.4999999985873274
 30
0.0
 11
-384.00004999999828
 21
-121.5000000014138
 31
0.0
  0
LINE
  8
BASIS
  6
DASHDOT
 62
     6
 10
-327.50004999858669
 20
-65.000000000000455
 30
0.0
 11
-440.50005000140942
 21
-65.000000000000455
 31
0.0
  0
LINE
  8
BASIS
  6
DASHDOT
 62
     6
 10
384.00005000000237
 20
-8.4999999985875547
 30
0.0
 11
384.00005000000237
 21
-121.5000000014138
 31
0.0
  0
LINE
  8
BASIS
  6
DASHDOT
 62
     6
 10
440.50005000141749
 20
-65.000000000000455
 30
0.0
 11
327.49994999859427
 21
-65.000000000000455
 31
0.0
  0
LINE
  8
SIZE
  6
CONTINUOUS
 62
    30
 10
-383.50004999999419
 20
11.000000001413349
 30
0.0
 11
-383.50004999999419
 21
192.67319364170291
 31
0.0
  0
LINE
  8
SIZE
  6
CONTINUOUS
 62
    30
 10
384.00005000000237
 20
11.000000001413349
 30
0.0
 11
384.00005000000237
 21
192.67319364170291
 31
0.0
  0
LINE
  8
SIZE
  6
CONTINUOUS
 62
    30
 10
-371.50004999999419
 20
172.67319364170291
 30
0.0
 11
372.00005000000237
 21
172.67319364170291
 31
0.0
  0
CIRCLE
  8
SIZE
  6
CONTINUOUS
 62
    30
 10
-383.50004999999419
 20
172.67319364170291
 30
0.0
 40
6.0
  0
LINE
  8
SIZE
  6
CONTINUOUS
 62
    30
 10
-383.50004999999419
 20
172.67319364170291
 30
0.0
 11
-371.50004999999419
 21
172.67319364170291
 31
0.0
  0
CIRCLE
  8
SIZE
  6
CONTINUOUS
 62
    30
 10
384.00005000000237
 20
172.67319364170291
 30
0.0
 40
6.0
  0
LINE
  8
SIZE
  6
CONTINUOUS
 62
    30
 10
384.00005000000237
 20
172.67319364170291
 30
0.0
 11
372.00005000000237
 21
172.67319364170291
 31
0.0
  0
TEXT
  8
SIZE
  6
CONTINUOUS
 62
    30
 10
-80.101999999995911
 20
197.67319364170294
 30
0.0
 40
64.0
  1
768
 50
0.0
 41
0.9
 51
0.0
  7
STANDARD
 71
     0
 72
     1
 11
0.2500000000040927
 21
197.67319364170294
 31
0.0
210
0.0
220
0.0
230
1.0
  0
POINT
  8
DEFPOINTS
  6
CONTINUOUS
 62
    30
 10
-383.50004999999419
 20
-8.9999999985866452
 30
0.0
  0
POINT
  8
DEFPOINTS
  6
CONTINUOUS
 62
    30
 10
384.00005000000237
 20
-8.9999999985866452
 30
0.0
  0
POINT
  8
DEFPOINTS
  6
CONTINUOUS
 62
    30
 10
384.00005000000237
 20
172.67319364170291
 30
0.0
  0
CIRCLE
  8
FIX
  6
CONTINUOUS
 62
    11
 10
-384.00004999999828
 20
-65.000000000000455
 30
0.0
 40
6.5
  0
CIRCLE
  8
FIX
  6
CONTINUOUS
 62
    11
 10
384.00005000000601
 20
-65.000000000000455
 30
0.0
 40
6.5
  0
TEXT
  8
NOTE
  6
CONTINUOUS
 62
     4
 10
469.91359039992312
 20
-225.60433168443461
 30
0.0
 40
64.065641025638456
  1
SA
 41
0.9
  0
TEXT
  8
NOTE
  6
CONTINUOUS
 62
     4
 10
-568.75772226804474
 20
-225.60433168443461
 30
0.0
 40
64.065641025638456
  1
OA
 41
0.9
  0
POINT
  8
ARRANGE
  6
CONTINUOUS
 62
     1
 10
0.0
 20
0.0
 30
0.0
  0
CIRCLE
  8
ARRANGE
  6
CONTINUOUS
 62
     1
 10
0.0
 20
0.0
 30
0.0
 40
40.041025641024042
  0
LINE
  8
OUTLINE
  6
CONTINUOUS
 62
     3
 10
-386.00004999999243
 20
-249.50000000000111
 30
0.0
 11
-395.99741050430612
 21
-249.5000000000027
 31
0.0
  0
LINE
  8
OUTLINE
  6
CONTINUOUS
 62
     3
 10
-395.99741050430612
 20
-249.5000000000027
 30
0.0
 11
-434.00953810249479
 21
-243.48903786719211
 31
0.0
  0
ARC
  8
OUTLINE
  6
CONTINUOUS
 62
     3
 10
-437.0924548360008
 20
-263.24999999999699
 30
0.0
 40
19.999999999997009
 50
81.132739047980294
 51
90.0
  0
LINE
  8
OUTLINE
  6
CONTINUOUS
 62
     3
 10
-437.09245483600131
 20
-243.25
 30
0.0
 11
-442.61895620133652
 21
-243.24999999999909
 31
0.0
  0
ARC
  8
OUTLINE
  6
CONTINUOUS
 62
     3
 10
-442.61895620133646
 20
-241.86890620133224
 30
0.0
 40
1.3810937986668472
 50
180.0
 51
270.0
  0
LINE
  8
OUTLINE
  6
CONTINUOUS
 62
     3
 10
-444.00005000000328
 20
-241.86890620133229
 30
0.0
 11
-444.00005000000368
 21
-147.13109379866819
 31
0.0
  0
ARC
  8
OUTLINE
  6
CONTINUOUS
 62
     3
 10
-442.61895620133635
 20
-147.13109379866825
 30
0.0
 40
1.3810937986673324
 50
90.0
 51
180.0
  0
LINE
  8
OUTLINE
  6
CONTINUOUS
 62
     3
 10
-442.61895620133691
 20
-145.75000000000091
 30
0.0
 11
-437.09245483599852
 21
-145.7500000000002
 31
0.0
  0
ARC
  8
OUTLINE
  6
CONTINUOUS
 62
     3
 10
-437.09245483599494
 20
-125.75000000007552
 30
0.0
 40
19.999999999924682
 50
270.0
 51
279.10459994331427
  0
LINE
  8
OUTLINE
  6
CONTINUOUS
 62
     3
 10
-433.92770802742638
 20
-145.49802211963581
 30
0.0
 11
-395.9974105057936
 21
-139.50000000000301
 31
0.0
  0
LINE
  8
OUTLINE
  6
CONTINUOUS
 62
     3
 10
-395.9974105057936
 20
-139.50000000000301
 30
0.0
 11
-386.00004999999243
 21
-139.50000000000321
 31
0.0
  0
ARC
  8
OUTLINE
  6
CONTINUOUS
 62
     3
 10
-386.00004999999197
 20
-137.50000000000364
 30
0.0
 40
1.9999999999995726
 50
270.0
 51
0.0
  0
LINE
  8
OUTLINE
  6
CONTINUOUS
 62
     3
 10
-384.00004999999243
 20
-137.50000000000321
 30
0.0
 11
-384.00004999999419
 21
-127.0000000000027
 31
0.0
  0
LINE
  8
OUTLINE
  6
CONTINUOUS
 62
     3
 10
-384.00004999999419
 20
-127.0000000000027
 30
0.0
 11
-383.50004999999459
 21
-127.0000000000027
 31
0.0
  0
LINE
  8
OUTLINE
  6
CONTINUOUS
 62
     3
 10
-383.50004999999459
 20
-127.0000000000027
 30
0.0
 11
-383.50004999999459
 21
-115.0
 31
0.0
  0
LINE
  8
OUTLINE
  6
CONTINUOUS
 62
     3
 10
-383.50004999999459
 20
-115.0
 30
0.0
 11
-397.00005000000328
 21
-114.9999999999993
 31
0.0
  0
ARC
  8
OUTLINE
  6
CONTINUOUS
 62
     3
 10
-397.0000500000038
 20
-109.99999999999979
 30
0.0
 40
4.9999999999995142
 50
180.0
 51
270.0
  0
LINE
  8
OUTLINE
  6
CONTINUOUS
 62
     3
 10
-402.00005000000328
 20
-109.9999999999993
 30
0.0
 11
-402.00004999999828
 21
-65.000000000000455
 31
0.0
  0
LINE
  8
OUTLINE
  6
CONTINUOUS
 62
     3
 10
-402.00004999999828
 20
-65.000000000000455
 30
0.0
 11
-383.50004999999459
 21
-65.000000000000455
 31
0.0
  0
LINE
  8
OUTLINE
  6
CONTINUOUS
 62
     3
 10
-383.50004999999459
 20
-65.000000000000455
 30
0.0
 11
-383.50004999999419
 21
-1.599999999998545
 31
0.0
  0
ARC
  8
OUTLINE
  6
CONTINUOUS
 62
     3
 10
-384.00004999999419
 20
-1.5999999999985353
 30
0.0
 40
0.4999999999999902
 50
0.0
 51
90.0
  0
LINE
  8
OUTLINE
  6
CONTINUOUS
 62
     3
 10
-384.00004999999419
 20
-1.099999999998545
 30
0.0
 11
-385.50004999999283
 21
-1.099999999998772
 31
0.0
  0
LINE
  8
OUTLINE
  6
CONTINUOUS
 62
     3
 10
-385.50004999999283
 20
-1.099999999998772
 30
0.0
 11
-385.5000500000001
 21
-1.700000000000728
 31
0.0
  0
LINE
  8
OUTLINE
  6
CONTINUOUS
 62
     3
 10
-385.5000500000001
 20
-1.700000000000728
 30
0.0
 11
-389.15004999999752
 21
-1.700000000001864
 31
0.0
  0
ARC
  8
OUTLINE
  6
CONTINUOUS
 62
     3
 10
-389.15004999999707
 20
-0.8500000000010457
 30
0.0
 40
0.8500000000008183
 50
90.0
 51
270.0
  0
LINE
  8
OUTLINE
  6
CONTINUOUS
 62
     3
 10
-389.15004999999661
 20
-0.0000000000002274
 30
0.0
 11
-383.45821558666239
 21
-0.0000000000011369
 31
0.0
  0
ARC
  8
OUTLINE
  6
CONTINUOUS
 62
     3
 10
-383.45821558666256
 20
-1.1000000000017893
 30
0.0
 40
1.1000000000006525
 50
5.0026856858603992
 51
90.0
  0
LINE
  8
OUTLINE
  6
CONTINUOUS
 62
     3
 10
-382.36240591384279
 20
-1.004077317824567
 30
0.0
 11
-382.22278077066898
 21
-2.5999999999976349
 31
0.0
  0
LINE
  8
OUTLINE
  6
CONTINUOUS
 62
     3
 10
-382.22278077066898
 20
-2.5999999999976349
 30
0.0
 11
-381.50004999999692
 21
-2.5999999999976349
 31
0.0
  0
LINE
  8
OUTLINE
  6
CONTINUOUS
 62
     3
 10
-381.50004999999692
 20
-2.5999999999976349
 30
0.0
 11
-381.50004999999692
 21
-0.5999999999996817
 31
0.0
  0
LINE
  8
OUTLINE
  6
CONTINUOUS
 62
     3
 10
-381.50004999999692
 20
-0.5999999999996817
 30
0.0
 11
-381.40004999999837
 21
-0.5999999999996817
 31
0.0
  0
LINE
  8
OUTLINE
  6
CONTINUOUS
 62
     3
 10
-381.40004999999837
 20
-0.5999999999996817
 30
0.0
 11
-381.40004999999837
 21
0.0
 31
0.0
  0
LINE
  8
OUTLINE
  6
CONTINUOUS
 62
     3
 10
-381.40004999999837
 20
0.0
 30
0.0
 11
381.40004999999792
 21
0.0
 31
0.0
  0
LINE
  8
OUTLINE
  6
CONTINUOUS
 62
     3
 10
381.40004999999792
 20
0.0
 30
0.0
 11
381.40004999999792
 21
-0.5999999999996817
 31
0.0
  0
LINE
  8
OUTLINE
  6
CONTINUOUS
 62
     3
 10
381.40004999999792
 20
-0.5999999999996817
 30
0.0
 11
381.50004999999652
 21
-0.5999999999996817
 31
0.0
  0
LINE
  8
OUTLINE
  6
CONTINUOUS
 62
     3
 10
381.50004999999652
 20
-0.5999999999996817
 30
0.0
 11
381.50004999999652
 21
-2.5999999999976349
 31
0.0
  0
LINE
  8
OUTLINE
  6
CONTINUOUS
 62
     3
 10
381.50004999999652
 20
-2.5999999999976349
 30
0.0
 11
382.22278077066181
 21
-2.5999999999976349
 31
0.0
  0
LINE
  8
OUTLINE
  6
CONTINUOUS
 62
     3
 10
382.22278077066181
 20
-2.5999999999976349
 30
0.0
 11
382.36240141872622
 21
-1.004128683464387
 31
0.0
  0
ARC
  8
OUTLINE
  6
CONTINUOUS
 62
     3
 10
383.45821558667012
 20
-1.1000000000016603
 30
0.0
 40
1.1000000000005237
 50
90.0
 51
175.00000002536899
  0
LINE
  8
OUTLINE
  6
CONTINUOUS
 62
     3
 10
383.45821558666972
 20
-0.0000000000011369
 30
0.0
 11
389.15004999999792
 21
-0.0000000000004547
 31
0.0
  0
ARC
  8
OUTLINE
  6
CONTINUOUS
 62
     3
 10
389.15004999999746
 20
-0.8500000000012733
 30
0.0
 40
0.8500000000008186
 50
270.0
 51
90.0
  0
LINE
  8
OUTLINE
  6
CONTINUOUS
 62
     3
 10
389.15004999999701
 20
-1.7000000000020921
 30
0.0
 11
385.5000500000001
 21
-1.700000000000728
 31
0.0
  0
LINE
  8
OUTLINE
  6
CONTINUOUS
 62
     3
 10
385.5000500000001
 20
-1.700000000000728
 30
0.0
 11
385.5000500000001
 21
-1.1000000000005909
 31
0.0
  0
LINE
  8
OUTLINE
  6
CONTINUOUS
 62
     3
 10
385.5000500000001
 20
-1.1000000000005909
 30
0.0
 11
384.00005000000152
 21
-1.099999999998545
 31
0.0
  0
ARC
  8
OUTLINE
  6
CONTINUOUS
 62
     3
 10
384.00005000000129
 20
-1.5999999999983412
 30
0.0
 40
0.4999999999997962
 50
90.0
 51
180.0
  0
LINE
  8
OUTLINE
  6
CONTINUOUS
 62
     3
 10
383.50005000000152
 20
-1.599999999998545
 30
0.0
 11
383.50005000000192
 21
-65.000000000000455
 31
0.0
  0
LINE
  8
OUTLINE
  6
CONTINUOUS
 62
     3
 10
383.50005000000192
 20
-65.000000000000455
 30
0.0
 11
402.0000500000051
 21
-65.000000000000455
 31
0.0
  0
LINE
  8
OUTLINE
  6
CONTINUOUS
 62
     3
 10
402.0000500000051
 20
-65.000000000000455
 30
0.0
 11
402.00004999999561
 21
-109.9999999999995
 31
0.0
  0
ARC
  8
OUTLINE
  6
CONTINUOUS
 62
     3
 10
397.00004999999561
 20
-109.9999999999995
 30
0.0
 40
4.9999999999999991
 50
270.0
 51
0.0
  0
LINE
  8
OUTLINE
  6
CONTINUOUS
 62
     3
 10
397.00004999999601
 20
-114.9999999999995
 30
0.0
 11
383.50005000000192
 21
-115.0
 31
0.0
  0
LINE
  8
OUTLINE
  6
CONTINUOUS
 62
     3
 10
383.50005000000192
 20
-115.0
 30
0.0
 11
383.50005000000192
 21
-127.0000000013392
 31
0.0
  0
LINE
  8
OUTLINE
  6
CONTINUOUS
 62
     3
 10
383.50005000000192
 20
-127.0000000013392
 30
0.0
 11
384.00005000000152
 21
-127.0000000013392
 31
0.0
  0
LINE
  8
OUTLINE
  6
CONTINUOUS
 62
     3
 10
384.00005000000152
 20
-127.0000000013392
 30
0.0
 11
384.00004999999919
 21
-137.50000000133991
 31
0.0
  0
ARC
  8
OUTLINE
  6
CONTINUOUS
 62
     3
 10
386.00004999999908
 20
-137.50000000134006
 30
0.0
 40
1.9999999999998641
 50
180.0
 51
270.0
  0
LINE
  8
OUTLINE
  6
CONTINUOUS
 62
     3
 10
386.00004999999868
 20
-139.50000000133991
 30
0.0
 11
395.99741051425372
 21
-139.50000000133761
 31
0.0
  0
LINE
  8
OUTLINE
  6
CONTINUOUS
 62
     3
 10
395.99741051425372
 20
-139.50000000133761
 30
0.0
 11
434.00953746988807
 21
-145.5109620343228
 31
0.0
  0
ARC
  8
OUTLINE
  6
CONTINUOUS
 62
     3
 10
437.0924548346668
 20
-125.75000000001373
 30
0.0
 40
19.999999999986471
 50
261.13273721763653
 51
270.0
  0
LINE
  8
OUTLINE
  6
CONTINUOUS
 62
     3
 10
437.09245483466788
 20
-145.7500000000002
 30
0.0
 11
442.61895620132958
 21
-145.75000000000111
 31
0.0
  0
ARC
  8
OUTLINE
  6
CONTINUOUS
 62
     3
 10
442.61895620133112
 20
-147.13109379866688
 30
0.0
 40
1.3810937986657796
 50
0.0
 51
90.0
  0
LINE
  8
OUTLINE
  6
CONTINUOUS
 62
     3
 10
444.00004999999692
 20
-147.13109379866771
 30
0.0
 11
444.00004999999652
 21
-241.86890620133161
 31
0.0
  0
ARC
  8
OUTLINE
  6
CONTINUOUS
 62
     3
 10
442.61895620132793
 20
-241.86890620133121
 30
0.0
 40
1.3810937986685938
 50
270.0
 51
0.0
  0
LINE
  8
OUTLINE
  6
CONTINUOUS
 62
     3
 10
442.61895620132958
 20
-243.2499999999998
 30
0.0
 11
437.09245483465929
 21
-243.25
 31
0.0
  0
ARC
  8
OUTLINE
  6
CONTINUOUS
 62
     3
 10
437.09245483466935
 20
-263.25000000002092
 30
0.0
 40
20.000000000020933
 50
90.0
 51
99.104601765047107
  0
LINE
  8
OUTLINE
  6
CONTINUOUS
 62
     3
 10
433.92770739819252
 20
-243.50197798098949
 30
0.0
 11
395.99741050431288
 21
-249.5000000000027
 31
0.0
  0
LINE
  8
OUTLINE
  6
CONTINUOUS
 62
     3
 10
395.99741050431288
 20
-249.5000000000027
 30
0.0
 11
386.00004999999919
 21
-249.50000000000071
 31
0.0
  0
ARC
  8
OUTLINE
  6
CONTINUOUS
 62
     3
 10
386.00004999999965
 20
-251.50000000000117
 30
0.0
 40
2.0000000000004463
 50
90.0
 51
180.0
  0
LINE
  8
OUTLINE
  6
CONTINUOUS
 62
     3
 10
384.00004999999919
 20
-251.50000000000071
 30
0.0
 11
384.00005000000152
 21
-262.00000000000108
 31
0.0
  0
LINE
  8
OUTLINE
  6
CONTINUOUS
 62
     3
 10
384.00005000000152
 20
-262.00000000000108
 30
0.0
 11
383.50005000000192
 21
-262.00000000000108
 31
0.0
  0
LINE
  8
OUTLINE
  6
CONTINUOUS
 62
     3
 10
383.50005000000192
 20
-262.00000000000108
 30
0.0
 11
383.50005000000152
 21
-287.400000000001
 31
0.0
  0
ARC
  8
OUTLINE
  6
CONTINUOUS
 62
     3
 10
384.00005000000152
 20
-287.400000000001
 30
0.0
 40
0.4999999999999902
 50
180.0
 51
270.0
  0
LINE
  8
OUTLINE
  6
CONTINUOUS
 62
     3
 10
384.00005000000152
 20
-287.900000000001
 30
0.0
 11
385.5000500000001
 21
-287.900000000001
 31
0.0
  0
LINE
  8
OUTLINE
  6
CONTINUOUS
 62
     3
 10
385.5000500000001
 20
-287.900000000001
 30
0.0
 11
385.5000500000001
 21
-287.29999999999882
 31
0.0
  0
LINE
  8
OUTLINE
  6
CONTINUOUS
 62
     3
 10
385.5000500000001
 20
-287.29999999999882
 30
0.0
 11
389.15004999999752
 21
-287.29999999999768
 31
0.0
  0
ARC
  8
OUTLINE
  6
CONTINUOUS
 62
     3
 10
389.15004999999792
 20
-288.14999999999833
 30
0.0
 40
0.8500000000006197
 50
270.0
 51
90.0
  0
LINE
  8
OUTLINE
  6
CONTINUOUS
 62
     3
 10
389.15004999999837
 20
-288.99999999999892
 30
0.0
 11
383.73311493866908
 21
-289.00000000000142
 31
0.0
  0
ARC
  8
OUTLINE
  6
CONTINUOUS
 62
     3
 10
383.73311493866822
 20
-287.60000000000122
 30
0.0
 40
1.4000000000001838
 50
184.99999996550901
 51
270.0
  0
LINE
  8
OUTLINE
  6
CONTINUOUS
 62
     3
 10
382.33844236126612
 20
-287.72201803900839
 30
0.0
 11
382.22278077066181
 21
-286.40000000000009
 31
0.0
  0
LINE
  8
OUTLINE
  6
CONTINUOUS
 62
     3
 10
382.22278077066181
 20
-286.40000000000009
 30
0.0
 11
381.50004999999652
 21
-286.40000000000009
 31
0.0
  0
LINE
  8
OUTLINE
  6
CONTINUOUS
 62
     3
 10
381.50004999999652
 20
-286.40000000000009
 30
0.0
 11
381.50004999999652
 21
-288.39999999999782
 31
0.0
  0
LINE
  8
OUTLINE
  6
CONTINUOUS
 62
     3
 10
381.50004999999652
 20
-288.39999999999782
 30
0.0
 11
381.40004999999792
 21
-288.39999999999782
 31
0.0
  0
LINE
  8
OUTLINE
  6
CONTINUOUS
 62
     3
 10
381.40004999999792
 20
-288.39999999999782
 30
0.0
 11
381.40004999999792
 21
-289.00000000000318
 31
0.0
  0
LINE
  8
OUTLINE
  6
CONTINUOUS
 62
     3
 10
381.40004999999792
 20
-289.00000000000318
 30
0.0
 11
-381.40004999999837
 21
-289.00000000000318
 31
0.0
  0
LINE
  8
OUTLINE
  6
CONTINUOUS
 62
     3
 10
-381.40004999999837
 20
-289.00000000000318
 30
0.0
 11
-381.40004999999837
 21
-288.39999999999782
 31
0.0
  0
LINE
  8
OUTLINE
  6
CONTINUOUS
 62
     3
 10
-381.40004999999837
 20
-288.39999999999782
 30
0.0
 11
-381.50004999999692
 21
-288.39999999999782
 31
0.0
  0
LINE
  8
OUTLINE
  6
CONTINUOUS
 62
     3
 10
-381.50004999999692
 20
-288.39999999999782
 30
0.0
 11
-381.50004999999692
 21
-286.40000000000009
 31
0.0
  0
LINE
  8
OUTLINE
  6
CONTINUOUS
 62
     3
 10
-381.50004999999692
 20
-286.40000000000009
 30
0.0
 11
-382.22278077066898
 21
-286.40000000000009
 31
0.0
  0
LINE
  8
OUTLINE
  6
CONTINUOUS
 62
     3
 10
-382.22278077066898
 20
-286.40000000000009
 30
0.0
 11
-382.33844236271352
 21
-287.72201804039628
 31
0.0
  0
ARC
  8
OUTLINE
  6
CONTINUOUS
 62
     3
 10
-383.73311493999427
 20
-287.60000000000031
 30
0.0
 40
1.4000000000003643
 50
270.0
 51
354.99999997743703
  0
LINE
  8
OUTLINE
  6
CONTINUOUS
 62
     3
 10
-383.73311493999557
 20
-289.00000000000068
 30
0.0
 11
-389.15004999999837
 21
-288.99999999999892
 31
0.0
  0
ARC
  8
OUTLINE
  6
CONTINUOUS
 62
     3
 10
-389.15004999999837
 20
-288.1499999999985
 30
0.0
 40
0.8500000000004206
 50
90.0
 51
270.0
  0
LINE
  8
OUTLINE
  6
CONTINUOUS
 62
     3
 10
-389.15004999999837
 20
-287.29999999999808
 30
0.0
 11
-385.5000500000001
 21
-287.29999999999882
 31
0.0
  0
LINE
  8
OUTLINE
  6
CONTINUOUS
 62
     3
 10
-385.5000500000001
 20
-287.29999999999882
 30
0.0
 11
-385.50004999999283
 21
-287.90000000000049
 31
0.0
  0
LINE
  8
OUTLINE
  6
CONTINUOUS
 62
     3
 10
-385.50004999999283
 20
-287.90000000000049
 30
0.0
 11
-384.00004999999419
 21
-287.900000000001
 31
0.0
  0
ARC
  8
OUTLINE
  6
CONTINUOUS
 62
     3
 10
-384.00004999999396
 20
-287.40000000000123
 30
0.0
 40
0.4999999999997962
 50
270.0
 51
0.0
  0
LINE
  8
OUTLINE
  6
CONTINUOUS
 62
     3
 10
-383.50004999999419
 20
-287.400000000001
 30
0.0
 11
-383.50004999999419
 21
-262.00000000000108
 31
0.0
  0
LINE
  8
OUTLINE
  6
CONTINUOUS
 62
     3
 10
-383.50004999999419
 20
-262.00000000000108
 30
0.0
 11
-384.00004999999419
 21
-262.00000000000108
 31
0.0
  0
LINE
  8
OUTLINE
  6
CONTINUOUS
 62
     3
 10
-384.00004999999419
 20
-262.00000000000108
 30
0.0
 11
-384.00004999999243
 21
-251.50000000000159
 31
0.0
  0
ARC
  8
OUTLINE
  6
CONTINUOUS
 62
     3
 10
-386.00004999999339
 20
-251.50000000000207
 30
0.0
 40
2.0000000000009797
 50
0.0
 51
90.0
  0
TEXT
  8
ETC
  6
CONTINUOUS
 62
    61
 10
772.06728004951128
 20
799.53931228992155
 30
0.0
 40
64.065641025638456
  1
LGH-15RVX3-E_5
 41
0.9
  0
TEXT
  8
ETC
  6
CONTINUOUS
 62
    61
 10
767.87699272233112
 20
681.46302246995174
 30
0.0
 40
64.065641025638456
  1
LOSSNAY
 41
0.9
  0
TEXT
  8
ETC
  6
CONTINUOUS
 62
    61
 10
818.6303924049862
 20
573.20332776538578
 30
0.0
 40
40.041025641024042
  1
LGH-15RVX3-E
 50
0.0
 41
0.9
 51
0.0
  7
STANDARD
 71
     0
 11
0.0
 21
0.0
 31
0.0
210
0.0
220
0.0
230
1.0
  0
TEXT
  8
NOTE
  6
CONTINUOUS
 62
     4
 10
525.508927226987
 20
384.50919809606012
 30
0.0
 40
69.0
  1
Ceiling suspension fixture
 50
0.0
 41
0.9
 51
0.0
  7
STANDARD
 71
     0
 11
0.0
 21
0.0
 31
0.0
210
0.0
220
0.0
230
1.0
  0
TEXT
  8
NOTE
  6
CONTINUOUS
 62
     4
 10
525.508927226987
 20
270.65919809606009
 30
0.0
 40
69.0
  1
(4-13X20 oval)
 50
0.0
 41
0.9
 51
0.0
  7
STANDARD
 71
     0
 11
0.0
 21
0.0
 31
0.0
210
0.0
220
0.0
230
1.0
  0
LINE
  8
NOTE
  6
CONTINUOUS
 62
     4
 10
515.508927226987
 20
233.36634095320281
 30
0.0
 11
1732.023212941273
 21
233.36634095320281
 31
0.0
  0
LINE
  8
NOTE
  6
CONTINUOUS
 62
     4
 10
405.88660443359458
 20
-36.122144999851145
 30
0.0
 11
384.00005423527728
 21
-64.999999724172994
 31
0.0
  0
LINE
  8
NOTE
  6
CONTINUOUS
 62
     4
 10
384.00005423527728
 20
-64.999999724172994
 30
0.0
 11
388.51538116806819
 21
-29.047762022570708
 31
0.0
  0
LINE
  8
NOTE
  6
CONTINUOUS
 62
     4
 10
384.00005423527728
 20
-64.999999724172994
 30
0.0
 11
410.4019313663855
 21
-0.1699072982488588
 31
0.0
  0
LINE
  8
NOTE
  6
CONTINUOUS
 62
     4
 10
410.40193136638538
 20
-0.1699072982488303
 30
0.0
 11
505.508927226987
 21
233.36634095320281
 31
0.0
  0
LINE
  8
NOTE
  6
CONTINUOUS
 62
     4
 10
505.508927226987
 20
233.36634095320281
 30
0.0
 11
515.508927226987
 21
233.36634095320281
 31
0.0
  0
TEXT
  8
NOTE
  6
CONTINUOUS
 62
     4
 10
475.96298322685288
 20
-376.11626031273579
 30
0.0
 40
69.0
  1
Power supply
 50
0.0
 41
0.9
 51
0.0
  7
STANDARD
 71
     0
 11
0.0
 21
0.0
 31
0.0
210
0.0
220
0.0
230
1.0
  0
TEXT
  8
NOTE
  6
CONTINUOUS
 62
     4
 10
475.96298322685288
 20
-489.96626031273581
 30
0.0
 40
69.0
  1
cable opening
 50
0.0
 41
0.9
 51
0.0
  7
STANDARD
 71
     0
 11
0.0
 21
0.0
 31
0.0
210
0.0
220
0.0
230
1.0
  0
LINE
  8
NOTE
  6
CONTINUOUS
 62
     4
 10
465.96298322685288
 20
-514.1162603127359
 30
0.0
 11
1117.6629832268529
 21
-514.1162603127359
 31
0.0
  0
LINE
  8
NOTE
  6
CONTINUOUS
 62
     4
 10
359.05355902524616
 20
-266.57989358410163
 30
0.0
 11
356.29995000000241
 21
-230.44999999999879
 31
0.0
  0
LINE
  8
NOTE
  6
CONTINUOUS
 62
     4
 10
356.29995000000241
 20
-230.44999999999879
 30
0.0
 11
376.74963723658874
 21
-260.36257035074425
 31
0.0
  0
LINE
  8
NOTE
  6
CONTINUOUS
 62
     4
 10
356.29995000000241
 20
-230.44999999999879
 30
0.0
 11
379.50324626183249
 21
-296.49246393484714
 31
0.0
  0
LINE
  8
NOTE
  6
CONTINUOUS
 62
     4
 10
379.50324626183249
 20
-296.49246393484708
 30
0.0
 11
455.96298322685288
 21
-514.1162603127359
 31
0.0
  0
LINE
  8
NOTE
  6
CONTINUOUS
 62
     4
 10
455.96298322685288
 20
-514.1162603127359
 30
0.0
 11
465.96298322685288
 21
-514.1162603127359
 31
0.0
  0
ENDSEC
  0
EOF
