  0
SECTION
  2
HEADER
  9
$ACADVER
  1
AC1009
  9
$DWGCODEPAGE
  3
dos932
  9
$INSBASE
 10
0.0
 20
0.0
 30
0.0
  9
$EXTMIN
 10
-668.90257138165543
 20
-492.18748834937293
 30
-0.0000000349181948
  9
$EXTMAX
 10
1715.7623414715781
 20
862.60987161962476
 30
0.0000000814935746
  9
$LIMMIN
 10
-2970.0
 20
-2100.0
  9
$LIMMAX
 10
2970.0
 20
2100.0
  9
$ORTHOMODE
 70
     1
  9
$REGENMODE
 70
     1
  9
$FILLMODE
 70
     1
  9
$QTEXTMODE
 70
     0
  9
$MIRRTEXT
 70
     0
  9
$LTSCALE
 40
20.0
  9
$ATTMODE
 70
     1
  9
$TEXTSIZE
 40
64.0
  9
$TRACEWID
 40
0.05
  9
$TEXTSTYLE
  7
STANDARD
  9
$CLAYER
  8
SIZE
  9
$CELTYPE
  6
CONTINUOUS
  9
$CECOLOR
 62
     7
  9
$DIMSCALE
 40
1.0
  9
$DIMASZ
 40
12.0
  9
$DIMEXO
 40
20.0
  9
$DIMDLI
 40
200.0
  9
$DIMRND
 40
0.0
  9
$DIMDLE
 40
0.0
  9
$DIMEXE
 40
20.0
  9
$DIMTP
 40
0.0
  9
$DIMTM
 40
0.0
  9
$DIMTXT
 40
64.0
  9
$DIMCEN
 40
0.09
  9
$DIMTSZ
 40
0.0
  9
$DIMTOL
 70
     0
  9
$DIMLIM
 70
     0
  9
$DIMTIH
 70
     0
  9
$DIMTOH
 70
     0
  9
$DIMSE1
 70
     0
  9
$DIMSE2
 70
     0
  9
$DIMTAD
 70
     1
  9
$DIMZIN
 70
     8
  9
$DIMBLK
  1

  9
$DIMASO
 70
     1
  9
$DIMSHO
 70
     0
  9
$DIMPOST
  1

  9
$DIMAPOST
  1

  9
$DIMALT
 70
     0
  9
$DIMALTD
 70
     2
  9
$DIMALTF
 40
25.399999999999999
  9
$DIMLFAC
 40
1.0
  9
$DIMTOFL
 70
     1
  9
$DIMTVP
 40
0.0
  9
$DIMTIX
 70
     1
  9
$DIMSOXD
 70
     0
  9
$DIMSAH
 70
     0
  9
$DIMBLK1
  1

  9
$DIMBLK2
  1

  9
$DIMSTYLE
  2
STANDARD
  9
$DIMCLRD
 70
     7
  9
$DIMCLRE
 70
     7
  9
$DIMCLRT
 70
     7
  9
$DIMTFAC
 40
1.0
  9
$DIMGAP
 40
25.0
  9
$LUNITS
 70
     2
  9
$LUPREC
 70
     4
  9
$SKETCHINC
 40
0.10000000000000001
  9
$FILLETRAD
 40
3.0
  9
$AUNITS
 70
     1
  9
$AUPREC
 70
     3
  9
$MENU
  1
ACAD
  9
$ELEVATION
 40
0.0
  9
$PELEVATION
 40
0.0
  9
$THICKNESS
 40
0.0
  9
$LIMCHECK
 70
     0
  9
$CHAMFERA
 40
0.0
  9
$CHAMFERB
 40
0.0
  9
$SKPOLY
 70
     0
  9
$TDCREATE
 40
2453019.62301037
  9
$TDUPDATE
 40
2460045.427537315
  9
$TDINDWG
 40
1.748800706
  9
$TDUSRTIMER
 40
1.748800706
  9
$USRTIMER
 70
     1
  9
$ANGBASE
 50
0.0
  9
$ANGDIR
 70
     0
  9
$PDMODE
 70
     3
  9
$PDSIZE
 40
-2.0
  9
$PLINEWID
 40
0.0
  9
$SPLFRAME
 70
     0
  9
$SPLINETYPE
 70
     6
  9
$SPLINESEGS
 70
     8
  9
$SURFTAB1
 70
     6
  9
$SURFTAB2
 70
     6
  9
$SURFTYPE
 70
     6
  9
$SURFU
 70
     6
  9
$SURFV
 70
     6
  9
$UCSNAME
  2

  9
$UCSORG
 10
0.0
 20
0.0
 30
0.0
  9
$UCSXDIR
 10
1.0
 20
0.0
 30
0.0
  9
$UCSYDIR
 10
0.0
 20
1.0
 30
0.0
  9
$PUCSNAME
  2

  9
$PUCSORG
 10
0.0
 20
0.0
 30
0.0
  9
$PUCSXDIR
 10
1.0
 20
0.0
 30
0.0
  9
$PUCSYDIR
 10
0.0
 20
1.0
 30
0.0
  9
$USERI1
 70
     0
  9
$USERI2
 70
     0
  9
$USERI3
 70
     0
  9
$USERI4
 70
     0
  9
$USERI5
 70
     0
  9
$USERR1
 40
20.0
  9
$USERR2
 40
0.0
  9
$USERR3
 40
0.0
  9
$USERR4
 40
0.0
  9
$USERR5
 40
0.0
  9
$WORLDVIEW
 70
     1
  9
$SHADEDGE
 70
     3
  9
$SHADEDIF
 70
    70
  9
$TILEMODE
 70
     1
  9
$MAXACTVP
 70
    48
  9
$PINSBASE
 10
0.0
 20
0.0
 30
0.0
  9
$PLIMCHECK
 70
     0
  9
$PEXTMIN
 10
-100000000000000000000.0
 20
-100000000000000000000.0
 30
-100000000000000000000.0
  9
$PEXTMAX
 10
100000000000000000000.0
 20
100000000000000000000.0
 30
100000000000000000000.0
  9
$PLIMMIN
 10
0.0
 20
0.0
  9
$PLIMMAX
 10
12.0
 20
9.0
  9
$UNITMODE
 70
     0
  9
$VISRETAIN
 70
     0
  9
$PLINEGEN
 70
     0
  9
$PSLTSCALE
 70
     0
  9
$TREEDEPTH
 70
  3020
  9
$ATTDIA
 70
     0
  9
$ATTREQ
 70
     1
  9
$BLIPMODE
 70
     1
  9
$COORDS
 70
     1
  9
$DRAGMODE
 70
     2
  9
$OSMODE
 70
     0
  9
$HANDLING
 70
     0
  9
$HANDSEED
  5
F6F5
  0
ENDSEC
  0
SECTION
  2
TABLES
  0
TABLE
  2
LTYPE
 70
     2
  0
LTYPE
  2
CONTINUOUS
 70
     0
  3
実線
 72
    65
 73
     0
 40
0.0
  0
LTYPE
  2
DASHDOT
 70
     0
  3
____ _ ____ _ ____ _ ____ _ ____ _ ____ _ ____
 72
    65
 73
     4
 40
5.5
 49
4.0
 49
-0.59999999999999998
 49
0.29999999999999999
 49
-0.59999999999999998
  0
ENDTAB
  0
TABLE
  2
LAYER
 70
    12
  0
LAYER
  2
0
 70
     0
 62
     7
  6
CONTINUOUS
  0
LAYER
  2
BASIS
 70
     0
 62
     6
  6
DASHDOT
  0
LAYER
  2
OUTLINE
 70
     0
 62
     3
  6
CONTINUOUS
  0
LAYER
  2
DETAIL
 70
     0
 62
     5
  6
CONTINUOUS
  0
LAYER
  2
SIZE
 70
     0
 62
    30
  6
CONTINUOUS
  0
LAYER
  2
ARRANGE
 70
     0
 62
     1
  6
CONTINUOUS
  0
LAYER
  2
DEFPOINTS
 70
     0
 62
     7
  6
CONTINUOUS
  0
LAYER
  2
ETC
 70
     0
 62
    61
  6
CONTINUOUS
  0
LAYER
  2
FIX
 70
     0
 62
    11
  6
CONTINUOUS
  0
LAYER
  2
NOTE
 70
     0
 62
     4
  6
CONTINUOUS
  0
LAYER
  2
SERVICESPACE
 70
    64
 62
     2
  6
DASHDOT
  0
LAYER
  2
SYMBOLLINE
 70
    64
 62
    15
  6
CONTINUOUS
  0
ENDTAB
  0
TABLE
  2
STYLE
 70
     1
  0
STYLE
  2
STANDARD
 70
     0
 40
64.0
 41
0.90000000000000002
 50
0.0
 71
     0
 42
64.0
  3
SIMPLEX.shx
  4
BIGFONT.shx
  0
ENDTAB
  0
TABLE
  2
APPID
 70
    23
  0
APPID
  2
ACAD
 70
     0
  0
APPID
  2
AUTOCAD_POSTSCRIPT_FIGURE
 70
     0
  0
APPID
  2
ACAD_EXEMPT_FROM_CAD_STANDARDS
 70
     0
  0
APPID
  2
ACAD_PSEXT
 70
     0
  0
APPID
  2
ACAUTHENVIRON
 70
     0
  0
APPID
  2
GENIUS_GENOENT_13
 70
     0
  0
APPID
  2
GENIUS_GENCFG_13
 70
     0
  0
APPID
  2
GENIUS_GENCFG0_13
 70
     0
  0
APPID
  2
GENIUS_GENCFG1_13
 70
     0
  0
APPID
  2
GENIUS_GENCFG2_13
 70
     0
  0
APPID
  2
GENIUS_GENCFG3_13
 70
     0
  0
APPID
  2
GENIUS_GENCFG4_13
 70
     0
  0
APPID
  2
GENIUS_GEVCFG0_13
 70
     0
  0
APPID
  2
CONTENTBLOCKICON
 70
     0
  0
APPID
  2
CONTENTBLOCKDESCRIPTION
 70
     0
  0
APPID
  2
ACAD_NAV_VCDISPLAY
 70
     0
  0
APPID
  2
ACAD_MLEADERVER
 70
     0
  0
APPID
  2
ACDBDYNAMICBLOCKTRUENAME
 70
     0
  0
APPID
  2
ACDBDYNAMICBLOCKGUID
 70
     0
  0
APPID
  2
GENIUS_GENODEF_13
 70
     0
  0
APPID
  2
GENIUS_GENOBJ-N-CEN_13
 70
     0
  0
APPID
  2
GENIUS_GENCEN_19
 70
     0
  0
APPID
  2
ACAD_DSTYLE_DIMRADIAL_EXTENSION
 70
     0
  0
ENDTAB
  0
TABLE
  2
DIMSTYLE
 70
     1
  0
DIMSTYLE
  2
STANDARD
 70
     0
  3

  4

  5
_ORIGIN
  6

  7

 40
1.0
 41
12.0
 42
20.0
 43
200.0
 44
20.0
 45
0.0
 46
0.0
 47
0.0
 48
0.0
140
64.0
141
0.09
142
0.0
143
25.399999999999999
144
1.0
145
0.0
146
1.0
147
25.0
 71
     0
 72
     0
 73
     0
 74
     0
 75
     0
 76
     0
 77
     1
 78
     8
170
     0
171
     2
172
     1
173
     0
174
     1
175
     0
176
     7
177
     7
178
     7
  0
ENDTAB
  0
TABLE
  2
VIEW
 70
     1
  0
VIEW
  2
ALL
 70
     0
 40
4282.6198079999986
 10
0.0
 20
41.309904000000003
 41
5940.0
 11
0.0
 21
0.0
 31
1.0
 12
0.0
 22
0.0
 32
0.0
 42
50.0
 43
0.0
 44
0.0
 50
0.0
 71
     0
  0
ENDTAB
  0
TABLE
  2
UCS
 70
     0
  0
ENDTAB
  0
TABLE
  2
VPORT
 70
     1
  0
VPORT
  2
*ACTIVE
 70
     0
 10
0.0
 20
0.0
 11
1.0
 21
1.0
 12
523.42988504496134
 22
185.21119163512591
 13
0.0
 23
0.0
 14
1.0
 24
1.0
 15
0.0
 25
0.0
 16
0.0
 26
0.0
 36
1.0
 17
0.0
 27
0.0
 37
0.0
 40
1363.9513961850039
 41
1.781285231116122
 42
50.0
 43
0.0
 44
0.0
 50
0.0
 51
0.0
 71
     0
 72
  1000
 73
     1
 74
     3
 75
     0
 76
     0
 77
     0
 78
     0
  0
ENDTAB
  0
ENDSEC
  0
SECTION
  2
BLOCKS
  0
BLOCK
  8
0
  2
_ORIGIN
 70
     0
 10
0.0
 20
0.0
 30
0.0
  3
_ORIGIN
  1
_ORIGIN
  0
CIRCLE
  8
0
  6
CONTINUOUS
 62
     7
 10
0.0
 20
0.0
 30
0.0
 40
0.5
  0
LINE
  8
0
  6
CONTINUOUS
 62
     7
 10
0.0
 20
0.0
 30
0.0
 11
-1.0
 21
0.0
 31
0.0
  0
ENDBLK
  8
0
  0
ENDSEC
  0
SECTION
  2
ENTITIES
  0
LINE
  8
DETAIL
  6
CONTINUOUS
 62
     5
 10
414.69999999999891
 20
-11.900000000004569
 30
0.0
 11
414.69999999999891
 21
-271.09999999999798
 31
0.0
  0
LINE
  8
DETAIL
  6
CONTINUOUS
 62
     5
 10
414.09999999999758
 20
-11.900000000004569
 30
0.0
 11
414.09999999999758
 21
-271.09999999999798
 31
0.0
  0
LINE
  8
DETAIL
  6
CONTINUOUS
 62
     5
 10
413.50000000000182
 20
-10.70000000000111
 30
0.0
 11
413.50000000000182
 21
-11.55108747069464
 31
0.0
  0
LINE
  8
DETAIL
  6
CONTINUOUS
 62
     5
 10
413.50000000000182
 20
-271.44891252930802
 30
0.0
 11
413.50000000000182
 21
-272.30000000000149
 31
0.0
  0
LINE
  8
DETAIL
  6
CONTINUOUS
 62
     5
 10
348.50000000000551
 20
-58.199999999999818
 30
0.0
 11
348.50000000000551
 21
-61.799999999995627
 31
0.0
  0
LINE
  8
DETAIL
  6
CONTINUOUS
 62
     5
 10
348.50000000000551
 20
-71.400000000006003
 30
0.0
 11
348.50000000000551
 21
-75.000000000000909
 31
0.0
  0
LINE
  8
DETAIL
  6
CONTINUOUS
 62
     5
 10
345.30000000000467
 20
-58.199999999999818
 30
0.0
 11
345.30000000000467
 21
-61.799999999995627
 31
0.0
  0
LINE
  8
DETAIL
  6
CONTINUOUS
 62
     5
 10
345.30000000000467
 20
-71.400000000006003
 30
0.0
 11
345.30000000000467
 21
-75.000000000000909
 31
0.0
  0
LINE
  8
DETAIL
  6
CONTINUOUS
 62
     5
 10
323.94999999999982
 20
-272.30000000000149
 30
0.0
 11
323.94999999999982
 21
-271.69999999999658
 31
0.0
  0
LINE
  8
DETAIL
  6
CONTINUOUS
 62
     5
 10
320.95000000000073
 20
-272.30000000000149
 30
0.0
 11
320.95000000000073
 21
-271.69999999999658
 31
0.0
  0
LINE
  8
DETAIL
  6
CONTINUOUS
 62
     5
 10
307.60000000000127
 20
-284.49999999999551
 30
0.0
 11
307.60000000000127
 21
-284.00000000000358
 31
0.0
  0
LINE
  8
DETAIL
  6
CONTINUOUS
 62
     5
 10
307.60000000000127
 20
-4.3999999999969077
 30
0.0
 11
307.60000000000127
 21
-4.8999999999969077
 31
0.0
  0
LINE
  8
DETAIL
  6
CONTINUOUS
 62
     5
 10
297.96006823733478
 20
-1.0564221293398079
 30
0.0
 11
297.8250226720038
 21
-2.6000000000030918
 31
0.0
  0
LINE
  8
DETAIL
  6
CONTINUOUS
 62
     5
 10
297.36235141866558
 20
-1.0041286826681239
 30
0.0
 11
297.22273077066978
 21
-2.6000000000030918
 31
0.0
  0
LINE
  8
DETAIL
  6
CONTINUOUS
 62
     5
 10
303.800000000002
 20
-271.69562532266667
 30
0.0
 11
303.800000000002
 21
-271.09999999999798
 31
0.0
  0
LINE
  8
DETAIL
  6
CONTINUOUS
 62
     5
 10
303.800000000002
 20
-11.29999999999966
 30
0.0
 11
303.800000000002
 21
-10.70000000000111
 31
0.0
  0
LINE
  8
DETAIL
  6
CONTINUOUS
 62
     5
 10
303.800000000002
 20
-11.304374677328649
 30
0.0
 11
303.800000000002
 21
-11.900000000004569
 31
0.0
  0
LINE
  8
DETAIL
  6
CONTINUOUS
 62
     5
 10
303.800000000002
 20
-271.69999999999658
 30
0.0
 11
303.800000000002
 21
-272.30000000000149
 31
0.0
  0
LINE
  8
DETAIL
  6
CONTINUOUS
 62
     5
 10
303.50000000000091
 20
-288.40000000000242
 30
0.0
 11
303.50000000000091
 21
-287.90000000000242
 31
0.0
  0
LINE
  8
DETAIL
  6
CONTINUOUS
 62
     5
 10
303.50000000000091
 20
-1.100000000004911
 30
0.0
 11
303.50000000000091
 21
-0.60000000000491127
 31
0.0
  0
LINE
  8
DETAIL
  6
CONTINUOUS
 62
     5
 10
301.69999999999982
 20
-115.0000000000045
 30
0.0
 11
301.69999999999982
 21
-71.400000000006003
 31
0.0
  0
LINE
  8
DETAIL
  6
CONTINUOUS
 62
     5
 10
301.60000000000309
 20
-4.3999999999969077
 30
0.0
 11
301.60000000000309
 21
-11.900000000004569
 31
0.0
  0
LINE
  8
DETAIL
  6
CONTINUOUS
 62
     5
 10
301.60000000000309
 20
-271.09999999999798
 30
0.0
 11
301.60000000000309
 21
-284.49999999999551
 31
0.0
  0
LINE
  8
DETAIL
  6
CONTINUOUS
 62
     5
 10
299.30000000000109
 20
-11.900000000004569
 30
0.0
 11
299.30000000000109
 21
-12.61639929866617
 31
0.0
  0
LINE
  8
DETAIL
  6
CONTINUOUS
 62
     5
 10
299.30000000000109
 20
-270.38360070132921
 30
0.0
 11
299.30000000000109
 21
-271.09999999999798
 31
0.0
  0
LINE
  8
DETAIL
  6
CONTINUOUS
 62
     5
 10
298.49999999999909
 20
-287.40000000000327
 30
0.0
 11
298.49999999999909
 21
-1.599999999996726
 31
0.0
  0
LINE
  8
DETAIL
  6
CONTINUOUS
 62
     5
 10
298.00000000000091
 20
-287.40000000000327
 30
0.0
 11
298.00000000000091
 21
-286.40000000000418
 31
0.0
  0
LINE
  8
DETAIL
  6
CONTINUOUS
 62
     5
 10
298.00000000000091
 20
-1.599999999996726
 30
0.0
 11
298.00000000000091
 21
-2.6000000000030918
 31
0.0
  0
LINE
  8
DETAIL
  6
CONTINUOUS
 62
     5
 10
296.50000000000091
 20
-288.40000000000242
 30
0.0
 11
296.50000000000091
 21
-286.40000000000418
 31
0.0
  0
LINE
  8
DETAIL
  6
CONTINUOUS
 62
     5
 10
296.50000000000091
 20
-0.60000000000491127
 30
0.0
 11
296.50000000000091
 21
-2.6000000000030918
 31
0.0
  0
LINE
  8
DETAIL
  6
CONTINUOUS
 62
     5
 10
296.40000000000049
 20
-289.0
 30
0.0
 11
296.40000000000049
 21
-288.40000000000242
 31
0.0
  0
LINE
  8
DETAIL
  6
CONTINUOUS
 62
     5
 10
296.40000000000049
 20
0.0
 30
0.0
 11
296.40000000000049
 21
-0.60000000000491127
 31
0.0
  0
LINE
  8
DETAIL
  6
CONTINUOUS
 62
     5
 10
297.93610917999922
 20
-287.6697245946707
 30
0.0
 11
297.8250226720038
 21
-286.40000000000418
 31
0.0
  0
LINE
  8
DETAIL
  6
CONTINUOUS
 62
     5
 10
297.33839236133372
 20
-287.72201804000179
 30
0.0
 11
297.22273077066978
 21
-286.40000000000418
 31
0.0
  0
LINE
  8
DETAIL
  6
CONTINUOUS
 62
     5
 10
278.50000000000091
 20
-110.0000000000027
 30
0.0
 11
278.50000000000091
 21
-103.5021363226642
 31
0.0
  0
LINE
  8
DETAIL
  6
CONTINUOUS
 62
     5
 10
-304.15000000000151
 20
0.0
 30
0.0
 11
-298.45816558800021
 21
0.0
 31
0.0
  0
LINE
  8
DETAIL
  6
CONTINUOUS
 62
     5
 10
298.45816558666678
 20
0.0
 30
0.0
 11
304.15000000000049
 21
0.0
 31
0.0
  0
LINE
  8
DETAIL
  6
CONTINUOUS
 62
     5
 10
296.40000000000049
 20
0.0
 30
0.0
 11
-296.39999999999958
 21
0.0
 31
0.0
  0
LINE
  8
DETAIL
  6
CONTINUOUS
 62
     5
 10
-304.14999999998048
 20
-0.59999999999763531
 30
0.0
 11
-298.45816558800021
 21
-0.60000000000491127
 31
0.0
  0
LINE
  8
DETAIL
  6
CONTINUOUS
 62
     5
 10
-296.49999999999909
 20
-0.60000000000491127
 30
0.0
 11
-291.899999999996
 21
-0.60000000001218723
 31
0.0
  0
LINE
  8
DETAIL
  6
CONTINUOUS
 62
     5
 10
298.45816558666678
 20
-0.60000000000491127
 30
0.0
 11
304.14999999998241
 21
-0.59999999999763531
 31
0.0
  0
LINE
  8
DETAIL
  6
CONTINUOUS
 62
     5
 10
296.50000000000091
 20
-0.60000000000491127
 30
0.0
 11
291.89999999999048
 21
-0.60000000000491127
 31
0.0
  0
LINE
  8
DETAIL
  6
CONTINUOUS
 62
     5
 10
298.99999999999642
 20
-1.100000000004911
 30
0.0
 11
304.14999999998241
 21
-1.100000000004911
 31
0.0
  0
LINE
  8
DETAIL
  6
CONTINUOUS
 62
     5
 10
-298.99999999999642
 20
-1.100000000004911
 30
0.0
 11
-304.14999999998048
 21
-1.100000000004911
 31
0.0
  0
LINE
  8
DETAIL
  6
CONTINUOUS
 62
     5
 10
-298.49999999999818
 20
-1.599999999996726
 30
0.0
 11
-298.99999999999642
 21
-1.599999999996726
 31
0.0
  0
LINE
  8
DETAIL
  6
CONTINUOUS
 62
     5
 10
298.49999999999909
 20
-2.6000000000030918
 30
0.0
 11
296.50000000000091
 21
-2.6000000000030918
 31
0.0
  0
LINE
  8
DETAIL
  6
CONTINUOUS
 62
     5
 10
-296.49999999999909
 20
-2.6000000000030918
 30
0.0
 11
-298.49999999999818
 21
-2.6000000000030918
 31
0.0
  0
LINE
  8
DETAIL
  6
CONTINUOUS
 62
     5
 10
302.59999999999849
 20
-3.8999999999978172
 30
0.0
 11
312.10000000000042
 21
-3.999999999998181
 31
0.0
  0
LINE
  8
DETAIL
  6
CONTINUOUS
 62
     5
 10
302.59999999999849
 20
-4.3999999999969077
 30
0.0
 11
312.10000000000042
 21
-4.4999999999972724
 31
0.0
  0
LINE
  8
DETAIL
  6
CONTINUOUS
 62
     5
 10
301.60000000000309
 20
-4.3999999999969077
 30
0.0
 11
298.49999999999909
 21
-4.3999999999969077
 31
0.0
  0
LINE
  8
DETAIL
  6
CONTINUOUS
 62
     5
 10
312.59999999999758
 20
-4.9999999999972724
 30
0.0
 11
301.60000000000309
 21
-4.8999999999969077
 31
0.0
  0
LINE
  8
DETAIL
  6
CONTINUOUS
 62
     5
 10
413.50000000000182
 20
-10.70000000000111
 30
0.0
 11
303.800000000002
 21
-10.70000000000111
 31
0.0
  0
LINE
  8
DETAIL
  6
CONTINUOUS
 62
     5
 10
303.800000000002
 20
-11.29999999999966
 30
0.0
 11
413.50000000000182
 21
-11.29999999999966
 31
0.0
  0
LINE
  8
DETAIL
  6
CONTINUOUS
 62
     5
 10
414.69999999999891
 20
-11.900000000004569
 30
0.0
 11
413.84891252930902
 21
-11.900000000004569
 31
0.0
  0
LINE
  8
DETAIL
  6
CONTINUOUS
 62
     5
 10
303.800000000002
 20
-11.900000000004569
 30
0.0
 11
299.30000000000109
 21
-11.900000000004569
 31
0.0
  0
LINE
  8
DETAIL
  6
CONTINUOUS
 62
     5
 10
-292.50000000002001
 20
-289.0
 30
0.0
 11
-290.80000000000018
 21
-287.30000000000467
 31
0.0
  0
LINE
  8
DETAIL
  6
CONTINUOUS
 62
     5
 10
312.59999999999758
 20
-284.00000000000358
 30
0.0
 11
312.91651376133541
 21
-284.38706464400178
 31
0.0
  0
LINE
  8
DETAIL
  6
CONTINUOUS
 62
     5
 10
345.30000000000467
 20
-58.199999999999818
 30
0.0
 11
348.50000000000551
 21
-58.199999999999818
 31
0.0
  0
LINE
  8
DETAIL
  6
CONTINUOUS
 62
     5
 10
-345.80000000000018
 20
-58.199999999999818
 30
0.0
 11
-349.00000000000267
 21
-58.199999999999818
 31
0.0
  0
LINE
  8
DETAIL
  6
CONTINUOUS
 62
     5
 10
-342.60000000000042
 20
-65.000000000003638
 30
0.0
 11
-304.90000000000049
 21
-65.000000000003638
 31
0.0
  0
LINE
  8
DETAIL
  6
CONTINUOUS
 62
     5
 10
342.10000000000491
 20
-65.000000000003638
 30
0.0
 11
304.89999999999958
 21
-65.000000000003638
 31
0.0
  0
LINE
  8
DETAIL
  6
CONTINUOUS
 62
     5
 10
-342.60000000000042
 20
-68.200000000005275
 30
0.0
 11
-304.90000000000049
 21
-68.200000000005275
 31
0.0
  0
LINE
  8
DETAIL
  6
CONTINUOUS
 62
     5
 10
342.10000000000491
 20
-68.200000000005275
 30
0.0
 11
304.89999999999958
 21
-68.200000000005275
 31
0.0
  0
LINE
  8
DETAIL
  6
CONTINUOUS
 62
     5
 10
345.30000000000467
 20
-75.000000000000909
 30
0.0
 11
348.50000000000551
 21
-75.000000000000909
 31
0.0
  0
LINE
  8
DETAIL
  6
CONTINUOUS
 62
     5
 10
-345.80000000000018
 20
-75.000000000000909
 30
0.0
 11
-349.00000000000267
 21
-75.000000000000909
 31
0.0
  0
LINE
  8
DETAIL
  6
CONTINUOUS
 62
     5
 10
292.49999999999551
 20
-289.0
 30
0.0
 11
290.800000000002
 21
-287.30000000000467
 31
0.0
  0
LINE
  8
DETAIL
  6
CONTINUOUS
 62
     5
 10
295.88087488800193
 20
-93.999999999996362
 30
0.0
 11
296.41355287199889
 21
-93.999999999996362
 31
0.0
  0
LINE
  8
DETAIL
  6
CONTINUOUS
 62
     5
 10
-295.8808748893307
 20
-93.999999999996362
 30
0.0
 11
-296.41355287333317
 21
-93.999999999996362
 31
0.0
  0
LINE
  8
DETAIL
  6
CONTINUOUS
 62
     5
 10
301.69999999999982
 20
-115.0000000000045
 30
0.0
 11
283.49999999990092
 21
-115.00000000022369
 31
0.0
  0
LINE
  8
DETAIL
  6
CONTINUOUS
 62
     5
 10
-283.49999996723272
 20
-115.0000000342225
 30
0.0
 11
-301.69999999999709
 21
-115.0000000000045
 31
0.0
  0
LINE
  8
DETAIL
  6
CONTINUOUS
 62
     5
 10
281.79128468399898
 20
-98.803169205333688
 30
0.0
 11
294.17215957199818
 21
-94.301032882668551
 31
0.0
  0
LINE
  8
BASIS
  6
DASHDOT
 62
     6
 10
0.000000000001819
 20
90.266666666665515
 30
0.0
 11
0.000000000001819
 21
-361.26666666666819
 31
0.0
  0
LINE
  8
DETAIL
  6
CONTINUOUS
 62
     5
 10
-281.791284685336
 20
-98.803169205333688
 30
0.0
 11
-294.17215957333252
 21
-94.301032882668551
 31
0.0
  0
LINE
  8
DETAIL
  6
CONTINUOUS
 62
     5
 10
292.49999999999
 20
0.0
 30
0.0
 11
290.80000000000018
 21
-1.700000000002547
 31
0.0
  0
LINE
  8
DETAIL
  6
CONTINUOUS
 62
     5
 10
414.69999999999891
 20
-271.09999999999798
 30
0.0
 11
413.84891252930902
 21
-271.09999999999798
 31
0.0
  0
LINE
  8
DETAIL
  6
CONTINUOUS
 62
     5
 10
303.800000000002
 20
-271.09999999999798
 30
0.0
 11
299.30000000000109
 21
-271.09999999999798
 31
0.0
  0
LINE
  8
DETAIL
  6
CONTINUOUS
 62
     5
 10
413.50000000000182
 20
-271.69999999999658
 30
0.0
 11
303.800000000002
 21
-271.69999999999658
 31
0.0
  0
LINE
  8
DETAIL
  6
CONTINUOUS
 62
     5
 10
413.50000000000182
 20
-272.30000000000149
 30
0.0
 11
303.800000000002
 21
-272.30000000000149
 31
0.0
  0
LINE
  8
DETAIL
  6
CONTINUOUS
 62
     5
 10
312.59999999999758
 20
-4.9999999999972724
 30
0.0
 11
312.91651376133541
 21
-4.612935355998161
 31
0.0
  0
LINE
  8
DETAIL
  6
CONTINUOUS
 62
     5
 10
-292.49999999999181
 20
0.0
 30
0.0
 11
-290.80000000000109
 21
-1.700000000002547
 31
0.0
  0
LINE
  8
DETAIL
  6
CONTINUOUS
 62
     5
 10
312.59999999999758
 20
-284.00000000000358
 30
0.0
 11
301.60000000000309
 21
-284.00000000000358
 31
0.0
  0
LINE
  8
DETAIL
  6
CONTINUOUS
 62
     5
 10
301.60000000000309
 20
-284.49999999999551
 30
0.0
 11
298.49999999999909
 21
-284.49999999999551
 31
0.0
  0
LINE
  8
DETAIL
  6
CONTINUOUS
 62
     5
 10
312.10000000000042
 20
-284.49999999999551
 30
0.0
 11
302.59999999999849
 21
-284.49999999999551
 31
0.0
  0
LINE
  8
DETAIL
  6
CONTINUOUS
 62
     5
 10
312.10000000000042
 20
-285.00000000000182
 30
0.0
 11
302.59999999999849
 21
-285.00000000000182
 31
0.0
  0
LINE
  8
DETAIL
  6
CONTINUOUS
 62
     5
 10
298.49999999999909
 20
-286.40000000000418
 30
0.0
 11
296.50000000000091
 21
-286.40000000000418
 31
0.0
  0
LINE
  8
DETAIL
  6
CONTINUOUS
 62
     5
 10
-296.49999999999909
 20
-286.40000000000418
 30
0.0
 11
-298.49999999999818
 21
-286.40000000000418
 31
0.0
  0
LINE
  8
DETAIL
  6
CONTINUOUS
 62
     5
 10
-298.49999999999818
 20
-287.40000000000327
 30
0.0
 11
-298.99999999999642
 21
-287.40000000000327
 31
0.0
  0
LINE
  8
DETAIL
  6
CONTINUOUS
 62
     5
 10
304.14999999998241
 20
-287.90000000000242
 30
0.0
 11
298.99999999999642
 21
-287.90000000000242
 31
0.0
  0
LINE
  8
DETAIL
  6
CONTINUOUS
 62
     5
 10
-298.99999999999642
 20
-287.90000000000242
 30
0.0
 11
-304.14999999998048
 21
-287.90000000000242
 31
0.0
  0
LINE
  8
DETAIL
  6
CONTINUOUS
 62
     5
 10
-304.14999999998048
 20
-288.40000000000958
 30
0.0
 11
-298.73306494000099
 21
-288.40000000000242
 31
0.0
  0
LINE
  8
DETAIL
  6
CONTINUOUS
 62
     5
 10
298.73306493866949
 20
-288.40000000000242
 30
0.0
 11
304.14999999998241
 21
-288.40000000000958
 31
0.0
  0
LINE
  8
DETAIL
  6
CONTINUOUS
 62
     5
 10
296.50000000000091
 20
-288.40000000000242
 30
0.0
 11
291.89999999999048
 21
-288.40000000000242
 31
0.0
  0
LINE
  8
DETAIL
  6
CONTINUOUS
 62
     5
 10
-291.90000000000958
 20
-288.40000000000242
 30
0.0
 11
-296.49999999999909
 21
-288.40000000000242
 31
0.0
  0
LINE
  8
DETAIL
  6
CONTINUOUS
 62
     5
 10
-304.15000000000151
 20
-289.0
 30
0.0
 11
-298.73306494000099
 21
-289.0
 31
0.0
  0
LINE
  8
DETAIL
  6
CONTINUOUS
 62
     5
 10
298.73306493866949
 20
-289.0
 30
0.0
 11
304.15000000000049
 21
-289.0
 31
0.0
  0
LINE
  8
DETAIL
  6
CONTINUOUS
 62
     5
 10
296.40000000000049
 20
-289.0
 30
0.0
 11
-296.39999999999958
 21
-289.0
 31
0.0
  0
LINE
  8
DETAIL
  6
CONTINUOUS
 62
     5
 10
-297.2227307706662
 20
-286.40000000000418
 30
0.0
 11
-297.33839236266698
 21
-287.72201804000179
 31
0.0
  0
LINE
  8
DETAIL
  6
CONTINUOUS
 62
     5
 10
-297.82502267333348
 20
-286.40000000000418
 30
0.0
 11
-297.93610918133248
 21
-287.6697245946707
 31
0.0
  0
LINE
  8
DETAIL
  6
CONTINUOUS
 62
     5
 10
-278.50000000000091
 20
-110.0000000000027
 30
0.0
 11
-278.50000000000091
 21
-103.5021363226642
 31
0.0
  0
LINE
  8
DETAIL
  6
CONTINUOUS
 62
     5
 10
-296.39999999999958
 20
-289.0
 30
0.0
 11
-296.39999999999958
 21
-288.40000000000242
 31
0.0
  0
LINE
  8
DETAIL
  6
CONTINUOUS
 62
     5
 10
-296.39999999999958
 20
0.0
 30
0.0
 11
-296.39999999999958
 21
-0.60000000000491127
 31
0.0
  0
LINE
  8
DETAIL
  6
CONTINUOUS
 62
     5
 10
-296.49999999999909
 20
-288.40000000000242
 30
0.0
 11
-296.49999999999909
 21
-286.40000000000418
 31
0.0
  0
LINE
  8
DETAIL
  6
CONTINUOUS
 62
     5
 10
-296.49999999999909
 20
-2.6000000000030918
 30
0.0
 11
-296.49999999999909
 21
-0.60000000000491127
 31
0.0
  0
LINE
  8
DETAIL
  6
CONTINUOUS
 62
     5
 10
-298.00000000000182
 20
-287.40000000000327
 30
0.0
 11
-298.00000000000182
 21
-286.40000000000418
 31
0.0
  0
LINE
  8
DETAIL
  6
CONTINUOUS
 62
     5
 10
-298.00000000000182
 20
-1.599999999996726
 30
0.0
 11
-298.00000000000182
 21
-2.6000000000030918
 31
0.0
  0
LINE
  8
DETAIL
  6
CONTINUOUS
 62
     5
 10
-298.49999999999818
 20
-287.40000000000327
 30
0.0
 11
-298.49999999999818
 21
-1.599999999996726
 31
0.0
  0
LINE
  8
DETAIL
  6
CONTINUOUS
 62
     5
 10
-298.99999999999642
 20
-287.40000000000327
 30
0.0
 11
-298.99999999999642
 21
-115.0000000000045
 31
0.0
  0
LINE
  8
DETAIL
  6
CONTINUOUS
 62
     5
 10
-298.99999999999642
 20
-68.923726158670434
 30
0.0
 11
-298.99999999999642
 21
-1.599999999996726
 31
0.0
  0
LINE
  8
DETAIL
  6
CONTINUOUS
 62
     5
 10
-297.2227307706662
 20
-2.6000000000030918
 30
0.0
 11
-297.36235142000169
 21
-1.0041286826681239
 31
0.0
  0
LINE
  8
DETAIL
  6
CONTINUOUS
 62
     5
 10
-297.82502267333348
 20
-2.6000000000030918
 30
0.0
 11
-297.96006823866168
 21
-1.0564221293398079
 31
0.0
  0
LINE
  8
DETAIL
  6
CONTINUOUS
 62
     5
 10
-301.69999999999709
 20
-115.0000000000045
 30
0.0
 11
-301.69999999999709
 21
-71.400000000006003
 31
0.0
  0
LINE
  8
DETAIL
  6
CONTINUOUS
 62
     5
 10
-303.49999999999818
 20
-0.60000000000491127
 30
0.0
 11
-303.49999999999818
 21
-1.100000000004911
 31
0.0
  0
LINE
  8
DETAIL
  6
CONTINUOUS
 62
     5
 10
-303.49999999999818
 20
-287.90000000000242
 30
0.0
 11
-303.49999999999818
 21
-288.40000000000242
 31
0.0
  0
LINE
  8
DETAIL
  6
CONTINUOUS
 62
     5
 10
-345.80000000000018
 20
-58.199999999999818
 30
0.0
 11
-345.80000000000018
 21
-61.799999999995627
 31
0.0
  0
LINE
  8
DETAIL
  6
CONTINUOUS
 62
     5
 10
-345.80000000000018
 20
-71.400000000006003
 30
0.0
 11
-345.80000000000018
 21
-75.000000000000909
 31
0.0
  0
LINE
  8
DETAIL
  6
CONTINUOUS
 62
     5
 10
-349.00000000000267
 20
-58.199999999999818
 30
0.0
 11
-349.00000000000267
 21
-61.799999999995627
 31
0.0
  0
LINE
  8
DETAIL
  6
CONTINUOUS
 62
     5
 10
-349.00000000000267
 20
-71.400000000006003
 30
0.0
 11
-349.00000000000267
 21
-75.000000000000909
 31
0.0
  0
ARC
  8
DETAIL
  6
CONTINUOUS
 62
     5
 10
342.10000000000491
 20
-61.799999999995627
 30
0.0
 40
6.3999999999999897
 50
311.34354484793857
 51
0.000000000000007
  0
ARC
  8
DETAIL
  6
CONTINUOUS
 62
     5
 10
342.10000000000491
 20
-71.400000000006003
 30
0.0
 40
6.3999999999999897
 50
0.000000000000007
 51
90.000000000000014
  0
ARC
  8
DETAIL
  6
CONTINUOUS
 62
     5
 10
342.10000000000491
 20
-71.400000000006003
 30
0.0
 40
3.199999999999994
 50
0.000000000000007
 51
90.000000000000014
  0
ARC
  8
DETAIL
  6
CONTINUOUS
 62
     5
 10
342.10000000000491
 20
-61.799999999995627
 30
0.0
 40
3.199999999999994
 50
270.0
 51
0.000000000000007
  0
ARC
  8
DETAIL
  6
CONTINUOUS
 62
     5
 10
412.69999999999709
 20
-12.699999999999291
 30
0.0
 40
1.3999999999999979
 50
0.000000000000007
 51
90.000000000000014
  0
ARC
  8
DETAIL
  6
CONTINUOUS
 62
     5
 10
279.00613439825929
 20
-46.832956805547077
 30
0.0
 40
54.152045572898913
 50
41.86357395088806
 51
51.229181457294708
  0
ARC
  8
DETAIL
  6
CONTINUOUS
 62
     5
 10
304.89999999999958
 20
-71.400000000006003
 30
0.0
 40
6.3999999999999897
 50
90.000000000000014
 51
180.0
  0
ARC
  8
DETAIL
  6
CONTINUOUS
 62
     5
 10
304.89999999999958
 20
-71.400000000006003
 30
0.0
 40
3.199999999999994
 50
90.000000000000014
 51
180.0
  0
ARC
  8
DETAIL
  6
CONTINUOUS
 62
     5
 10
298.45816558666678
 20
-1.100000000004911
 30
0.0
 40
1.099999999999999
 50
90.000000000000014
 51
175.00000000002959
  0
ARC
  8
DETAIL
  6
CONTINUOUS
 62
     5
 10
298.99999999999642
 20
-1.599999999996726
 30
0.0
 40
0.99999999999999867
 50
90.000000000000014
 51
180.0
  0
ARC
  8
DETAIL
  6
CONTINUOUS
 62
     5
 10
302.59999999999849
 20
-4.8999999999969077
 30
0.0
 40
0.99999999999999867
 50
90.000000000000014
 51
180.0
  0
ARC
  8
DETAIL
  6
CONTINUOUS
 62
     5
 10
302.59999999999849
 20
-4.8999999999969077
 30
0.0
 40
0.49999999999999928
 50
90.000000000000014
 51
180.0
  0
ARC
  8
DETAIL
  6
CONTINUOUS
 62
     5
 10
298.45816558666678
 20
-1.100000000004911
 30
0.0
 40
0.49999999999999928
 50
90.000000000000014
 51
175.00000000002959
  0
ARC
  8
DETAIL
  6
CONTINUOUS
 62
     5
 10
312.10000000000042
 20
-4.4999999999972724
 30
0.0
 40
0.49999999999999928
 50
270.0
 51
90.000000000000014
  0
ARC
  8
DETAIL
  6
CONTINUOUS
 62
     5
 10
298.99999999999642
 20
-1.599999999996726
 30
0.0
 40
0.49999999999999928
 50
90.000000000000014
 51
180.0
  0
CIRCLE
  8
DETAIL
  6
CONTINUOUS
 62
     5
 10
287.50000000000091
 20
-106.00000000000639
 30
0.0
 40
6.9999999999999911
  0
ARC
  8
DETAIL
  6
CONTINUOUS
 62
     5
 10
283.49999999999909
 20
-103.5021363226642
 30
0.0
 40
4.9999999999999938
 50
109.9831065219211
 51
180.0
  0
ARC
  8
DETAIL
  6
CONTINUOUS
 62
     5
 10
295.88087488800193
 20
-98.999999999999091
 30
0.0
 40
4.9999999999999938
 50
90.000000000000014
 51
109.9831065219211
  0
CIRCLE
  8
DETAIL
  6
CONTINUOUS
 62
     5
 10
273.00000000000267
 20
-93.999999999996362
 30
0.0
 40
4.6999999999999922
  0
CIRCLE
  8
DETAIL
  6
CONTINUOUS
 62
     5
 10
-287.50000000133332
 20
-106.00000000000639
 30
0.0
 40
6.9999999999999911
  0
ARC
  8
DETAIL
  6
CONTINUOUS
 62
     5
 10
-342.60000000000042
 20
-61.799999999995627
 30
0.0
 40
6.3999999999999897
 50
180.0
 51
228.6564551520614
  0
ARC
  8
DETAIL
  6
CONTINUOUS
 62
     5
 10
-342.60000000000042
 20
-71.400000000006003
 30
0.0
 40
6.3999999999999897
 50
90.000000000000014
 51
180.0
  0
ARC
  8
DETAIL
  6
CONTINUOUS
 62
     5
 10
-304.90000000000049
 20
-71.400000000006003
 30
0.0
 40
6.3999999999999897
 50
0.000000000000007
 51
90.000000000000014
  0
ARC
  8
DETAIL
  6
CONTINUOUS
 62
     5
 10
-295.8808748893307
 20
-98.999999999999091
 30
0.0
 40
4.9999999999999938
 50
70.016893478078899
 51
90.000000000000014
  0
ARC
  8
DETAIL
  6
CONTINUOUS
 62
     5
 10
-283.49999999999733
 20
-103.5021363226642
 30
0.0
 40
4.9999999999999938
 50
0.000000000000007
 51
70.016893478078899
  0
CIRCLE
  8
DETAIL
  6
CONTINUOUS
 62
     5
 10
-273.00000000000267
 20
-93.999999999996362
 30
0.0
 40
4.6999999999999922
  0
ARC
  8
DETAIL
  6
CONTINUOUS
 62
     5
 10
-342.60000000000042
 20
-71.400000000006003
 30
0.0
 40
3.199999999999994
 50
90.000000000000014
 51
180.0
  0
ARC
  8
DETAIL
  6
CONTINUOUS
 62
     5
 10
-304.90000000000049
 20
-71.400000000006003
 30
0.0
 40
3.199999999999994
 50
0.000000000000007
 51
90.000000000000014
  0
ARC
  8
DETAIL
  6
CONTINUOUS
 62
     5
 10
-342.60000000000042
 20
-61.799999999995627
 30
0.0
 40
3.199999999999994
 50
180.0
 51
270.0
  0
ARC
  8
DETAIL
  6
CONTINUOUS
 62
     5
 10
-298.45816558800021
 20
-1.100000000004911
 30
0.0
 40
1.099999999999999
 50
5.0000000000226734
 51
90.000000000000014
  0
ARC
  8
DETAIL
  6
CONTINUOUS
 62
     5
 10
-298.99999999999642
 20
-1.599999999996726
 30
0.0
 40
0.99999999999999867
 50
0.000000000000007
 51
89.999999999947889
  0
ARC
  8
DETAIL
  6
CONTINUOUS
 62
     5
 10
-298.45816558800021
 20
-1.100000000004911
 30
0.0
 40
0.49999999999999928
 50
5.0000000000226734
 51
90.000000000000014
  0
ARC
  8
DETAIL
  6
CONTINUOUS
 62
     5
 10
-298.99999999999642
 20
-1.599999999996726
 30
0.0
 40
0.49999999999999928
 50
0.000000000000007
 51
90.000000000000014
  0
CIRCLE
  8
DETAIL
  6
CONTINUOUS
 62
     5
 10
224.99999999999821
 20
-194.4999999999973
 30
0.0
 40
67.499999999999872
  0
CIRCLE
  8
DETAIL
  6
CONTINUOUS
 62
     5
 10
224.99999999999821
 20
-194.4999999999973
 30
0.0
 40
54.999999999999908
  0
CIRCLE
  8
DETAIL
  6
CONTINUOUS
 62
     5
 10
224.99999999999821
 20
-194.4999999999973
 30
0.0
 40
48.749999999999908
  0
ARC
  8
DETAIL
  6
CONTINUOUS
 62
     5
 10
298.73306493866949
 20
-287.60000000000042
 30
0.0
 40
1.3999999999999979
 50
185.00000000002271
 51
270.0
  0
ARC
  8
DETAIL
  6
CONTINUOUS
 62
     5
 10
412.699999999998
 20
-270.30000000000331
 30
0.0
 40
1.3999999999999979
 50
270.0
 51
0.000000000000007
  0
ARC
  8
DETAIL
  6
CONTINUOUS
 62
     5
 10
298.99999999999642
 20
-287.40000000000327
 30
0.0
 40
0.99999999999999867
 50
180.0
 51
270.0
  0
ARC
  8
DETAIL
  6
CONTINUOUS
 62
     5
 10
302.59999999999849
 20
-284.00000000000358
 30
0.0
 40
0.99999999999999867
 50
180.0
 51
270.0
  0
ARC
  8
DETAIL
  6
CONTINUOUS
 62
     5
 10
298.73306493866949
 20
-287.60000000000042
 30
0.0
 40
0.79999999999999893
 50
185.00000000002271
 51
270.0
  0
ARC
  8
DETAIL
  6
CONTINUOUS
 62
     5
 10
302.59999999999849
 20
-284.00000000000358
 30
0.0
 40
0.49999999999999928
 50
180.0
 51
270.0
  0
ARC
  8
DETAIL
  6
CONTINUOUS
 62
     5
 10
312.10000000000042
 20
-284.49999999999551
 30
0.0
 40
0.49999999999999928
 50
270.0
 51
90.000000000000014
  0
ARC
  8
DETAIL
  6
CONTINUOUS
 62
     5
 10
298.99999999999642
 20
-287.40000000000327
 30
0.0
 40
0.49999999999999928
 50
180.0
 51
270.0
  0
ARC
  8
DETAIL
  6
CONTINUOUS
 62
     5
 10
277.5761988484158
 20
-241.59062239146891
 30
0.0
 40
55.502011923892063
 50
309.54910839938128
 51
326.40586034935791
  0
CIRCLE
  8
DETAIL
  6
CONTINUOUS
 62
     5
 10
-224.99999999999821
 20
-194.4999999999973
 30
0.0
 40
67.499999999999872
  0
CIRCLE
  8
DETAIL
  6
CONTINUOUS
 62
     5
 10
-224.99999999999821
 20
-194.4999999999973
 30
0.0
 40
54.999999999999908
  0
CIRCLE
  8
DETAIL
  6
CONTINUOUS
 62
     5
 10
-224.99999999999821
 20
-194.4999999999973
 30
0.0
 40
48.749999999999908
  0
ARC
  8
DETAIL
  6
CONTINUOUS
 62
     5
 10
-298.73306494000099
 20
-287.60000000000042
 30
0.0
 40
1.3999999999999979
 50
270.0
 51
355.00000000002962
  0
ARC
  8
DETAIL
  6
CONTINUOUS
 62
     5
 10
-298.99999999999642
 20
-287.40000000000327
 30
0.0
 40
0.99999999999999867
 50
270.0
 51
0.000000000000007
  0
ARC
  8
DETAIL
  6
CONTINUOUS
 62
     5
 10
-298.73306494000099
 20
-287.60000000000042
 30
0.0
 40
0.79999999999999893
 50
270.0
 51
355.00000000002962
  0
ARC
  8
DETAIL
  6
CONTINUOUS
 62
     5
 10
-298.99999999999642
 20
-287.40000000000327
 30
0.0
 40
0.49999999999999928
 50
270.0
 51
0.000000000000007
  0
LINE
  8
DETAIL
  6
CONTINUOUS
 62
     5
 10
296.41355287199889
 20
-93.999999999996362
 30
0.0
 11
296.75357220648857
 21
-93.996362788047961
 31
0.0
  0
LINE
  8
DETAIL
  6
CONTINUOUS
 62
     5
 10
296.75357220648857
 20
-93.996362788047961
 30
0.0
 11
297.09313175322592
 21
-93.979634731812709
 31
0.0
  0
LINE
  8
DETAIL
  6
CONTINUOUS
 62
     5
 10
297.09313175322592
 20
-93.979634731812709
 30
0.0
 11
297.43047970356969
 21
-93.936817837454242
 31
0.0
  0
LINE
  8
DETAIL
  6
CONTINUOUS
 62
     5
 10
297.43047970356969
 20
-93.936817837454242
 30
0.0
 11
297.75929710481273
 21
-93.845541287239698
 31
0.0
  0
LINE
  8
DETAIL
  6
CONTINUOUS
 62
     5
 10
297.75929710481273
 20
-93.845541287239698
 30
0.0
 11
298.05030628650201
 21
-93.66945829463819
 31
0.0
  0
LINE
  8
DETAIL
  6
CONTINUOUS
 62
     5
 10
298.05030628650201
 20
-93.66945829463819
 30
0.0
 11
298.26470726343837
 21
-93.406792141545395
 31
0.0
  0
LINE
  8
DETAIL
  6
CONTINUOUS
 62
     5
 10
298.26470726343837
 20
-93.406792141545395
 30
0.0
 11
298.38934163076021
 21
-93.091687843361981
 31
0.0
  0
LINE
  8
DETAIL
  6
CONTINUOUS
 62
     5
 10
298.38934163076021
 20
-93.091687843361981
 30
0.0
 11
298.45136157408638
 21
-92.749408632605636
 31
0.0
  0
LINE
  8
DETAIL
  6
CONTINUOUS
 62
     5
 10
298.45136157408638
 20
-92.749408632605636
 30
0.0
 11
298.48086245789534
 21
-92.40341982576895
 31
0.0
  0
LINE
  8
DETAIL
  6
CONTINUOUS
 62
     5
 10
298.48086245789534
 20
-92.40341982576895
 30
0.0
 11
298.49490004503269
 21
-92.062958721501559
 31
0.0
  0
LINE
  8
DETAIL
  6
CONTINUOUS
 62
     5
 10
298.49490004503269
 20
-92.062958721501559
 30
0.0
 11
298.49939464767237
 21
-91.72511229398053
 31
0.0
  0
LINE
  8
DETAIL
  6
CONTINUOUS
 62
     5
 10
298.49939464767237
 20
-91.72511229398053
 30
0.0
 11
298.49990884533241
 21
-91.386577181331631
 31
0.0
  0
LINE
  8
DETAIL
  6
CONTINUOUS
 62
     5
 10
-296.41355287333317
 20
-93.999999999996362
 30
0.0
 11
-296.75357220704092
 21
-93.996362788047961
 31
0.0
  0
LINE
  8
DETAIL
  6
CONTINUOUS
 62
     5
 10
-296.75357220704092
 20
-93.996362788047961
 30
0.0
 11
-297.09313175398188
 21
-93.979634731812709
 31
0.0
  0
LINE
  8
DETAIL
  6
CONTINUOUS
 62
     5
 10
-297.09313175398188
 20
-93.979634731812709
 30
0.0
 11
-297.43047970401869
 21
-93.936817837454242
 31
0.0
  0
LINE
  8
DETAIL
  6
CONTINUOUS
 62
     5
 10
-297.43047970401869
 20
-93.936817837454242
 30
0.0
 11
-297.75929710564907
 21
-93.845541287236927
 31
0.0
  0
LINE
  8
DETAIL
  6
CONTINUOUS
 62
     5
 10
-297.75929710564907
 20
-93.845541287236927
 30
0.0
 11
-298.05030628782606
 21
-93.669458294606954
 31
0.0
  0
LINE
  8
DETAIL
  6
CONTINUOUS
 62
     5
 10
-298.05030628782606
 20
-93.669458294606954
 30
0.0
 11
-298.26470726470654
 21
-93.406792141465331
 31
0.0
  0
LINE
  8
DETAIL
  6
CONTINUOUS
 62
     5
 10
-298.26470726470654
 20
-93.406792141465331
 30
0.0
 11
-298.38934163169336
 21
-93.091687843243349
 31
0.0
  0
LINE
  8
DETAIL
  6
CONTINUOUS
 62
     5
 10
-298.38934163169336
 20
-93.091687843243349
 30
0.0
 11
-298.45136157460934
 21
-92.749408632467592
 31
0.0
  0
LINE
  8
DETAIL
  6
CONTINUOUS
 62
     5
 10
-298.45136157460934
 20
-92.749408632467592
 30
0.0
 11
-298.48086245812169
 21
-92.403419825632838
 31
0.0
  0
LINE
  8
DETAIL
  6
CONTINUOUS
 62
     5
 10
-298.48086245812169
 20
-92.403419825632838
 30
0.0
 11
-298.4949000452113
 21
-92.062958721377711
 31
0.0
  0
LINE
  8
DETAIL
  6
CONTINUOUS
 62
     5
 10
-298.4949000452113
 20
-92.062958721377711
 30
0.0
 11
-298.49939464817794
 21
-91.725112293895535
 31
0.0
  0
LINE
  8
DETAIL
  6
CONTINUOUS
 62
     5
 10
-298.49939464817794
 20
-91.725112293895535
 30
0.0
 11
-298.49990884666749
 21
-91.386577181331631
 31
0.0
  0
ARC
  8
DETAIL
  6
CONTINUOUS
 62
     5
 10
-283.49999996723272
 20
-110.000000034096
 30
0.0
 40
5.0000000001249933
 50
270.0
 51
0.000000000000007
  0
ARC
  8
DETAIL
  6
CONTINUOUS
 62
     5
 10
283.49999999990092
 20
-110.0000000000973
 30
0.0
 40
5.0000000001249933
 50
180.0
 51
270.0
  0
CIRCLE
  8
DETAIL
  6
CONTINUOUS
 62
     5
 10
-269.19417382610482
 20
-238.69417382610121
 30
0.0
 40
4.6999999999999922
  0
CIRCLE
  8
DETAIL
  6
CONTINUOUS
 62
     5
 10
-269.19417382610573
 20
-150.30582617489199
 30
0.0
 40
4.6999999999999922
  0
CIRCLE
  8
DETAIL
  6
CONTINUOUS
 62
     5
 10
-180.80582617489651
 20
-150.30582617489199
 30
0.0
 40
4.6999999999999922
  0
CIRCLE
  8
DETAIL
  6
CONTINUOUS
 62
     5
 10
-180.80582617489651
 20
-238.69417382610121
 30
0.0
 40
4.6999999999999922
  0
CIRCLE
  8
DETAIL
  6
CONTINUOUS
 62
     5
 10
180.80582617389339
 20
-238.69417382610121
 30
0.0
 40
4.6999999999999922
  0
CIRCLE
  8
DETAIL
  6
CONTINUOUS
 62
     5
 10
269.19417382509801
 20
-238.69417382610121
 30
0.0
 40
4.6999999999999922
  0
CIRCLE
  8
DETAIL
  6
CONTINUOUS
 62
     5
 10
269.19417382509801
 20
-150.30582617489199
 30
0.0
 40
4.6999999999999922
  0
CIRCLE
  8
DETAIL
  6
CONTINUOUS
 62
     5
 10
180.80582617389339
 20
-150.30582617489199
 30
0.0
 40
4.6999999999999922
  0
LINE
  8
DETAIL
  6
CONTINUOUS
 62
     5
 10
-300.5
 20
-1.100000000004911
 30
0.0
 11
-300.5
 21
-1.700000000002547
 31
0.0
  0
LINE
  8
DETAIL
  6
CONTINUOUS
 62
     5
 10
-300.5
 20
-1.700000000002547
 30
0.0
 11
-304.15000000000151
 21
-1.700000000002547
 31
0.0
  0
ARC
  8
DETAIL
  6
CONTINUOUS
 62
     5
 10
-304.15000000000151
 20
-0.85000000000491127
 30
0.0
 40
0.85000000000061693
 50
90.000000000000014
 51
270.0
  0
ARC
  8
DETAIL
  6
CONTINUOUS
 62
     5
 10
-304.14999999998048
 20
-0.84999999999763531
 30
0.0
 40
0.24999999999989769
 50
90.000000000000014
 51
270.0
  0
LINE
  8
DETAIL
  6
CONTINUOUS
 62
     5
 10
300.50000000000267
 20
-1.100000000004911
 30
0.0
 11
300.50000000000267
 21
-1.700000000002547
 31
0.0
  0
LINE
  8
DETAIL
  6
CONTINUOUS
 62
     5
 10
300.50000000000267
 20
-1.700000000002547
 30
0.0
 11
304.15000000000049
 21
-1.700000000002547
 31
0.0
  0
ARC
  8
DETAIL
  6
CONTINUOUS
 62
     5
 10
304.15000000000049
 20
-0.85000000000491127
 30
0.0
 40
0.85000000000061693
 50
270.0
 51
90.000000000000014
  0
ARC
  8
DETAIL
  6
CONTINUOUS
 62
     5
 10
304.14999999998241
 20
-0.84999999999763531
 30
0.0
 40
0.24999999999989769
 50
270.0
 51
90.000000000000014
  0
LINE
  8
DETAIL
  6
CONTINUOUS
 62
     5
 10
300.50000000000267
 20
-287.89999999999509
 30
0.0
 11
300.50000000000267
 21
-287.30000000000467
 31
0.0
  0
LINE
  8
DETAIL
  6
CONTINUOUS
 62
     5
 10
300.50000000000267
 20
-287.30000000000467
 30
0.0
 11
304.15000000000049
 21
-287.30000000000467
 31
0.0
  0
ARC
  8
DETAIL
  6
CONTINUOUS
 62
     5
 10
304.15000000000049
 20
-288.14999999999509
 30
0.0
 40
0.85000000000061693
 50
270.0
 51
90.000000000000014
  0
ARC
  8
DETAIL
  6
CONTINUOUS
 62
     5
 10
304.14999999998241
 20
-288.15000000000242
 30
0.0
 40
0.24999999999989769
 50
270.0
 51
90.000000000000014
  0
LINE
  8
DETAIL
  6
CONTINUOUS
 62
     5
 10
-300.5
 20
-287.90000000000958
 30
0.0
 11
-300.5
 21
-287.30000000000467
 31
0.0
  0
LINE
  8
DETAIL
  6
CONTINUOUS
 62
     5
 10
-300.5
 20
-287.30000000000467
 30
0.0
 11
-304.15000000000151
 21
-287.30000000000467
 31
0.0
  0
ARC
  8
DETAIL
  6
CONTINUOUS
 62
     5
 10
-304.15000000000151
 20
-288.14999999999509
 30
0.0
 40
0.85000000000061693
 50
90.000000000000014
 51
270.0
  0
ARC
  8
DETAIL
  6
CONTINUOUS
 62
     5
 10
-304.14999999998048
 20
-288.15000000000242
 30
0.0
 40
0.24999999999989769
 50
90.000000000000014
 51
270.0
  0
LINE
  8
DETAIL
  6
CONTINUOUS
 62
     5
 10
-290.80000000000109
 20
-1.700000000002547
 30
0.0
 11
290.80000000000018
 21
-1.700000000002547
 31
0.0
  0
LINE
  8
DETAIL
  6
CONTINUOUS
 62
     5
 10
-290.80000000000018
 20
-287.30000000000467
 30
0.0
 11
290.800000000002
 21
-287.30000000000467
 31
0.0
  0
LINE
  8
BASIS
  6
DASHDOT
 62
     6
 10
-342.10000001418757
 20
-194.4999999999973
 30
0.0
 11
342.10000000293621
 21
-194.4999999999973
 31
0.0
  0
LINE
  8
BASIS
  6
DASHDOT
 62
     6
 10
224.99999999999821
 20
-312.00000000293949
 30
0.0
 11
224.99999999999821
 21
-76.999999997062332
 31
0.0
  0
LINE
  8
BASIS
  6
DASHDOT
 62
     6
 10
-225.00000001125139
 20
-312.00000000293949
 30
0.0
 11
-225.00000001125139
 21
-76.999999997062332
 31
0.0
  0
LINE
  8
BASIS
  6
DASHDOT
 62
     6
 10
-347.12199535438782
 20
-144.50000000000361
 30
0.0
 11
443.96957010985079
 21
-144.50000000000361
 31
0.0
1001
GENIUS_GENODEF_13
1002
{
1000
HIER
1070
     0
1002
}
1002
{
1000
MANEDIT
1070
     0
1002
}
1002
{
1000
NOSEL
1070
     0
1002
}
1002
{
1000
BEHIND
1070
     0
1002
}
1002
{
1000
OTHER
1070
     0
1002
}
1002
{
1000
REACTOR
1002
}
1001
GENIUS_GENOBJ-N-CEN_13
1002
{
1000
OWNER
1000
GEN
1002
}
1001
GENIUS_GENCEN_19
1002
{
1040
5.0
1002
}
  0
LINE
  8
DETAIL
  6
CONTINUOUS
 62
     5
 10
299.29999772165229
 20
-12.616403474294589
 30
0.0
 11
298.49999999999733
 21
-12.616403474294589
 31
0.0
  0
LINE
  8
DETAIL
  6
CONTINUOUS
 62
     5
 10
299.29999772165229
 20
-270.38360450875871
 30
0.0
 11
298.49999999999733
 21
-270.38360450875871
 31
0.0
  0
LINE
  8
SIZE
  6
CONTINUOUS
 62
    30
 10
463.96957010985102
 20
-144.50000000000369
 30
0.0
 11
740.73828886620879
 21
-144.50000000000361
 31
0.0
  0
LINE
  8
SIZE
  6
CONTINUOUS
 62
    30
 10
362.10000000293633
 20
-194.49999999999741
 30
0.0
 11
740.73828886620879
 21
-194.4999999999973
 31
0.0
  0
LINE
  8
SIZE
  6
CONTINUOUS
 62
    30
 10
720.73828886620879
 20
-132.50000000000361
 30
0.0
 11
720.73828886620879
 21
-120.50000000000369
 31
0.0
  0
LINE
  8
SIZE
  6
CONTINUOUS
 62
    30
 10
720.73828886620879
 20
-206.4999999999973
 30
0.0
 11
720.7382888662089
 21
-431.85936666010821
 31
0.0
  0
LINE
  8
SIZE
  6
CONTINUOUS
 62
    30
 10
720.73828886620879
 20
-144.50000000000361
 30
0.0
 11
720.73828886620879
 21
-194.4999999999973
 31
0.0
  0
CIRCLE
  8
SIZE
  6
CONTINUOUS
 62
    30
 10
720.73828886620879
 20
-144.50000000000361
 30
0.0
 40
6.0
  0
LINE
  8
SIZE
  6
CONTINUOUS
 62
    30
 10
720.73828886620879
 20
-144.50000000000361
 30
0.0
 11
720.73828886620879
 21
-132.50000000000361
 31
0.0
  0
CIRCLE
  8
SIZE
  6
CONTINUOUS
 62
    30
 10
720.73828886620879
 20
-194.4999999999973
 30
0.0
 40
6.0
  0
LINE
  8
SIZE
  6
CONTINUOUS
 62
    30
 10
720.73828886620879
 20
-194.4999999999973
 30
0.0
 11
720.73828886620879
 21
-206.4999999999973
 31
0.0
  0
TEXT
  8
SIZE
  6
CONTINUOUS
 62
    30
 10
695.73828886620868
 20
-414.37479523153678
 30
0.0
 40
64.0
  1
50
 50
90.0
 41
0.90000000000000002
 51
0.0
  7
STANDARD
 71
     0
 72
     1
 11
695.73828886620868
 21
-360.23079523153677
 31
0.0
210
0.0
220
0.0
230
1.0
  0
POINT
  8
DEFPOINTS
  6
CONTINUOUS
 62
    30
 10
443.96957010985102
 20
-144.50000000000369
 30
0.0
  0
POINT
  8
DEFPOINTS
  6
CONTINUOUS
 62
    30
 10
342.10000000293633
 20
-194.49999999999741
 30
0.0
  0
POINT
  8
DEFPOINTS
  6
CONTINUOUS
 62
    30
 10
720.73828886620879
 20
-194.4999999999973
 30
0.0
  0
LINE
  8
SIZE
  6
CONTINUOUS
 62
    30
 10
305.00000000000091
 20
19.149999999995089
 30
0.0
 11
305.00000000000091
 21
229.62880608547309
 31
0.0
  0
LINE
  8
SIZE
  6
CONTINUOUS
 62
    30
 10
-305.00000000000182
 20
19.149999999995089
 30
0.0
 11
-305.00000000000182
 21
229.62880608547309
 31
0.0
  0
LINE
  8
SIZE
  6
CONTINUOUS
 62
    30
 10
293.00000000000091
 20
209.62880608547309
 30
0.0
 11
-293.00000000000182
 21
209.62880608547309
 31
0.0
  0
CIRCLE
  8
SIZE
  6
CONTINUOUS
 62
    30
 10
305.00000000000091
 20
209.62880608547309
 30
0.0
 40
6.0
  0
LINE
  8
SIZE
  6
CONTINUOUS
 62
    30
 10
305.00000000000091
 20
209.62880608547309
 30
0.0
 11
293.00000000000091
 21
209.62880608547309
 31
0.0
  0
CIRCLE
  8
SIZE
  6
CONTINUOUS
 62
    30
 10
-305.00000000000182
 20
209.62880608547309
 30
0.0
 40
6.0
  0
LINE
  8
SIZE
  6
CONTINUOUS
 62
    30
 10
-305.00000000000182
 20
209.62880608547309
 30
0.0
 11
-293.00000000000182
 21
209.62880608547309
 31
0.0
  0
TEXT
  8
SIZE
  6
CONTINUOUS
 62
    30
 10
-75.168000000000461
 20
234.62880608547312
 30
0.0
 40
64.0
  1
610
 50
0.0
 41
0.90000000000000002
 51
0.0
  7
STANDARD
 71
     0
 72
     1
 11
-0.00000000000045475
 21
234.62880608547312
 31
0.0
210
0.0
220
0.0
230
1.0
  0
POINT
  8
DEFPOINTS
  6
CONTINUOUS
 62
    30
 10
305.00000000000091
 20
-0.85000000000491127
 30
0.0
  0
POINT
  8
DEFPOINTS
  6
CONTINUOUS
 62
    30
 10
-305.00000000000182
 20
-0.85000000000491127
 30
0.0
  0
POINT
  8
DEFPOINTS
  6
CONTINUOUS
 62
    30
 10
-305.00000000000182
 20
209.62880608547309
 30
0.0
  0
LINE
  8
SIZE
  6
CONTINUOUS
 62
    30
 10
-225.00000001125139
 20
-56.999999997062332
 30
0.0
 11
-225.00000001125139
 21
126.8574150879285
 31
0.0
  0
LINE
  8
SIZE
  6
CONTINUOUS
 62
    30
 10
224.99999999999821
 20
-56.999999997062332
 30
0.0
 11
224.99999999999821
 21
126.8574150879285
 31
0.0
  0
LINE
  8
SIZE
  6
CONTINUOUS
 62
    30
 10
-213.00000001125139
 20
106.8574150879285
 30
0.0
 11
212.99999999999821
 21
106.8574150879285
 31
0.0
  0
CIRCLE
  8
SIZE
  6
CONTINUOUS
 62
    30
 10
-225.00000001125139
 20
106.8574150879285
 30
0.0
 40
6.0
  0
LINE
  8
SIZE
  6
CONTINUOUS
 62
    30
 10
-225.00000001125139
 20
106.8574150879285
 30
0.0
 11
-213.00000001125139
 21
106.8574150879285
 31
0.0
  0
CIRCLE
  8
SIZE
  6
CONTINUOUS
 62
    30
 10
224.99999999999821
 20
106.8574150879285
 30
0.0
 40
6.0
  0
LINE
  8
SIZE
  6
CONTINUOUS
 62
    30
 10
224.99999999999821
 20
106.8574150879285
 30
0.0
 11
212.99999999999821
 21
106.8574150879285
 31
0.0
  0
TEXT
  8
SIZE
  6
CONTINUOUS
 62
    30
 10
-81.504000005626594
 20
131.8574150879285
 30
0.0
 40
64.0
  1
450
 50
0.0
 41
0.90000000000000002
 51
0.0
  7
STANDARD
 71
     0
 72
     1
 11
-0.00000000562658897
 21
131.8574150879285
 31
0.0
210
0.0
220
0.0
230
1.0
  0
POINT
  8
DEFPOINTS
  6
CONTINUOUS
 62
    30
 10
-225.00000001125139
 20
-76.999999997062332
 30
0.0
  0
POINT
  8
DEFPOINTS
  6
CONTINUOUS
 62
    30
 10
224.99999999999821
 20
-76.999999997062332
 30
0.0
  0
POINT
  8
DEFPOINTS
  6
CONTINUOUS
 62
    30
 10
224.99999999999821
 20
106.8574150879285
 30
0.0
  0
LINE
  8
SIZE
  6
CONTINUOUS
 62
    30
 10
324.15000000000072
 20
0.0000000000000032
 30
0.0
 11
740.73828886620879
 21
0.0000000000000702
 31
0.0
  0
LINE
  8
SIZE
  6
CONTINUOUS
 62
    30
 10
405.00000000141358
 20
-65.000000000000028
 30
0.0
 11
740.73828886620879
 21
-64.999999999999972
 31
0.0
  0
LINE
  8
SIZE
  6
CONTINUOUS
 62
    30
 10
720.73828886620879
 20
-76.999999999999972
 30
0.0
 11
720.73828886620879
 21
-88.999999999999972
 31
0.0
  0
LINE
  8
SIZE
  6
CONTINUOUS
 62
    30
 10
720.73828886620879
 20
12.000000000000069
 30
0.0
 11
720.73828886620879
 21
167.25714285714329
 31
0.0
  0
LINE
  8
SIZE
  6
CONTINUOUS
 62
    30
 10
720.73828886620879
 20
-64.999999999999972
 30
0.0
 11
720.73828886620879
 21
0.000000000000067
 31
0.0
  0
CIRCLE
  8
SIZE
  6
CONTINUOUS
 62
    30
 10
720.73828886620879
 20
-64.999999999999972
 30
0.0
 40
6.0
  0
LINE
  8
SIZE
  6
CONTINUOUS
 62
    30
 10
720.73828886620879
 20
-64.999999999999972
 30
0.0
 11
720.73828886620879
 21
-76.999999999999972
 31
0.0
  0
CIRCLE
  8
SIZE
  6
CONTINUOUS
 62
    30
 10
720.73828886620879
 20
0.000000000000067
 30
0.0
 40
6.0
  0
LINE
  8
SIZE
  6
CONTINUOUS
 62
    30
 10
720.73828886620879
 20
0.000000000000067
 30
0.0
 11
720.73828886620879
 21
12.000000000000068
 31
0.0
  0
TEXT
  8
SIZE
  6
CONTINUOUS
 62
    30
 10
695.73828886620868
 20
42.06057142857162
 30
0.0
 40
64.0
  1
65
 50
90.0
 41
0.90000000000000002
 51
0.0
  7
STANDARD
 71
     0
 72
     1
 11
695.73828886620868
 21
95.628571428571604
 31
0.0
210
0.0
220
0.0
230
1.0
  0
POINT
  8
DEFPOINTS
  6
CONTINUOUS
 62
    30
 10
304.15000000000072
 20
0.0
 30
0.0
  0
POINT
  8
DEFPOINTS
  6
CONTINUOUS
 62
    30
 10
385.00000000141358
 20
-65.000000000000028
 30
0.0
  0
POINT
  8
DEFPOINTS
  6
CONTINUOUS
 62
    30
 10
720.73828886620879
 20
-64.999999999999972
 30
0.0
  0
LINE
  8
SIZE
  6
CONTINUOUS
 62
    30
 10
413.50000000000182
 20
-292.30000000000149
 30
0.0
 11
413.50000000000182
 21
-491.97223895529709
 31
0.0
  0
LINE
  8
SIZE
  6
CONTINUOUS
 62
    30
 10
298.49999999999909
 20
-307.40000000000327
 30
0.0
 11
298.49999999999909
 21
-491.97223895529709
 31
0.0
  0
LINE
  8
SIZE
  6
CONTINUOUS
 62
    30
 10
310.49999999999909
 20
-471.97223895529709
 30
0.0
 11
401.50000000000182
 21
-471.97223895529709
 31
0.0
  0
LINE
  8
SIZE
  6
CONTINUOUS
 62
    30
 10
413.50000000000182
 20
-471.97223895529709
 30
0.0
 11
601.67142857143187
 21
-471.97223895529709
 31
0.0
  0
CIRCLE
  8
SIZE
  6
CONTINUOUS
 62
    30
 10
298.49999999999909
 20
-471.97223895529709
 30
0.0
 40
6.0
  0
LINE
  8
SIZE
  6
CONTINUOUS
 62
    30
 10
298.49999999999909
 20
-471.97223895529709
 30
0.0
 11
310.49999999999909
 21
-471.97223895529709
 31
0.0
  0
CIRCLE
  8
SIZE
  6
CONTINUOUS
 62
    30
 10
413.50000000000182
 20
-471.97223895529709
 30
0.0
 40
6.0
  0
LINE
  8
SIZE
  6
CONTINUOUS
 62
    30
 10
413.50000000000182
 20
-471.97223895529709
 30
0.0
 11
401.50000000000182
 21
-471.97223895529709
 31
0.0
  0
TEXT
  8
SIZE
  6
CONTINUOUS
 62
    30
 10
444.75371428571759
 20
-446.97223895529709
 30
0.0
 40
64.0
  1
115
 50
0.0
 41
0.90000000000000002
 51
0.0
  7
STANDARD
 71
     0
 72
     1
 11
513.58571428571759
 21
-446.97223895529709
 31
0.0
210
0.0
220
0.0
230
1.0
  0
POINT
  8
DEFPOINTS
  6
CONTINUOUS
 62
    30
 10
413.50000000000182
 20
-272.30000000000149
 30
0.0
  0
POINT
  8
DEFPOINTS
  6
CONTINUOUS
 62
    30
 10
298.49999999999909
 20
-287.40000000000327
 30
0.0
  0
POINT
  8
DEFPOINTS
  6
CONTINUOUS
 62
    30
 10
298.49999999999909
 20
-471.97223895529709
 30
0.0
  0
LINE
  8
SIZE
  6
CONTINUOUS
 62
    30
 10
324.15000000000072
 20
0.0000000000000032
 30
0.0
 11
948.67454200370366
 21
0.0000000000001036
 31
0.0
  0
LINE
  8
SIZE
  6
CONTINUOUS
 62
    30
 10
324.15000000000072
 20
-288.99999999999562
 30
0.0
 11
948.67454200370389
 21
-288.99999999999551
 31
0.0
  0
LINE
  8
SIZE
  6
CONTINUOUS
 62
    30
 10
928.67454200370378
 20
-11.999999999999901
 30
0.0
 11
928.67454200370389
 21
-276.99999999999551
 31
0.0
  0
CIRCLE
  8
SIZE
  6
CONTINUOUS
 62
    30
 10
928.67454200370378
 20
0.0000000000001004
 30
0.0
 40
6.0
  0
LINE
  8
SIZE
  6
CONTINUOUS
 62
    30
 10
928.67454200370378
 20
0.0000000000001004
 30
0.0
 11
928.67454200370378
 21
-11.999999999999899
 31
0.0
  0
CIRCLE
  8
SIZE
  6
CONTINUOUS
 62
    30
 10
928.67454200370389
 20
-288.99999999999551
 30
0.0
 40
6.0
  0
LINE
  8
SIZE
  6
CONTINUOUS
 62
    30
 10
928.67454200370389
 20
-288.99999999999551
 30
0.0
 11
928.67454200370389
 21
-276.99999999999551
 31
0.0
  0
TEXT
  8
SIZE
  6
CONTINUOUS
 62
    30
 10
903.67454200370355
 20
-224.85199999999787
 30
0.0
 40
64.0
  1
289
 50
90.0
 41
0.90000000000000002
 51
0.0
  7
STANDARD
 71
     0
 72
     1
 11
903.67454200370355
 21
-144.4999999999979
 31
0.0
210
0.0
220
0.0
230
1.0
  0
POINT
  8
DEFPOINTS
  6
CONTINUOUS
 62
    30
 10
304.15000000000072
 20
0.0
 30
0.0
  0
POINT
  8
DEFPOINTS
  6
CONTINUOUS
 62
    30
 10
304.15000000000072
 20
-288.99999999999562
 30
0.0
  0
POINT
  8
DEFPOINTS
  6
CONTINUOUS
 62
    30
 10
928.67454200370389
 20
-288.99999999999551
 30
0.0
  0
LINE
  8
SIZE
  6
CONTINUOUS
 62
    30
 10
-668.52617431820704
 20
-226.21123804954641
 30
0.0
 11
-285.59531685688557
 21
-198.83244446168089
 31
0.0
  0
LINE
  8
SIZE
  6
CONTINUOUS
 62
    30
 10
-164.40468314311161
 20
-190.16755553831391
 30
0.0
 11
-152.43523783804761
 21
-189.31176403970969
 31
0.0
  0
TEXT
  8
SIZE
  6
CONTINUOUS
 62
    30
 10
-660.2421997984876
 20
-200.5551322616943
 30
0.0
 40
64.0
  1
φ97.5
 50
4.0895749994443236
 41
0.90000000000000002
 51
0.0
  7
STANDARD
 71
     0
 72
     1
 11
-531.83399056576184
 21
-191.37420106466908
 31
0.0
210
0.0
220
0.0
230
1.0
  0
LINE
  8
SIZE
  6
CONTINUOUS
 62
    30
 10
-176.3741284481755
 20
-191.02334703691801
 30
0.0
 11
-273.62587155182172
 21
-197.9766529630767
 31
0.0
  0
CIRCLE
  8
SIZE
  6
CONTINUOUS
 62
    30
 10
-176.3741284481755
 20
-191.02334703691801
 30
0.0
 40
6.0
  0
LINE
  8
SIZE
  6
CONTINUOUS
 62
    30
 10
-176.3741284481755
 20
-191.02334703691801
 30
0.0
 11
-164.40468314311158
 21
-190.16755553831388
 31
0.0
  0
CIRCLE
  8
SIZE
  6
CONTINUOUS
 62
    30
 10
-273.62587155182172
 20
-197.9766529630767
 30
0.0
 40
6.0
  0
LINE
  8
SIZE
  6
CONTINUOUS
 62
    30
 10
-273.62587155182172
 20
-197.9766529630767
 30
0.0
 11
-285.59531685688563
 21
-198.83244446168084
 31
0.0
  0
POINT
  8
DEFPOINTS
  6
CONTINUOUS
 62
    30
 10
-273.62587155182172
 20
-197.9766529630767
 30
0.0
  0
POINT
  8
DEFPOINTS
  6
CONTINUOUS
 62
    30
 10
-176.3741284481755
 20
-191.02334703691801
 30
0.0
  0
LINE
  8
SIZE
  6
CONTINUOUS
 62
    30
 10
-538.17239318842223
 20
-412.1136624051918
 30
0.0
 11
-280.02085173696378
 21
-232.73226221581169
 31
0.0
  0
LINE
  8
SIZE
  6
CONTINUOUS
 62
    30
 10
-169.97914826303349
 20
-156.26773778418101
 30
0.0
 11
-160.12466735492029
 21
-149.42016843209461
 31
0.0
  0
TEXT
  8
SIZE
  6
CONTINUOUS
 62
    30
 10
-544.08250138384687
 20
-385.77740718551559
 30
0.0
 40
64.0
  1
φ110
 50
34.794223636246272
 41
0.90000000000000002
 51
0.0
  7
STANDARD
 71
     0
 72
     1
 11
-458.70327879595408
 21
-326.45006631903937
 31
0.0
210
0.0
220
0.0
230
1.0
  0
LINE
  8
SIZE
  6
CONTINUOUS
 62
    30
 10
-179.8336291711467
 20
-163.1153071362674
 30
0.0
 11
-270.16637082885057
 21
-225.88469286372529
 31
0.0
  0
CIRCLE
  8
SIZE
  6
CONTINUOUS
 62
    30
 10
-179.8336291711467
 20
-163.1153071362674
 30
0.0
 40
6.0
  0
LINE
  8
SIZE
  6
CONTINUOUS
 62
    30
 10
-179.8336291711467
 20
-163.1153071362674
 30
0.0
 11
-169.97914826303349
 21
-156.26773778418104
 31
0.0
  0
CIRCLE
  8
SIZE
  6
CONTINUOUS
 62
    30
 10
-270.16637082885057
 20
-225.88469286372529
 30
0.0
 40
6.0
  0
LINE
  8
SIZE
  6
CONTINUOUS
 62
    30
 10
-270.16637082885057
 20
-225.88469286372529
 30
0.0
 11
-280.02085173696378
 21
-232.73226221581166
 31
0.0
  0
POINT
  8
DEFPOINTS
  6
CONTINUOUS
 62
    30
 10
-270.16637082885057
 20
-225.88469286372529
 30
0.0
  0
POINT
  8
DEFPOINTS
  6
CONTINUOUS
 62
    30
 10
-179.8336291711467
 20
-163.1153071362674
 30
0.0
  0
LINE
  8
SIZE
  6
CONTINUOUS
 62
    30
 10
-324.15000000000163
 20
-0.0000000000000032
 30
0.0
 11
-480.77469640496213
 21
-0.0000000000000284
 31
0.0
  0
LINE
  8
SIZE
  6
CONTINUOUS
 62
    30
 10
-405.50000000141267
 20
-65.000000000000028
 30
0.0
 11
-480.77469640496213
 21
-65.000000000000057
 31
0.0
  0
LINE
  8
SIZE
  6
CONTINUOUS
 62
    30
 10
-460.77469640496213
 20
-77.000000000000043
 30
0.0
 11
-460.77469640496213
 21
-89.000000000000043
 31
0.0
  0
LINE
  8
SIZE
  6
CONTINUOUS
 62
    30
 10
-460.77469640496213
 20
11.99999999999998
 30
0.0
 11
-460.77469640496219
 21
167.25714285714281
 31
0.0
  0
LINE
  8
SIZE
  6
CONTINUOUS
 62
    30
 10
-460.77469640496213
 20
-65.000000000000043
 30
0.0
 11
-460.77469640496213
 21
-0.0000000000000252
 31
0.0
  0
CIRCLE
  8
SIZE
  6
CONTINUOUS
 62
    30
 10
-460.77469640496213
 20
-65.000000000000043
 30
0.0
 40
6.0
  0
LINE
  8
SIZE
  6
CONTINUOUS
 62
    30
 10
-460.77469640496213
 20
-65.000000000000043
 30
0.0
 11
-460.77469640496213
 21
-77.000000000000043
 31
0.0
  0
CIRCLE
  8
SIZE
  6
CONTINUOUS
 62
    30
 10
-460.77469640496213
 20
-0.0000000000000252
 30
0.0
 40
6.0
  0
LINE
  8
SIZE
  6
CONTINUOUS
 62
    30
 10
-460.77469640496213
 20
-0.0000000000000252
 30
0.0
 11
-460.77469640496213
 21
11.999999999999975
 31
0.0
  0
TEXT
  8
SIZE
  6
CONTINUOUS
 62
    30
 10
-485.77469640496201
 20
42.060571428571549
 30
0.0
 40
64.0
  1
65
 50
90.0
 41
0.90000000000000002
 51
0.0
  7
STANDARD
 71
     0
 72
     1
 11
-485.77469640496201
 21
95.628571428571533
 31
0.0
210
0.0
220
0.0
230
1.0
  0
POINT
  8
DEFPOINTS
  6
CONTINUOUS
 62
    30
 10
-304.15000000000163
 20
0.0
 30
0.0
  0
POINT
  8
DEFPOINTS
  6
CONTINUOUS
 62
    30
 10
-385.50000000141267
 20
-65.000000000000028
 30
0.0
  0
POINT
  8
DEFPOINTS
  6
CONTINUOUS
 62
    30
 10
-460.77469640496213
 20
-65.000000000000043
 30
0.0
  0
LINE
  8
BASIS
  6
DASHDOT
 62
     6
 10
-385.50000000141239
 20
-65.0
 30
0.0
 11
-272.49999999858568
 21
-65.0
 31
0.0
  0
LINE
  8
BASIS
  6
DASHDOT
 62
     6
 10
-328.99999999999909
 20
-121.5000000014152
 30
0.0
 11
-328.99999999999909
 21
-8.4999999985921022
 31
0.0
  0
LINE
  8
BASIS
  6
DASHDOT
 62
     6
 10
271.99999999858852
 20
-65.0
 30
0.0
 11
385.00000000141341
 21
-65.0
 31
0.0
  0
LINE
  8
BASIS
  6
DASHDOT
 62
     6
 10
328.5
 20
-121.5000000014152
 30
0.0
 11
328.5
 21
-8.4999999985921022
 31
0.0
  0
LINE
  8
SIZE
  6
CONTINUOUS
 62
    30
 10
-328.99999999999909
 20
11.5000000014079
 30
0.0
 11
-328.99999999999909
 21
357.67207861653702
 31
0.0
  0
LINE
  8
SIZE
  6
CONTINUOUS
 62
    30
 10
328.5
 20
11.5000000014079
 30
0.0
 11
328.5
 21
357.67207861653702
 31
0.0
  0
LINE
  8
SIZE
  6
CONTINUOUS
 62
    30
 10
-316.99999999999909
 20
337.67207861653702
 30
0.0
 11
316.5
 21
337.67207861653702
 31
0.0
  0
CIRCLE
  8
SIZE
  6
CONTINUOUS
 62
    30
 10
-328.99999999999909
 20
337.67207861653702
 30
0.0
 40
6.0
  0
LINE
  8
SIZE
  6
CONTINUOUS
 62
    30
 10
-328.99999999999909
 20
337.67207861653702
 30
0.0
 11
-316.99999999999909
 21
337.67207861653702
 31
0.0
  0
CIRCLE
  8
SIZE
  6
CONTINUOUS
 62
    30
 10
328.5
 20
337.67207861653702
 30
0.0
 40
6.0
  0
LINE
  8
SIZE
  6
CONTINUOUS
 62
    30
 10
328.5
 20
337.67207861653702
 30
0.0
 11
316.5
 21
337.67207861653702
 31
0.0
  0
TEXT
  8
SIZE
  6
CONTINUOUS
 62
    30
 10
-80.601999999999549
 20
362.67207861653702
 30
0.0
 40
64.0
  1
658
 50
0.0
 41
0.90000000000000002
 51
0.0
  7
STANDARD
 71
     0
 72
     1
 11
-0.24999999999954525
 21
362.67207861653702
 31
0.0
210
0.0
220
0.0
230
1.0
  0
POINT
  8
DEFPOINTS
  6
CONTINUOUS
 62
    30
 10
-328.99999999999909
 20
-8.4999999985921022
 30
0.0
  0
POINT
  8
DEFPOINTS
  6
CONTINUOUS
 62
    30
 10
328.5
 20
-8.4999999985921022
 30
0.0
  0
POINT
  8
DEFPOINTS
  6
CONTINUOUS
 62
    30
 10
328.5
 20
337.67207861653702
 30
0.0
  0
LINE
  8
SIZE
  6
CONTINUOUS
 62
    30
 10
328.5
 20
11.5000000014079
 30
0.0
 11
328.5
 21
357.67207861654327
 31
0.0
  0
LINE
  8
SIZE
  6
CONTINUOUS
 62
    30
 10
348.50000000000551
 20
-38.199999999999818
 30
0.0
 11
348.50000000000551
 21
357.67207861654327
 31
0.0
  0
LINE
  8
SIZE
  6
CONTINUOUS
 62
    30
 10
316.5
 20
337.67207861654327
 30
0.0
 11
304.5
 21
337.67207861654327
 31
0.0
  0
LINE
  8
SIZE
  6
CONTINUOUS
 62
    30
 10
360.50000000000551
 20
337.67207861654327
 30
0.0
 11
516.25714285715003
 21
337.67207861654327
 31
0.0
  0
LINE
  8
SIZE
  6
CONTINUOUS
 62
    30
 10
328.5
 20
337.67207861654327
 30
0.0
 11
348.50000000000551
 21
337.67207861654327
 31
0.0
  0
CIRCLE
  8
SIZE
  6
CONTINUOUS
 62
    30
 10
328.5
 20
337.67207861654327
 30
0.0
 40
6.0
  0
LINE
  8
SIZE
  6
CONTINUOUS
 62
    30
 10
328.5
 20
337.67207861654327
 30
0.0
 11
316.5
 21
337.67207861654327
 31
0.0
  0
CIRCLE
  8
SIZE
  6
CONTINUOUS
 62
    30
 10
348.50000000000551
 20
337.67207861654327
 30
0.0
 40
6.0
  0
LINE
  8
SIZE
  6
CONTINUOUS
 62
    30
 10
348.50000000000551
 20
337.67207861654327
 30
0.0
 11
360.50000000000551
 21
337.67207861654327
 31
0.0
  0
TEXT
  8
SIZE
  6
CONTINUOUS
 62
    30
 10
390.4845714285787
 20
362.67207861654327
 30
0.0
 40
64.0
  1
20
 50
0.0
 41
0.90000000000000002
 51
0.0
  7
STANDARD
 71
     0
 72
     1
 11
444.62857142857871
 21
362.67207861654327
 31
0.0
210
0.0
220
0.0
230
1.0
  0
POINT
  8
DEFPOINTS
  6
CONTINUOUS
 62
    30
 10
328.5
 20
-8.4999999985921022
 30
0.0
  0
POINT
  8
DEFPOINTS
  6
CONTINUOUS
 62
    30
 10
348.50000000000551
 20
-58.199999999999818
 30
0.0
  0
POINT
  8
DEFPOINTS
  6
CONTINUOUS
 62
    30
 10
348.50000000000551
 20
337.67207861654327
 30
0.0
  0
CIRCLE
  8
FIX
  6
CONTINUOUS
 62
    11
 10
-328.99999999999909
 20
-65.000000000003638
 30
0.0
 40
6.5
  0
CIRCLE
  8
FIX
  6
CONTINUOUS
 62
    11
 10
328.5
 20
-65.0
 30
0.0
 40
6.5
  0
POINT
  8
ARRANGE
  6
CONTINUOUS
 62
     1
 10
0.0
 20
0.0
 30
0.0
 50
270.0
  0
CIRCLE
  8
ARRANGE
  6
CONTINUOUS
 62
     1
 10
0.0
 20
0.0
 30
0.0
 40
40.041025641024042
  0
ARC
  8
OUTLINE
  6
CONTINUOUS
 62
     3
 10
-304.90000000000225
 20
-71.400000000005022
 30
0.0
 40
6.4000000000013921
 50
22.79824809961741
 51
90.0
  0
LINE
  8
OUTLINE
  6
CONTINUOUS
 62
     3
 10
-304.90000000000049
 20
-65.000000000003638
 30
0.0
 11
-342.60000000000042
 21
-64.999999999995453
 31
0.0
  0
ARC
  8
OUTLINE
  6
CONTINUOUS
 62
     3
 10
-342.60000000000042
 20
-61.79999999999567
 30
0.0
 40
3.1999999999997821
 50
180.0
 51
270.0
  0
LINE
  8
OUTLINE
  6
CONTINUOUS
 62
     3
 10
-345.80000000000018
 20
-61.799999999995627
 30
0.0
 11
-345.80000000000018
 21
-58.199999999999818
 31
0.0
  0
LINE
  8
OUTLINE
  6
CONTINUOUS
 62
     3
 10
-345.80000000000018
 20
-58.199999999999818
 30
0.0
 11
-349.00000000000267
 21
-58.199999999999818
 31
0.0
  0
LINE
  8
OUTLINE
  6
CONTINUOUS
 62
     3
 10
-349.00000000000267
 20
-58.199999999999818
 30
0.0
 11
-349.0
 21
-61.799999999995627
 31
0.0
  0
ARC
  8
OUTLINE
  6
CONTINUOUS
 62
     3
 10
-342.6000000000007
 20
-61.799999999995819
 30
0.0
 40
6.399999999999312
 50
180.0
 51
228.65645515208439
  0
LINE
  8
OUTLINE
  6
CONTINUOUS
 62
     3
 10
-298.99999999999642
 20
-68.923726158670434
 30
0.0
 11
-298.99999999999642
 21
-1.599999999996726
 31
0.0
  0
LINE
  8
OUTLINE
  6
CONTINUOUS
 62
     3
 10
-298.99999999999642
 20
-1.599999999996726
 30
0.0
 11
-298.49999999999642
 21
-1.599999999996726
 31
0.0
  0
ARC
  8
OUTLINE
  6
CONTINUOUS
 62
     3
 10
-298.99999999999233
 20
-1.6000000000008261
 30
0.0
 40
0.49999999999591505
 50
0.0
 51
90.0
  0
LINE
  8
OUTLINE
  6
CONTINUOUS
 62
     3
 10
-298.99999999999642
 20
-1.100000000004911
 30
0.0
 11
-300.5
 21
-1.100000000004911
 31
0.0
  0
LINE
  8
OUTLINE
  6
CONTINUOUS
 62
     3
 10
-300.5
 20
-1.100000000004911
 30
0.0
 11
-300.5
 21
-1.700000000002547
 31
0.0
  0
LINE
  8
OUTLINE
  6
CONTINUOUS
 62
     3
 10
-300.5
 20
-1.700000000002547
 30
0.0
 11
-304.15000000000151
 21
-1.7000000000052751
 31
0.0
  0
ARC
  8
OUTLINE
  6
CONTINUOUS
 62
     3
 10
-304.15000000000151
 20
-0.85000000000263753
 30
0.0
 40
0.85000000000263753
 50
90.0
 51
270.0
  0
LINE
  8
OUTLINE
  6
CONTINUOUS
 62
     3
 10
-304.15000000000151
 20
0.0
 30
0.0
 11
-298.45816558800021
 21
-0.0000000000045475
 31
0.0
  0
ARC
  8
OUTLINE
  6
CONTINUOUS
 62
     3
 10
-298.45816558778029
 20
-1.0999999999010173
 30
0.0
 40
1.0999999998964698
 50
5.0000000114762884
 51
90.0
  0
LINE
  8
OUTLINE
  6
CONTINUOUS
 62
     3
 10
-297.36235142000169
 20
-1.0041286826681239
 30
0.0
 11
-297.2227307706662
 21
-2.6000000000030918
 31
0.0
  0
LINE
  8
OUTLINE
  6
CONTINUOUS
 62
     3
 10
-297.2227307706662
 20
-2.6000000000030918
 30
0.0
 11
-296.49999999999909
 21
-2.6000000000030918
 31
0.0
  0
LINE
  8
OUTLINE
  6
CONTINUOUS
 62
     3
 10
-296.49999999999909
 20
-2.6000000000030918
 30
0.0
 11
-296.49999999999909
 21
-0.60000000000491127
 31
0.0
  0
LINE
  8
OUTLINE
  6
CONTINUOUS
 62
     3
 10
-296.49999999999909
 20
-0.60000000000491127
 30
0.0
 11
-296.39999999999958
 21
-0.60000000000491127
 31
0.0
  0
LINE
  8
OUTLINE
  6
CONTINUOUS
 62
     3
 10
-296.39999999999958
 20
-0.60000000000491127
 30
0.0
 11
-296.39999999999958
 21
0.0
 31
0.0
  0
LINE
  8
OUTLINE
  6
CONTINUOUS
 62
     3
 10
-296.39999999999958
 20
0.0
 30
0.0
 11
296.40000000000049
 21
0.0
 31
0.0
  0
LINE
  8
OUTLINE
  6
CONTINUOUS
 62
     3
 10
296.40000000000049
 20
0.0
 30
0.0
 11
296.40000000000049
 21
-0.60000000000491127
 31
0.0
  0
LINE
  8
OUTLINE
  6
CONTINUOUS
 62
     3
 10
296.40000000000049
 20
-0.60000000000491127
 30
0.0
 11
296.50000000000091
 21
-0.60000000000491127
 31
0.0
  0
LINE
  8
OUTLINE
  6
CONTINUOUS
 62
     3
 10
296.50000000000091
 20
-0.60000000000491127
 30
0.0
 11
296.50000000000091
 21
-2.6000000000030918
 31
0.0
  0
LINE
  8
OUTLINE
  6
CONTINUOUS
 62
     3
 10
296.50000000000091
 20
-2.6000000000030918
 30
0.0
 11
297.22273077066978
 21
-2.6000000000030918
 31
0.0
  0
LINE
  8
OUTLINE
  6
CONTINUOUS
 62
     3
 10
297.22273077066978
 20
-2.6000000000030918
 30
0.0
 11
297.36235141876568
 21
-1.00412868298281
 31
0.0
  0
ARC
  8
OUTLINE
  6
CONTINUOUS
 62
     3
 10
298.45816558666962
 20
-1.1000000000027721
 30
0.0
 40
1.1000000000027721
 50
90.0
 51
175.00000000014143
  0
LINE
  8
OUTLINE
  6
CONTINUOUS
 62
     3
 10
298.45816558666678
 20
0.0
 30
0.0
 11
304.15000000000049
 21
-0.0000000000045475
 31
0.0
  0
ARC
  8
OUTLINE
  6
CONTINUOUS
 62
     3
 10
304.15000000000049
 20
-0.85000000000354725
 30
0.0
 40
0.84999999999899978
 50
270.0
 51
90.0
  0
LINE
  8
OUTLINE
  6
CONTINUOUS
 62
     3
 10
304.15000000000049
 20
-1.700000000002547
 30
0.0
 11
300.50000000000267
 21
-1.700000000002547
 31
0.0
  0
LINE
  8
OUTLINE
  6
CONTINUOUS
 62
     3
 10
300.50000000000267
 20
-1.700000000002547
 30
0.0
 11
300.50000000000267
 21
-1.100000000005821
 31
0.0
  0
LINE
  8
OUTLINE
  6
CONTINUOUS
 62
     3
 10
300.50000000000267
 20
-1.100000000005821
 30
0.0
 11
298.99999999999642
 21
-1.099999999996726
 31
0.0
  0
ARC
  8
OUTLINE
  6
CONTINUOUS
 62
     3
 10
298.99999999999773
 20
-1.5999999999953578
 30
0.0
 40
0.49999999999863171
 50
90.0
 51
180.0
  0
LINE
  8
OUTLINE
  6
CONTINUOUS
 62
     3
 10
298.49999999999909
 20
-1.599999999996726
 30
0.0
 11
298.49999999999909
 21
-4.3999999999969077
 31
0.0
  0
LINE
  8
OUTLINE
  6
CONTINUOUS
 62
     3
 10
298.49999999999909
 20
-4.3999999999969077
 30
0.0
 11
301.60000000000309
 21
-4.3999999999969077
 31
0.0
  0
LINE
  8
OUTLINE
  6
CONTINUOUS
 62
     3
 10
301.60000000000309
 20
-4.3999999999969077
 30
0.0
 11
301.59999999999849
 21
-4.8999999999969077
 31
0.0
  0
ARC
  8
OUTLINE
  6
CONTINUOUS
 62
     3
 10
302.59999999999798
 20
-4.8999999999973127
 30
0.0
 40
0.99999999999949518
 50
90.0
 51
180.0
  0
LINE
  8
OUTLINE
  6
CONTINUOUS
 62
     3
 10
302.59999999999849
 20
-3.8999999999978172
 30
0.0
 11
312.10000000000042
 21
-3.999999999997272
 31
0.0
  0
ARC
  8
OUTLINE
  6
CONTINUOUS
 62
     3
 10
312.09999999999985
 20
-4.4999999999972413
 30
0.0
 40
0.49999999999996891
 50
277.22818783523121
 51
90.0
  0
LINE
  8
OUTLINE
  6
CONTINUOUS
 62
     3
 10
312.16291065478799
 20
-4.996026460495159
 30
0.0
 11
312.59999999999758
 21
-4.9999999999972724
 31
0.0
  0
LINE
  8
OUTLINE
  6
CONTINUOUS
 62
     3
 10
312.59999999999758
 20
-4.9999999999972724
 30
0.0
 11
312.9165137614209
 21
-4.6129353562891993
 31
0.0
  0
ARC
  8
OUTLINE
  6
CONTINUOUS
 62
     3
 10
279.0053817889526
 20
-46.833224230550712
 30
0.0
 40
54.152725363367004
 50
41.854913443813189
 51
51.228737806308629
  0
LINE
  8
OUTLINE
  6
CONTINUOUS
 62
     3
 10
319.34032657613528
 20
-10.70000000000111
 30
0.0
 11
413.50000000000182
 21
-10.70000000000111
 31
0.0
  0
LINE
  8
OUTLINE
  6
CONTINUOUS
 62
     3
 10
413.50000000000182
 20
-10.70000000000111
 30
0.0
 11
413.50000000000182
 21
-11.55108747069464
 31
0.0
  0
ARC
  8
OUTLINE
  6
CONTINUOUS
 62
     3
 10
412.7000000000005
 20
-12.699999999996916
 30
0.0
 40
1.399999999996391
 50
34.849904578768076
 51
55.150095420784567
  0
LINE
  8
OUTLINE
  6
CONTINUOUS
 62
     3
 10
413.84891252930902
 20
-11.900000000004569
 30
0.0
 11
414.69999999999891
 21
-11.900000000004569
 31
0.0
  0
LINE
  8
OUTLINE
  6
CONTINUOUS
 62
     3
 10
414.69999999999891
 20
-11.900000000004569
 30
0.0
 11
414.69999999999891
 21
-271.09999999999798
 31
0.0
  0
LINE
  8
OUTLINE
  6
CONTINUOUS
 62
     3
 10
414.69999999999891
 20
-271.09999999999798
 30
0.0
 11
413.84891252930902
 21
-271.09999999999712
 31
0.0
  0
ARC
  8
OUTLINE
  6
CONTINUOUS
 62
     3
 10
412.69999999999732
 20
-270.30000000000479
 30
0.0
 40
1.3999999999990056
 50
304.84990457929996
 51
325.15009542130656
  0
LINE
  8
OUTLINE
  6
CONTINUOUS
 62
     3
 10
413.50000000000182
 20
-271.44891252930802
 30
0.0
 11
413.50000000000182
 21
-272.30000000000149
 31
0.0
  0
LINE
  8
OUTLINE
  6
CONTINUOUS
 62
     3
 10
413.50000000000182
 20
-272.30000000000149
 30
0.0
 11
323.80830419363878
 21
-272.30000000000058
 31
0.0
  0
ARC
  8
OUTLINE
  6
CONTINUOUS
 62
     3
 10
277.57620729652587
 20
-241.5906254481919
 30
0.0
 40
55.502004187842722
 50
309.54910368367177
 51
326.40615403983134
  0
LINE
  8
OUTLINE
  6
CONTINUOUS
 62
     3
 10
312.91651376133541
 20
-284.38706464400178
 30
0.0
 11
312.59999999999758
 21
-284.00000000000358
 31
0.0
  0
LINE
  8
OUTLINE
  6
CONTINUOUS
 62
     3
 10
312.59999999999758
 20
-284.00000000000358
 30
0.0
 11
312.10000000000042
 21
-283.99999999999551
 31
0.0
  0
ARC
  8
OUTLINE
  6
CONTINUOUS
 62
     3
 10
312.10000000000042
 20
-284.49999999999864
 30
0.0
 40
0.50000000000315481
 50
270.0
 51
90.0
  0
LINE
  8
OUTLINE
  6
CONTINUOUS
 62
     3
 10
312.10000000000042
 20
-285.00000000000182
 30
0.0
 11
302.59999999999849
 21
-285.00000000000358
 31
0.0
  0
ARC
  8
OUTLINE
  6
CONTINUOUS
 62
     3
 10
302.60000000000082
 20
-284.00000000000585
 30
0.0
 40
0.99999999999774869
 50
180.0
 51
270.0
  0
LINE
  8
OUTLINE
  6
CONTINUOUS
 62
     3
 10
301.60000000000309
 20
-284.00000000000358
 30
0.0
 11
301.60000000000309
 21
-284.49999999999551
 31
0.0
  0
LINE
  8
OUTLINE
  6
CONTINUOUS
 62
     3
 10
301.60000000000309
 20
-284.49999999999551
 30
0.0
 11
298.49999999999909
 21
-284.49999999999449
 31
0.0
  0
LINE
  8
OUTLINE
  6
CONTINUOUS
 62
     3
 10
298.49999999999909
 20
-284.49999999999449
 30
0.0
 11
298.49999999999642
 21
-287.40000000000327
 31
0.0
  0
ARC
  8
OUTLINE
  6
CONTINUOUS
 62
     3
 10
298.99999999999602
 20
-287.40000000000282
 30
0.0
 40
0.49999999999960215
 50
180.0
 51
270.0
  0
LINE
  8
OUTLINE
  6
CONTINUOUS
 62
     3
 10
298.99999999999642
 20
-287.90000000000242
 30
0.0
 11
300.50000000000267
 21
-287.89999999999509
 31
0.0
  0
LINE
  8
OUTLINE
  6
CONTINUOUS
 62
     3
 10
300.50000000000267
 20
-287.89999999999509
 30
0.0
 11
300.50000000000267
 21
-287.30000000000467
 31
0.0
  0
LINE
  8
OUTLINE
  6
CONTINUOUS
 62
     3
 10
300.50000000000267
 20
-287.30000000000467
 30
0.0
 11
304.15000000000049
 21
-287.29999999999472
 31
0.0
  0
ARC
  8
OUTLINE
  6
CONTINUOUS
 62
     3
 10
304.15000000000049
 20
-288.14999999999736
 30
0.0
 40
0.85000000000263753
 50
270.0
 51
90.0
  0
LINE
  8
OUTLINE
  6
CONTINUOUS
 62
     3
 10
304.15000000000049
 20
-289.0
 30
0.0
 11
298.73306493866949
 21
-289.0
 31
0.0
  0
ARC
  8
OUTLINE
  6
CONTINUOUS
 62
     3
 10
298.73306493858155
 20
-287.60000000007312
 30
0.0
 40
1.3999999999268558
 50
185.0000000036282
 51
270.0
  0
LINE
  8
OUTLINE
  6
CONTINUOUS
 62
     3
 10
297.33839236133372
 20
-287.72201804000179
 30
0.0
 11
297.22273077066978
 21
-286.40000000000327
 31
0.0
  0
LINE
  8
OUTLINE
  6
CONTINUOUS
 62
     3
 10
297.22273077066978
 20
-286.40000000000327
 30
0.0
 11
296.50000000000091
 21
-286.40000000000418
 31
0.0
  0
LINE
  8
OUTLINE
  6
CONTINUOUS
 62
     3
 10
296.50000000000091
 20
-286.40000000000418
 30
0.0
 11
296.50000000000091
 21
-288.40000000000242
 31
0.0
  0
LINE
  8
OUTLINE
  6
CONTINUOUS
 62
     3
 10
296.50000000000091
 20
-288.40000000000242
 30
0.0
 11
296.40000000000049
 21
-288.40000000000242
 31
0.0
  0
LINE
  8
OUTLINE
  6
CONTINUOUS
 62
     3
 10
296.40000000000049
 20
-288.40000000000242
 30
0.0
 11
296.40000000000049
 21
-289.0
 31
0.0
  0
LINE
  8
OUTLINE
  6
CONTINUOUS
 62
     3
 10
296.40000000000049
 20
-289.0
 30
0.0
 11
-296.39999999999958
 21
-289.0
 31
0.0
  0
LINE
  8
OUTLINE
  6
CONTINUOUS
 62
     3
 10
-296.39999999999958
 20
-289.0
 30
0.0
 11
-296.39999999999958
 21
-288.40000000000242
 31
0.0
  0
LINE
  8
OUTLINE
  6
CONTINUOUS
 62
     3
 10
-296.39999999999958
 20
-288.40000000000242
 30
0.0
 11
-296.49999999999909
 21
-288.40000000000242
 31
0.0
  0
LINE
  8
OUTLINE
  6
CONTINUOUS
 62
     3
 10
-296.49999999999909
 20
-288.40000000000242
 30
0.0
 11
-296.49999999999909
 21
-286.40000000000418
 31
0.0
  0
LINE
  8
OUTLINE
  6
CONTINUOUS
 62
     3
 10
-296.49999999999909
 20
-286.40000000000418
 30
0.0
 11
-297.2227307706662
 21
-286.40000000000418
 31
0.0
  0
LINE
  8
OUTLINE
  6
CONTINUOUS
 62
     3
 10
-297.2227307706662
 20
-286.40000000000418
 30
0.0
 11
-297.33839236267249
 21
-287.72201803984723
 31
0.0
  0
ARC
  8
OUTLINE
  6
CONTINUOUS
 62
     3
 10
-298.73306494000076
 20
-287.60000000000014
 30
0.0
 40
1.399999999999858
 50
270.0
 51
354.99999999998431
  0
LINE
  8
OUTLINE
  6
CONTINUOUS
 62
     3
 10
-298.73306494000099
 20
-289.0
 30
0.0
 11
-304.15000000000151
 21
-288.99999999999551
 31
0.0
  0
ARC
  8
OUTLINE
  6
CONTINUOUS
 62
     3
 10
-304.15000000000151
 20
-288.15000000000009
 30
0.0
 40
0.84999999999541853
 50
90.0
 51
270.0
  0
LINE
  8
OUTLINE
  6
CONTINUOUS
 62
     3
 10
-304.15000000000151
 20
-287.30000000000467
 30
0.0
 11
-300.5
 21
-287.30000000000467
 31
0.0
  0
LINE
  8
OUTLINE
  6
CONTINUOUS
 62
     3
 10
-300.5
 20
-287.30000000000467
 30
0.0
 11
-300.5
 21
-287.90000000000242
 31
0.0
  0
LINE
  8
OUTLINE
  6
CONTINUOUS
 62
     3
 10
-300.5
 20
-287.90000000000242
 30
0.0
 11
-298.99999999999642
 21
-287.90000000000327
 31
0.0
  0
ARC
  8
OUTLINE
  6
CONTINUOUS
 62
     3
 10
-298.99999999999727
 20
-287.40000000000418
 30
0.0
 40
0.49999999999911698
 50
270.0
 51
0.0
  0
LINE
  8
OUTLINE
  6
CONTINUOUS
 62
     3
 10
-298.49999999999818
 20
-287.40000000000327
 30
0.0
 11
-298.99999999999642
 21
-287.40000000000327
 31
0.0
  0
LINE
  8
OUTLINE
  6
CONTINUOUS
 62
     3
 10
-298.99999999999642
 20
-287.40000000000327
 30
0.0
 11
-298.99999999999642
 21
-115.00000000508039
 31
0.0
  0
LINE
  8
OUTLINE
  6
CONTINUOUS
 62
     3
 10
-298.99999999999642
 20
-115.00000000508039
 30
0.0
 11
-301.69999999999709
 21
-115.0000000000045
 31
0.0
  0
LINE
  8
OUTLINE
  6
CONTINUOUS
 62
     3
 10
-301.69999999999709
 20
-115.0000000000045
 30
0.0
 11
-301.70000000000073
 21
-71.400000000006003
 31
0.0
  0
ARC
  8
OUTLINE
  6
CONTINUOUS
 62
     3
 10
-304.900000000001
 20
-71.400000000005548
 30
0.0
 40
3.2000000000002684
 50
0.0
 51
90.0
  0
LINE
  8
OUTLINE
  6
CONTINUOUS
 62
     3
 10
-304.90000000000049
 20
-68.200000000005275
 30
0.0
 11
-342.60000000000042
 21
-68.200000000006185
 31
0.0
  0
ARC
  8
OUTLINE
  6
CONTINUOUS
 62
     3
 10
-342.60000000000042
 20
-71.400000000005974
 30
0.0
 40
3.1999999999997826
 50
90.0
 51
180.0
  0
LINE
  8
OUTLINE
  6
CONTINUOUS
 62
     3
 10
-345.80000000000018
 20
-71.400000000006003
 30
0.0
 11
-345.80000000000018
 21
-75.000000000000909
 31
0.0
  0
LINE
  8
OUTLINE
  6
CONTINUOUS
 62
     3
 10
-345.80000000000018
 20
-75.000000000000909
 30
0.0
 11
-349.00000000000267
 21
-75.000000000000909
 31
0.0
  0
LINE
  8
OUTLINE
  6
CONTINUOUS
 62
     3
 10
-349.00000000000267
 20
-75.000000000000909
 30
0.0
 11
-349.0
 21
-71.400000000006003
 31
0.0
  0
ARC
  8
OUTLINE
  6
CONTINUOUS
 62
     3
 10
-342.60000000000002
 20
-71.400000000005321
 30
0.0
 40
6.3999999999999995
 50
131.40962210920361
 51
180.0
  0
TEXT
  8
NOTE
  6
CONTINUOUS
 62
     4
 10
177.81923079041559
 20
-225.11620747075429
 30
0.0
 40
64.065641025638456
  1
OA
 41
0.90000000000000002
  0
TEXT
  8
NOTE
  6
CONTINUOUS
 62
     4
 10
-273.81040548589118
 20
-225.11620747075429
 30
0.0
 40
64.065641025638456
  1
EA
 41
0.90000000000000002
  0
TEXT
  8
ETC
  6
CONTINUOUS
 62
    61
 10
662.03767657916069
 20
798.44988077679204
 30
0.0
 40
64.065641025638456
  1
LGH-15RVX3-E_3
 41
0.90000000000000002
  0
TEXT
  8
ETC
  6
CONTINUOUS
 62
    61
 10
657.84738925198053
 20
680.37359095682223
 30
0.0
 40
64.065641025638456
  1
LOSSNAY
 41
0.90000000000000002
  0
TEXT
  8
ETC
  6
CONTINUOUS
 62
    61
 10
708.6007889346356
 20
572.11389625225627
 30
0.0
 40
40.041025641024042
  1
LGH-15RVX3-E
 50
0.0
 41
0.90000000000000002
 51
0.0
  7
STANDARD
 71
     0
 11
0.0
 21
0.0
 31
0.0
210
0.0
220
0.0
230
1.0
  0
TEXT
  8
NOTE
  6
CONTINUOUS
 62
     4
 10
552.85941763716619
 20
384.50919809605688
 30
0.0
 40
69.0
  1
Ceiling suspension fixture
 50
0.0
 41
0.90000000000000002
 51
0.0
  7
STANDARD
 71
     0
 11
0.0
 21
0.0
 31
0.0
210
0.0
220
0.0
230
1.0
  0
TEXT
  8
NOTE
  6
CONTINUOUS
 62
     4
 10
552.85941763716619
 20
270.65919809605691
 30
0.0
 40
69.0
  1
(4-13X20 oval)
 50
0.0
 41
0.90000000000000002
 51
0.0
  7
STANDARD
 71
     0
 11
0.0
 21
0.0
 31
0.0
210
0.0
220
0.0
230
1.0
  0
LINE
  8
NOTE
  6
CONTINUOUS
 62
     4
 10
542.85941763716619
 20
233.3663409531996
 30
0.0
 11
1759.3737033514519
 21
233.3663409531996
 31
0.0
  0
LINE
  8
NOTE
  6
CONTINUOUS
 62
     4
 10
356.4884656186465
 20
-41.392033614467749
 30
0.0
 11
329.00000423527041
 21
-64.999999724176178
 31
0.0
  0
LINE
  8
NOTE
  6
CONTINUOUS
 62
     4
 10
329.00000423527041
 20
-64.999999724176178
 30
0.0
 11
341.00167552795847
 21
-30.810652563916349
 31
0.0
  0
LINE
  8
NOTE
  6
CONTINUOUS
 62
     4
 10
329.00000423527041
 20
-64.999999724176178
 30
0.0
 11
368.49013691133456
 21
-7.202686454207921
 31
0.0
  0
LINE
  8
NOTE
  6
CONTINUOUS
 62
     4
 10
368.49013691133462
 20
-7.2026864542079352
 30
0.0
 11
532.85941763716619
 21
233.3663409531996
 31
0.0
  0
LINE
  8
NOTE
  6
CONTINUOUS
 62
     4
 10
532.85941763716619
 20
233.3663409531996
 30
0.0
 11
542.85941763716619
 21
233.3663409531996
 31
0.0
  0
ENDSEC
  0
EOF
