  0
SECTION
  2
HEADER
  9
$ACADVER
  1
AC1009
  9
$DWGCODEPAGE
  3
dos932
  9
$INSBASE
 10
0.0
 20
0.0
 30
0.0
  9
$EXTMIN
 10
-812.56254469343003
 20
-522.30833799381435
 30
-0.0000000349181948
  9
$EXTMAX
 10
1688.571179330545
 20
832.80945654587049
 30
0.0000000814935746
  9
$LIMMIN
 10
-2970.0
 20
-2100.0
  9
$LIMMAX
 10
2970.0
 20
2100.0
  9
$ORTHOMODE
 70
     1
  9
$REGENMODE
 70
     1
  9
$FILLMODE
 70
     1
  9
$QTEXTMODE
 70
     0
  9
$MIRRTEXT
 70
     0
  9
$LTSCALE
 40
20.0
  9
$ATTMODE
 70
     1
  9
$TEXTSIZE
 40
64.0
  9
$TRACEWID
 40
0.05
  9
$TEXTSTYLE
  7
STANDARD
  9
$CLAYER
  8
SIZE
  9
$CELTYPE
  6
CONTINUOUS
  9
$CECOLOR
 62
     7
  9
$DIMSCALE
 40
1.0
  9
$DIMASZ
 40
12.0
  9
$DIMEXO
 40
20.0
  9
$DIMDLI
 40
200.0
  9
$DIMRND
 40
0.0
  9
$DIMDLE
 40
0.0
  9
$DIMEXE
 40
20.0
  9
$DIMTP
 40
0.0
  9
$DIMTM
 40
0.0
  9
$DIMTXT
 40
64.0
  9
$DIMCEN
 40
0.09
  9
$DIMTSZ
 40
0.0
  9
$DIMTOL
 70
     0
  9
$DIMLIM
 70
     0
  9
$DIMTIH
 70
     0
  9
$DIMTOH
 70
     0
  9
$DIMSE1
 70
     0
  9
$DIMSE2
 70
     0
  9
$DIMTAD
 70
     1
  9
$DIMZIN
 70
     8
  9
$DIMBLK
  1

  9
$DIMASO
 70
     1
  9
$DIMSHO
 70
     0
  9
$DIMPOST
  1

  9
$DIMAPOST
  1

  9
$DIMALT
 70
     0
  9
$DIMALTD
 70
     2
  9
$DIMALTF
 40
25.399999999999999
  9
$DIMLFAC
 40
1.0
  9
$DIMTOFL
 70
     1
  9
$DIMTVP
 40
0.0
  9
$DIMTIX
 70
     1
  9
$DIMSOXD
 70
     0
  9
$DIMSAH
 70
     0
  9
$DIMBLK1
  1

  9
$DIMBLK2
  1

  9
$DIMSTYLE
  2
STANDARD
  9
$DIMCLRD
 70
     7
  9
$DIMCLRE
 70
     7
  9
$DIMCLRT
 70
     7
  9
$DIMTFAC
 40
1.0
  9
$DIMGAP
 40
25.0
  9
$LUNITS
 70
     2
  9
$LUPREC
 70
     4
  9
$SKETCHINC
 40
0.1
  9
$FILLETRAD
 40
3.0
  9
$AUNITS
 70
     1
  9
$AUPREC
 70
     3
  9
$MENU
  1
ACAD
  9
$ELEVATION
 40
0.0
  9
$PELEVATION
 40
0.0
  9
$THICKNESS
 40
0.0
  9
$LIMCHECK
 70
     0
  9
$CHAMFERA
 40
0.0
  9
$CHAMFERB
 40
0.0
  9
$SKPOLY
 70
     0
  9
$TDCREATE
 40
2453019.62301037
  9
$TDUPDATE
 40
2460045.427879641
  9
$TDINDWG
 40
1.7157220023
  9
$TDUSRTIMER
 40
1.7157220023
  9
$USRTIMER
 70
     1
  9
$ANGBASE
 50
0.0
  9
$ANGDIR
 70
     0
  9
$PDMODE
 70
     3
  9
$PDSIZE
 40
-2.0
  9
$PLINEWID
 40
0.0
  9
$SPLFRAME
 70
     0
  9
$SPLINETYPE
 70
     6
  9
$SPLINESEGS
 70
     8
  9
$SURFTAB1
 70
     6
  9
$SURFTAB2
 70
     6
  9
$SURFTYPE
 70
     6
  9
$SURFU
 70
     6
  9
$SURFV
 70
     6
  9
$UCSNAME
  2

  9
$UCSORG
 10
0.0
 20
0.0
 30
0.0
  9
$UCSXDIR
 10
1.0
 20
0.0
 30
0.0
  9
$UCSYDIR
 10
0.0
 20
1.0
 30
0.0
  9
$PUCSNAME
  2

  9
$PUCSORG
 10
0.0
 20
0.0
 30
0.0
  9
$PUCSXDIR
 10
1.0
 20
0.0
 30
0.0
  9
$PUCSYDIR
 10
0.0
 20
1.0
 30
0.0
  9
$USERI1
 70
     0
  9
$USERI2
 70
     0
  9
$USERI3
 70
     0
  9
$USERI4
 70
     0
  9
$USERI5
 70
     0
  9
$USERR1
 40
20.0
  9
$USERR2
 40
0.0
  9
$USERR3
 40
0.0
  9
$USERR4
 40
0.0
  9
$USERR5
 40
0.0
  9
$WORLDVIEW
 70
     1
  9
$SHADEDGE
 70
     3
  9
$SHADEDIF
 70
    70
  9
$TILEMODE
 70
     1
  9
$MAXACTVP
 70
    48
  9
$PINSBASE
 10
0.0
 20
0.0
 30
0.0
  9
$PLIMCHECK
 70
     0
  9
$PEXTMIN
 10
-100000000000000000000.0
 20
-100000000000000000000.0
 30
-100000000000000000000.0
  9
$PEXTMAX
 10
100000000000000000000.0
 20
100000000000000000000.0
 30
100000000000000000000.0
  9
$PLIMMIN
 10
0.0
 20
0.0
  9
$PLIMMAX
 10
12.0
 20
9.0
  9
$UNITMODE
 70
     0
  9
$VISRETAIN
 70
     0
  9
$PLINEGEN
 70
     0
  9
$PSLTSCALE
 70
     0
  9
$TREEDEPTH
 70
  3020
  9
$ATTDIA
 70
     0
  9
$ATTREQ
 70
     1
  9
$BLIPMODE
 70
     1
  9
$COORDS
 70
     1
  9
$DRAGMODE
 70
     2
  9
$OSMODE
 70
     0
  9
$HANDLING
 70
     0
  9
$HANDSEED
  5
FC7F
  0
ENDSEC
  0
SECTION
  2
TABLES
  0
TABLE
  2
LTYPE
 70
     3
  0
LTYPE
  2
CONTINUOUS
 70
     0
  3
実線
 72
    65
 73
     0
 40
0.0
  0
LTYPE
  2
DASHDOT
 70
     0
  3
____ _ ____ _ ____ _ ____ _ ____ _ ____ _ ____
 72
    65
 73
     4
 40
5.5
 49
4.0
 49
-0.6
 49
0.3
 49
-0.6
  0
LTYPE
  2
DASHED
 70
     0
  3
-- -- -- -- -- -- -- -- -- -- -- -- -- -- --
 72
    65
 73
     2
 40
0.75
 49
0.5
 49
-0.25
  0
ENDTAB
  0
TABLE
  2
LAYER
 70
    12
  0
LAYER
  2
0
 70
     0
 62
     7
  6
CONTINUOUS
  0
LAYER
  2
BASIS
 70
     0
 62
     6
  6
DASHDOT
  0
LAYER
  2
OUTLINE
 70
     0
 62
     3
  6
CONTINUOUS
  0
LAYER
  2
DETAIL
 70
     0
 62
     5
  6
CONTINUOUS
  0
LAYER
  2
SIZE
 70
     0
 62
    30
  6
CONTINUOUS
  0
LAYER
  2
ARRANGE
 70
     0
 62
     1
  6
CONTINUOUS
  0
LAYER
  2
DEFPOINTS
 70
     0
 62
     7
  6
CONTINUOUS
  0
LAYER
  2
ETC
 70
     0
 62
    61
  6
CONTINUOUS
  0
LAYER
  2
FIX
 70
     0
 62
    11
  6
CONTINUOUS
  0
LAYER
  2
NOTE
 70
     0
 62
     4
  6
CONTINUOUS
  0
LAYER
  2
SERVICESPACE
 70
    64
 62
     2
  6
DASHDOT
  0
LAYER
  2
SYMBOLLINE
 70
    64
 62
    15
  6
CONTINUOUS
  0
ENDTAB
  0
TABLE
  2
STYLE
 70
     1
  0
STYLE
  2
STANDARD
 70
     0
 40
64.0
 41
0.9
 50
0.0
 71
     0
 42
64.0
  3
SIMPLEX.shx
  4
BIGFONT.shx
  0
ENDTAB
  0
TABLE
  2
APPID
 70
    20
  0
APPID
  2
ACAD
 70
     0
  0
APPID
  2
AUTOCAD_POSTSCRIPT_FIGURE
 70
     0
  0
APPID
  2
ACAD_EXEMPT_FROM_CAD_STANDARDS
 70
     0
  0
APPID
  2
ACAD_PSEXT
 70
     0
  0
APPID
  2
ACAUTHENVIRON
 70
     0
  0
APPID
  2
GENIUS_GENOENT_13
 70
     0
  0
APPID
  2
GENIUS_GENCFG_13
 70
     0
  0
APPID
  2
GENIUS_GENCFG0_13
 70
     0
  0
APPID
  2
GENIUS_GENCFG1_13
 70
     0
  0
APPID
  2
GENIUS_GENCFG2_13
 70
     0
  0
APPID
  2
GENIUS_GENCFG3_13
 70
     0
  0
APPID
  2
GENIUS_GENCFG4_13
 70
     0
  0
APPID
  2
GENIUS_GEVCFG0_13
 70
     0
  0
APPID
  2
CONTENTBLOCKICON
 70
     0
  0
APPID
  2
CONTENTBLOCKDESCRIPTION
 70
     0
  0
APPID
  2
ACAD_NAV_VCDISPLAY
 70
     0
  0
APPID
  2
ACAD_MLEADERVER
 70
     0
  0
APPID
  2
ACDBDYNAMICBLOCKTRUENAME
 70
     0
  0
APPID
  2
ACDBDYNAMICBLOCKGUID
 70
     0
  0
APPID
  2
ACAD_DSTYLE_DIMRADIAL_EXTENSION
 70
     0
  0
ENDTAB
  0
TABLE
  2
DIMSTYLE
 70
     1
  0
DIMSTYLE
  2
STANDARD
 70
     0
  3

  4

  5
_ORIGIN
  6

  7

 40
1.0
 41
12.0
 42
20.0
 43
200.0
 44
20.0
 45
0.0
 46
0.0
 47
0.0
 48
0.0
140
64.0
141
0.09
142
0.0
143
25.399999999999999
144
1.0
145
0.0
146
1.0
147
25.0
 71
     0
 72
     0
 73
     0
 74
     0
 75
     0
 76
     0
 77
     1
 78
     8
170
     0
171
     2
172
     1
173
     0
174
     1
175
     0
176
     7
177
     7
178
     7
  0
ENDTAB
  0
TABLE
  2
VIEW
 70
     1
  0
VIEW
  2
ALL
 70
     0
 40
4282.6198079999986
 10
0.0
 20
41.309904000000003
 41
5940.0
 11
0.0
 21
0.0
 31
1.0
 12
0.0
 22
0.0
 32
0.0
 42
50.0
 43
0.0
 44
0.0
 50
0.0
 71
     0
  0
ENDTAB
  0
TABLE
  2
UCS
 70
     0
  0
ENDTAB
  0
TABLE
  2
VPORT
 70
     1
  0
VPORT
  2
*ACTIVE
 70
     0
 10
0.0
 20
0.0
 11
1.0
 21
1.0
 12
438.00431731855781
 22
155.2505592760281
 13
0.0
 23
0.0
 14
1.0
 24
1.0
 15
0.0
 25
0.0
 16
0.0
 26
0.0
 36
1.0
 17
0.0
 27
0.0
 37
0.0
 40
1409.4435637907
 41
1.781285231116122
 42
50.0
 43
0.0
 44
0.0
 50
0.0
 51
0.0
 71
     0
 72
  1000
 73
     1
 74
     3
 75
     0
 76
     0
 77
     0
 78
     0
  0
ENDTAB
  0
ENDSEC
  0
SECTION
  2
BLOCKS
  0
BLOCK
  8
0
  2
_ORIGIN
 70
     0
 10
0.0
 20
0.0
 30
0.0
  3
_ORIGIN
  1
_ORIGIN
  0
CIRCLE
  8
0
  6
CONTINUOUS
 62
     7
 10
0.0
 20
0.0
 30
0.0
 40
0.5
  0
LINE
  8
0
  6
CONTINUOUS
 62
     7
 10
0.0
 20
0.0
 30
0.0
 11
-1.0
 21
0.0
 31
0.0
  0
ENDBLK
  8
0
  0
ENDSEC
  0
SECTION
  2
ENTITIES
  0
LINE
  8
DETAIL
  6
CONTINUOUS
 62
     5
 10
-453.99999999999409
 20
-245.49977104266739
 30
0.0
 11
-453.99999999999409
 21
-103.500228956003
 31
0.0
  0
LINE
  8
DETAIL
  6
CONTINUOUS
 62
     5
 10
-445.99999999999409
 20
-245.49999999999949
 30
0.0
 11
-445.99999999999409
 21
-103.50000000000411
 31
0.0
  0
LINE
  8
DETAIL
  6
CONTINUOUS
 62
     5
 10
-401.99999999999409
 20
-110.0000000000009
 30
0.0
 11
-401.99999999999409
 21
-65.000000000004547
 31
0.0
  0
LINE
  8
DETAIL
  6
CONTINUOUS
 62
     5
 10
-391.49999999999409
 20
-254.49999999999861
 30
0.0
 11
-391.49999999999409
 21
-115.0000000000018
 31
0.0
  0
LINE
  8
DETAIL
  6
CONTINUOUS
 62
     5
 10
-389.99999999999409
 20
-72.000000000000909
 30
0.0
 11
-389.99999999999409
 21
-65.000000000004547
 31
0.0
  0
LINE
  8
DETAIL
  6
CONTINUOUS
 62
     5
 10
-388.50000000000142
 20
-288.40000000000151
 30
0.0
 11
-388.50000000000142
 21
-287.90000000000049
 31
0.0
  0
LINE
  8
DETAIL
  6
CONTINUOUS
 62
     5
 10
-388.50000000000142
 20
-1.1000000000012731
 30
0.0
 11
-388.50000000000142
 21
-0.6000000000030923
 31
0.0
  0
LINE
  8
DETAIL
  6
CONTINUOUS
 62
     5
 10
-384.09999999999258
 20
-264.49999999599868
 30
0.0
 11
-384.09999999999258
 21
-115.0000000000018
 31
0.0
  0
LINE
  8
DETAIL
  6
CONTINUOUS
 62
     5
 10
-384.09999999999258
 20
-94.000000000000909
 30
0.0
 11
-384.09999999999258
 21
-88.000000000000909
 31
0.0
  0
LINE
  8
DETAIL
  6
CONTINUOUS
 62
     5
 10
-383.49999999999409
 20
-287.39999999999873
 30
0.0
 11
-383.49999999999409
 21
-88.000000000000909
 31
0.0
  0
LINE
  8
DETAIL
  6
CONTINUOUS
 62
     5
 10
-383.49999999999409
 20
-65.000000000004547
 30
0.0
 11
-383.49999999999409
 21
-1.599999999998545
 31
0.0
  0
LINE
  8
DETAIL
  6
CONTINUOUS
 62
     5
 10
-382.99999999999409
 20
-1.599999999998545
 30
0.0
 11
-382.99999999999409
 21
-2.6000000000021828
 31
0.0
  0
LINE
  8
DETAIL
  6
CONTINUOUS
 62
     5
 10
-382.99999999999409
 20
-287.39999999999873
 30
0.0
 11
-382.99999999999409
 21
-286.40000000000327
 31
0.0
  0
LINE
  8
DETAIL
  6
CONTINUOUS
 62
     5
 10
-381.50000000000142
 20
-288.40000000000151
 30
0.0
 11
-381.50000000000142
 21
-286.40000000000327
 31
0.0
  0
LINE
  8
DETAIL
  6
CONTINUOUS
 62
     5
 10
-381.50000000000142
 20
-2.6000000000021828
 30
0.0
 11
-381.50000000000142
 21
-0.6000000000030923
 31
0.0
  0
LINE
  8
DETAIL
  6
CONTINUOUS
 62
     5
 10
-381.39999999999549
 20
0.0
 30
0.0
 11
-381.39999999999549
 21
-0.6000000000030923
 31
0.0
  0
LINE
  8
DETAIL
  6
CONTINUOUS
 62
     5
 10
-381.39999999999549
 20
-289.00000000000091
 30
0.0
 11
-381.39999999999549
 21
-288.40000000000151
 31
0.0
  0
LINE
  8
DETAIL
  6
CONTINUOUS
 62
     5
 10
-376.99999999999409
 20
-61.200000000000728
 30
0.0
 11
-376.99999999999409
 21
-68.200000000000728
 31
0.0
  0
LINE
  8
DETAIL
  6
CONTINUOUS
 62
     5
 10
-382.96006823866759
 20
-1.056422128001032
 30
0.0
 11
-382.8250226733303
 21
-2.6000000000021828
 31
0.0
  0
LINE
  8
DETAIL
  6
CONTINUOUS
 62
     5
 10
-382.36235141866342
 20
-1.0041286826717619
 30
0.0
 11
-382.22273077066478
 21
-2.6000000000021828
 31
0.0
  0
LINE
  8
DETAIL
  6
CONTINUOUS
 62
     5
 10
-373.99999999999409
 20
-129.49999999999949
 30
0.0
 11
-373.99999999999409
 21
-219.50000000000051
 31
0.0
  0
LINE
  8
DETAIL
  6
CONTINUOUS
 62
     5
 10
-358.50000000000142
 20
-83.000000000002728
 30
0.0
 11
-358.50000000000142
 21
-61.200000000000728
 31
0.0
  0
LINE
  8
DETAIL
  6
CONTINUOUS
 62
     5
 10
-382.8250226733303
 20
-286.40000000000327
 30
0.0
 11
-382.93610918132748
 21
-287.66972459333192
 31
0.0
  0
LINE
  8
DETAIL
  6
CONTINUOUS
 62
     5
 10
-382.22273077066478
 20
-286.40000000000327
 30
0.0
 11
-382.33839236133781
 21
-287.72201803866659
 31
0.0
  0
LINE
  8
DETAIL
  6
CONTINUOUS
 62
     5
 10
-373.99999999999409
 20
-219.50000000000051
 30
0.0
 11
-333.00000000000142
 21
-260.49999999999858
 31
0.0
  0
LINE
  8
DETAIL
  6
CONTINUOUS
 62
     5
 10
-333.00000000000142
 20
-88.500000000003183
 30
0.0
 11
-373.99999999999409
 21
-129.49999999999949
 31
0.0
  0
LINE
  8
DETAIL
  6
CONTINUOUS
 62
     5
 10
-202.00000000000139
 20
-219.50000000000051
 30
0.0
 11
-202.00000000000139
 21
-129.49999999999949
 31
0.0
  0
LINE
  8
DETAIL
  6
CONTINUOUS
 62
     5
 10
-166.8839745960008
 20
-152.00000000000051
 30
0.0
 11
-166.8839745960008
 21
-164.39999999999921
 31
0.0
  0
LINE
  8
DETAIL
  6
CONTINUOUS
 62
     5
 10
-166.8839745960008
 20
-137.00000000000051
 30
0.0
 11
-166.8839745960008
 21
-124.6000000000017
 31
0.0
  0
LINE
  8
DETAIL
  6
CONTINUOUS
 62
     5
 10
-162.69202469333089
 20
-152.00000000000051
 30
0.0
 11
-162.69202469333089
 21
-164.39999999999921
 31
0.0
  0
LINE
  8
DETAIL
  6
CONTINUOUS
 62
     5
 10
-162.69202469333089
 20
-137.00000000000051
 30
0.0
 11
-162.69202469333089
 21
-124.6000000000017
 31
0.0
  0
LINE
  8
DETAIL
  6
CONTINUOUS
 62
     5
 10
-159.50000000000139
 20
-179.6299517013363
 30
0.0
 11
-159.50000000000139
 21
-173.9700482973353
 31
0.0
  0
LINE
  8
DETAIL
  6
CONTINUOUS
 62
     5
 10
-159.10797530666741
 20
-164.39999999999921
 30
0.0
 11
-159.10797530666741
 21
-152.00000000000051
 31
0.0
  0
LINE
  8
DETAIL
  6
CONTINUOUS
 62
     5
 10
-159.10797530666741
 20
-137.00000000000051
 30
0.0
 11
-159.10797530666741
 21
-124.6000000000017
 31
0.0
  0
LINE
  8
DETAIL
  6
CONTINUOUS
 62
     5
 10
-156.59999999999991
 20
-180.7999999999997
 30
0.0
 11
-156.59999999999991
 21
-172.7999999999997
 31
0.0
  0
LINE
  8
DETAIL
  6
CONTINUOUS
 62
     5
 10
-155.5999999999926
 20
-5.0000000000004547
 30
0.0
 11
-155.5999999999926
 21
-119.70000000000211
 31
0.0
  0
LINE
  8
DETAIL
  6
CONTINUOUS
 62
     5
 10
-155.5999999999926
 20
-121.8999999999992
 30
0.0
 11
-155.5999999999926
 21
-167.1000000000017
 31
0.0
  0
LINE
  8
DETAIL
  6
CONTINUOUS
 62
     5
 10
-155.5999999999926
 20
-169.2999999999997
 30
0.0
 11
-155.5999999999926
 21
-284.00000000000051
 31
0.0
  0
LINE
  8
DETAIL
  6
CONTINUOUS
 62
     5
 10
-154.59999999999991
 20
-4.0000000000013642
 30
0.0
 11
-154.59999999999991
 21
-119.70000000000211
 31
0.0
  0
LINE
  8
DETAIL
  6
CONTINUOUS
 62
     5
 10
-154.59999999999991
 20
-121.8999999999992
 30
0.0
 11
-154.59999999999991
 21
-167.1000000000017
 31
0.0
  0
LINE
  8
DETAIL
  6
CONTINUOUS
 62
     5
 10
-154.59999999999991
 20
-284.99999999999949
 30
0.0
 11
-154.59999999999991
 21
-169.2999999999997
 31
0.0
  0
LINE
  8
DETAIL
  6
CONTINUOUS
 62
     5
 10
-377.49999999999409
 20
-289.00000000000091
 30
0.0
 11
-375.799999999997
 21
-287.29999999999842
 31
0.0
  0
LINE
  8
DETAIL
  6
CONTINUOUS
 62
     5
 10
391.50000000000142
 20
-254.49999999999861
 30
0.0
 11
446.00000000000142
 21
-245.49999999999949
 31
0.0
  0
LINE
  8
DETAIL
  6
CONTINUOUS
 62
     5
 10
-391.49999999999409
 20
-254.49999999999861
 30
0.0
 11
-445.99999999999409
 21
-245.49999999999949
 31
0.0
  0
LINE
  8
DETAIL
  6
CONTINUOUS
 62
     5
 10
-377.49999999999409
 20
0.0
 30
0.0
 11
-375.799999999997
 21
-1.7000000000034561
 31
0.0
  0
LINE
  8
DETAIL
  6
CONTINUOUS
 62
     5
 10
-153.59999999999991
 20
-156.7999999999997
 30
0.0
 11
-153.59999999999991
 21
-167.1000000000017
 31
0.0
  0
LINE
  8
DETAIL
  6
CONTINUOUS
 62
     5
 10
-153.59999999999991
 20
-169.2999999999997
 30
0.0
 11
-153.59999999999991
 21
-170.80000000000061
 31
0.0
  0
LINE
  8
DETAIL
  6
CONTINUOUS
 62
     5
 10
-153.59999999999991
 20
-196.80000000000339
 30
0.0
 11
-153.59999999999991
 21
-188.6000000000017
 31
0.0
  0
LINE
  8
DETAIL
  6
CONTINUOUS
 62
     5
 10
-152.59999999999991
 20
-188.6000000000017
 30
0.0
 11
-152.59999999999991
 21
-190.59999999999991
 31
0.0
  0
LINE
  8
DETAIL
  6
CONTINUOUS
 62
     5
 10
-152.59999999999991
 20
-170.80000000000061
 30
0.0
 11
-152.59999999999991
 21
-159.79999999999879
 31
0.0
  0
LINE
  8
DETAIL
  6
CONTINUOUS
 62
     5
 10
-146.59999999999991
 20
-190.59999999999991
 30
0.0
 11
-146.59999999999991
 21
-193.80000000000061
 31
0.0
  0
LINE
  8
DETAIL
  6
CONTINUOUS
 62
     5
 10
-139.59999999999991
 20
-159.79999999999879
 30
0.0
 11
-139.59999999999991
 21
-190.59999999999991
 31
0.0
  0
LINE
  8
DETAIL
  6
CONTINUOUS
 62
     5
 10
389.14999999999549
 20
-289.00000000000091
 30
0.0
 11
383.73306493867273
 21
-289.00000000000091
 31
0.0
  0
LINE
  8
DETAIL
  6
CONTINUOUS
 62
     5
 10
-383.73306493866539
 20
-289.00000000000091
 30
0.0
 11
-389.14999999999549
 21
-289.00000000000091
 31
0.0
  0
LINE
  8
DETAIL
  6
CONTINUOUS
 62
     5
 10
-381.39999999999549
 20
-289.00000000000091
 30
0.0
 11
381.39999999999549
 21
-289.00000000000091
 31
0.0
  0
LINE
  8
DETAIL
  6
CONTINUOUS
 62
     5
 10
381.50000000000142
 20
-288.40000000000151
 30
0.0
 11
376.89999999999549
 21
-288.40000000000151
 31
0.0
  0
LINE
  8
DETAIL
  6
CONTINUOUS
 62
     5
 10
389.14999999998099
 20
-288.40000000000151
 30
0.0
 11
383.73306493867273
 21
-288.40000000000151
 31
0.0
  0
LINE
  8
DETAIL
  6
CONTINUOUS
 62
     5
 10
-383.73306493866539
 20
-288.40000000000151
 30
0.0
 11
-389.14999999997372
 21
-288.40000000000151
 31
0.0
  0
LINE
  8
DETAIL
  6
CONTINUOUS
 62
     5
 10
-381.50000000000142
 20
-288.40000000000151
 30
0.0
 11
-376.90000000000282
 21
-288.40000000000151
 31
0.0
  0
LINE
  8
DETAIL
  6
CONTINUOUS
 62
     5
 10
-389.14999999997372
 20
-287.90000000000242
 30
0.0
 11
-384.00000000000142
 21
-287.90000000000049
 31
0.0
  0
LINE
  8
DETAIL
  6
CONTINUOUS
 62
     5
 10
384.00000000000142
 20
-287.90000000000049
 30
0.0
 11
389.14999999998099
 21
-287.90000000000242
 31
0.0
  0
LINE
  8
DETAIL
  6
CONTINUOUS
 62
     5
 10
383.50000000000142
 20
-286.40000000000327
 30
0.0
 11
381.50000000000142
 21
-286.40000000000327
 31
0.0
  0
LINE
  8
DETAIL
  6
CONTINUOUS
 62
     5
 10
-383.49999999999409
 20
-286.40000000000327
 30
0.0
 11
-381.50000000000142
 21
-286.40000000000327
 31
0.0
  0
LINE
  8
DETAIL
  6
CONTINUOUS
 62
     5
 10
154.59999999999991
 20
-284.99999999999949
 30
0.0
 11
-154.59999999999991
 21
-284.99999999999949
 31
0.0
  0
LINE
  8
DETAIL
  6
CONTINUOUS
 62
     5
 10
155.59999999999951
 20
-284.00000000000051
 30
0.0
 11
-155.5999999999926
 21
-284.00000000000051
 31
0.0
  0
LINE
  8
DETAIL
  6
CONTINUOUS
 62
     5
 10
180.19999999999851
 20
-272.30000000000382
 30
0.0
 11
191.59999999999991
 21
-272.30000000000382
 31
0.0
  0
LINE
  8
DETAIL
  6
CONTINUOUS
 62
     5
 10
180.19999999999851
 20
-271.70000000000073
 30
0.0
 11
349.39999999999549
 21
-271.70000000000073
 31
0.0
  0
LINE
  8
DETAIL
  6
CONTINUOUS
 62
     5
 10
177.59999999999991
 20
-271.10000000000218
 30
0.0
 11
188.59999999999991
 21
-271.10000000000218
 31
0.0
  0
LINE
  8
DETAIL
  6
CONTINUOUS
 62
     5
 10
351.80000000000427
 20
-270.34999999999758
 30
0.0
 11
349.39999999999549
 21
-270.34999999999758
 31
0.0
  0
LINE
  8
DETAIL
  6
CONTINUOUS
 62
     5
 10
353.39999999999549
 20
-268.74999999999818
 30
0.0
 11
368.39999999999549
 21
-268.74999999999909
 31
0.0
  0
LINE
  8
DETAIL
  6
CONTINUOUS
 62
     5
 10
-202.00000000000139
 20
-129.49999999999949
 30
0.0
 11
-243.00000000000139
 21
-88.500000000003183
 31
0.0
  0
LINE
  8
DETAIL
  6
CONTINUOUS
 62
     5
 10
-119.2128409533339
 20
-124.69999999999941
 30
0.0
 11
-119.2128409533339
 21
-164.2999895199996
 31
0.0
  0
LINE
  8
DETAIL
  6
CONTINUOUS
 62
     5
 10
-117.01284095333681
 20
-124.69999999999941
 30
0.0
 11
-117.01284095333681
 21
-164.2999895199996
 31
0.0
  0
LINE
  8
DETAIL
  6
CONTINUOUS
 62
     5
 10
384.09999999999991
 20
-264.50000000000051
 30
0.0
 11
383.50000000000142
 21
-264.50000000000051
 31
0.0
  0
LINE
  8
DETAIL
  6
CONTINUOUS
 62
     5
 10
-384.09999999999258
 20
-264.50000000000051
 30
0.0
 11
-383.49999999999409
 21
-264.50000000000051
 31
0.0
  0
LINE
  8
DETAIL
  6
CONTINUOUS
 62
     5
 10
-333.00000000000142
 20
-260.49999999999858
 30
0.0
 11
-243.00000000000139
 21
-260.49999999999858
 31
0.0
  0
LINE
  8
DETAIL
  6
CONTINUOUS
 62
     5
 10
154.13068047600379
 20
-254.49999999999861
 30
0.0
 11
152.92014353066909
 21
-254.49999999999861
 31
0.0
  0
LINE
  8
DETAIL
  6
CONTINUOUS
 62
     5
 10
-384.69999999999851
 20
-254.49999999999861
 30
0.0
 11
-391.49999999999409
 21
-254.49999999999861
 31
0.0
  0
LINE
  8
DETAIL
  6
CONTINUOUS
 62
     5
 10
154.59999999999991
 20
-252.5000000000023
 30
0.0
 11
153.26747271599879
 21
-252.5000000000023
 31
0.0
  0
LINE
  8
DETAIL
  6
CONTINUOUS
 62
     5
 10
155.59999999999991
 20
-252.5000000000023
 30
0.0
 11
173.00000000000139
 21
-252.5000000000023
 31
0.0
  0
LINE
  8
DETAIL
  6
CONTINUOUS
 62
     5
 10
-445.99999999999409
 20
-245.49999999999949
 30
0.0
 11
-453.99999999999409
 21
-245.49999999999949
 31
0.0
  0
LINE
  8
DETAIL
  6
CONTINUOUS
 62
     5
 10
446.00000000000142
 20
-245.49999999999949
 30
0.0
 11
454.00000000000142
 21
-245.49999999999949
 31
0.0
  0
LINE
  8
DETAIL
  6
CONTINUOUS
 62
     5
 10
-243.00000000000139
 20
-260.49999999999858
 30
0.0
 11
-202.00000000000139
 21
-219.50000000000051
 31
0.0
  0
LINE
  8
DETAIL
  6
CONTINUOUS
 62
     5
 10
348.40000000000282
 20
-219.60000000000079
 30
0.0
 11
348.20000000000567
 21
-219.60000000000079
 31
0.0
  0
LINE
  8
DETAIL
  6
CONTINUOUS
 62
     5
 10
154.59999999999991
 20
-206.50000000000321
 30
0.0
 11
153.26747271599879
 21
-206.50000000000321
 31
0.0
  0
LINE
  8
DETAIL
  6
CONTINUOUS
 62
     5
 10
155.59999999999991
 20
-206.50000000000321
 30
0.0
 11
173.00000000000139
 21
-206.50000000000321
 31
0.0
  0
LINE
  8
DETAIL
  6
CONTINUOUS
 62
     5
 10
348.40000000000282
 20
-204.60000000000079
 30
0.0
 11
348.20000000000567
 21
-204.60000000000079
 31
0.0
  0
LINE
  8
DETAIL
  6
CONTINUOUS
 62
     5
 10
154.13068047600379
 20
-204.49999999999949
 30
0.0
 11
152.92014353066909
 21
-204.49999999999949
 31
0.0
  0
LINE
  8
DETAIL
  6
CONTINUOUS
 62
     5
 10
-154.59999999999991
 20
-196.80000000000339
 30
0.0
 11
-149.59999999999991
 21
-196.80000000000339
 31
0.0
  0
LINE
  8
DETAIL
  6
CONTINUOUS
 62
     5
 10
-139.59999999999991
 20
-190.59999999999991
 30
0.0
 11
-152.59999999999991
 21
-190.59999999999991
 31
0.0
  0
LINE
  8
DETAIL
  6
CONTINUOUS
 62
     5
 10
-152.59999999999991
 20
-189.60000000000079
 30
0.0
 11
-139.59999999999991
 21
-189.60000000000079
 31
0.0
  0
LINE
  8
DETAIL
  6
CONTINUOUS
 62
     5
 10
-152.59999999999991
 20
-188.6000000000017
 30
0.0
 11
-154.59999999999991
 21
-188.6000000000017
 31
0.0
  0
LINE
  8
DETAIL
  6
CONTINUOUS
 62
     5
 10
368.39999999999549
 20
-186.59999999999809
 30
0.0
 11
360.59999999999991
 21
-186.59999999999809
 31
0.0
  0
LINE
  8
DETAIL
  6
CONTINUOUS
 62
     5
 10
-156.59999999999991
 20
-179.30000000000251
 30
0.0
 11
-155.5999999999926
 21
-179.30000000000251
 31
0.0
  0
LINE
  8
DETAIL
  6
CONTINUOUS
 62
     5
 10
-156.59999999999991
 20
-174.30000000000061
 30
0.0
 11
-155.5999999999926
 21
-174.30000000000061
 31
0.0
  0
LINE
  8
DETAIL
  6
CONTINUOUS
 62
     5
 10
-156.59999999999991
 20
-180.7999999999997
 30
0.0
 11
-158.58715574265941
 21
-180.62614639866621
 31
0.0
  0
LINE
  8
BASIS
  6
DASHDOT
 62
     6
 10
0.0
 20
66.654182247996232
 30
0.0
 11
0.0
 21
-355.96666666666579
 31
0.0
  0
LINE
  8
DETAIL
  6
CONTINUOUS
 62
     5
 10
-156.59999999999991
 20
-172.7999999999997
 30
0.0
 11
-158.58715574265941
 21
-172.9738536000018
 31
0.0
  0
LINE
  8
DETAIL
  6
CONTINUOUS
 62
     5
 10
-152.59999999999991
 20
-170.80000000000061
 30
0.0
 11
-154.59999999999991
 21
-170.80000000000061
 31
0.0
  0
LINE
  8
DETAIL
  6
CONTINUOUS
 62
     5
 10
-121.70280433866129
 20
-169.2999999999997
 30
0.0
 11
-139.59999999999991
 21
-169.2999999999997
 31
0.0
  0
LINE
  8
DETAIL
  6
CONTINUOUS
 62
     5
 10
-152.5979103639925
 20
-169.2999999999997
 30
0.0
 11
-160.42471029466969
 21
-169.2999999999997
 31
0.0
  0
LINE
  8
DETAIL
  6
CONTINUOUS
 62
     5
 10
-121.70280433866129
 20
-167.1000000000017
 30
0.0
 11
-139.59999999999991
 21
-167.1000000000017
 31
0.0
  0
LINE
  8
DETAIL
  6
CONTINUOUS
 62
     5
 10
-152.5979103639925
 20
-167.1000000000017
 30
0.0
 11
-160.42471029466969
 21
-167.1000000000017
 31
0.0
  0
LINE
  8
DETAIL
  6
CONTINUOUS
 62
     5
 10
-166.8839745960008
 20
-164.39999999999921
 30
0.0
 11
-155.5999999999926
 21
-164.39999999999921
 31
0.0
  0
LINE
  8
DETAIL
  6
CONTINUOUS
 62
     5
 10
-142.59999999999991
 20
-156.7999999999997
 30
0.0
 11
-154.59999999999991
 21
-156.7999999999997
 31
0.0
  0
LINE
  8
BASIS
  6
DASHDOT
 62
     6
 10
479.14989222936993
 20
-144.49999999999861
 30
0.0
 11
-483.07471683403259
 21
-144.49999999999861
 31
0.0
  0
LINE
  8
DETAIL
  6
CONTINUOUS
 62
     5
 10
-166.8839745960008
 20
-124.6000000000017
 30
0.0
 11
-155.5999999999926
 21
-124.6000000000017
 31
0.0
  0
LINE
  8
DETAIL
  6
CONTINUOUS
 62
     5
 10
-160.42471029466969
 20
-121.8999999999992
 30
0.0
 11
-121.70280433866129
 21
-121.8999999999992
 31
0.0
  0
LINE
  8
DETAIL
  6
CONTINUOUS
 62
     5
 10
-160.42471029466969
 20
-119.70000000000211
 30
0.0
 11
-121.70280433866129
 21
-119.70000000000211
 31
0.0
  0
LINE
  8
DETAIL
  6
CONTINUOUS
 62
     5
 10
-383.49999999999409
 20
-115.0000000000018
 30
0.0
 11
-397.00000000000142
 21
-115.0000000000018
 31
0.0
  0
LINE
  8
DETAIL
  6
CONTINUOUS
 62
     5
 10
383.50000000000142
 20
-115.0000000000018
 30
0.0
 11
397.00000000000142
 21
-115.0000000000018
 31
0.0
  0
LINE
  8
DETAIL
  6
CONTINUOUS
 62
     5
 10
166.59999999999991
 20
-113.59999999999989
 30
0.0
 11
171.59999999999991
 21
-113.59999999999989
 31
0.0
  0
LINE
  8
DETAIL
  6
CONTINUOUS
 62
     5
 10
-445.99999999999409
 20
-103.50000000000411
 30
0.0
 11
-453.99999999999409
 21
-103.50000000000411
 31
0.0
  0
LINE
  8
DETAIL
  6
CONTINUOUS
 62
     5
 10
446.00000000000142
 20
-103.50000000000411
 30
0.0
 11
454.00000000000142
 21
-103.50000000000411
 31
0.0
  0
LINE
  8
DETAIL
  6
CONTINUOUS
 62
     5
 10
-383.52641510933017
 20
-94.000000000000909
 30
0.0
 11
-386.90000000000282
 21
-94.000000000000909
 31
0.0
  0
LINE
  8
DETAIL
  6
CONTINUOUS
 62
     5
 10
383.52641510933017
 20
-94.000000000000909
 30
0.0
 11
386.90000000000282
 21
-94.000000000000909
 31
0.0
  0
LINE
  8
DETAIL
  6
CONTINUOUS
 62
     5
 10
-243.00000000000139
 20
-88.500000000003183
 30
0.0
 11
-333.00000000000142
 21
-88.500000000003183
 31
0.0
  0
LINE
  8
DETAIL
  6
CONTINUOUS
 62
     5
 10
-363.49999999999409
 20
-88.000000000000909
 30
0.0
 11
-386.90000000000282
 21
-88.000000000000909
 31
0.0
  0
LINE
  8
DETAIL
  6
CONTINUOUS
 62
     5
 10
363.49999999999409
 20
-88.000000000000909
 30
0.0
 11
386.90000000000282
 21
-88.000000000000909
 31
0.0
  0
LINE
  8
DETAIL
  6
CONTINUOUS
 62
     5
 10
166.59999999999991
 20
-85.59999999999809
 30
0.0
 11
171.59999999999991
 21
-85.59999999999809
 31
0.0
  0
LINE
  8
DETAIL
  6
CONTINUOUS
 62
     5
 10
154.13068047600379
 20
-84.500000000001364
 30
0.0
 11
152.92014353066909
 21
-84.500000000001364
 31
0.0
  0
LINE
  8
DETAIL
  6
CONTINUOUS
 62
     5
 10
372.50000000000142
 20
-83.000000000002728
 30
0.0
 11
370.50000000000142
 21
-83.000000000002728
 31
0.0
  0
LINE
  8
DETAIL
  6
CONTINUOUS
 62
     5
 10
-372.49999999999409
 20
-83.000000000002728
 30
0.0
 11
-370.49999999999409
 21
-83.000000000002728
 31
0.0
  0
LINE
  8
DETAIL
  6
CONTINUOUS
 62
     5
 10
154.59999999999991
 20
-82.500000000003183
 30
0.0
 11
153.26747271599879
 21
-82.500000000003183
 31
0.0
  0
LINE
  8
DETAIL
  6
CONTINUOUS
 62
     5
 10
155.59999999999991
 20
-82.500000000003183
 30
0.0
 11
173.00000000000139
 21
-82.500000000003183
 31
0.0
  0
LINE
  8
DETAIL
  6
CONTINUOUS
 62
     5
 10
348.40000000000282
 20
-78.600000000001728
 30
0.0
 11
348.20000000000567
 21
-78.600000000001728
 31
0.0
  0
LINE
  8
DETAIL
  6
CONTINUOUS
 62
     5
 10
-370.49999999999409
 20
-77.000000000002728
 30
0.0
 11
-372.49999999999409
 21
-77.000000000002728
 31
0.0
  0
LINE
  8
DETAIL
  6
CONTINUOUS
 62
     5
 10
370.50000000000142
 20
-77.000000000002728
 30
0.0
 11
372.50000000000142
 21
-77.000000000002728
 31
0.0
  0
LINE
  8
DETAIL
  6
CONTINUOUS
 62
     5
 10
363.19999999999851
 20
-76.265506930670654
 30
0.0
 11
362.00000000000142
 21
-76.265506930670654
 31
0.0
  0
LINE
  8
DETAIL
  6
CONTINUOUS
 62
     5
 10
399.00000000000142
 20
-75.000000000002728
 30
0.0
 11
392.99999999999409
 21
-75.000000000002728
 31
0.0
  0
LINE
  8
DETAIL
  6
CONTINUOUS
 62
     5
 10
-399.00000000000142
 20
-75.000000000002728
 30
0.0
 11
-393.00000000000142
 21
-75.000000000002728
 31
0.0
  0
LINE
  8
DETAIL
  6
CONTINUOUS
 62
     5
 10
362.00000000000142
 20
-68.200000000000728
 30
0.0
 11
358.50000000000142
 21
-68.200000000000728
 31
0.0
  0
LINE
  8
DETAIL
  6
CONTINUOUS
 62
     5
 10
-389.99999999999409
 20
-68.200000000000728
 30
0.0
 11
-358.50000000000142
 21
-68.200000000000728
 31
0.0
  0
LINE
  8
DETAIL
  6
CONTINUOUS
 62
     5
 10
363.19999999999851
 20
-68.200000000000728
 30
0.0
 11
390.00000000000142
 21
-68.200000000000728
 31
0.0
  0
LINE
  8
DETAIL
  6
CONTINUOUS
 62
     5
 10
-376.99999999999409
 20
-65.000000000004547
 30
0.0
 11
-401.99999999999409
 21
-65.000000000004547
 31
0.0
  0
LINE
  8
DETAIL
  6
CONTINUOUS
 62
     5
 10
377.00000000000142
 20
-65.000000000004547
 30
0.0
 11
402.00000000000142
 21
-65.000000000004547
 31
0.0
  0
LINE
  8
DETAIL
  6
CONTINUOUS
 62
     5
 10
348.40000000000282
 20
-63.600000000001728
 30
0.0
 11
348.20000000000567
 21
-63.600000000001728
 31
0.0
  0
LINE
  8
DETAIL
  6
CONTINUOUS
 62
     5
 10
-361.49999999999409
 20
-58.199999999998909
 30
0.0
 11
-373.99999999999409
 21
-58.199999999998909
 31
0.0
  0
LINE
  8
DETAIL
  6
CONTINUOUS
 62
     5
 10
361.50000000000142
 20
-58.199999999998909
 30
0.0
 11
362.00000000000142
 21
-58.199999999998909
 31
0.0
  0
LINE
  8
DETAIL
  6
CONTINUOUS
 62
     5
 10
363.19999999999851
 20
-58.199999999998909
 30
0.0
 11
373.99999999999409
 21
-58.199999999998909
 31
0.0
  0
LINE
  8
DETAIL
  6
CONTINUOUS
 62
     5
 10
356.39999999999549
 20
-52.599999999999909
 30
0.0
 11
364.39999999999549
 21
-52.599999999999909
 31
0.0
  0
LINE
  8
DETAIL
  6
CONTINUOUS
 62
     5
 10
-401.99999999999409
 20
-96.250000000000455
 30
0.0
 11
-445.99999999999409
 21
-103.50000000000411
 31
0.0
  0
LINE
  8
DETAIL
  6
CONTINUOUS
 62
     5
 10
364.39999999999549
 20
-43.800000000001553
 30
0.0
 11
372.00000000000142
 21
-43.800000000001553
 31
0.0
  0
LINE
  8
DETAIL
  6
CONTINUOUS
 62
     5
 10
356.39999999999549
 20
-42.599999999999909
 30
0.0
 11
372.00000000000142
 21
-42.599999999999909
 31
0.0
  0
LINE
  8
DETAIL
  6
CONTINUOUS
 62
     5
 10
154.59999999999991
 20
-36.500000000002267
 30
0.0
 11
153.26747271599879
 21
-36.500000000002267
 31
0.0
  0
LINE
  8
DETAIL
  6
CONTINUOUS
 62
     5
 10
155.59999999999991
 20
-36.500000000002267
 30
0.0
 11
173.00000000000139
 21
-36.500000000002267
 31
0.0
  0
LINE
  8
DETAIL
  6
CONTINUOUS
 62
     5
 10
154.13068047600379
 20
-34.499999999999552
 30
0.0
 11
152.92014353066909
 21
-34.499999999999552
 31
0.0
  0
LINE
  8
DETAIL
  6
CONTINUOUS
 62
     5
 10
353.39999999999549
 20
-14.25
 30
0.0
 11
368.39999999999549
 21
-14.25
 31
0.0
  0
LINE
  8
DETAIL
  6
CONTINUOUS
 62
     5
 10
402.00000000000142
 20
-96.250000000000455
 30
0.0
 11
446.00000000000142
 21
-103.50000000000411
 31
0.0
  0
LINE
  8
DETAIL
  6
CONTINUOUS
 62
     5
 10
174.8679491919988
 20
-191.06410161466781
 30
0.0
 11
176.59999999999991
 21
-194.06410161467059
 31
0.0
  0
LINE
  8
DETAIL
  6
CONTINUOUS
 62
     5
 10
150.8361684186689
 20
-251.49999999999949
 30
0.0
 11
150.8361684186689
 21
-207.5000000000023
 31
0.0
  0
LINE
  8
DETAIL
  6
CONTINUOUS
 62
     5
 10
150.8361684186689
 20
-81.500000000003183
 30
0.0
 11
150.8361684186689
 21
-37.500000000001357
 31
0.0
  0
LINE
  8
DETAIL
  6
CONTINUOUS
 62
     5
 10
153.26747271599879
 20
-34.499999999999552
 30
0.0
 11
153.26747271599879
 21
-36.500000000002267
 31
0.0
  0
LINE
  8
DETAIL
  6
CONTINUOUS
 62
     5
 10
153.26747271599879
 20
-204.49999999999949
 30
0.0
 11
153.26747271599879
 21
-206.50000000000321
 31
0.0
  0
LINE
  8
DETAIL
  6
CONTINUOUS
 62
     5
 10
153.26747271599879
 20
-254.49999999999861
 30
0.0
 11
153.26747271599879
 21
-252.5000000000023
 31
0.0
  0
LINE
  8
DETAIL
  6
CONTINUOUS
 62
     5
 10
153.26747271599879
 20
-84.500000000001364
 30
0.0
 11
153.26747271599879
 21
-82.500000000003183
 31
0.0
  0
LINE
  8
DETAIL
  6
CONTINUOUS
 62
     5
 10
154.13068047600379
 20
-34.499999999999552
 30
0.0
 11
154.13068047600379
 21
-36.500000000002267
 31
0.0
  0
LINE
  8
DETAIL
  6
CONTINUOUS
 62
     5
 10
154.13068047600379
 20
-204.49999999999949
 30
0.0
 11
154.13068047600379
 21
-206.50000000000321
 31
0.0
  0
LINE
  8
DETAIL
  6
CONTINUOUS
 62
     5
 10
154.13068047600379
 20
-254.49999999999861
 30
0.0
 11
154.13068047600379
 21
-252.5000000000023
 31
0.0
  0
LINE
  8
DETAIL
  6
CONTINUOUS
 62
     5
 10
154.13068047600379
 20
-84.500000000001364
 30
0.0
 11
154.13068047600379
 21
-82.500000000003183
 31
0.0
  0
LINE
  8
DETAIL
  6
CONTINUOUS
 62
     5
 10
154.59999999999991
 20
-284.99999999999949
 30
0.0
 11
154.59999999999991
 21
-4.0000000000013642
 31
0.0
  0
LINE
  8
DETAIL
  6
CONTINUOUS
 62
     5
 10
155.59999999999991
 20
-284.00000000000051
 30
0.0
 11
155.59999999999991
 21
-5.0000000000004547
 31
0.0
  0
LINE
  8
DETAIL
  6
CONTINUOUS
 62
     5
 10
159.19999999999851
 20
-252.5000000000023
 30
0.0
 11
159.19999999999851
 21
-206.50000000000321
 31
0.0
  0
LINE
  8
DETAIL
  6
CONTINUOUS
 62
     5
 10
159.19999999999851
 20
-82.500000000003183
 30
0.0
 11
159.19999999999851
 21
-36.500000000002267
 31
0.0
  0
LINE
  8
DETAIL
  6
CONTINUOUS
 62
     5
 10
176.59999999999991
 20
-151.13589838400051
 30
0.0
 11
174.8679491919988
 21
-154.1358983839996
 31
0.0
  0
LINE
  8
DETAIL
  6
CONTINUOUS
 62
     5
 10
349.39999999999549
 20
-12.650000000001461
 30
0.0
 11
351.80000000000427
 21
-12.650000000001461
 31
0.0
  0
LINE
  8
DETAIL
  6
CONTINUOUS
 62
     5
 10
177.59999999999991
 20
-11.900000000001461
 30
0.0
 11
188.59999999999991
 21
-11.900000000001461
 31
0.0
  0
LINE
  8
DETAIL
  6
CONTINUOUS
 62
     5
 10
349.39999999999549
 20
-11.300000000001999
 30
0.0
 11
180.19999999999851
 21
-11.300000000001999
 31
0.0
  0
LINE
  8
DETAIL
  6
CONTINUOUS
 62
     5
 10
180.19999999999851
 20
-10.70000000000346
 30
0.0
 11
191.59999999999991
 21
-10.70000000000346
 31
0.0
  0
LINE
  8
DETAIL
  6
CONTINUOUS
 62
     5
 10
-155.5999999999926
 20
-5.0000000000004547
 30
0.0
 11
155.59999999999951
 21
-5.0000000000004547
 31
0.0
  0
LINE
  8
DETAIL
  6
CONTINUOUS
 62
     5
 10
-154.59999999999991
 20
-4.0000000000013642
 30
0.0
 11
154.59999999999991
 21
-4.0000000000013642
 31
0.0
  0
LINE
  8
DETAIL
  6
CONTINUOUS
 62
     5
 10
383.50000000000142
 20
-2.6000000000021828
 30
0.0
 11
381.50000000000142
 21
-2.6000000000021828
 31
0.0
  0
LINE
  8
DETAIL
  6
CONTINUOUS
 62
     5
 10
-383.49999999999409
 20
-2.6000000000021828
 30
0.0
 11
-381.50000000000142
 21
-2.6000000000021828
 31
0.0
  0
LINE
  8
DETAIL
  6
CONTINUOUS
 62
     5
 10
-384.00000000000142
 20
-1.1000000000012731
 30
0.0
 11
-389.14999999997372
 21
-1.1000000000030921
 31
0.0
  0
LINE
  8
DETAIL
  6
CONTINUOUS
 62
     5
 10
384.00000000000142
 20
-1.1000000000012731
 30
0.0
 11
389.14999999998099
 21
-1.1000000000030921
 31
0.0
  0
LINE
  8
DETAIL
  6
CONTINUOUS
 62
     5
 10
381.50000000000142
 20
-0.6000000000030923
 30
0.0
 11
376.89999999998832
 21
-0.6000000000030923
 31
0.0
  0
LINE
  8
DETAIL
  6
CONTINUOUS
 62
     5
 10
-389.14999999997372
 20
-0.6000000000030923
 30
0.0
 11
-383.45816558666547
 21
-0.6000000000030923
 31
0.0
  0
LINE
  8
DETAIL
  6
CONTINUOUS
 62
     5
 10
-381.50000000000142
 20
-0.6000000000030923
 30
0.0
 11
-376.90000000000282
 21
-0.6000000000030923
 31
0.0
  0
LINE
  8
DETAIL
  6
CONTINUOUS
 62
     5
 10
383.45816558667269
 20
-0.6000000000030923
 30
0.0
 11
389.14999999998099
 21
-0.6000000000030923
 31
0.0
  0
LINE
  8
DETAIL
  6
CONTINUOUS
 62
     5
 10
-389.14999999999549
 20
-0.000000000003638
 30
0.0
 11
-383.45816558666547
 21
0.0
 31
0.0
  0
LINE
  8
DETAIL
  6
CONTINUOUS
 62
     5
 10
-381.39999999999549
 20
0.0
 30
0.0
 11
381.39999999999549
 21
0.0
 31
0.0
  0
LINE
  8
DETAIL
  6
CONTINUOUS
 62
     5
 10
383.45816558667269
 20
0.0
 30
0.0
 11
389.14999999999549
 21
-0.000000000003638
 31
0.0
  0
LINE
  8
DETAIL
  6
CONTINUOUS
 62
     5
 10
174.8679491919988
 20
-135.06410161466511
 30
0.0
 11
176.59999999999991
 21
-138.06410161466781
 31
0.0
  0
LINE
  8
DETAIL
  6
CONTINUOUS
 62
     5
 10
163.60000000000721
 20
-88.600000000000819
 30
0.0
 11
163.60000000000721
 21
-110.6000000000017
 31
0.0
  0
LINE
  8
DETAIL
  6
CONTINUOUS
 62
     5
 10
173.00000000000139
 20
-252.5000000000023
 30
0.0
 11
173.00000000000139
 21
-206.50000000000321
 31
0.0
  0
LINE
  8
DETAIL
  6
CONTINUOUS
 62
     5
 10
173.00000000000139
 20
-82.500000000003183
 30
0.0
 11
173.00000000000139
 21
-36.500000000002267
 31
0.0
  0
LINE
  8
DETAIL
  6
CONTINUOUS
 62
     5
 10
174.59999999999991
 20
-14.90000000000418
 30
0.0
 11
174.59999999999991
 21
-82.599999999999909
 31
0.0
  0
LINE
  8
DETAIL
  6
CONTINUOUS
 62
     5
 10
174.59999999999991
 20
-268.10000000000309
 30
0.0
 11
174.59999999999991
 21
-211.1358983840023
 31
0.0
  0
LINE
  8
DETAIL
  6
CONTINUOUS
 62
     5
 10
174.59999999999991
 20
-190.06410161466511
 30
0.0
 11
174.59999999999991
 21
-155.13589838400321
 31
0.0
  0
LINE
  8
DETAIL
  6
CONTINUOUS
 62
     5
 10
174.59999999999991
 20
-134.06410161466971
 30
0.0
 11
174.59999999999991
 21
-116.599999999999
 31
0.0
  0
LINE
  8
DETAIL
  6
CONTINUOUS
 62
     5
 10
176.59999999999991
 20
-138.06410161466781
 30
0.0
 11
176.59999999999991
 21
-151.13589838400051
 31
0.0
  0
LINE
  8
DETAIL
  6
CONTINUOUS
 62
     5
 10
176.59999999999991
 20
-194.06410161467059
 30
0.0
 11
176.59999999999991
 21
-207.13589838400051
 31
0.0
  0
LINE
  8
DETAIL
  6
CONTINUOUS
 62
     5
 10
179.00000000000139
 20
-271.10000000000218
 30
0.0
 11
179.00000000000139
 21
-11.900000000001461
 31
0.0
  0
LINE
  8
DETAIL
  6
CONTINUOUS
 62
     5
 10
180.19999999999851
 20
-271.10000000000218
 30
0.0
 11
180.19999999999851
 21
-271.70000000000073
 31
0.0
  0
LINE
  8
DETAIL
  6
CONTINUOUS
 62
     5
 10
180.19999999999851
 20
-11.900000000001461
 30
0.0
 11
180.19999999999851
 21
-11.300000000001999
 31
0.0
  0
LINE
  8
DETAIL
  6
CONTINUOUS
 62
     5
 10
191.59999999999991
 20
-14.90000000000418
 30
0.0
 11
191.59999999999991
 21
-268.10000000000309
 31
0.0
  0
LINE
  8
DETAIL
  6
CONTINUOUS
 62
     5
 10
191.59999999999991
 20
-271.70000000000073
 30
0.0
 11
191.59999999999991
 21
-272.30000000000382
 31
0.0
  0
LINE
  8
DETAIL
  6
CONTINUOUS
 62
     5
 10
191.59999999999991
 20
-11.300000000001999
 30
0.0
 11
191.59999999999991
 21
-10.70000000000346
 31
0.0
  0
LINE
  8
DETAIL
  6
CONTINUOUS
 62
     5
 10
176.59999999999991
 20
-207.13589838400051
 30
0.0
 11
174.8679491919988
 21
-210.13589838400321
 31
0.0
  0
LINE
  8
DETAIL
  6
CONTINUOUS
 62
     5
 10
377.49999999999409
 20
0.0
 30
0.0
 11
375.799999999997
 21
-1.7000000000034561
 31
0.0
  0
LINE
  8
DETAIL
  6
CONTINUOUS
 62
     5
 10
377.49999999999409
 20
-289.00000000000091
 30
0.0
 11
375.799999999997
 21
-287.29999999999842
 31
0.0
  0
LINE
  8
DETAIL
  6
CONTINUOUS
 62
     5
 10
371.40000000000282
 20
-189.60000000000079
 30
0.0
 11
368.39999999999549
 21
-186.59999999999809
 31
0.0
  0
LINE
  8
DETAIL
  6
CONTINUOUS
 62
     5
 10
348.20000000000567
 20
-219.60000000000079
 30
0.0
 11
348.20000000000567
 21
-204.60000000000079
 31
0.0
  0
LINE
  8
DETAIL
  6
CONTINUOUS
 62
     5
 10
348.20000000000567
 20
-78.600000000001728
 30
0.0
 11
348.20000000000567
 21
-63.600000000001728
 31
0.0
  0
LINE
  8
DETAIL
  6
CONTINUOUS
 62
     5
 10
349.39999999999549
 20
-271.70000000000073
 30
0.0
 11
349.39999999999549
 21
-220.60000000000079
 31
0.0
  0
LINE
  8
DETAIL
  6
CONTINUOUS
 62
     5
 10
349.39999999999549
 20
-203.60000000000079
 30
0.0
 11
349.39999999999549
 21
-79.600000000000819
 31
0.0
  0
LINE
  8
DETAIL
  6
CONTINUOUS
 62
     5
 10
349.39999999999549
 20
-62.600000000002638
 30
0.0
 11
349.39999999999549
 21
-11.300000000001999
 31
0.0
  0
LINE
  8
DETAIL
  6
CONTINUOUS
 62
     5
 10
368.39999999999549
 20
-268.74999999999909
 30
0.0
 11
371.40000000000282
 21
-265.75
 31
0.0
  0
LINE
  8
DETAIL
  6
CONTINUOUS
 62
     5
 10
371.40000000000282
 20
-17.250000000002728
 30
0.0
 11
368.39999999999549
 21
-14.25
 31
0.0
  0
LINE
  8
DETAIL
  6
CONTINUOUS
 62
     5
 10
382.33839236133781
 20
-287.72201803866659
 30
0.0
 11
382.22273077066478
 21
-286.40000000000327
 31
0.0
  0
LINE
  8
DETAIL
  6
CONTINUOUS
 62
     5
 10
382.93610918133481
 20
-287.66972459333192
 30
0.0
 11
382.8250226733303
 21
-286.40000000000327
 31
0.0
  0
LINE
  8
DETAIL
  6
CONTINUOUS
 62
     5
 10
353.39999999999549
 20
-268.74999999999909
 30
0.0
 11
353.39999999999549
 21
-14.25
 31
0.0
  0
LINE
  8
DETAIL
  6
CONTINUOUS
 62
     5
 10
354.52449979999938
 20
-46.97036714000069
 30
0.0
 11
354.52449979999938
 21
-45.52963285866872
 31
0.0
  0
LINE
  8
DETAIL
  6
CONTINUOUS
 62
     5
 10
356.39999999999549
 20
-22.750000000001361
 30
0.0
 11
356.39999999999549
 21
-42.750000000002267
 31
0.0
  0
LINE
  8
DETAIL
  6
CONTINUOUS
 62
     5
 10
356.39999999999549
 20
-49.750000000002267
 30
0.0
 11
356.39999999999549
 21
-69.750000000004093
 31
0.0
  0
LINE
  8
DETAIL
  6
CONTINUOUS
 62
     5
 10
356.39999999999549
 20
-220.44999999999939
 30
0.0
 11
356.39999999999549
 21
-240.4500000000003
 31
0.0
  0
LINE
  8
DETAIL
  6
CONTINUOUS
 62
     5
 10
356.50000000000142
 20
-42.599999999999909
 30
0.0
 11
356.50000000000142
 21
-52.599999999999909
 31
0.0
  0
LINE
  8
DETAIL
  6
CONTINUOUS
 62
     5
 10
357.59999999999991
 20
-183.599999999999
 30
0.0
 11
357.59999999999991
 21
-64.600000000001728
 31
0.0
  0
LINE
  8
DETAIL
  6
CONTINUOUS
 62
     5
 10
358.50000000000142
 20
-83.000000000002728
 30
0.0
 11
358.50000000000142
 21
-61.200000000000728
 31
0.0
  0
LINE
  8
DETAIL
  6
CONTINUOUS
 62
     5
 10
360.799999999997
 20
-52.599999999999909
 30
0.0
 11
360.799999999997
 21
-42.599999999999909
 31
0.0
  0
LINE
  8
DETAIL
  6
CONTINUOUS
 62
     5
 10
362.00000000000142
 20
-33.800000000003372
 30
0.0
 11
362.00000000000142
 21
-42.599999999999909
 31
0.0
  0
LINE
  8
DETAIL
  6
CONTINUOUS
 62
     5
 10
362.00000000000142
 20
-76.265506930670654
 30
0.0
 11
362.00000000000142
 21
-52.599999999999909
 31
0.0
  0
LINE
  8
DETAIL
  6
CONTINUOUS
 62
     5
 10
363.19999999999851
 20
-33.800000000003372
 30
0.0
 11
363.19999999999851
 21
-42.599999999999909
 31
0.0
  0
LINE
  8
DETAIL
  6
CONTINUOUS
 62
     5
 10
363.19999999999851
 20
-52.599999999999909
 30
0.0
 11
363.19999999999851
 21
-76.265506930670654
 31
0.0
  0
LINE
  8
DETAIL
  6
CONTINUOUS
 62
     5
 10
364.39999999999549
 20
-42.599999999999909
 30
0.0
 11
364.39999999999549
 21
-52.599999999999909
 31
0.0
  0
LINE
  8
DETAIL
  6
CONTINUOUS
 62
     5
 10
371.40000000000282
 20
-17.250000000002728
 30
0.0
 11
371.40000000000282
 21
-23.828730512001581
 31
0.0
  0
LINE
  8
DETAIL
  6
CONTINUOUS
 62
     5
 10
371.40000000000282
 20
-25.032329914668029
 30
0.0
 11
371.40000000000282
 21
-42.599999999999909
 31
0.0
  0
LINE
  8
DETAIL
  6
CONTINUOUS
 62
     5
 10
371.40000000000282
 20
-43.800000000001553
 30
0.0
 11
371.40000000000282
 21
-58.199999999998909
 31
0.0
  0
LINE
  8
DETAIL
  6
CONTINUOUS
 62
     5
 10
371.40000000000282
 20
-189.60000000000079
 30
0.0
 11
371.40000000000282
 21
-265.75
 31
0.0
  0
LINE
  8
DETAIL
  6
CONTINUOUS
 62
     5
 10
377.00000000000142
 20
-61.200000000000728
 30
0.0
 11
377.00000000000142
 21
-68.200000000000728
 31
0.0
  0
LINE
  8
DETAIL
  6
CONTINUOUS
 62
     5
 10
381.39999999999549
 20
0.0
 30
0.0
 11
381.39999999999549
 21
-0.6000000000030923
 31
0.0
  0
LINE
  8
DETAIL
  6
CONTINUOUS
 62
     5
 10
381.39999999999549
 20
-289.00000000000091
 30
0.0
 11
381.39999999999549
 21
-288.40000000000151
 31
0.0
  0
LINE
  8
DETAIL
  6
CONTINUOUS
 62
     5
 10
381.50000000000142
 20
-0.6000000000030923
 30
0.0
 11
381.50000000000142
 21
-2.6000000000021828
 31
0.0
  0
LINE
  8
DETAIL
  6
CONTINUOUS
 62
     5
 10
381.50000000000142
 20
-288.40000000000151
 30
0.0
 11
381.50000000000142
 21
-286.40000000000327
 31
0.0
  0
LINE
  8
DETAIL
  6
CONTINUOUS
 62
     5
 10
383.00000000000142
 20
-1.599999999998545
 30
0.0
 11
383.00000000000142
 21
-2.6000000000021828
 31
0.0
  0
LINE
  8
DETAIL
  6
CONTINUOUS
 62
     5
 10
383.00000000000142
 20
-287.39999999999873
 30
0.0
 11
383.00000000000142
 21
-286.40000000000327
 31
0.0
  0
LINE
  8
DETAIL
  6
CONTINUOUS
 62
     5
 10
383.50000000000142
 20
-287.39999999999873
 30
0.0
 11
383.50000000000142
 21
-88.000000000000909
 31
0.0
  0
LINE
  8
DETAIL
  6
CONTINUOUS
 62
     5
 10
383.50000000000142
 20
-65.000000000004547
 30
0.0
 11
383.50000000000142
 21
-1.599999999998545
 31
0.0
  0
LINE
  8
DETAIL
  6
CONTINUOUS
 62
     5
 10
384.09999999999991
 20
-88.000000000000909
 30
0.0
 11
384.09999999999991
 21
-94.000000000000909
 31
0.0
  0
LINE
  8
DETAIL
  6
CONTINUOUS
 62
     5
 10
384.09999999999991
 20
-264.49999999599868
 30
0.0
 11
384.09999999999991
 21
-115.0000000000018
 31
0.0
  0
LINE
  8
DETAIL
  6
CONTINUOUS
 62
     5
 10
382.22273077066478
 20
-2.6000000000021828
 30
0.0
 11
382.36235141866342
 21
-1.0041286826717619
 31
0.0
  0
LINE
  8
DETAIL
  6
CONTINUOUS
 62
     5
 10
382.8250226733303
 20
-2.6000000000021828
 30
0.0
 11
382.96006823733609
 21
-1.056422128001032
 31
0.0
  0
LINE
  8
DETAIL
  6
CONTINUOUS
 62
     5
 10
385.50000000000142
 20
-287.30000000000109
 30
0.0
 11
385.50000000000142
 21
-288.40000000000151
 31
0.0
  0
LINE
  8
DETAIL
  6
CONTINUOUS
 62
     5
 10
388.50000000000142
 20
-0.6000000000030923
 30
0.0
 11
388.50000000000142
 21
-1.1000000000012731
 31
0.0
  0
LINE
  8
DETAIL
  6
CONTINUOUS
 62
     5
 10
388.50000000000142
 20
-287.90000000000049
 30
0.0
 11
388.50000000000142
 21
-288.40000000000151
 31
0.0
  0
LINE
  8
DETAIL
  6
CONTINUOUS
 62
     5
 10
390.00000000000142
 20
-72.000000000000909
 30
0.0
 11
390.00000000000142
 21
-65.000000000004547
 31
0.0
  0
LINE
  8
DETAIL
  6
CONTINUOUS
 62
     5
 10
391.50000000000142
 20
-115.0000000000018
 30
0.0
 11
391.50000000000142
 21
-254.49999999999861
 31
0.0
  0
LINE
  8
DETAIL
  6
CONTINUOUS
 62
     5
 10
402.00000000000142
 20
-110.0000000000009
 30
0.0
 11
402.00000000000142
 21
-65.000000000004547
 31
0.0
  0
LINE
  8
DETAIL
  6
CONTINUOUS
 62
     5
 10
446.00000000000142
 20
-245.49999999999949
 30
0.0
 11
446.00000000000142
 21
-103.50000000000411
 31
0.0
  0
LINE
  8
DETAIL
  6
CONTINUOUS
 62
     5
 10
454.00000000000142
 20
-245.49977104266739
 30
0.0
 11
454.00000000000142
 21
-103.500228956003
 31
0.0
  0
ARC
  8
DETAIL
  6
CONTINUOUS
 62
     5
 10
-160.90000000000279
 20
-152.00000000000051
 30
0.0
 40
5.9839745959999817
 50
27.648624859197479
 51
180.0
  0
CIRCLE
  8
DETAIL
  6
CONTINUOUS
 62
     5
 10
-348.81118318266232
 20
-235.31118318133531
 30
0.0
 40
4.6999999999999842
  0
CIRCLE
  8
DETAIL
  6
CONTINUOUS
 62
     5
 10
-227.18881681866469
 20
-235.31118318133531
 30
0.0
 40
4.6999999999999842
  0
CIRCLE
  8
DETAIL
  6
CONTINUOUS
 62
     5
 10
-146.09999999999991
 20
-163.30000000000251
 30
0.0
 40
4.6999999999999842
  0
ARC
  8
DETAIL
  6
CONTINUOUS
 62
     5
 10
-149.59999999999991
 20
-193.80000000000061
 30
0.0
 40
2.9999999999999898
 50
270.0
 51
0.0
  0
ARC
  8
DETAIL
  6
CONTINUOUS
 62
     5
 10
-149.59999999999991
 20
-159.79999999999879
 30
0.0
 40
2.9999999999999898
 50
90.0
 51
180.0
  0
ARC
  8
DETAIL
  6
CONTINUOUS
 62
     5
 10
-142.59999999999991
 20
-159.79999999999879
 30
0.0
 40
2.9999999999999898
 50
0.0
 51
90.0
  0
ARC
  8
DETAIL
  6
CONTINUOUS
 62
     5
 10
-154.0052631573358
 20
-166.80000000000251
 30
0.0
 40
2.5947368426666579
 50
127.93006734277211
 51
186.65105007010379
  0
ARC
  8
DETAIL
  6
CONTINUOUS
 62
     5
 10
-154.0052631573358
 20
-186.80000000000061
 30
0.0
 40
2.5947368426666579
 50
127.9300673435565
 51
232.06993265644351
  0
ARC
  8
DETAIL
  6
CONTINUOUS
 62
     5
 10
-160.90000000000279
 20
-169.400000000001
 30
0.0
 40
2.4499999999999922
 50
113.0167487093548
 51
2.3436694810958421
  0
ARC
  8
DETAIL
  6
CONTINUOUS
 62
     5
 10
-160.90000000000279
 20
-152.00000000000051
 30
0.0
 40
1.7920246933333279
 50
0.0
 51
180.0
  0
ARC
  8
DETAIL
  6
CONTINUOUS
 62
     5
 10
-383.73306493866539
 20
-287.60000000000127
 30
0.0
 40
1.3999999999999959
 50
270.0
 51
354.99999999999989
  0
ARC
  8
DETAIL
  6
CONTINUOUS
 62
     5
 10
-158.50000000000139
 20
-173.9700482973353
 30
0.0
 40
0.9999999999999969
 50
95.000000008133938
 51
180.0
  0
ARC
  8
DETAIL
  6
CONTINUOUS
 62
     5
 10
-158.50000000000139
 20
-179.6299517013363
 30
0.0
 40
0.9999999999999969
 50
180.0
 51
264.9999999918661
  0
ARC
  8
DETAIL
  6
CONTINUOUS
 62
     5
 10
-384.00000000000142
 20
-287.39999999999873
 30
0.0
 40
0.9999999999999969
 50
270.0
 51
0.0
  0
ARC
  8
DETAIL
  6
CONTINUOUS
 62
     5
 10
-383.73306493866539
 20
-287.60000000000127
 30
0.0
 40
0.7999999999999975
 50
270.0
 51
355.00000000010488
  0
ARC
  8
DETAIL
  6
CONTINUOUS
 62
     5
 10
-384.69999999999851
 20
-255.10000000000079
 30
0.0
 40
0.5999999999999982
 50
0.0
 51
90.0
  0
ARC
  8
DETAIL
  6
CONTINUOUS
 62
     5
 10
-384.00000000000142
 20
-287.39999999999873
 30
0.0
 40
0.4999999999999984
 50
270.0
 51
0.0
  0
ARC
  8
DETAIL
  6
CONTINUOUS
 62
     5
 10
-160.90000000000279
 20
-137.00000000000051
 30
0.0
 40
5.9839745959999817
 50
180.0
 51
332.35137514080247
  0
ARC
  8
DETAIL
  6
CONTINUOUS
 62
     5
 10
-363.49999999999409
 20
-83.000000000002728
 30
0.0
 40
4.999999999999984
 50
270.0
 51
0.0
  0
ARC
  8
DETAIL
  6
CONTINUOUS
 62
     5
 10
-397.00000000000142
 20
-110.0000000000009
 30
0.0
 40
4.999999999999984
 50
180.0
 51
270.0
  0
CIRCLE
  8
DETAIL
  6
CONTINUOUS
 62
     5
 10
-348.81118318266232
 20
-113.688816817335
 30
0.0
 40
4.6999999999999842
  0
CIRCLE
  8
DETAIL
  6
CONTINUOUS
 62
     5
 10
-227.18881681866469
 20
-113.688816817335
 30
0.0
 40
4.6999999999999842
  0
ARC
  8
DETAIL
  6
CONTINUOUS
 62
     5
 10
-386.90000000000282
 20
-90.999999999999091
 30
0.0
 40
2.9999999999999898
 50
90.0
 51
270.0
  0
ARC
  8
DETAIL
  6
CONTINUOUS
 62
     5
 10
-370.49999999999409
 20
-80.000000000004547
 30
0.0
 40
2.9999999999999898
 50
270.0
 51
90.0
  0
ARC
  8
DETAIL
  6
CONTINUOUS
 62
     5
 10
-361.49999999999409
 20
-61.200000000000728
 30
0.0
 40
2.9999999999999898
 50
0.0
 51
90.0
  0
ARC
  8
DETAIL
  6
CONTINUOUS
 62
     5
 10
-373.99999999999409
 20
-61.200000000000728
 30
0.0
 40
2.9999999999999898
 50
90.0
 51
180.0
  0
ARC
  8
DETAIL
  6
CONTINUOUS
 62
     5
 10
-372.49999999999409
 20
-80.000000000004547
 30
0.0
 40
2.9999999999999898
 50
90.0
 51
270.0
  0
ARC
  8
DETAIL
  6
CONTINUOUS
 62
     5
 10
-393.00000000000142
 20
-72.000000000000909
 30
0.0
 40
2.9999999999999898
 50
270.0
 51
0.0
  0
ARC
  8
DETAIL
  6
CONTINUOUS
 62
     5
 10
-399.00000000000142
 20
-72.000000000000909
 30
0.0
 40
2.9999999999999898
 50
180.0
 51
270.0
  0
CIRCLE
  8
DETAIL
  6
CONTINUOUS
 62
     5
 10
-371.50000000000142
 20
-80.000000000004547
 30
0.0
 40
2.499999999999992
  0
ARC
  8
DETAIL
  6
CONTINUOUS
 62
     5
 10
-160.90000000000279
 20
-119.6000000000008
 30
0.0
 40
1.949999999999994
 50
357.05611759510458
 51
243.0308329253607
  0
ARC
  8
DETAIL
  6
CONTINUOUS
 62
     5
 10
-160.90000000000279
 20
-137.00000000000051
 30
0.0
 40
1.7920246933333279
 50
180.0
 51
0.0
  0
ARC
  8
DETAIL
  6
CONTINUOUS
 62
     5
 10
-383.45816558666547
 20
-1.1000000000012731
 30
0.0
 40
1.099999999999997
 50
5.0000000000000284
 51
90.0
  0
ARC
  8
DETAIL
  6
CONTINUOUS
 62
     5
 10
-384.00000000000142
 20
-1.599999999998545
 30
0.0
 40
0.9999999999999969
 50
0.0
 51
90.0
  0
ARC
  8
DETAIL
  6
CONTINUOUS
 62
     5
 10
-384.00000000000142
 20
-1.599999999998545
 30
0.0
 40
0.4999999999999984
 50
0.0
 51
90.0
  0
ARC
  8
DETAIL
  6
CONTINUOUS
 62
     5
 10
-383.45816558666547
 20
-1.1000000000012731
 30
0.0
 40
0.4999999999999984
 50
4.9999999998950679
 51
90.0
  0
CIRCLE
  8
DETAIL
  6
CONTINUOUS
 62
     5
 10
166.00000000000139
 20
-222.00000000000139
 30
0.0
 40
4.6999999999999842
  0
CIRCLE
  8
DETAIL
  6
CONTINUOUS
 62
     5
 10
166.00000000000139
 20
-247.00000000000051
 30
0.0
 40
4.6999999999999842
  0
ARC
  8
DETAIL
  6
CONTINUOUS
 62
     5
 10
177.59999999999991
 20
-268.10000000000309
 30
0.0
 40
2.9999999999999898
 50
180.0
 51
270.0
  0
ARC
  8
DETAIL
  6
CONTINUOUS
 62
     5
 10
188.59999999999991
 20
-268.10000000000309
 30
0.0
 40
2.9999999999999898
 50
270.0
 51
0.0
  0
ARC
  8
DETAIL
  6
CONTINUOUS
 62
     5
 10
180.19999999999851
 20
-271.10000000000218
 30
0.0
 40
1.199999999999996
 50
180.0
 51
270.0
  0
ARC
  8
DETAIL
  6
CONTINUOUS
 62
     5
 10
180.19999999999851
 20
-271.10000000000218
 30
0.0
 40
0.5999999999999982
 50
180.0
 51
270.0
  0
ARC
  8
DETAIL
  6
CONTINUOUS
 62
     5
 10
176.59999999999991
 20
-190.06410161466511
 30
0.0
 40
1.999999999999994
 50
180.0
 51
209.9999999999977
  0
ARC
  8
DETAIL
  6
CONTINUOUS
 62
     5
 10
176.59999999999991
 20
-155.13589838400321
 30
0.0
 40
1.999999999999994
 50
150.0000000000023
 51
180.0
  0
ARC
  8
DETAIL
  6
CONTINUOUS
 62
     5
 10
176.59999999999991
 20
-211.1358983840023
 30
0.0
 40
1.999999999999994
 50
150.0000000000023
 51
180.0
  0
CIRCLE
  8
DETAIL
  6
CONTINUOUS
 62
     5
 10
363.40000000000282
 20
-241.59999999999809
 30
0.0
 40
4.6999999999999842
  0
CIRCLE
  8
DETAIL
  6
CONTINUOUS
 62
     5
 10
342.59999999999991
 20
-246.599999999999
 30
0.0
 40
4.6999999999999842
  0
ARC
  8
DETAIL
  6
CONTINUOUS
 62
     5
 10
353.39999999999549
 20
-240.4500000000003
 30
0.0
 40
2.9999999999999898
 50
270.0
 51
0.0
  0
ARC
  8
DETAIL
  6
CONTINUOUS
 62
     5
 10
351.80000000000427
 20
-268.74999999999909
 30
0.0
 40
1.599999999999995
 50
270.0
 51
0.0
  0
ARC
  8
DETAIL
  6
CONTINUOUS
 62
     5
 10
383.73306493867273
 20
-287.60000000000127
 30
0.0
 40
1.3999999999999959
 50
185.0
 51
270.0
  0
ARC
  8
DETAIL
  6
CONTINUOUS
 62
     5
 10
384.00000000000142
 20
-287.39999999999873
 30
0.0
 40
0.9999999999999969
 50
180.0
 51
270.0
  0
ARC
  8
DETAIL
  6
CONTINUOUS
 62
     5
 10
383.73306493867273
 20
-287.60000000000127
 30
0.0
 40
0.7999999999999975
 50
184.9999999998951
 51
270.0
  0
ARC
  8
DETAIL
  6
CONTINUOUS
 62
     5
 10
384.00000000000142
 20
-287.39999999999873
 30
0.0
 40
0.4999999999999984
 50
180.0
 51
270.0
  0
ARC
  8
DETAIL
  6
CONTINUOUS
 62
     5
 10
353.39999999999549
 20
-220.44999999999939
 30
0.0
 40
2.9999999999999898
 50
0.0
 51
90.0
  0
ARC
  8
DETAIL
  6
CONTINUOUS
 62
     5
 10
360.59999999999991
 20
-183.599999999999
 30
0.0
 40
2.9999999999999898
 50
180.0
 51
270.0
  0
ARC
  8
DETAIL
  6
CONTINUOUS
 62
     5
 10
348.40000000000282
 20
-203.60000000000079
 30
0.0
 40
0.9999999999999969
 50
270.0
 51
0.0
  0
ARC
  8
DETAIL
  6
CONTINUOUS
 62
     5
 10
348.40000000000282
 20
-220.60000000000079
 30
0.0
 40
0.9999999999999969
 50
0.0
 51
90.0
  0
CIRCLE
  8
DETAIL
  6
CONTINUOUS
 62
     5
 10
166.00000000000139
 20
-76.999999999999545
 30
0.0
 40
4.6999999999999842
  0
CIRCLE
  8
DETAIL
  6
CONTINUOUS
 62
     5
 10
169.59999999999991
 20
-99.600000000002638
 30
0.0
 40
4.6999999999999842
  0
ARC
  8
DETAIL
  6
CONTINUOUS
 62
     5
 10
166.59999999999991
 20
-110.6000000000017
 30
0.0
 40
2.9999999999999898
 50
180.0
 51
270.0
  0
ARC
  8
DETAIL
  6
CONTINUOUS
 62
     5
 10
166.59999999999991
 20
-88.600000000000819
 30
0.0
 40
2.9999999999999898
 50
90.0
 51
180.0
  0
ARC
  8
DETAIL
  6
CONTINUOUS
 62
     5
 10
171.59999999999991
 20
-82.599999999999909
 30
0.0
 40
2.9999999999999898
 50
270.0
 51
0.0
  0
ARC
  8
DETAIL
  6
CONTINUOUS
 62
     5
 10
171.59999999999991
 20
-116.599999999999
 30
0.0
 40
2.9999999999999898
 50
0.0
 51
90.0
  0
ARC
  8
DETAIL
  6
CONTINUOUS
 62
     5
 10
176.59999999999991
 20
-134.06410161466971
 30
0.0
 40
1.999999999999994
 50
180.0
 51
209.9999999999977
  0
CIRCLE
  8
DETAIL
  6
CONTINUOUS
 62
     5
 10
166.00000000000139
 20
-52.000000000000448
 30
0.0
 40
4.6999999999999842
  0
ARC
  8
DETAIL
  6
CONTINUOUS
 62
     5
 10
177.59999999999991
 20
-14.90000000000418
 30
0.0
 40
2.9999999999999898
 50
90.0
 51
180.0
  0
ARC
  8
DETAIL
  6
CONTINUOUS
 62
     5
 10
188.59999999999991
 20
-14.90000000000418
 30
0.0
 40
2.9999999999999898
 50
0.0
 51
90.0
  0
ARC
  8
DETAIL
  6
CONTINUOUS
 62
     5
 10
180.19999999999851
 20
-11.900000000001461
 30
0.0
 40
1.199999999999996
 50
90.0
 51
180.0
  0
ARC
  8
DETAIL
  6
CONTINUOUS
 62
     5
 10
180.19999999999851
 20
-11.900000000001461
 30
0.0
 40
0.5999999999999982
 50
90.0
 51
180.0
  0
ARC
  8
DETAIL
  6
CONTINUOUS
 62
     5
 10
397.00000000000142
 20
-110.0000000000009
 30
0.0
 40
4.999999999999984
 50
270.0
 51
0.0
  0
ARC
  8
DETAIL
  6
CONTINUOUS
 62
     5
 10
363.49999999999409
 20
-83.000000000002728
 30
0.0
 40
4.999999999999984
 50
180.0
 51
270.0
  0
ARC
  8
DETAIL
  6
CONTINUOUS
 62
     5
 10
386.90000000000282
 20
-90.999999999999091
 30
0.0
 40
2.9999999999999898
 50
270.0
 51
90.0
  0
ARC
  8
DETAIL
  6
CONTINUOUS
 62
     5
 10
370.50000000000142
 20
-80.000000000004547
 30
0.0
 40
2.9999999999999898
 50
90.0
 51
270.0
  0
ARC
  8
DETAIL
  6
CONTINUOUS
 62
     5
 10
372.50000000000142
 20
-80.000000000004547
 30
0.0
 40
2.9999999999999898
 50
270.0
 51
90.0
  0
ARC
  8
DETAIL
  6
CONTINUOUS
 62
     5
 10
392.99999999999409
 20
-72.000000000000909
 30
0.0
 40
2.9999999999999898
 50
180.0
 51
270.0
  0
ARC
  8
DETAIL
  6
CONTINUOUS
 62
     5
 10
399.00000000000142
 20
-72.000000000000909
 30
0.0
 40
2.9999999999999898
 50
270.0
 51
0.0
  0
CIRCLE
  8
DETAIL
  6
CONTINUOUS
 62
     5
 10
371.50000000000142
 20
-80.000000000004547
 30
0.0
 40
2.499999999999992
  0
ARC
  8
DETAIL
  6
CONTINUOUS
 62
     5
 10
348.40000000000282
 20
-79.600000000000819
 30
0.0
 40
0.9999999999999969
 50
0.0
 51
90.0
  0
ARC
  8
DETAIL
  6
CONTINUOUS
 62
     5
 10
372.00000000000142
 20
-33.800000000003372
 30
0.0
 40
9.999999999999968
 50
270.0
 51
180.0
  0
ARC
  8
DETAIL
  6
CONTINUOUS
 62
     5
 10
372.00000000000142
 20
-33.800000000003372
 30
0.0
 40
8.7999999999999741
 50
270.0
 51
180.0
  0
ARC
  8
DETAIL
  6
CONTINUOUS
 62
     5
 10
363.40000000000282
 20
-33.600000000001728
 30
0.0
 40
5.4999999999999822
 50
131.97416068467871
 51
255.24000878682429
  0
ARC
  8
DETAIL
  6
CONTINUOUS
 62
     5
 10
363.40000000000282
 20
-33.600000000001728
 30
0.0
 40
5.4999999999999822
 50
267.91752440258438
 51
48.025839315321313
  0
ARC
  8
DETAIL
  6
CONTINUOUS
 62
     5
 10
363.40000000000282
 20
-26.600000000000819
 30
0.0
 40
4.6999999999999842
 50
22.833675615710881
 51
257.2480266345238
  0
ARC
  8
DETAIL
  6
CONTINUOUS
 62
     5
 10
363.40000000000282
 20
-26.600000000000819
 30
0.0
 40
4.6999999999999842
 50
272.24859668198121
 51
7.8924166607133994
  0
CIRCLE
  8
DETAIL
  6
CONTINUOUS
 62
     5
 10
342.59999999999991
 20
-36.599999999999909
 30
0.0
 40
4.6999999999999842
  0
ARC
  8
DETAIL
  6
CONTINUOUS
 62
     5
 10
353.39999999999549
 20
-49.750000000002267
 30
0.0
 40
2.9999999999999898
 50
0.0
 51
90.0
  0
ARC
  8
DETAIL
  6
CONTINUOUS
 62
     5
 10
353.39999999999549
 20
-69.750000000004093
 30
0.0
 40
2.9999999999999898
 50
270.0
 51
0.0
  0
ARC
  8
DETAIL
  6
CONTINUOUS
 62
     5
 10
353.39999999999549
 20
-22.750000000001361
 30
0.0
 40
2.9999999999999898
 50
0.0
 51
90.0
  0
ARC
  8
DETAIL
  6
CONTINUOUS
 62
     5
 10
353.39999999999549
 20
-42.750000000002267
 30
0.0
 40
2.9999999999999898
 50
270.0
 51
0.0
  0
ARC
  8
DETAIL
  6
CONTINUOUS
 62
     5
 10
361.50000000000142
 20
-61.200000000000728
 30
0.0
 40
2.9999999999999898
 50
90.0
 51
180.0
  0
ARC
  8
DETAIL
  6
CONTINUOUS
 62
     5
 10
373.99999999999409
 20
-61.200000000000728
 30
0.0
 40
2.9999999999999898
 50
0.0
 51
90.0
  0
ARC
  8
DETAIL
  6
CONTINUOUS
 62
     5
 10
360.59999999999991
 20
-64.600000000001728
 30
0.0
 40
2.9999999999999898
 50
134.447211962365
 51
180.0
  0
ARC
  8
DETAIL
  6
CONTINUOUS
 62
     5
 10
351.80000000000427
 20
-14.25
 30
0.0
 40
1.599999999999995
 50
0.0
 51
90.0
  0
ARC
  8
DETAIL
  6
CONTINUOUS
 62
     5
 10
383.45816558667269
 20
-1.1000000000012731
 30
0.0
 40
1.099999999999997
 50
90.0
 51
175.0
  0
ARC
  8
DETAIL
  6
CONTINUOUS
 62
     5
 10
384.00000000000142
 20
-1.599999999998545
 30
0.0
 40
0.9999999999999969
 50
90.0
 51
180.0
  0
ARC
  8
DETAIL
  6
CONTINUOUS
 62
     5
 10
348.40000000000282
 20
-62.600000000002638
 30
0.0
 40
0.9999999999999969
 50
270.0
 51
0.0
  0
ARC
  8
DETAIL
  6
CONTINUOUS
 62
     5
 10
383.45816558667269
 20
-1.1000000000012731
 30
0.0
 40
0.4999999999999984
 50
90.0
 51
175.0000000001049
  0
ARC
  8
DETAIL
  6
CONTINUOUS
 62
     5
 10
384.00000000000142
 20
-1.599999999998545
 30
0.0
 40
0.4999999999999984
 50
90.0
 51
180.0
  0
LINE
  8
DETAIL
  6
CONTINUOUS
 62
     5
 10
152.92014353066909
 20
-34.499999999999552
 30
0.0
 11
152.52263196688773
 21
-34.556836297644629
 31
0.0
  0
LINE
  8
DETAIL
  6
CONTINUOUS
 62
     5
 10
152.52263196688773
 20
-34.556836297644629
 30
0.0
 11
152.14864502321348
 21
-34.713372973607818
 31
0.0
  0
LINE
  8
DETAIL
  6
CONTINUOUS
 62
     5
 10
152.14864502321348
 20
-34.713372973607818
 30
0.0
 11
151.82213598674861
 21
-34.94876480527757
 31
0.0
  0
LINE
  8
DETAIL
  6
CONTINUOUS
 62
     5
 10
151.82213598674861
 20
-34.94876480527757
 30
0.0
 11
151.54712387101742
 21
-35.242731988973645
 31
0.0
  0
LINE
  8
DETAIL
  6
CONTINUOUS
 62
     5
 10
151.54712387101742
 20
-35.242731988973645
 30
0.0
 11
151.32138026668562
 21
-35.575597209153855
 31
0.0
  0
LINE
  8
DETAIL
  6
CONTINUOUS
 62
     5
 10
151.32138026668562
 20
-35.575597209153855
 30
0.0
 11
151.14217503742947
 21
-35.934580919790328
 31
0.0
  0
LINE
  8
DETAIL
  6
CONTINUOUS
 62
     5
 10
151.14217503742947
 20
-35.934580919790328
 30
0.0
 11
151.00637311996329
 21
-36.312493247104364
 31
0.0
  0
LINE
  8
DETAIL
  6
CONTINUOUS
 62
     5
 10
151.00637311996329
 20
-36.312493247104364
 30
0.0
 11
150.91107303006643
 21
-36.702617050460574
 31
0.0
  0
LINE
  8
DETAIL
  6
CONTINUOUS
 62
     5
 10
150.91107303006643
 20
-36.702617050460574
 30
0.0
 11
150.85470913123839
 21
-37.099933681466176
 31
0.0
  0
LINE
  8
DETAIL
  6
CONTINUOUS
 62
     5
 10
150.85470913123839
 20
-37.099933681466176
 30
0.0
 11
150.8361684186689
 21
-37.500000000001357
 31
0.0
  0
LINE
  8
DETAIL
  6
CONTINUOUS
 62
     5
 10
150.8361684186689
 20
-81.500000000003183
 30
0.0
 11
150.85470913123837
 21
-81.900066317588127
 31
0.0
  0
LINE
  8
DETAIL
  6
CONTINUOUS
 62
     5
 10
150.85470913123837
 20
-81.900066317588127
 30
0.0
 11
150.9110730300664
 21
-82.297382948331247
 31
0.0
  0
LINE
  8
DETAIL
  6
CONTINUOUS
 62
     5
 10
150.9110730300664
 20
-82.297382948331247
 30
0.0
 11
151.00637311996329
 21
-82.68750675184549
 31
0.0
  0
LINE
  8
DETAIL
  6
CONTINUOUS
 62
     5
 10
151.00637311996329
 20
-82.68750675184549
 30
0.0
 11
151.14217503742944
 21
-83.065419079480137
 31
0.0
  0
LINE
  8
DETAIL
  6
CONTINUOUS
 62
     5
 10
151.14217503742944
 20
-83.065419079480137
 30
0.0
 11
151.32138026668565
 21
-83.424402790369371
 31
0.0
  0
LINE
  8
DETAIL
  6
CONTINUOUS
 62
     5
 10
151.32138026668565
 20
-83.424402790369371
 30
0.0
 11
151.54712387101742
 21
-83.75726801051762
 31
0.0
  0
LINE
  8
DETAIL
  6
CONTINUOUS
 62
     5
 10
151.54712387101742
 20
-83.75726801051762
 30
0.0
 11
151.82213598674861
 21
-84.051235193974534
 31
0.0
  0
LINE
  8
DETAIL
  6
CONTINUOUS
 62
     5
 10
151.82213598674861
 20
-84.051235193974534
 30
0.0
 11
152.14864502321345
 21
-84.286627025638509
 31
0.0
  0
LINE
  8
DETAIL
  6
CONTINUOUS
 62
     5
 10
152.14864502321345
 20
-84.286627025638509
 30
0.0
 11
152.5226319668877
 21
-84.443163702044515
 31
0.0
  0
LINE
  8
DETAIL
  6
CONTINUOUS
 62
     5
 10
152.5226319668877
 20
-84.443163702044515
 30
0.0
 11
152.92014353066909
 21
-84.500000000001364
 31
0.0
  0
LINE
  8
DETAIL
  6
CONTINUOUS
 62
     5
 10
152.92014353066909
 20
-204.49999999999949
 30
0.0
 11
152.52263196688773
 21
-204.55683629764479
 31
0.0
  0
LINE
  8
DETAIL
  6
CONTINUOUS
 62
     5
 10
152.52263196688773
 20
-204.55683629764479
 30
0.0
 11
152.14864502321348
 21
-204.71337297360819
 31
0.0
  0
LINE
  8
DETAIL
  6
CONTINUOUS
 62
     5
 10
152.14864502321348
 20
-204.71337297360819
 30
0.0
 11
151.82213598674861
 21
-204.9487648052777
 31
0.0
  0
LINE
  8
DETAIL
  6
CONTINUOUS
 62
     5
 10
151.82213598674861
 20
-204.9487648052777
 30
0.0
 11
151.54712387101742
 21
-205.24273198897345
 31
0.0
  0
LINE
  8
DETAIL
  6
CONTINUOUS
 62
     5
 10
151.54712387101742
 20
-205.24273198897345
 30
0.0
 11
151.32138026668562
 21
-205.57559720915361
 31
0.0
  0
LINE
  8
DETAIL
  6
CONTINUOUS
 62
     5
 10
151.32138026668562
 20
-205.57559720915361
 30
0.0
 11
151.14217503742947
 21
-205.93458091979039
 31
0.0
  0
LINE
  8
DETAIL
  6
CONTINUOUS
 62
     5
 10
151.14217503742947
 20
-205.93458091979039
 30
0.0
 11
151.00637311996329
 21
-206.31249324710487
 31
0.0
  0
LINE
  8
DETAIL
  6
CONTINUOUS
 62
     5
 10
151.00637311996329
 20
-206.31249324710487
 30
0.0
 11
150.91107303006643
 21
-206.70261705046136
 31
0.0
  0
LINE
  8
DETAIL
  6
CONTINUOUS
 62
     5
 10
150.91107303006643
 20
-206.70261705046136
 30
0.0
 11
150.85470913123839
 21
-207.09993368146712
 31
0.0
  0
LINE
  8
DETAIL
  6
CONTINUOUS
 62
     5
 10
150.85470913123839
 20
-207.09993368146712
 30
0.0
 11
150.8361684186689
 21
-207.5000000000023
 31
0.0
  0
LINE
  8
DETAIL
  6
CONTINUOUS
 62
     5
 10
150.8361684186689
 20
-251.49999999999949
 30
0.0
 11
150.85470913123837
 21
-251.90006631758513
 31
0.0
  0
LINE
  8
DETAIL
  6
CONTINUOUS
 62
     5
 10
150.85470913123837
 20
-251.90006631758513
 30
0.0
 11
150.9110730300664
 21
-252.29738294832865
 31
0.0
  0
LINE
  8
DETAIL
  6
CONTINUOUS
 62
     5
 10
150.9110730300664
 20
-252.29738294832865
 30
0.0
 11
151.00637311996329
 21
-252.6875067518433
 31
0.0
  0
LINE
  8
DETAIL
  6
CONTINUOUS
 62
     5
 10
151.00637311996329
 20
-252.6875067518433
 30
0.0
 11
151.14217503742944
 21
-253.06541907947872
 31
0.0
  0
LINE
  8
DETAIL
  6
CONTINUOUS
 62
     5
 10
151.14217503742944
 20
-253.06541907947872
 30
0.0
 11
151.32138026668565
 21
-253.42440279036865
 31
0.0
  0
LINE
  8
DETAIL
  6
CONTINUOUS
 62
     5
 10
151.32138026668565
 20
-253.42440279036865
 30
0.0
 11
151.54712387101742
 21
-253.75726801051741
 31
0.0
  0
LINE
  8
DETAIL
  6
CONTINUOUS
 62
     5
 10
151.54712387101742
 20
-253.75726801051741
 30
0.0
 11
151.82213598674861
 21
-254.05123519397432
 31
0.0
  0
LINE
  8
DETAIL
  6
CONTINUOUS
 62
     5
 10
151.82213598674861
 20
-254.05123519397432
 30
0.0
 11
152.14864502321345
 21
-254.28662702563764
 31
0.0
  0
LINE
  8
DETAIL
  6
CONTINUOUS
 62
     5
 10
152.14864502321345
 20
-254.28662702563764
 30
0.0
 11
152.5226319668877
 21
-254.44316370204243
 31
0.0
  0
LINE
  8
DETAIL
  6
CONTINUOUS
 62
     5
 10
152.5226319668877
 20
-254.44316370204243
 30
0.0
 11
152.92014353066909
 21
-254.49999999999861
 31
0.0
  0
LINE
  8
DETAIL
  6
CONTINUOUS
 62
     5
 10
-117.01284095333681
 20
-164.30000000000149
 30
0.0
 11
-117.06708424635481
 21
-165.05624966590997
 31
0.0
  0
LINE
  8
DETAIL
  6
CONTINUOUS
 62
     5
 10
-117.06708424635481
 20
-165.05624966590997
 30
0.0
 11
-117.22882566334296
 21
-165.79989014117893
 31
0.0
  0
LINE
  8
DETAIL
  6
CONTINUOUS
 62
     5
 10
-117.22882566334296
 20
-165.79989014117893
 30
0.0
 11
-117.49650914740572
 21
-166.51253740320834
 31
0.0
  0
LINE
  8
DETAIL
  6
CONTINUOUS
 62
     5
 10
-117.49650914740572
 20
-166.51253740320834
 30
0.0
 11
-117.86633722029016
 21
-167.17699711752263
 31
0.0
  0
LINE
  8
DETAIL
  6
CONTINUOUS
 62
     5
 10
-117.86633722029016
 20
-167.17699711752263
 30
0.0
 11
-118.33191230751642
 21
-167.77745501305762
 31
0.0
  0
LINE
  8
DETAIL
  6
CONTINUOUS
 62
     5
 10
-118.33191230751642
 20
-167.77745501305762
 30
0.0
 11
-118.8858182715238
 21
-168.29823712934322
 31
0.0
  0
LINE
  8
DETAIL
  6
CONTINUOUS
 62
     5
 10
-118.8858182715238
 20
-168.29823712934322
 30
0.0
 11
-119.51619806135146
 21
-168.72399007489759
 31
0.0
  0
LINE
  8
DETAIL
  6
CONTINUOUS
 62
     5
 10
-119.51619806135146
 20
-168.72399007489759
 30
0.0
 11
-120.20960181341756
 21
-169.03959066414063
 31
0.0
  0
LINE
  8
DETAIL
  6
CONTINUOUS
 62
     5
 10
-120.20960181341756
 20
-169.03959066414063
 30
0.0
 11
-120.94698024144483
 21
-169.23382407635643
 31
0.0
  0
LINE
  8
DETAIL
  6
CONTINUOUS
 62
     5
 10
-120.94698024144483
 20
-169.23382407635643
 30
0.0
 11
-121.7028024933329
 21
-169.2999999999997
 31
0.0
  0
LINE
  8
DETAIL
  6
CONTINUOUS
 62
     5
 10
-119.2128409533339
 20
-164.30000000000149
 30
0.0
 11
-119.25481516834475
 21
-164.8093767006747
 31
0.0
  0
LINE
  8
DETAIL
  6
CONTINUOUS
 62
     5
 10
-119.25481516834475
 20
-164.8093767006747
 30
0.0
 11
-119.38093629755724
 21
-165.31149617541186
 31
0.0
  0
LINE
  8
DETAIL
  6
CONTINUOUS
 62
     5
 10
-119.38093629755724
 20
-165.31149617541186
 30
0.0
 11
-119.59150210413377
 21
-165.78668537696439
 31
0.0
  0
LINE
  8
DETAIL
  6
CONTINUOUS
 62
     5
 10
-119.59150210413377
 20
-165.78668537696439
 30
0.0
 11
-119.88681035123665
 21
-166.2152712580837
 31
0.0
  0
LINE
  8
DETAIL
  6
CONTINUOUS
 62
     5
 10
-119.88681035123665
 20
-166.2152712580837
 30
0.0
 11
-120.2652846591555
 21
-166.57783691924655
 31
0.0
  0
LINE
  8
DETAIL
  6
CONTINUOUS
 62
     5
 10
-120.2652846591555
 20
-166.57783691924655
 30
0.0
 11
-120.71018028191361
 21
-166.85703859130433
 31
0.0
  0
LINE
  8
DETAIL
  6
CONTINUOUS
 62
     5
 10
-120.71018028191361
 20
-166.85703859130433
 30
0.0
 11
-121.19740196991003
 21
-167.0365371322427
 31
0.0
  0
LINE
  8
DETAIL
  6
CONTINUOUS
 62
     5
 10
-121.19740196991003
 20
-167.0365371322427
 30
0.0
 11
-121.7028061839969
 21
-167.1000000000017
 31
0.0
  0
LINE
  8
DETAIL
  6
CONTINUOUS
 62
     5
 10
-121.7028024933329
 20
-119.70000000000211
 30
0.0
 11
-120.94698041841482
 21
-119.76617590433305
 31
0.0
  0
LINE
  8
DETAIL
  6
CONTINUOUS
 62
     5
 10
-120.94698041841482
 20
-119.76617590433305
 30
0.0
 11
-120.20960217654364
 21
-119.96040925887203
 31
0.0
  0
LINE
  8
DETAIL
  6
CONTINUOUS
 62
     5
 10
-120.20960217654364
 20
-119.96040925887203
 30
0.0
 11
-119.51619854904629
 21
-120.2760097394254
 31
0.0
  0
LINE
  8
DETAIL
  6
CONTINUOUS
 62
     5
 10
-119.51619854904629
 20
-120.2760097394254
 30
0.0
 11
-118.88581877250907
 21
-120.70176250974194
 31
0.0
  0
LINE
  8
DETAIL
  6
CONTINUOUS
 62
     5
 10
-118.88581877250907
 20
-120.70176250974194
 30
0.0
 11
-118.33191278819652
 21
-121.22254444238007
 31
0.0
  0
LINE
  8
DETAIL
  6
CONTINUOUS
 62
     5
 10
-118.33191278819652
 20
-121.22254444238007
 30
0.0
 11
-117.86633771033554
 21
-121.82300218679164
 31
0.0
  0
LINE
  8
DETAIL
  6
CONTINUOUS
 62
     5
 10
-117.86633771033554
 20
-121.82300218679164
 30
0.0
 11
-117.49650962466275
 21
-122.48746174315724
 31
0.0
  0
LINE
  8
DETAIL
  6
CONTINUOUS
 62
     5
 10
-117.49650962466275
 20
-122.48746174315724
 30
0.0
 11
-117.2288260360821
 21
-123.20010879260116
 31
0.0
  0
LINE
  8
DETAIL
  6
CONTINUOUS
 62
     5
 10
-117.2288260360821
 20
-123.20010879260116
 30
0.0
 11
-117.06708444605931
 21
-123.94374903108451
 31
0.0
  0
LINE
  8
DETAIL
  6
CONTINUOUS
 62
     5
 10
-117.06708444605931
 20
-123.94374903108451
 30
0.0
 11
-117.01284095333681
 21
-124.6999985013331
 31
0.0
  0
LINE
  8
DETAIL
  6
CONTINUOUS
 62
     5
 10
-121.7028061839969
 20
-121.8999999999992
 30
0.0
 11
-121.19740205270259
 21
-121.96346282933337
 31
0.0
  0
LINE
  8
DETAIL
  6
CONTINUOUS
 62
     5
 10
-121.19740205270259
 20
-121.96346282933337
 30
0.0
 11
-120.7101804275276
 21
-122.14296127314782
 31
0.0
  0
LINE
  8
DETAIL
  6
CONTINUOUS
 62
     5
 10
-120.7101804275276
 20
-122.14296127314782
 30
0.0
 11
-120.26528484562093
 21
-122.42216281342246
 31
0.0
  0
LINE
  8
DETAIL
  6
CONTINUOUS
 62
     5
 10
-120.26528484562093
 20
-122.42216281342246
 30
0.0
 11
-119.88681055483235
 21
-122.7847283321732
 31
0.0
  0
LINE
  8
DETAIL
  6
CONTINUOUS
 62
     5
 10
-119.88681055483235
 20
-122.7847283321732
 30
0.0
 11
-119.59150230396833
 21
-123.21331407827552
 31
0.0
  0
LINE
  8
DETAIL
  6
CONTINUOUS
 62
     5
 10
-119.59150230396833
 20
-123.21331407827552
 30
0.0
 11
-119.38093646780871
 21
-123.68850315548328
 31
0.0
  0
LINE
  8
DETAIL
  6
CONTINUOUS
 62
     5
 10
-119.38093646780871
 20
-123.68850315548328
 30
0.0
 11
-119.25481527478631
 21
-124.19062251765931
 31
0.0
  0
LINE
  8
DETAIL
  6
CONTINUOUS
 62
     5
 10
-119.25481527478631
 20
-124.19062251765931
 30
0.0
 11
-119.2128409533339
 21
-124.6999991186663
 31
0.0
  0
LINE
  8
DETAIL
  6
CONTINUOUS
 62
     5
 10
-159.7998366479965
 20
-124.5998813586662
 30
0.0
 11
-159.79674044906588
 21
-124.26153074531337
 31
0.0
  0
LINE
  8
DETAIL
  6
CONTINUOUS
 62
     5
 10
-159.79674044906588
 20
-124.26153074531337
 30
0.0
 11
-159.7900012925025
 21
-123.92318190572892
 31
0.0
  0
LINE
  8
DETAIL
  6
CONTINUOUS
 62
     5
 10
-159.7900012925025
 20
-123.92318190572892
 30
0.0
 11
-159.78002239666401
 21
-123.58471600478234
 31
0.0
  0
LINE
  8
DETAIL
  6
CONTINUOUS
 62
     5
 10
-159.78002239666401
 20
-123.58471600478234
 30
0.0
 11
-159.76612705673634
 21
-123.24626248580954
 31
0.0
  0
LINE
  8
DETAIL
  6
CONTINUOUS
 62
     5
 10
-159.76612705673634
 20
-123.24626248580954
 30
0.0
 11
-159.74702853158428
 21
-122.90809104182921
 31
0.0
  0
LINE
  8
DETAIL
  6
CONTINUOUS
 62
     5
 10
-159.74702853158428
 20
-122.90809104182921
 30
0.0
 11
-159.72143318299638
 21
-122.57047295152407
 31
0.0
  0
LINE
  8
DETAIL
  6
CONTINUOUS
 62
     5
 10
-159.72143318299638
 20
-122.57047295152407
 30
0.0
 11
-159.68804737276142
 21
-122.23367949357701
 31
0.0
  0
LINE
  8
DETAIL
  6
CONTINUOUS
 62
     5
 10
-159.68804737276142
 20
-122.23367949357701
 30
0.0
 11
-159.64557746266789
 21
-121.8979819466708
 31
0.0
  0
LINE
  8
DETAIL
  6
CONTINUOUS
 62
     5
 10
-161.9998477066633
 20
-124.5998965240001
 30
0.0
 11
-161.99510607407487
 21
-124.13393079789149
 31
0.0
  0
LINE
  8
DETAIL
  6
CONTINUOUS
 62
     5
 10
-161.99510607407487
 20
-124.13393079789149
 30
0.0
 11
-161.98349344766362
 21
-123.66807004079018
 31
0.0
  0
LINE
  8
DETAIL
  6
CONTINUOUS
 62
     5
 10
-161.98349344766362
 20
-123.66807004079018
 30
0.0
 11
-161.96467674311782
 21
-123.20236444925584
 31
0.0
  0
LINE
  8
DETAIL
  6
CONTINUOUS
 62
     5
 10
-161.96467674311782
 20
-123.20236444925584
 30
0.0
 11
-161.93829998357262
 21
-122.73686910150256
 31
0.0
  0
LINE
  8
DETAIL
  6
CONTINUOUS
 62
     5
 10
-161.93829998357262
 20
-122.73686910150256
 30
0.0
 11
-161.90255329276607
 21
-122.27194910819895
 31
0.0
  0
LINE
  8
DETAIL
  6
CONTINUOUS
 62
     5
 10
-161.90255329276607
 20
-122.27194910819895
 30
0.0
 11
-161.85332579548134
 21
-121.80846024969469
 31
0.0
  0
LINE
  8
DETAIL
  6
CONTINUOUS
 62
     5
 10
-161.85332579548134
 20
-121.80846024969469
 30
0.0
 11
-161.78623019315631
 21
-121.34732163957797
 31
0.0
  0
LINE
  8
DETAIL
  6
CONTINUOUS
 62
     5
 10
-161.78623019315631
 20
-121.34732163957797
 30
0.0
 11
-161.69095775936057
 21
-120.89107544671289
 31
0.0
  0
LINE
  8
DETAIL
  6
CONTINUOUS
 62
     5
 10
-161.69095775936057
 20
-120.89107544671289
 30
0.0
 11
-161.53691837947775
 21
-120.45115773726162
 31
0.0
  0
LINE
  8
DETAIL
  6
CONTINUOUS
 62
     5
 10
-161.53691837947775
 20
-120.45115773726162
 30
0.0
 11
-161.27346597073031
 21
-120.06458866641745
 31
0.0
  0
LINE
  8
DETAIL
  6
CONTINUOUS
 62
     5
 10
-161.27346597073031
 20
-120.06458866641745
 30
0.0
 11
-160.88500014111477
 21
-119.79736653150687
 31
0.0
  0
LINE
  8
DETAIL
  6
CONTINUOUS
 62
     5
 10
-160.88500014111477
 20
-119.79736653150687
 30
0.0
 11
-160.42472423866411
 21
-119.70000000000211
 31
0.0
  0
LINE
  8
DETAIL
  6
CONTINUOUS
 62
     5
 10
-159.64577416666131
 20
-167.10060898400161
 30
0.0
 11
-159.68717349853259
 21
-166.7649070376448
 31
0.0
  0
LINE
  8
DETAIL
  6
CONTINUOUS
 62
     5
 10
-159.68717349853259
 20
-166.7649070376448
 30
0.0
 11
-159.71945484384753
 21
-166.42814267229065
 31
0.0
  0
LINE
  8
DETAIL
  6
CONTINUOUS
 62
     5
 10
-159.71945484384753
 20
-166.42814267229065
 30
0.0
 11
-159.74534078603932
 21
-166.09081607732756
 31
0.0
  0
LINE
  8
DETAIL
  6
CONTINUOUS
 62
     5
 10
-159.74534078603932
 20
-166.09081607732756
 30
0.0
 11
-159.76551305334837
 21
-165.75306657075512
 31
0.0
  0
LINE
  8
DETAIL
  6
CONTINUOUS
 62
     5
 10
-159.76551305334837
 20
-165.75306657075512
 30
0.0
 11
-159.78051020902026
 21
-165.41500815562142
 31
0.0
  0
LINE
  8
DETAIL
  6
CONTINUOUS
 62
     5
 10
-159.78051020902026
 20
-165.41500815562142
 30
0.0
 11
-159.79087081630061
 21
-165.07675483497451
 31
0.0
  0
LINE
  8
DETAIL
  6
CONTINUOUS
 62
     5
 10
-159.79087081630061
 20
-165.07675483497451
 30
0.0
 11
-159.79713343843491
 21
-164.73842061186241
 31
0.0
  0
LINE
  8
DETAIL
  6
CONTINUOUS
 62
     5
 10
-159.79713343843491
 20
-164.73842061186241
 30
0.0
 11
-159.79983663866869
 21
-164.40011948933309
 31
0.0
  0
LINE
  8
DETAIL
  6
CONTINUOUS
 62
     5
 10
-160.42472423866411
 20
-169.2999999986682
 30
0.0
 11
-160.88504941262079
 21
-169.20269161364965
 31
0.0
  0
LINE
  8
DETAIL
  6
CONTINUOUS
 62
     5
 10
-160.88504941262079
 20
-169.20269161364965
 30
0.0
 11
-161.27345138310372
 21
-168.93545371703746
 31
0.0
  0
LINE
  8
DETAIL
  6
CONTINUOUS
 62
     5
 10
-161.27345138310372
 20
-168.93545371703746
 30
0.0
 11
-161.53674309167354
 21
-168.54875815897066
 31
0.0
  0
LINE
  8
DETAIL
  6
CONTINUOUS
 62
     5
 10
-161.53674309167354
 20
-168.54875815897066
 30
0.0
 11
-161.69095536973757
 21
-168.10889716362936
 31
0.0
  0
LINE
  8
DETAIL
  6
CONTINUOUS
 62
     5
 10
-161.69095536973757
 20
-168.10889716362936
 30
0.0
 11
-161.78625252262191
 21
-167.6526671392451
 31
0.0
  0
LINE
  8
DETAIL
  6
CONTINUOUS
 62
     5
 10
-161.78625252262191
 20
-167.6526671392451
 30
0.0
 11
-161.85330038632904
 21
-167.19151292321203
 31
0.0
  0
LINE
  8
DETAIL
  6
CONTINUOUS
 62
     5
 10
-161.85330038632904
 20
-167.19151292321203
 30
0.0
 11
-161.90252809957815
 21
-166.72802754489817
 31
0.0
  0
LINE
  8
DETAIL
  6
CONTINUOUS
 62
     5
 10
-161.90252809957815
 20
-166.72802754489817
 30
0.0
 11
-161.93829507971788
 21
-166.26311909362045
 31
0.0
  0
LINE
  8
DETAIL
  6
CONTINUOUS
 62
     5
 10
-161.93829507971788
 20
-166.26311909362045
 30
0.0
 11
-161.9646845402564
 21
-165.7976323249874
 31
0.0
  0
LINE
  8
DETAIL
  6
CONTINUOUS
 62
     5
 10
-161.9646845402564
 20
-165.7976323249874
 30
0.0
 11
-161.98350144729446
 21
-165.33193014279789
 31
0.0
  0
LINE
  8
DETAIL
  6
CONTINUOUS
 62
     5
 10
-161.98350144729446
 20
-165.33193014279789
 30
0.0
 11
-161.99510901191184
 21
-164.86607051809247
 31
0.0
  0
LINE
  8
DETAIL
  6
CONTINUOUS
 62
     5
 10
-161.99510901191184
 20
-164.86607051809247
 30
0.0
 11
-161.99984764666581
 21
-164.40010659999959
 31
0.0
  0
LINE
  8
DETAIL
  6
CONTINUOUS
 62
     5
 10
385.50000000000858
 20
-1.1000000000012731
 30
0.0
 11
385.50000000000142
 21
-1.7000000000034561
 31
0.0
  0
LINE
  8
DETAIL
  6
CONTINUOUS
 62
     5
 10
385.50000000000142
 20
-1.7000000000034561
 30
0.0
 11
389.14999999999549
 21
-1.7000000000052751
 31
0.0
  0
ARC
  8
DETAIL
  6
CONTINUOUS
 62
     5
 10
389.14999999999549
 20
-0.8500000000049113
 30
0.0
 40
0.8500000000006154
 50
270.0
 51
90.0
  0
LINE
  8
DETAIL
  6
CONTINUOUS
 62
     5
 10
-385.49999999998681
 20
-1.100000000002183
 30
0.0
 11
-385.49999999999409
 21
-1.7000000000034561
 31
0.0
  0
LINE
  8
DETAIL
  6
CONTINUOUS
 62
     5
 10
-385.49999999999409
 20
-1.7000000000034561
 30
0.0
 11
-389.14999999999549
 21
-1.7000000000052751
 31
0.0
  0
ARC
  8
DETAIL
  6
CONTINUOUS
 62
     5
 10
-389.14999999999549
 20
-0.8500000000049113
 30
0.0
 40
0.8500000000006154
 50
90.0
 51
270.0
  0
ARC
  8
DETAIL
  6
CONTINUOUS
 62
     5
 10
-389.14999999997372
 20
-0.8500000000030923
 30
0.0
 40
0.2499999999998972
 50
90.0
 51
270.0
  0
LINE
  8
DETAIL
  6
CONTINUOUS
 62
     5
 10
385.50000000000142
 20
-287.30000000000109
 30
0.0
 11
389.14999999999549
 21
-287.30000000000018
 31
0.0
  0
ARC
  8
DETAIL
  6
CONTINUOUS
 62
     5
 10
389.14999999999549
 20
-288.14999999999958
 30
0.0
 40
0.8500000000006154
 50
270.0
 51
90.0
  0
ARC
  8
DETAIL
  6
CONTINUOUS
 62
     5
 10
389.14999999998099
 20
-288.15000000000151
 30
0.0
 40
0.2499999999998972
 50
270.0
 51
90.0
  0
LINE
  8
DETAIL
  6
CONTINUOUS
 62
     5
 10
-385.49999999998681
 20
-287.90000000000049
 30
0.0
 11
-385.49999999999409
 21
-287.30000000000109
 31
0.0
  0
LINE
  8
DETAIL
  6
CONTINUOUS
 62
     5
 10
-385.49999999999409
 20
-287.30000000000109
 30
0.0
 11
-389.14999999999549
 21
-287.30000000000018
 31
0.0
  0
ARC
  8
DETAIL
  6
CONTINUOUS
 62
     5
 10
-389.14999999999549
 20
-288.14999999999958
 30
0.0
 40
0.8500000000006154
 50
90.0
 51
270.0
  0
ARC
  8
DETAIL
  6
CONTINUOUS
 62
     5
 10
-389.14999999997372
 20
-288.15000000000151
 30
0.0
 40
0.2499999999998972
 50
90.0
 51
270.0
  0
ARC
  8
DETAIL
  6
CONTINUOUS
 62
     5
 10
389.14999999998099
 20
-0.8500000000030923
 30
0.0
 40
0.2499999999998972
 50
270.0
 51
90.0
  0
LINE
  8
DETAIL
  6
CONTINUOUS
 62
     5
 10
-375.799999999997
 20
-1.7000000000034561
 30
0.0
 11
375.799999999997
 21
-1.7000000000034561
 31
0.0
  0
LINE
  8
DETAIL
  6
CONTINUOUS
 62
     5
 10
-375.799999999997
 20
-287.29999999999842
 30
0.0
 11
375.799999999997
 21
-287.29999999999842
 31
0.0
  0
ARC
  8
DETAIL
  6
CONTINUOUS
 62
     5
 10
384.70000000001301
 20
-255.09999999876391
 30
0.0
 40
0.6000000000150206
 50
90.0
 51
179.9999998848364
  0
LINE
  8
DETAIL
  6
CONTINUOUS
 62
     5
 10
384.70000000001301
 20
-254.4999999987435
 30
0.0
 11
391.50000000018332
 21
-254.4999999987435
 31
0.0
  0
LINE
  8
BASIS
  6
DASHDOT
 62
     6
 10
-157.99999999674901
 20
-174.50000000214499
 30
0.0
 11
-470.70152195957189
 21
-174.50000000214499
 31
0.0
  0
LINE
  8
BASIS
  6
DASHDOT
 62
     6
 10
-287.99999999999409
 20
-44.499999998896328
 30
0.0
 11
-287.99999999999409
 21
-304.50000000539558
 31
0.0
  0
CIRCLE
  8
DETAIL
  6
DASHED
 62
     5
 10
-287.99999999999409
 20
-174.50000000214499
 30
0.0
 40
80.000000001999751
  0
LINE
  8
BASIS
  6
DASHDOT
 62
     6
 10
474.46043781831531
 20
-174.50000000214499
 30
0.0
 11
351.11149984871139
 21
-174.50000000214499
 31
0.0
  0
LINE
  8
SIZE
  6
CONTINUOUS
 62
    30
 10
-389.99999999999642
 20
19.149999999995089
 30
0.0
 11
-389.99999999999642
 21
244.6844083707588
 31
0.0
  0
LINE
  8
SIZE
  6
CONTINUOUS
 62
    30
 10
389.99999999999642
 20
19.149999999995089
 30
0.0
 11
389.99999999999642
 21
244.6844083707588
 31
0.0
  0
LINE
  8
SIZE
  6
CONTINUOUS
 62
    30
 10
-377.99999999999642
 20
224.6844083707588
 30
0.0
 11
377.99999999999642
 21
224.6844083707588
 31
0.0
  0
CIRCLE
  8
SIZE
  6
CONTINUOUS
 62
    30
 10
-389.99999999999642
 20
224.6844083707588
 30
0.0
 40
6.0
  0
LINE
  8
SIZE
  6
CONTINUOUS
 62
    30
 10
-389.99999999999642
 20
224.6844083707588
 30
0.0
 11
-377.99999999999642
 21
224.6844083707588
 31
0.0
  0
CIRCLE
  8
SIZE
  6
CONTINUOUS
 62
    30
 10
389.99999999999642
 20
224.6844083707588
 30
0.0
 40
6.0
  0
LINE
  8
SIZE
  6
CONTINUOUS
 62
    30
 10
389.99999999999642
 20
224.6844083707588
 30
0.0
 11
377.99999999999642
 21
224.6844083707588
 31
0.0
  0
TEXT
  8
SIZE
  6
CONTINUOUS
 62
    30
 10
-80.927999999999997
 20
249.68440837075877
 30
0.0
 40
64.0
  1
780
 50
0.0
 41
0.9
 51
0.0
  7
STANDARD
 71
     0
 72
     1
 11
0.0
 21
249.68440837075877
 31
0.0
210
0.0
220
0.0
230
1.0
  0
POINT
  8
DEFPOINTS
  6
CONTINUOUS
 62
    30
 10
-389.99999999999642
 20
-0.8500000000049113
 30
0.0
  0
POINT
  8
DEFPOINTS
  6
CONTINUOUS
 62
    30
 10
389.99999999999642
 20
-0.8500000000049113
 30
0.0
  0
POINT
  8
DEFPOINTS
  6
CONTINUOUS
 62
    30
 10
389.99999999999642
 20
224.6844083707588
 30
0.0
  0
LINE
  8
SIZE
  6
CONTINUOUS
 62
    30
 10
-389.99999999999642
 20
19.149999999995089
 30
0.0
 11
-389.99999999999642
 21
244.6844083707588
 31
0.0
  0
LINE
  8
SIZE
  6
CONTINUOUS
 62
    30
 10
-453.99999999999409
 20
-83.500228956002957
 30
0.0
 11
-453.99999999999409
 21
244.6844083707588
 31
0.0
  0
LINE
  8
SIZE
  6
CONTINUOUS
 62
    30
 10
-377.99999999999642
 20
224.6844083707588
 30
0.0
 11
-365.99999999999642
 21
224.6844083707588
 31
0.0
  0
LINE
  8
SIZE
  6
CONTINUOUS
 62
    30
 10
-465.99999999999409
 20
224.6844083707588
 30
0.0
 11
-477.99999999999409
 21
224.6844083707588
 31
0.0
  0
LINE
  8
SIZE
  6
CONTINUOUS
 62
    30
 10
-389.99999999999642
 20
224.6844083707588
 30
0.0
 11
-453.99999999999409
 21
224.6844083707588
 31
0.0
  0
CIRCLE
  8
SIZE
  6
CONTINUOUS
 62
    30
 10
-389.99999999999642
 20
224.6844083707588
 30
0.0
 40
6.0
  0
LINE
  8
SIZE
  6
CONTINUOUS
 62
    30
 10
-389.99999999999642
 20
224.6844083707588
 30
0.0
 11
-377.99999999999642
 21
224.6844083707588
 31
0.0
  0
CIRCLE
  8
SIZE
  6
CONTINUOUS
 62
    30
 10
-453.99999999999409
 20
224.6844083707588
 30
0.0
 40
6.0
  0
LINE
  8
SIZE
  6
CONTINUOUS
 62
    30
 10
-453.99999999999409
 20
224.6844083707588
 30
0.0
 11
-465.99999999999409
 21
224.6844083707588
 31
0.0
  0
TEXT
  8
SIZE
  6
CONTINUOUS
 62
    30
 10
-476.14399999999523
 20
249.68440837075877
 30
0.0
 40
64.0
  1
64
 50
0.0
 41
0.9
 51
0.0
  7
STANDARD
 71
     0
 72
     1
 11
-421.99999999999523
 21
249.68440837075877
 31
0.0
210
0.0
220
0.0
230
1.0
  0
POINT
  8
DEFPOINTS
  6
CONTINUOUS
 62
    30
 10
-389.99999999999642
 20
-0.8500000000049113
 30
0.0
  0
POINT
  8
DEFPOINTS
  6
CONTINUOUS
 62
    30
 10
-453.99999999999409
 20
-103.500228956003
 30
0.0
  0
POINT
  8
DEFPOINTS
  6
CONTINUOUS
 62
    30
 10
-453.99999999999409
 20
224.6844083707588
 30
0.0
  0
LINE
  8
SIZE
  6
CONTINUOUS
 62
    30
 10
389.99999999999642
 20
19.149999999995089
 30
0.0
 11
389.99999999999642
 21
244.6844083707588
 31
0.0
  0
LINE
  8
SIZE
  6
CONTINUOUS
 62
    30
 10
454.00000000000142
 20
-83.500228956002957
 30
0.0
 11
454.00000000000142
 21
244.6844083707588
 31
0.0
  0
LINE
  8
SIZE
  6
CONTINUOUS
 62
    30
 10
377.99999999999642
 20
224.6844083707588
 30
0.0
 11
365.99999999999642
 21
224.6844083707588
 31
0.0
  0
LINE
  8
SIZE
  6
CONTINUOUS
 62
    30
 10
466.00000000000142
 20
224.6844083707588
 30
0.0
 11
478.00000000000142
 21
224.6844083707588
 31
0.0
  0
LINE
  8
SIZE
  6
CONTINUOUS
 62
    30
 10
389.99999999999642
 20
224.6844083707588
 30
0.0
 11
454.00000000000142
 21
224.6844083707588
 31
0.0
  0
CIRCLE
  8
SIZE
  6
CONTINUOUS
 62
    30
 10
389.99999999999642
 20
224.6844083707588
 30
0.0
 40
6.0
  0
LINE
  8
SIZE
  6
CONTINUOUS
 62
    30
 10
389.99999999999642
 20
224.6844083707588
 30
0.0
 11
377.99999999999642
 21
224.6844083707588
 31
0.0
  0
CIRCLE
  8
SIZE
  6
CONTINUOUS
 62
    30
 10
454.00000000000142
 20
224.6844083707588
 30
0.0
 40
6.0
  0
LINE
  8
SIZE
  6
CONTINUOUS
 62
    30
 10
454.00000000000142
 20
224.6844083707588
 30
0.0
 11
466.00000000000142
 21
224.6844083707588
 31
0.0
  0
TEXT
  8
SIZE
  6
CONTINUOUS
 62
    30
 10
367.85599999999891
 20
249.68440837075877
 30
0.0
 40
64.0
  1
64
 50
0.0
 41
0.9
 51
0.0
  7
STANDARD
 71
     0
 72
     1
 11
421.99999999999892
 21
249.68440837075877
 31
0.0
210
0.0
220
0.0
230
1.0
  0
POINT
  8
DEFPOINTS
  6
CONTINUOUS
 62
    30
 10
389.99999999999642
 20
-0.8500000000049113
 30
0.0
  0
POINT
  8
DEFPOINTS
  6
CONTINUOUS
 62
    30
 10
454.00000000000142
 20
-103.500228956003
 30
0.0
  0
POINT
  8
DEFPOINTS
  6
CONTINUOUS
 62
    30
 10
454.00000000000142
 20
224.6844083707588
 30
0.0
  0
LINE
  8
SIZE
  6
CONTINUOUS
 62
    30
 10
-389.99999999999642
 20
-308.14999999999958
 30
0.0
 11
-389.99999999999642
 21
-522.08140064327335
 31
0.0
  0
LINE
  8
SIZE
  6
CONTINUOUS
 62
    30
 10
-287.99999999999409
 20
-324.50000000539558
 30
0.0
 11
-287.99999999999409
 21
-522.08140064327335
 31
0.0
  0
LINE
  8
SIZE
  6
CONTINUOUS
 62
    30
 10
-299.99999999999409
 20
-502.08140064327341
 30
0.0
 11
-377.99999999999642
 21
-502.08140064327341
 31
0.0
  0
LINE
  8
SIZE
  6
CONTINUOUS
 62
    30
 10
-389.99999999999642
 20
-502.08140064327341
 30
0.0
 11
-589.14285714285347
 21
-502.08140064327341
 31
0.0
  0
CIRCLE
  8
SIZE
  6
CONTINUOUS
 62
    30
 10
-287.99999999999409
 20
-502.08140064327341
 30
0.0
 40
6.0
  0
LINE
  8
SIZE
  6
CONTINUOUS
 62
    30
 10
-287.99999999999409
 20
-502.08140064327341
 30
0.0
 11
-299.99999999999409
 21
-502.08140064327341
 31
0.0
  0
CIRCLE
  8
SIZE
  6
CONTINUOUS
 62
    30
 10
-389.99999999999642
 20
-502.08140064327341
 30
0.0
 40
6.0
  0
LINE
  8
SIZE
  6
CONTINUOUS
 62
    30
 10
-389.99999999999642
 20
-502.08140064327341
 30
0.0
 11
-377.99999999999642
 21
-502.08140064327341
 31
0.0
  0
TEXT
  8
SIZE
  6
CONTINUOUS
 62
    30
 10
-570.73942857142492
 20
-477.08140064327341
 30
0.0
 40
64.0
  1
102
 50
0.0
 41
0.9
 51
0.0
  7
STANDARD
 71
     0
 72
     1
 11
-495.57142857142492
 21
-477.08140064327341
 31
0.0
210
0.0
220
0.0
230
1.0
  0
POINT
  8
DEFPOINTS
  6
CONTINUOUS
 62
    30
 10
-389.99999999999642
 20
-288.14999999999958
 30
0.0
  0
POINT
  8
DEFPOINTS
  6
CONTINUOUS
 62
    30
 10
-287.99999999999409
 20
-304.50000000539558
 30
0.0
  0
POINT
  8
DEFPOINTS
  6
CONTINUOUS
 62
    30
 10
-287.99999999999409
 20
-502.08140064327341
 30
0.0
  0
LINE
  8
SIZE
  6
CONTINUOUS
 62
    30
 10
-409.14999999999583
 20
-289.00000000000102
 30
0.0
 11
-743.36202184930892
 21
-289.00000000000108
 31
0.0
  0
LINE
  8
SIZE
  6
CONTINUOUS
 62
    30
 10
-409.14999999999583
 20
-0.0000000000036412
 30
0.0
 11
-743.36202184930903
 21
-0.0000000000036949
 31
0.0
  0
LINE
  8
SIZE
  6
CONTINUOUS
 62
    30
 10
-723.36202184930892
 20
-277.00000000000108
 30
0.0
 11
-723.36202184930903
 21
-12.000000000003689
 31
0.0
  0
CIRCLE
  8
SIZE
  6
CONTINUOUS
 62
    30
 10
-723.36202184930892
 20
-289.00000000000108
 30
0.0
 40
6.0
  0
LINE
  8
SIZE
  6
CONTINUOUS
 62
    30
 10
-723.36202184930892
 20
-289.00000000000108
 30
0.0
 11
-723.36202184930892
 21
-277.00000000000108
 31
0.0
  0
CIRCLE
  8
SIZE
  6
CONTINUOUS
 62
    30
 10
-723.36202184930903
 20
-0.0000000000036917
 30
0.0
 40
6.0
  0
LINE
  8
SIZE
  6
CONTINUOUS
 62
    30
 10
-723.36202184930903
 20
-0.0000000000036917
 30
0.0
 11
-723.36202184930903
 21
-12.000000000003691
 31
0.0
  0
TEXT
  8
SIZE
  6
CONTINUOUS
 62
    30
 10
-748.36202184930892
 20
-224.85200000000208
 30
0.0
 40
64.0
  1
289
 50
90.0
 41
0.9
 51
0.0
  7
STANDARD
 71
     0
 72
     1
 11
-748.36202184930892
 21
-144.5000000000021
 31
0.0
210
0.0
220
0.0
230
1.0
  0
POINT
  8
DEFPOINTS
  6
CONTINUOUS
 62
    30
 10
-389.14999999999583
 20
-289.00000000000102
 30
0.0
  0
POINT
  8
DEFPOINTS
  6
CONTINUOUS
 62
    30
 10
-389.14999999999583
 20
-0.000000000003638
 30
0.0
  0
POINT
  8
DEFPOINTS
  6
CONTINUOUS
 62
    30
 10
-723.36202184930903
 20
-0.0000000000036917
 30
0.0
  0
LINE
  8
SIZE
  6
CONTINUOUS
 62
    30
 10
-490.70152195957212
 20
-174.5000000021451
 30
0.0
 11
-631.7517807180476
 21
-174.5000000021451
 31
0.0
  0
LINE
  8
SIZE
  6
CONTINUOUS
 62
    30
 10
-503.07471683403293
 20
-144.49999999999869
 30
0.0
 11
-631.7517807180476
 21
-144.49999999999869
 31
0.0
  0
LINE
  8
SIZE
  6
CONTINUOUS
 62
    30
 10
-611.7517807180476
 20
-186.5000000021451
 30
0.0
 11
-611.7517807180476
 21
-198.50000000214521
 31
0.0
  0
LINE
  8
SIZE
  6
CONTINUOUS
 62
    30
 10
-611.7517807180476
 20
-132.49999999999869
 30
0.0
 11
-611.7517807180476
 21
-120.49999999999871
 31
0.0
  0
LINE
  8
SIZE
  6
CONTINUOUS
 62
    30
 10
-611.7517807180476
 20
-174.5000000021451
 30
0.0
 11
-611.7517807180476
 21
-144.49999999999869
 31
0.0
  0
CIRCLE
  8
SIZE
  6
CONTINUOUS
 62
    30
 10
-611.7517807180476
 20
-174.5000000021451
 30
0.0
 40
6.0
  0
LINE
  8
SIZE
  6
CONTINUOUS
 62
    30
 10
-611.7517807180476
 20
-174.5000000021451
 30
0.0
 11
-611.7517807180476
 21
-186.5000000021451
 31
0.0
  0
CIRCLE
  8
SIZE
  6
CONTINUOUS
 62
    30
 10
-611.7517807180476
 20
-144.49999999999869
 30
0.0
 40
6.0
  0
LINE
  8
SIZE
  6
CONTINUOUS
 62
    30
 10
-611.7517807180476
 20
-144.49999999999869
 30
0.0
 11
-611.7517807180476
 21
-132.49999999999869
 31
0.0
  0
TEXT
  8
SIZE
  6
CONTINUOUS
 62
    30
 10
-636.75178071804748
 20
-213.6440000010717
 30
0.0
 40
64.0
  1
30
 50
90.0
 41
0.9
 51
0.0
  7
STANDARD
 71
     0
 72
     1
 11
-636.75178071804748
 21
-159.5000000010717
 31
0.0
210
0.0
220
0.0
230
1.0
  0
POINT
  8
DEFPOINTS
  6
CONTINUOUS
 62
    30
 10
-470.70152195957212
 20
-174.5000000021451
 30
0.0
  0
POINT
  8
DEFPOINTS
  6
CONTINUOUS
 62
    30
 10
-483.07471683403293
 20
-144.49999999999869
 30
0.0
  0
POINT
  8
DEFPOINTS
  6
CONTINUOUS
 62
    30
 10
-611.7517807180476
 20
-144.49999999999869
 30
0.0
  0
LINE
  8
SIZE
  6
CONTINUOUS
 62
    30
 10
409.14999999999583
 20
-0.0000000000036348
 30
0.0
 11
694.28111573482977
 21
-0.0000000000035889
 31
0.0
  0
LINE
  8
SIZE
  6
CONTINUOUS
 62
    30
 10
422.00000000000159
 20
-65.000000000004562
 30
0.0
 11
694.28111573482977
 21
-65.000000000004519
 31
0.0
  0
LINE
  8
SIZE
  6
CONTINUOUS
 62
    30
 10
674.28111573482977
 20
-77.000000000004519
 30
0.0
 11
674.28111573482977
 21
-89.000000000004519
 31
0.0
  0
LINE
  8
SIZE
  6
CONTINUOUS
 62
    30
 10
674.28111573482977
 20
11.99999999999641
 30
0.0
 11
674.28111573482977
 21
167.25714285713931
 31
0.0
  0
LINE
  8
SIZE
  6
CONTINUOUS
 62
    30
 10
674.28111573482977
 20
-65.000000000004519
 30
0.0
 11
674.28111573482977
 21
-0.0000000000035921
 31
0.0
  0
CIRCLE
  8
SIZE
  6
CONTINUOUS
 62
    30
 10
674.28111573482977
 20
-65.000000000004519
 30
0.0
 40
6.0
  0
LINE
  8
SIZE
  6
CONTINUOUS
 62
    30
 10
674.28111573482977
 20
-65.000000000004519
 30
0.0
 11
674.28111573482977
 21
-77.000000000004519
 31
0.0
  0
CIRCLE
  8
SIZE
  6
CONTINUOUS
 62
    30
 10
674.28111573482977
 20
-0.0000000000035921
 30
0.0
 40
6.0
  0
LINE
  8
SIZE
  6
CONTINUOUS
 62
    30
 10
674.28111573482977
 20
-0.0000000000035921
 30
0.0
 11
674.28111573482977
 21
11.999999999996408
 31
0.0
  0
TEXT
  8
SIZE
  6
CONTINUOUS
 62
    30
 10
649.28111573482965
 20
42.060571428567656
 30
0.0
 40
64.0
  1
65
 50
90.0
 41
0.9
 51
0.0
  7
STANDARD
 71
     0
 72
     1
 11
649.28111573482965
 21
95.628571428567639
 31
0.0
210
0.0
220
0.0
230
1.0
  0
POINT
  8
DEFPOINTS
  6
CONTINUOUS
 62
    30
 10
389.14999999999583
 20
-0.000000000003638
 30
0.0
  0
POINT
  8
DEFPOINTS
  6
CONTINUOUS
 62
    30
 10
402.00000000000159
 20
-65.000000000004576
 30
0.0
  0
POINT
  8
DEFPOINTS
  6
CONTINUOUS
 62
    30
 10
674.28111573482977
 20
-65.000000000004519
 30
0.0
  0
LINE
  8
SIZE
  6
CONTINUOUS
 62
    30
 10
-421.99999999999432
 20
-65.00000000000459
 30
0.0
 11
-631.75178071805124
 21
-65.000000000004619
 31
0.0
  0
LINE
  8
SIZE
  6
CONTINUOUS
 62
    30
 10
-409.14999999999583
 20
-0.0000000000036412
 30
0.0
 11
-631.75178071805124
 21
-0.000000000003677
 31
0.0
  0
LINE
  8
SIZE
  6
CONTINUOUS
 62
    30
 10
-611.75178071805124
 20
-77.000000000004619
 30
0.0
 11
-611.75178071805124
 21
-89.000000000004619
 31
0.0
  0
LINE
  8
SIZE
  6
CONTINUOUS
 62
    30
 10
-611.75178071805124
 20
11.99999999999633
 30
0.0
 11
-611.75178071805124
 21
167.2571428571392
 31
0.0
  0
LINE
  8
SIZE
  6
CONTINUOUS
 62
    30
 10
-611.75178071805124
 20
-65.000000000004619
 30
0.0
 11
-611.75178071805124
 21
-0.0000000000036738
 31
0.0
  0
CIRCLE
  8
SIZE
  6
CONTINUOUS
 62
    30
 10
-611.75178071805124
 20
-65.000000000004619
 30
0.0
 40
6.0
  0
LINE
  8
SIZE
  6
CONTINUOUS
 62
    30
 10
-611.75178071805124
 20
-65.000000000004619
 30
0.0
 11
-611.75178071805124
 21
-77.000000000004619
 31
0.0
  0
CIRCLE
  8
SIZE
  6
CONTINUOUS
 62
    30
 10
-611.75178071805124
 20
-0.0000000000036738
 30
0.0
 40
6.0
  0
LINE
  8
SIZE
  6
CONTINUOUS
 62
    30
 10
-611.75178071805124
 20
-0.0000000000036738
 30
0.0
 11
-611.75178071805124
 21
11.999999999996326
 31
0.0
  0
TEXT
  8
SIZE
  6
CONTINUOUS
 62
    30
 10
-636.75178071805112
 20
42.06057142856794
 30
0.0
 40
64.0
  1
65
 50
90.0
 41
0.9
 51
0.0
  7
STANDARD
 71
     0
 72
     1
 11
-636.75178071805112
 21
95.628571428567923
 31
0.0
210
0.0
220
0.0
230
1.0
  0
POINT
  8
DEFPOINTS
  6
CONTINUOUS
 62
    30
 10
-401.99999999999432
 20
-65.000000000004576
 30
0.0
  0
POINT
  8
DEFPOINTS
  6
CONTINUOUS
 62
    30
 10
-389.14999999999583
 20
-0.000000000003638
 30
0.0
  0
POINT
  8
DEFPOINTS
  6
CONTINUOUS
 62
    30
 10
-611.75178071805124
 20
-0.0000000000036738
 30
0.0
  0
LINE
  8
SIZE
  6
CONTINUOUS
 62
    30
 10
474.00000000000159
 20
-245.49999999999969
 30
0.0
 11
834.71821070844385
 21
-245.4999999999996
 31
0.0
  0
LINE
  8
SIZE
  6
CONTINUOUS
 62
    30
 10
474.00000000000159
 20
-103.500228956003
 30
0.0
 11
834.71821070844385
 21
-103.500228956003
 31
0.0
  0
LINE
  8
SIZE
  6
CONTINUOUS
 62
    30
 10
814.71821070844385
 20
-233.4999999999996
 30
0.0
 11
814.71821070844385
 21
-115.500228956003
 31
0.0
  0
LINE
  8
SIZE
  6
CONTINUOUS
 62
    30
 10
814.71821070844385
 20
-103.500228956003
 30
0.0
 11
814.71821070844385
 21
147.75691390114
 31
0.0
  0
CIRCLE
  8
SIZE
  6
CONTINUOUS
 62
    30
 10
814.71821070844385
 20
-245.4999999999996
 30
0.0
 40
6.0
  0
LINE
  8
SIZE
  6
CONTINUOUS
 62
    30
 10
814.71821070844385
 20
-245.4999999999996
 30
0.0
 11
814.71821070844385
 21
-233.4999999999996
 31
0.0
  0
CIRCLE
  8
SIZE
  6
CONTINUOUS
 62
    30
 10
814.71821070844385
 20
-103.500228956003
 30
0.0
 40
6.0
  0
LINE
  8
SIZE
  6
CONTINUOUS
 62
    30
 10
814.71821070844385
 20
-103.500228956003
 30
0.0
 11
814.71821070844385
 21
-115.500228956003
 31
0.0
  0
TEXT
  8
SIZE
  6
CONTINUOUS
 62
    30
 10
789.71821070844362
 20
-81.599657527431759
 30
0.0
 40
64.0
  1
φ142
 50
90.0
 41
0.9
 51
0.0
  7
STANDARD
 71
     0
 72
     1
 11
789.71821070844362
 21
28.128342472568296
 31
0.0
210
0.0
220
0.0
230
1.0
  0
POINT
  8
DEFPOINTS
  6
CONTINUOUS
 62
    30
 10
454.00000000000159
 20
-245.49999999999969
 30
0.0
  0
POINT
  8
DEFPOINTS
  6
CONTINUOUS
 62
    30
 10
454.00000000000159
 20
-103.500228956003
 30
0.0
  0
POINT
  8
DEFPOINTS
  6
CONTINUOUS
 62
    30
 10
814.71821070844385
 20
-103.500228956003
 30
0.0
  0
LINE
  8
SIZE
  6
CONTINUOUS
 62
    30
 10
411.50000000000159
 20
-254.49999999999869
 30
0.0
 11
949.83315753993088
 21
-254.49999999999869
 31
0.0
  0
LINE
  8
SIZE
  6
CONTINUOUS
 62
    30
 10
411.50000000000159
 20
-94.499999999998664
 30
0.0
 11
949.83315753993088
 21
-94.499999999998565
 31
0.0
  0
LINE
  8
SIZE
  6
CONTINUOUS
 62
    30
 10
929.83315753993088
 20
-242.49999999999869
 30
0.0
 11
929.83315753993088
 21
-106.49999999999859
 31
0.0
  0
LINE
  8
SIZE
  6
CONTINUOUS
 62
    30
 10
929.83315753993088
 20
-94.499999999998565
 30
0.0
 11
929.83315753993088
 21
156.75714285714429
 31
0.0
  0
CIRCLE
  8
SIZE
  6
CONTINUOUS
 62
    30
 10
929.83315753993088
 20
-254.49999999999869
 30
0.0
 40
6.0
  0
LINE
  8
SIZE
  6
CONTINUOUS
 62
    30
 10
929.83315753993088
 20
-254.49999999999869
 30
0.0
 11
929.83315753993088
 21
-242.49999999999869
 31
0.0
  0
CIRCLE
  8
SIZE
  6
CONTINUOUS
 62
    30
 10
929.83315753993088
 20
-94.499999999998565
 30
0.0
 40
6.0
  0
LINE
  8
SIZE
  6
CONTINUOUS
 62
    30
 10
929.83315753993088
 20
-94.499999999998565
 30
0.0
 11
929.83315753993088
 21
-106.49999999999856
 31
0.0
  0
TEXT
  8
SIZE
  6
CONTINUOUS
 62
    30
 10
904.83315753993065
 20
-72.599428571427325
 30
0.0
 40
64.0
  1
φ160
 50
90.0
 41
0.9
 51
0.0
  7
STANDARD
 71
     0
 72
     1
 11
904.83315753993065
 21
37.12857142857262
 31
0.0
210
0.0
220
0.0
230
1.0
  0
POINT
  8
DEFPOINTS
  6
CONTINUOUS
 62
    30
 10
391.50000000000159
 20
-254.49999999999869
 30
0.0
  0
POINT
  8
DEFPOINTS
  6
CONTINUOUS
 62
    30
 10
391.50000000000159
 20
-94.499999999998664
 30
0.0
  0
POINT
  8
DEFPOINTS
  6
CONTINUOUS
 62
    30
 10
929.83315753993088
 20
-94.499999999998565
 30
0.0
  0
LINE
  8
BASIS
  6
DASHDOT
 62
     6
 10
440.50000000141517
 20
-65.000000000011369
 30
0.0
 11
327.49999999858483
 21
-65.000000000011369
 31
0.0
  0
LINE
  8
BASIS
  6
DASHDOT
 62
     6
 10
384.00000000000358
 20
-8.4999999985925569
 30
0.0
 11
384.00000000000358
 21
-121.5000000014165
 31
0.0
  0
LINE
  8
BASIS
  6
DASHDOT
 62
     6
 10
-327.49999999858028
 20
-65.000000000011369
 30
0.0
 11
-440.50000000141063
 21
-65.000000000011369
 31
0.0
  0
LINE
  8
BASIS
  6
DASHDOT
 62
     6
 10
-383.99999999999181
 20
-8.4999999985925569
 30
0.0
 11
-383.99999999999181
 21
-121.5000000014165
 31
0.0
  0
LINE
  8
SIZE
  6
CONTINUOUS
 62
    30
 10
-383.99999999999181
 20
11.500000001407439
 30
0.0
 11
-383.99999999999181
 21
130.47291274387001
 31
0.0
  0
LINE
  8
SIZE
  6
CONTINUOUS
 62
    30
 10
384.00000000000358
 20
11.500000001407439
 30
0.0
 11
384.00000000000358
 21
130.47291274387001
 31
0.0
  0
LINE
  8
SIZE
  6
CONTINUOUS
 62
    30
 10
-371.99999999999181
 20
110.47291274387
 30
0.0
 11
372.00000000000358
 21
110.47291274387
 31
0.0
  0
CIRCLE
  8
SIZE
  6
CONTINUOUS
 62
    30
 10
-383.99999999999181
 20
110.47291274387
 30
0.0
 40
6.0
  0
LINE
  8
SIZE
  6
CONTINUOUS
 62
    30
 10
-383.99999999999181
 20
110.47291274387
 30
0.0
 11
-371.99999999999181
 21
110.47291274387
 31
0.0
  0
CIRCLE
  8
SIZE
  6
CONTINUOUS
 62
    30
 10
384.00000000000358
 20
110.47291274387
 30
0.0
 40
6.0
  0
LINE
  8
SIZE
  6
CONTINUOUS
 62
    30
 10
384.00000000000358
 20
110.47291274387
 30
0.0
 11
372.00000000000358
 21
110.47291274387
 31
0.0
  0
TEXT
  8
SIZE
  6
CONTINUOUS
 62
    30
 10
-80.351999999994092
 20
135.47291274387001
 30
0.0
 40
64.0
  1
768
 50
0.0
 41
0.9
 51
0.0
  7
STANDARD
 71
     0
 72
     1
 11
0.0000000000059117
 21
135.47291274387001
 31
0.0
210
0.0
220
0.0
230
1.0
  0
POINT
  8
DEFPOINTS
  6
CONTINUOUS
 62
    30
 10
-383.99999999999181
 20
-8.4999999985925569
 30
0.0
  0
POINT
  8
DEFPOINTS
  6
CONTINUOUS
 62
    30
 10
384.00000000000358
 20
-8.4999999985925569
 30
0.0
  0
POINT
  8
DEFPOINTS
  6
CONTINUOUS
 62
    30
 10
384.00000000000358
 20
110.47291274387
 30
0.0
  0
CIRCLE
  8
FIX
  6
CONTINUOUS
 62
    11
 10
-383.99999999999181
 20
-65.000000000011369
 30
0.0
 40
6.5
  0
CIRCLE
  8
FIX
  6
CONTINUOUS
 62
    11
 10
384.0
 20
-65.000000000011369
 30
0.0
 40
6.5
  0
LINE
  8
OUTLINE
  6
CONTINUOUS
 62
     3
 10
-384.69999999999851
 20
-254.49999999999861
 30
0.0
 11
-391.49999999999409
 21
-254.49999999999861
 31
0.0
  0
LINE
  8
OUTLINE
  6
CONTINUOUS
 62
     3
 10
-391.49999999999409
 20
-254.49999999999861
 30
0.0
 11
-445.99999999999409
 21
-245.49999999999949
 31
0.0
  0
LINE
  8
OUTLINE
  6
CONTINUOUS
 62
     3
 10
-445.99999999999409
 20
-245.49999999999949
 30
0.0
 11
-453.99999999999409
 21
-245.49999999999949
 31
0.0
  0
LINE
  8
OUTLINE
  6
CONTINUOUS
 62
     3
 10
-453.99999999999409
 20
-245.49999999999949
 30
0.0
 11
-453.99999999999409
 21
-103.500228956003
 31
0.0
  0
LINE
  8
OUTLINE
  6
CONTINUOUS
 62
     3
 10
-453.99999999999409
 20
-103.500228956003
 30
0.0
 11
-445.99999999999409
 21
-103.50000000000411
 31
0.0
  0
LINE
  8
OUTLINE
  6
CONTINUOUS
 62
     3
 10
-445.99999999999409
 20
-103.50000000000411
 30
0.0
 11
-401.99999999999409
 21
-96.250000000000455
 31
0.0
  0
LINE
  8
OUTLINE
  6
CONTINUOUS
 62
     3
 10
-401.99999999999409
 20
-96.250000000000455
 30
0.0
 11
-401.999999999995
 21
-65.000000000000455
 31
0.0
  0
LINE
  8
OUTLINE
  6
CONTINUOUS
 62
     3
 10
-401.999999999995
 20
-65.000000000000455
 30
0.0
 11
-383.49999999999142
 21
-65.000000000000455
 31
0.0
  0
LINE
  8
OUTLINE
  6
CONTINUOUS
 62
     3
 10
-383.49999999999142
 20
-65.000000000000455
 30
0.0
 11
-383.49999999999142
 21
-1.599999999998545
 31
0.0
  0
ARC
  8
OUTLINE
  6
CONTINUOUS
 62
     3
 10
-383.99999999999142
 20
-1.5999999999985353
 30
0.0
 40
0.4999999999999902
 50
0.0
 51
90.0
  0
LINE
  8
OUTLINE
  6
CONTINUOUS
 62
     3
 10
-383.99999999999142
 20
-1.099999999998545
 30
0.0
 11
-385.49999999998948
 21
-1.099999999999
 31
0.0
  0
LINE
  8
OUTLINE
  6
CONTINUOUS
 62
     3
 10
-385.49999999998948
 20
-1.099999999999
 30
0.0
 11
-385.49999999999682
 21
-1.700000000000728
 31
0.0
  0
LINE
  8
OUTLINE
  6
CONTINUOUS
 62
     3
 10
-385.49999999999682
 20
-1.700000000000728
 30
0.0
 11
-389.14999999999458
 21
-1.7000000000020921
 31
0.0
  0
ARC
  8
OUTLINE
  6
CONTINUOUS
 62
     3
 10
-389.14999999999418
 20
-0.8500000000012735
 30
0.0
 40
0.8500000000008186
 50
90.0
 51
270.0
  0
LINE
  8
OUTLINE
  6
CONTINUOUS
 62
     3
 10
-389.14999999999372
 20
-0.0000000000004547
 30
0.0
 11
-383.45816558665911
 21
-0.0000000000013642
 31
0.0
  0
ARC
  8
OUTLINE
  6
CONTINUOUS
 62
     3
 10
-383.45816558665939
 20
-1.1000000000015959
 30
0.0
 40
1.1000000000002317
 50
5.0026856858403335
 51
90.0
  0
LINE
  8
OUTLINE
  6
CONTINUOUS
 62
     3
 10
-382.36235591384002
 20
-1.004077317824795
 30
0.0
 11
-382.22273077066569
 21
-2.5999999999976349
 31
0.0
  0
LINE
  8
OUTLINE
  6
CONTINUOUS
 62
     3
 10
-382.22273077066569
 20
-2.5999999999976349
 30
0.0
 11
-381.49999999999409
 21
-2.5999999999976349
 31
0.0
  0
LINE
  8
OUTLINE
  6
CONTINUOUS
 62
     3
 10
-381.49999999999409
 20
-2.5999999999976349
 30
0.0
 11
-381.49999999999409
 21
-0.5999999999999091
 31
0.0
  0
LINE
  8
OUTLINE
  6
CONTINUOUS
 62
     3
 10
-381.49999999999409
 20
-0.5999999999999091
 30
0.0
 11
-381.39999999999549
 21
-0.5999999999999091
 31
0.0
  0
LINE
  8
OUTLINE
  6
CONTINUOUS
 62
     3
 10
-381.39999999999549
 20
-0.5999999999999091
 30
0.0
 11
-381.39999999999549
 21
0.0
 31
0.0
  0
LINE
  8
OUTLINE
  6
CONTINUOUS
 62
     3
 10
-381.39999999999549
 20
0.0
 30
0.0
 11
381.40010000000029
 21
0.0
 31
0.0
  0
LINE
  8
OUTLINE
  6
CONTINUOUS
 62
     3
 10
381.40010000000029
 20
0.0
 30
0.0
 11
381.40010000000029
 21
-0.5999999999999091
 31
0.0
  0
LINE
  8
OUTLINE
  6
CONTINUOUS
 62
     3
 10
381.40010000000029
 20
-0.5999999999999091
 30
0.0
 11
381.50009999999878
 21
-0.5999999999999091
 31
0.0
  0
LINE
  8
OUTLINE
  6
CONTINUOUS
 62
     3
 10
381.50009999999878
 20
-0.5999999999999091
 30
0.0
 11
381.50009999999878
 21
-2.5999999999976349
 31
0.0
  0
LINE
  8
OUTLINE
  6
CONTINUOUS
 62
     3
 10
381.50009999999878
 20
-2.5999999999976349
 30
0.0
 11
382.22283077066407
 21
-2.5999999999976349
 31
0.0
  0
LINE
  8
OUTLINE
  6
CONTINUOUS
 62
     3
 10
382.22283077066407
 20
-2.5999999999976349
 30
0.0
 11
382.36245141872911
 21
-1.004128683464387
 31
0.0
  0
ARC
  8
OUTLINE
  6
CONTINUOUS
 62
     3
 10
383.45826558667261
 20
-1.1000000000014942
 30
0.0
 40
1.10000000000013
 50
90.0
 51
175.00000002537581
  0
LINE
  8
OUTLINE
  6
CONTINUOUS
 62
     3
 10
383.45826558667198
 20
-0.0000000000013642
 30
0.0
 11
389.15010000000029
 21
-0.0000000000004547
 31
0.0
  0
ARC
  8
OUTLINE
  6
CONTINUOUS
 62
     3
 10
389.15010000000029
 20
-0.8500000000012735
 30
0.0
 40
0.8500000000008188
 50
270.0
 51
90.0
  0
LINE
  8
OUTLINE
  6
CONTINUOUS
 62
     3
 10
389.15010000000029
 20
-1.7000000000020921
 30
0.0
 11
385.50010000000248
 21
-1.700000000000728
 31
0.0
  0
LINE
  8
OUTLINE
  6
CONTINUOUS
 62
     3
 10
385.50010000000248
 20
-1.700000000000728
 30
0.0
 11
385.50010000000248
 21
-1.100000000000819
 31
0.0
  0
LINE
  8
OUTLINE
  6
CONTINUOUS
 62
     3
 10
385.50010000000248
 20
-1.100000000000819
 30
0.0
 11
384.00010000000429
 21
-1.099999999998545
 31
0.0
  0
ARC
  8
OUTLINE
  6
CONTINUOUS
 62
     3
 10
384.00010000000407
 20
-1.5999999999983412
 30
0.0
 40
0.4999999999997962
 50
90.0
 51
180.0
  0
LINE
  8
OUTLINE
  6
CONTINUOUS
 62
     3
 10
383.50010000000429
 20
-1.599999999998545
 30
0.0
 11
383.50010000000429
 21
-65.000000000000455
 31
0.0
  0
LINE
  8
OUTLINE
  6
CONTINUOUS
 62
     3
 10
383.50010000000429
 20
-65.000000000000455
 30
0.0
 11
402.00010000000788
 21
-65.000000000000455
 31
0.0
  0
LINE
  8
OUTLINE
  6
CONTINUOUS
 62
     3
 10
402.00010000000788
 20
-65.000000000000455
 30
0.0
 11
402.00010000000162
 21
-96.250016477273221
 31
0.0
  0
LINE
  8
OUTLINE
  6
CONTINUOUS
 62
     3
 10
402.00010000000162
 20
-96.250016477273221
 30
0.0
 11
446.00000000000142
 21
-103.50000000000411
 31
0.0
  0
LINE
  8
OUTLINE
  6
CONTINUOUS
 62
     3
 10
446.00000000000142
 20
-103.50000000000411
 30
0.0
 11
454.00000000000142
 21
-103.500228956003
 31
0.0
  0
LINE
  8
OUTLINE
  6
CONTINUOUS
 62
     3
 10
454.00000000000142
 20
-103.500228956003
 30
0.0
 11
454.00000000000142
 21
-245.49999999999949
 31
0.0
  0
LINE
  8
OUTLINE
  6
CONTINUOUS
 62
     3
 10
454.00000000000142
 20
-245.49999999999949
 30
0.0
 11
446.00000000000142
 21
-245.49999999999949
 31
0.0
  0
LINE
  8
OUTLINE
  6
CONTINUOUS
 62
     3
 10
446.00000000000142
 20
-245.49999999999949
 30
0.0
 11
391.50000000000142
 21
-254.49999999999861
 31
0.0
  0
LINE
  8
OUTLINE
  6
CONTINUOUS
 62
     3
 10
391.50000000000142
 20
-254.49999999999861
 30
0.0
 11
384.70000000001301
 21
-254.4999999987435
 31
0.0
  0
ARC
  8
OUTLINE
  6
CONTINUOUS
 62
     3
 10
384.70000000002119
 20
-255.09999999876521
 30
0.0
 40
0.6000000000216956
 50
90.0
 51
180.0
  0
LINE
  8
OUTLINE
  6
CONTINUOUS
 62
     3
 10
384.09999999999951
 20
-255.09999999876391
 30
0.0
 11
384.09999999999991
 21
-264.49999999599868
 31
0.0
  0
LINE
  8
OUTLINE
  6
CONTINUOUS
 62
     3
 10
384.09999999999991
 20
-264.49999999599868
 30
0.0
 11
383.50010000000429
 21
-264.50000000000051
 31
0.0
  0
LINE
  8
OUTLINE
  6
CONTINUOUS
 62
     3
 10
383.50010000000429
 20
-264.50000000000051
 30
0.0
 11
383.50010000000429
 21
-287.400000000001
 31
0.0
  0
ARC
  8
OUTLINE
  6
CONTINUOUS
 62
     3
 10
384.00010000000429
 20
-287.400000000001
 30
0.0
 40
0.4999999999999902
 50
180.0
 51
270.0
  0
LINE
  8
OUTLINE
  6
CONTINUOUS
 62
     3
 10
384.00010000000429
 20
-287.900000000001
 30
0.0
 11
385.50010000000248
 21
-287.900000000001
 31
0.0
  0
LINE
  8
OUTLINE
  6
CONTINUOUS
 62
     3
 10
385.50010000000248
 20
-287.900000000001
 30
0.0
 11
385.50010000000248
 21
-287.29999999999882
 31
0.0
  0
LINE
  8
OUTLINE
  6
CONTINUOUS
 62
     3
 10
385.50010000000248
 20
-287.29999999999882
 30
0.0
 11
389.15010000000029
 21
-287.29999999999791
 31
0.0
  0
ARC
  8
OUTLINE
  6
CONTINUOUS
 62
     3
 10
389.15010000000024
 20
-288.14999999999827
 30
0.0
 40
0.8500000000003355
 50
270.0
 51
90.0
  0
LINE
  8
OUTLINE
  6
CONTINUOUS
 62
     3
 10
389.15010000000029
 20
-288.99999999999858
 30
0.0
 11
383.73316493867202
 21
-289.00000000000142
 31
0.0
  0
ARC
  8
OUTLINE
  6
CONTINUOUS
 62
     3
 10
383.73316493867105
 20
-287.60000000000116
 30
0.0
 40
1.4000000000002728
 50
184.99999996550423
 51
270.0
  0
LINE
  8
OUTLINE
  6
CONTINUOUS
 62
     3
 10
382.33849236126889
 20
-287.72201803900822
 30
0.0
 11
382.22283077066407
 21
-286.40000000000009
 31
0.0
  0
LINE
  8
OUTLINE
  6
CONTINUOUS
 62
     3
 10
382.22283077066407
 20
-286.40000000000009
 30
0.0
 11
381.50009999999878
 21
-286.40000000000009
 31
0.0
  0
LINE
  8
OUTLINE
  6
CONTINUOUS
 62
     3
 10
381.50009999999878
 20
-286.40000000000009
 30
0.0
 11
381.50009999999878
 21
-288.39999999999782
 31
0.0
  0
LINE
  8
OUTLINE
  6
CONTINUOUS
 62
     3
 10
381.50009999999878
 20
-288.39999999999782
 30
0.0
 11
381.40010000000029
 21
-288.39999999999782
 31
0.0
  0
LINE
  8
OUTLINE
  6
CONTINUOUS
 62
     3
 10
381.40010000000029
 20
-288.39999999999782
 30
0.0
 11
381.40010000000029
 21
-289.00000000000318
 31
0.0
  0
LINE
  8
OUTLINE
  6
CONTINUOUS
 62
     3
 10
381.40010000000029
 20
-289.00000000000318
 30
0.0
 11
-381.39999999999549
 21
-289.00000000000318
 31
0.0
  0
LINE
  8
OUTLINE
  6
CONTINUOUS
 62
     3
 10
-381.39999999999549
 20
-289.00000000000318
 30
0.0
 11
-381.39999999999549
 21
-288.39999999999782
 31
0.0
  0
LINE
  8
OUTLINE
  6
CONTINUOUS
 62
     3
 10
-381.39999999999549
 20
-288.39999999999782
 30
0.0
 11
-381.49999999999409
 21
-288.39999999999782
 31
0.0
  0
LINE
  8
OUTLINE
  6
CONTINUOUS
 62
     3
 10
-381.49999999999409
 20
-288.39999999999782
 30
0.0
 11
-381.49999999999409
 21
-286.40000000000009
 31
0.0
  0
LINE
  8
OUTLINE
  6
CONTINUOUS
 62
     3
 10
-381.49999999999409
 20
-286.40000000000009
 30
0.0
 11
-382.22273077066569
 21
-286.40000000000009
 31
0.0
  0
LINE
  8
OUTLINE
  6
CONTINUOUS
 62
     3
 10
-382.22273077066569
 20
-286.40000000000009
 30
0.0
 11
-382.33839236271018
 21
-287.72201804039611
 31
0.0
  0
ARC
  8
OUTLINE
  6
CONTINUOUS
 62
     3
 10
-383.73306493999081
 20
-287.60000000000025
 30
0.0
 40
1.4000000000002466
 50
270.0
 51
354.99999997744135
  0
LINE
  8
OUTLINE
  6
CONTINUOUS
 62
     3
 10
-383.73306493999229
 20
-289.00000000000051
 30
0.0
 11
-389.14999999999549
 21
-288.99999999999858
 31
0.0
  0
ARC
  8
OUTLINE
  6
CONTINUOUS
 62
     3
 10
-389.14999999999543
 20
-288.14999999999822
 30
0.0
 40
0.8500000000003355
 50
90.0
 51
270.0
  0
LINE
  8
OUTLINE
  6
CONTINUOUS
 62
     3
 10
-389.14999999999549
 20
-287.29999999999791
 30
0.0
 11
-385.49999999999682
 21
-287.29999999999882
 31
0.0
  0
LINE
  8
OUTLINE
  6
CONTINUOUS
 62
     3
 10
-385.49999999999682
 20
-287.29999999999882
 30
0.0
 11
-385.49999999998948
 21
-287.90000000000049
 31
0.0
  0
LINE
  8
OUTLINE
  6
CONTINUOUS
 62
     3
 10
-385.49999999998948
 20
-287.90000000000049
 30
0.0
 11
-383.99999999999142
 21
-287.900000000001
 31
0.0
  0
ARC
  8
OUTLINE
  6
CONTINUOUS
 62
     3
 10
-383.99999999999119
 20
-287.40000000000123
 30
0.0
 40
0.4999999999997962
 50
270.0
 51
0.0
  0
LINE
  8
OUTLINE
  6
CONTINUOUS
 62
     3
 10
-383.49999999999142
 20
-287.400000000001
 30
0.0
 11
-383.49999999999409
 21
-264.50000000000051
 31
0.0
  0
LINE
  8
OUTLINE
  6
CONTINUOUS
 62
     3
 10
-383.49999999999409
 20
-264.50000000000051
 30
0.0
 11
-384.09999999999258
 21
-264.49999999599868
 31
0.0
  0
LINE
  8
OUTLINE
  6
CONTINUOUS
 62
     3
 10
-384.09999999999258
 20
-264.49999999599868
 30
0.0
 11
-384.09999999999258
 21
-255.10000000000079
 31
0.0
  0
ARC
  8
OUTLINE
  6
CONTINUOUS
 62
     3
 10
-384.70000000000567
 20
-255.1000000000117
 30
0.0
 40
0.6000000000131078
 50
0.0
 51
90.0
  0
POINT
  8
ARRANGE
  6
CONTINUOUS
 62
     1
 10
0.0
 20
0.0
 30
0.0
  0
CIRCLE
  8
ARRANGE
  6
CONTINUOUS
 62
     1
 10
0.0
 20
0.0
 30
0.0
 40
40.0
  0
TEXT
  8
NOTE
  6
CONTINUOUS
 62
     4
 10
468.72254879594402
 20
-202.5622780140188
 30
0.0
 40
64.065641025638456
  1
SA
 41
0.9
  0
TEXT
  8
NOTE
  6
CONTINUOUS
 62
     4
 10
-577.39145879416992
 20
-202.5622780140188
 30
0.0
 40
64.065641025638456
  1
OA
 41
0.9
  0
TEXT
  8
ETC
  6
CONTINUOUS
 62
    61
 10
772.06723373083696
 20
768.62069301519864
 30
0.0
 40
64.065641025638456
  1
LGH-25RVX3-E_5
 41
0.9
  0
TEXT
  8
ETC
  6
CONTINUOUS
 62
    61
 10
767.8769464036568
 20
650.54440319522882
 30
0.0
 40
64.065641025638456
  1
LOSSNAY
 41
0.9
  0
TEXT
  8
ETC
  6
CONTINUOUS
 62
    61
 10
818.63034608631187
 20
542.28470849066287
 30
0.0
 40
40.041025641024042
  1
LGH-25RVX3-E
 50
0.0
 41
0.9
 51
0.0
  7
STANDARD
 71
     0
 11
0.0
 21
0.0
 31
0.0
210
0.0
220
0.0
230
1.0
  0
TEXT
  8
NOTE
  6
CONTINUOUS
 62
     4
 10
525.50888090831268
 20
384.50919848679092
 30
0.0
 40
69.0
  1
Ceiling suspension fixture
 50
0.0
 41
0.9
 51
0.0
  7
STANDARD
 71
     0
 11
0.0
 21
0.0
 31
0.0
210
0.0
220
0.0
230
1.0
  0
TEXT
  8
NOTE
  6
CONTINUOUS
 62
     4
 10
525.50888090831268
 20
270.65919848679096
 30
0.0
 40
69.0
  1
(4-13X20 oval)
 50
0.0
 41
0.9
 51
0.0
  7
STANDARD
 71
     0
 11
0.0
 21
0.0
 31
0.0
210
0.0
220
0.0
230
1.0
  0
LINE
  8
NOTE
  6
CONTINUOUS
 62
     4
 10
515.50888090831268
 20
233.3663413439335
 30
0.0
 11
1732.023166622598
 21
233.3663413439335
 31
0.0
  0
LINE
  8
NOTE
  6
CONTINUOUS
 62
     4
 10
405.88655811492032
 20
-36.122144609120397
 30
0.0
 11
384.00000791660301
 21
-64.999999333442247
 31
0.0
  0
LINE
  8
NOTE
  6
CONTINUOUS
 62
     4
 10
384.00000791660301
 20
-64.999999333442247
 30
0.0
 11
388.51533484939392
 21
-29.047761631839961
 31
0.0
  0
LINE
  8
NOTE
  6
CONTINUOUS
 62
     4
 10
384.00000791660301
 20
-64.999999333442247
 30
0.0
 11
410.40188504771123
 21
-0.1699069075181114
 31
0.0
  0
LINE
  8
NOTE
  6
CONTINUOUS
 62
     4
 10
410.40188504771112
 20
-0.169906907518083
 30
0.0
 11
505.50888090831268
 21
233.3663413439335
 31
0.0
  0
LINE
  8
NOTE
  6
CONTINUOUS
 62
     4
 10
505.50888090831268
 20
233.3663413439335
 30
0.0
 11
515.50888090831268
 21
233.3663413439335
 31
0.0
  0
TEXT
  8
NOTE
  6
CONTINUOUS
 62
     4
 10
476.06303322684607
 20
-376.11626031273693
 30
0.0
 40
69.0
  1
Power supply
 50
0.0
 41
0.9
 51
0.0
  7
STANDARD
 71
     0
 11
0.0
 21
0.0
 31
0.0
210
0.0
220
0.0
230
1.0
  0
TEXT
  8
NOTE
  6
CONTINUOUS
 62
     4
 10
476.06303322684607
 20
-489.96626031273695
 30
0.0
 40
69.0
  1
cable opening
 50
0.0
 41
0.9
 51
0.0
  7
STANDARD
 71
     0
 11
0.0
 21
0.0
 31
0.0
210
0.0
220
0.0
230
1.0
  0
LINE
  8
NOTE
  6
CONTINUOUS
 62
     4
 10
466.06303322684607
 20
-514.11626031273693
 30
0.0
 11
1117.7630332268459
 21
-514.11626031273693
 31
0.0
  0
LINE
  8
NOTE
  6
CONTINUOUS
 62
     4
 10
359.15360902523923
 20
-266.57989358410265
 30
0.0
 11
356.39999999999549
 21
-230.44999999999979
 31
0.0
  0
LINE
  8
NOTE
  6
CONTINUOUS
 62
     4
 10
356.39999999999549
 20
-230.44999999999979
 30
0.0
 11
376.84968723658181
 21
-260.36257035074527
 31
0.0
  0
LINE
  8
NOTE
  6
CONTINUOUS
 62
     4
 10
356.39999999999549
 20
-230.44999999999979
 30
0.0
 11
379.60329626182556
 21
-296.4924639348481
 31
0.0
  0
LINE
  8
NOTE
  6
CONTINUOUS
 62
     4
 10
379.60329626182568
 20
-296.49246393484822
 30
0.0
 11
456.06303322684607
 21
-514.11626031273693
 31
0.0
  0
LINE
  8
NOTE
  6
CONTINUOUS
 62
     4
 10
456.06303322684607
 20
-514.11626031273693
 30
0.0
 11
466.06303322684607
 21
-514.11626031273693
 31
0.0
  0
ENDSEC
  0
EOF
