  0
SECTION
  2
HEADER
  9
$ACADVER
  1
AC1009
  9
$DWGCODEPAGE
  3
dos932
  9
$INSBASE
 10
0.0
 20
0.0
 30
0.0
  9
$EXTMIN
 10
-1175.5645592761759
 20
-532.88267882643595
 30
-0.0000000349181948
  9
$EXTMAX
 10
1695.368969865805
 20
826.72119970284439
 30
0.0000000814935746
  9
$LIMMIN
 10
-2970.0
 20
-2100.0
  9
$LIMMAX
 10
2970.0
 20
2100.0
  9
$ORTHOMODE
 70
     1
  9
$REGENMODE
 70
     1
  9
$FILLMODE
 70
     1
  9
$QTEXTMODE
 70
     0
  9
$MIRRTEXT
 70
     0
  9
$LTSCALE
 40
20.0
  9
$ATTMODE
 70
     1
  9
$TEXTSIZE
 40
64.0
  9
$TRACEWID
 40
0.05
  9
$TEXTSTYLE
  7
STANDARD
  9
$CLAYER
  8
SIZE
  9
$CELTYPE
  6
CONTINUOUS
  9
$CECOLOR
 62
     7
  9
$DIMSCALE
 40
1.0
  9
$DIMASZ
 40
12.0
  9
$DIMEXO
 40
20.0
  9
$DIMDLI
 40
200.0
  9
$DIMRND
 40
0.0
  9
$DIMDLE
 40
0.0
  9
$DIMEXE
 40
20.0
  9
$DIMTP
 40
0.0
  9
$DIMTM
 40
0.0
  9
$DIMTXT
 40
64.0
  9
$DIMCEN
 40
0.09
  9
$DIMTSZ
 40
0.0
  9
$DIMTOL
 70
     0
  9
$DIMLIM
 70
     0
  9
$DIMTIH
 70
     0
  9
$DIMTOH
 70
     0
  9
$DIMSE1
 70
     0
  9
$DIMSE2
 70
     0
  9
$DIMTAD
 70
     1
  9
$DIMZIN
 70
     8
  9
$DIMBLK
  1

  9
$DIMASO
 70
     1
  9
$DIMSHO
 70
     0
  9
$DIMPOST
  1

  9
$DIMAPOST
  1

  9
$DIMALT
 70
     0
  9
$DIMALTD
 70
     2
  9
$DIMALTF
 40
25.399999999999999
  9
$DIMLFAC
 40
1.0
  9
$DIMTOFL
 70
     1
  9
$DIMTVP
 40
0.0
  9
$DIMTIX
 70
     1
  9
$DIMSOXD
 70
     0
  9
$DIMSAH
 70
     0
  9
$DIMBLK1
  1

  9
$DIMBLK2
  1

  9
$DIMSTYLE
  2
STANDARD
  9
$DIMCLRD
 70
     7
  9
$DIMCLRE
 70
     7
  9
$DIMCLRT
 70
     7
  9
$DIMTFAC
 40
1.0
  9
$DIMGAP
 40
25.0
  9
$LUNITS
 70
     2
  9
$LUPREC
 70
     4
  9
$SKETCHINC
 40
0.1
  9
$FILLETRAD
 40
3.0
  9
$AUNITS
 70
     1
  9
$AUPREC
 70
     3
  9
$MENU
  1
ACAD
  9
$ELEVATION
 40
0.0
  9
$PELEVATION
 40
0.0
  9
$THICKNESS
 40
0.0
  9
$LIMCHECK
 70
     0
  9
$CHAMFERA
 40
0.0
  9
$CHAMFERB
 40
0.0
  9
$SKPOLY
 70
     0
  9
$TDCREATE
 40
2453019.62301037
  9
$TDUPDATE
 40
2460045.427764803
  9
$TDINDWG
 40
1.7139627431
  9
$TDUSRTIMER
 40
1.7139627431
  9
$USRTIMER
 70
     1
  9
$ANGBASE
 50
0.0
  9
$ANGDIR
 70
     0
  9
$PDMODE
 70
     3
  9
$PDSIZE
 40
-2.0
  9
$PLINEWID
 40
0.0
  9
$SPLFRAME
 70
     0
  9
$SPLINETYPE
 70
     6
  9
$SPLINESEGS
 70
     8
  9
$SURFTAB1
 70
     6
  9
$SURFTAB2
 70
     6
  9
$SURFTYPE
 70
     6
  9
$SURFU
 70
     6
  9
$SURFV
 70
     6
  9
$UCSNAME
  2

  9
$UCSORG
 10
0.0
 20
0.0
 30
0.0
  9
$UCSXDIR
 10
1.0
 20
0.0
 30
0.0
  9
$UCSYDIR
 10
0.0
 20
1.0
 30
0.0
  9
$PUCSNAME
  2

  9
$PUCSORG
 10
0.0
 20
0.0
 30
0.0
  9
$PUCSXDIR
 10
1.0
 20
0.0
 30
0.0
  9
$PUCSYDIR
 10
0.0
 20
1.0
 30
0.0
  9
$USERI1
 70
     0
  9
$USERI2
 70
     0
  9
$USERI3
 70
     0
  9
$USERI4
 70
     0
  9
$USERI5
 70
     0
  9
$USERR1
 40
20.0
  9
$USERR2
 40
0.0
  9
$USERR3
 40
0.0
  9
$USERR4
 40
0.0
  9
$USERR5
 40
0.0
  9
$WORLDVIEW
 70
     1
  9
$SHADEDGE
 70
     3
  9
$SHADEDIF
 70
    70
  9
$TILEMODE
 70
     1
  9
$MAXACTVP
 70
    48
  9
$PINSBASE
 10
0.0
 20
0.0
 30
0.0
  9
$PLIMCHECK
 70
     0
  9
$PEXTMIN
 10
-100000000000000000000.0
 20
-100000000000000000000.0
 30
-100000000000000000000.0
  9
$PEXTMAX
 10
100000000000000000000.0
 20
100000000000000000000.0
 30
100000000000000000000.0
  9
$PLIMMIN
 10
0.0
 20
0.0
  9
$PLIMMAX
 10
12.0
 20
9.0
  9
$UNITMODE
 70
     0
  9
$VISRETAIN
 70
     0
  9
$PLINEGEN
 70
     0
  9
$PSLTSCALE
 70
     0
  9
$TREEDEPTH
 70
  3020
  9
$ATTDIA
 70
     0
  9
$ATTREQ
 70
     1
  9
$BLIPMODE
 70
     1
  9
$COORDS
 70
     1
  9
$DRAGMODE
 70
     2
  9
$OSMODE
 70
     0
  9
$HANDLING
 70
     0
  9
$HANDSEED
  5
F5F5
  0
ENDSEC
  0
SECTION
  2
TABLES
  0
TABLE
  2
LTYPE
 70
     2
  0
LTYPE
  2
CONTINUOUS
 70
     0
  3
実線
 72
    65
 73
     0
 40
0.0
  0
LTYPE
  2
DASHDOT
 70
     0
  3
____ _ ____ _ ____ _ ____ _ ____ _ ____ _ ____
 72
    65
 73
     4
 40
5.5
 49
4.0
 49
-0.6
 49
0.3
 49
-0.6
  0
ENDTAB
  0
TABLE
  2
LAYER
 70
    12
  0
LAYER
  2
0
 70
     0
 62
     7
  6
CONTINUOUS
  0
LAYER
  2
BASIS
 70
     0
 62
     6
  6
DASHDOT
  0
LAYER
  2
OUTLINE
 70
     0
 62
     3
  6
CONTINUOUS
  0
LAYER
  2
DETAIL
 70
     0
 62
     5
  6
CONTINUOUS
  0
LAYER
  2
SIZE
 70
     0
 62
    30
  6
CONTINUOUS
  0
LAYER
  2
ARRANGE
 70
     0
 62
     1
  6
CONTINUOUS
  0
LAYER
  2
DEFPOINTS
 70
     0
 62
     7
  6
CONTINUOUS
  0
LAYER
  2
ETC
 70
     0
 62
    61
  6
CONTINUOUS
  0
LAYER
  2
FIX
 70
     0
 62
    11
  6
CONTINUOUS
  0
LAYER
  2
NOTE
 70
     0
 62
     4
  6
CONTINUOUS
  0
LAYER
  2
SERVICESPACE
 70
    64
 62
     2
  6
DASHDOT
  0
LAYER
  2
SYMBOLLINE
 70
    64
 62
    15
  6
CONTINUOUS
  0
ENDTAB
  0
TABLE
  2
STYLE
 70
     1
  0
STYLE
  2
STANDARD
 70
     0
 40
64.0
 41
0.9
 50
0.0
 71
     0
 42
64.0
  3
SIMPLEX.shx
  4
BIGFONT.shx
  0
ENDTAB
  0
TABLE
  2
APPID
 70
    20
  0
APPID
  2
ACAD
 70
     0
  0
APPID
  2
AUTOCAD_POSTSCRIPT_FIGURE
 70
     0
  0
APPID
  2
ACAD_EXEMPT_FROM_CAD_STANDARDS
 70
     0
  0
APPID
  2
ACAD_PSEXT
 70
     0
  0
APPID
  2
ACAUTHENVIRON
 70
     0
  0
APPID
  2
GENIUS_GENOENT_13
 70
     0
  0
APPID
  2
GENIUS_GENCFG_13
 70
     0
  0
APPID
  2
GENIUS_GENCFG0_13
 70
     0
  0
APPID
  2
GENIUS_GENCFG1_13
 70
     0
  0
APPID
  2
GENIUS_GENCFG2_13
 70
     0
  0
APPID
  2
GENIUS_GENCFG3_13
 70
     0
  0
APPID
  2
GENIUS_GENCFG4_13
 70
     0
  0
APPID
  2
GENIUS_GEVCFG0_13
 70
     0
  0
APPID
  2
CONTENTBLOCKICON
 70
     0
  0
APPID
  2
CONTENTBLOCKDESCRIPTION
 70
     0
  0
APPID
  2
ACAD_NAV_VCDISPLAY
 70
     0
  0
APPID
  2
ACAD_MLEADERVER
 70
     0
  0
APPID
  2
ACDBDYNAMICBLOCKTRUENAME
 70
     0
  0
APPID
  2
ACDBDYNAMICBLOCKGUID
 70
     0
  0
APPID
  2
ACAD_DSTYLE_DIMRADIAL_EXTENSION
 70
     0
  0
ENDTAB
  0
TABLE
  2
DIMSTYLE
 70
     1
  0
DIMSTYLE
  2
STANDARD
 70
     0
  3

  4

  5
_ORIGIN
  6

  7

 40
1.0
 41
12.0
 42
20.0
 43
200.0
 44
20.0
 45
0.0
 46
0.0
 47
0.0
 48
0.0
140
64.0
141
0.09
142
0.0
143
25.399999999999999
144
1.0
145
0.0
146
1.0
147
25.0
 71
     0
 72
     0
 73
     0
 74
     0
 75
     0
 76
     0
 77
     1
 78
     8
170
     0
171
     2
172
     1
173
     0
174
     1
175
     0
176
     7
177
     7
178
     7
  0
ENDTAB
  0
TABLE
  2
VIEW
 70
     1
  0
VIEW
  2
ALL
 70
     0
 40
4282.6198079999986
 10
0.0
 20
41.309904000000003
 41
5940.0
 11
0.0
 21
0.0
 31
1.0
 12
0.0
 22
0.0
 32
0.0
 42
50.0
 43
0.0
 44
0.0
 50
0.0
 71
     0
  0
ENDTAB
  0
TABLE
  2
UCS
 70
     0
  0
ENDTAB
  0
TABLE
  2
VPORT
 70
     1
  0
VPORT
  2
*ACTIVE
 70
     0
 10
0.0
 20
0.0
 11
1.0
 21
1.0
 12
259.90220529481479
 22
146.91926043820419
 13
0.0
 23
0.0
 14
1.0
 24
1.0
 15
0.0
 25
0.0
 16
0.0
 26
0.0
 36
1.0
 17
0.0
 27
0.0
 37
0.0
 40
1617.8338430501681
 41
1.781285231116122
 42
50.0
 43
0.0
 44
0.0
 50
0.0
 51
0.0
 71
     0
 72
  1000
 73
     1
 74
     3
 75
     0
 76
     0
 77
     0
 78
     0
  0
ENDTAB
  0
ENDSEC
  0
SECTION
  2
BLOCKS
  0
BLOCK
  8
0
  2
_ORIGIN
 70
     0
 10
0.0
 20
0.0
 30
0.0
  3
_ORIGIN
  1
_ORIGIN
  0
CIRCLE
  8
0
  6
CONTINUOUS
 62
     7
 10
0.0
 20
0.0
 30
0.0
 40
0.5
  0
LINE
  8
0
  6
CONTINUOUS
 62
     7
 10
0.0
 20
0.0
 30
0.0
 11
-1.0
 21
0.0
 31
0.0
  0
ENDBLK
  8
0
  0
ENDSEC
  0
SECTION
  2
ENTITIES
  0
LINE
  8
DETAIL
  6
CONTINUOUS
 62
     5
 10
-477.20000000000158
 20
-11.89999999999452
 30
0.0
 11
-477.20000000000158
 21
-271.09999999999889
 31
0.0
  0
LINE
  8
DETAIL
  6
CONTINUOUS
 62
     5
 10
-476.59999999999849
 20
-11.89999999999452
 30
0.0
 11
-476.59999999999849
 21
-271.09999999999889
 31
0.0
  0
LINE
  8
DETAIL
  6
CONTINUOUS
 62
     5
 10
-476.0
 20
-10.699999999997431
 30
0.0
 11
-476.0
 21
-11.551087470690961
 31
0.0
  0
LINE
  8
DETAIL
  6
CONTINUOUS
 62
     5
 10
-476.0
 20
-271.44891252930972
 30
0.0
 11
-476.0
 21
-272.29999999999598
 31
0.0
  0
LINE
  8
DETAIL
  6
CONTINUOUS
 62
     5
 10
-431.00000000000182
 20
-52.600000000000357
 30
0.0
 11
-431.00000000000182
 21
-42.600000000000357
 31
0.0
  0
LINE
  8
DETAIL
  6
CONTINUOUS
 62
     5
 10
-429.83356526933579
 20
-52.600000000000357
 30
0.0
 11
-429.83356526933579
 21
-42.600000000000357
 31
0.0
  0
LINE
  8
DETAIL
  6
CONTINUOUS
 62
     5
 10
-426.70000000000073
 20
-42.600000000000357
 30
0.0
 11
-426.70000000000073
 21
-52.600000000000357
 31
0.0
  0
LINE
  8
DETAIL
  6
CONTINUOUS
 62
     5
 10
-425.00000000000091
 20
-43.799999999997453
 30
0.0
 11
-425.00000000000091
 21
-23.800568998662129
 31
0.0
  0
LINE
  8
DETAIL
  6
CONTINUOUS
 62
     5
 10
-425.00000000000091
 20
-52.600000000000357
 30
0.0
 11
-425.00000000000091
 21
-69.968076369326809
 31
0.0
  0
LINE
  8
DETAIL
  6
CONTINUOUS
 62
     5
 10
-417.00000000000091
 20
-43.799999999997453
 30
0.0
 11
-417.00000000000091
 21
-23.800568998662129
 31
0.0
  0
LINE
  8
DETAIL
  6
CONTINUOUS
 62
     5
 10
-417.00000000000091
 20
-52.600000000000357
 30
0.0
 11
-417.00000000000091
 21
-69.965506932001517
 31
0.0
  0
LINE
  8
DETAIL
  6
CONTINUOUS
 62
     5
 10
-415.30000000000018
 20
-42.600000000000357
 30
0.0
 11
-415.30000000000018
 21
-52.600000000000357
 31
0.0
  0
LINE
  8
DETAIL
  6
CONTINUOUS
 62
     5
 10
-412.13256777066999
 20
-52.600000000000357
 30
0.0
 11
-412.13256777066999
 21
-42.600000000000357
 31
0.0
  0
LINE
  8
DETAIL
  6
CONTINUOUS
 62
     5
 10
-411.00000000000091
 20
-42.600000000000357
 30
0.0
 11
-411.00000000000091
 21
-52.600000000000357
 31
0.0
  0
LINE
  8
DETAIL
  6
CONTINUOUS
 62
     5
 10
-411.00000000000091
 20
-58.199999999993452
 30
0.0
 11
-411.00000000000091
 21
-61.799999999999272
 31
0.0
  0
LINE
  8
DETAIL
  6
CONTINUOUS
 62
     5
 10
-411.00000000000091
 20
-71.399999999997817
 30
0.0
 11
-411.00000000000091
 21
-74.999999999996362
 31
0.0
  0
LINE
  8
DETAIL
  6
CONTINUOUS
 62
     5
 10
-407.800000000002
 20
-58.199999999993452
 30
0.0
 11
-407.800000000002
 21
-61.799999999999272
 31
0.0
  0
LINE
  8
DETAIL
  6
CONTINUOUS
 62
     5
 10
-407.800000000002
 20
-71.399999999997817
 30
0.0
 11
-407.800000000002
 21
-74.999999999996362
 31
0.0
  0
LINE
  8
DETAIL
  6
CONTINUOUS
 62
     5
 10
-418.55760783199997
 20
-74.870796852004787
 30
0.0
 11
-417.00000000000091
 21
-69.965506932001517
 31
0.0
  0
LINE
  8
DETAIL
  6
CONTINUOUS
 62
     5
 10
-386.45000000000158
 20
-272.29999999999598
 30
0.0
 11
-386.45000000000158
 21
-271.69999999999737
 31
0.0
  0
LINE
  8
DETAIL
  6
CONTINUOUS
 62
     5
 10
-360.46006823733751
 20
-1.0564221293316221
 30
0.0
 11
-360.3250226720038
 21
-2.5999999999985448
 31
0.0
  0
LINE
  8
DETAIL
  6
CONTINUOUS
 62
     5
 10
-359.86235141866842
 20
-1.0041286839987149
 30
0.0
 11
-359.7227307693347
 21
-2.5999999999985448
 31
0.0
  0
LINE
  8
DETAIL
  6
CONTINUOUS
 62
     5
 10
-370.09999999999758
 20
-284.50000000000182
 30
0.0
 11
-370.09999999999758
 21
-283.99999999999449
 31
0.0
  0
LINE
  8
DETAIL
  6
CONTINUOUS
 62
     5
 10
-370.09999999999758
 20
-4.500000000001819
 30
0.0
 11
-370.09999999999758
 21
-5.000000000001819
 31
0.0
  0
LINE
  8
DETAIL
  6
CONTINUOUS
 62
     5
 10
-366.300000000002
 20
-271.69562532399902
 30
0.0
 11
-366.300000000002
 21
-271.09999999999889
 31
0.0
  0
LINE
  8
DETAIL
  6
CONTINUOUS
 62
     5
 10
-366.300000000002
 20
-11.299999999995981
 30
0.0
 11
-366.300000000002
 21
-10.699999999997431
 31
0.0
  0
LINE
  8
DETAIL
  6
CONTINUOUS
 62
     5
 10
-366.300000000002
 20
-11.304374677333159
 30
0.0
 11
-366.300000000002
 21
-11.89999999999452
 31
0.0
  0
LINE
  8
DETAIL
  6
CONTINUOUS
 62
     5
 10
-366.300000000002
 20
-271.69999999999737
 30
0.0
 11
-366.300000000002
 21
-272.29999999999598
 31
0.0
  0
LINE
  8
DETAIL
  6
CONTINUOUS
 62
     5
 10
-366.00000000000267
 20
-288.39999999999782
 30
0.0
 11
-366.00000000000267
 21
-287.89999999999782
 31
0.0
  0
LINE
  8
DETAIL
  6
CONTINUOUS
 62
     5
 10
-366.00000000000267
 20
-1.099999999998545
 30
0.0
 11
-366.00000000000267
 21
-0.5999999999985448
 31
0.0
  0
LINE
  8
DETAIL
  6
CONTINUOUS
 62
     5
 10
-364.20000000000158
 20
-115.0000000000036
 30
0.0
 11
-364.20000000000158
 21
-71.399999999997817
 31
0.0
  0
LINE
  8
DETAIL
  6
CONTINUOUS
 62
     5
 10
-364.10000000000042
 20
-4.500000000001819
 30
0.0
 11
-364.10000000000042
 21
-11.89999999999452
 31
0.0
  0
LINE
  8
DETAIL
  6
CONTINUOUS
 62
     5
 10
-364.10000000000042
 20
-271.09999999999889
 30
0.0
 11
-364.10000000000042
 21
-284.50000000000182
 31
0.0
  0
LINE
  8
DETAIL
  6
CONTINUOUS
 62
     5
 10
-361.800000000002
 20
-11.89999999999452
 30
0.0
 11
-361.800000000002
 21
-12.61639929866249
 31
0.0
  0
LINE
  8
DETAIL
  6
CONTINUOUS
 62
     5
 10
-361.800000000002
 20
-270.38360070266242
 30
0.0
 11
-361.800000000002
 21
-271.09999999999889
 31
0.0
  0
LINE
  8
DETAIL
  6
CONTINUOUS
 62
     5
 10
-361.00000000000091
 20
-287.39999999999782
 30
0.0
 11
-361.00000000000091
 21
-1.599999999998545
 31
0.0
  0
LINE
  8
DETAIL
  6
CONTINUOUS
 62
     5
 10
-360.49999999999909
 20
-287.39999999999782
 30
0.0
 11
-360.49999999999909
 21
-286.39999999999782
 31
0.0
  0
LINE
  8
DETAIL
  6
CONTINUOUS
 62
     5
 10
-360.49999999999909
 20
-1.599999999998545
 30
0.0
 11
-360.49999999999909
 21
-2.5999999999985448
 31
0.0
  0
LINE
  8
DETAIL
  6
CONTINUOUS
 62
     5
 10
-358.99999999999909
 20
-288.39999999999782
 30
0.0
 11
-358.99999999999909
 21
-286.39999999999782
 31
0.0
  0
LINE
  8
DETAIL
  6
CONTINUOUS
 62
     5
 10
-358.99999999999909
 20
-0.5999999999985448
 30
0.0
 11
-358.99999999999909
 21
-2.5999999999985448
 31
0.0
  0
LINE
  8
DETAIL
  6
CONTINUOUS
 62
     5
 10
-358.90000000000049
 20
-288.99999999999642
 30
0.0
 11
-358.90000000000049
 21
-288.39999999999782
 31
0.0
  0
LINE
  8
DETAIL
  6
CONTINUOUS
 62
     5
 10
-358.90000000000049
 20
0.0
 30
0.0
 11
-358.90000000000049
 21
-0.5999999999985448
 31
0.0
  0
LINE
  8
DETAIL
  6
CONTINUOUS
 62
     5
 10
-349.00000000000091
 20
-142.18901115733209
 30
0.0
 11
-349.00000000000091
 21
-206.8109888439958
 31
0.0
  0
LINE
  8
DETAIL
  6
CONTINUOUS
 62
     5
 10
-360.43610918000007
 20
-287.66972459466712
 30
0.0
 11
-360.3250226720038
 21
-286.39999999999782
 31
0.0
  0
LINE
  8
DETAIL
  6
CONTINUOUS
 62
     5
 10
-359.83839236133463
 20
-287.72201804000002
 30
0.0
 11
-359.7227307693347
 21
-286.39999999999782
 31
0.0
  0
LINE
  8
DETAIL
  6
CONTINUOUS
 62
     5
 10
-340.99999999999909
 20
-109.9999999999964
 30
0.0
 11
-340.99999999999909
 21
-103.5021363239975
 31
0.0
  0
LINE
  8
DETAIL
  6
CONTINUOUS
 62
     5
 10
355.00000000000091
 20
-289.00000000000358
 30
0.0
 11
353.29999999999751
 21
-287.29999999999927
 31
0.0
  0
LINE
  8
DETAIL
  6
CONTINUOUS
 62
     5
 10
-375.09999999999951
 20
-283.99999999999449
 30
0.0
 11
-375.41651376133541
 21
-284.38706464533061
 31
0.0
  0
LINE
  8
DETAIL
  6
CONTINUOUS
 62
     5
 10
366.649999999996
 20
0.0
 30
0.0
 11
360.9581655879947
 21
0.0
 31
0.0
  0
LINE
  8
DETAIL
  6
CONTINUOUS
 62
     5
 10
-360.95816558666769
 20
0.0
 30
0.0
 11
-366.64999999999873
 21
0.0
 31
0.0
  0
LINE
  8
DETAIL
  6
CONTINUOUS
 62
     5
 10
-358.90000000000049
 20
0.0
 30
0.0
 11
358.89999999999509
 21
0.0
 31
0.0
  0
LINE
  8
DETAIL
  6
CONTINUOUS
 62
     5
 10
366.64999999997963
 20
-0.5999999999985448
 30
0.0
 11
360.9581655879947
 21
-0.5999999999985448
 31
0.0
  0
LINE
  8
DETAIL
  6
CONTINUOUS
 62
     5
 10
358.99999999999733
 20
-0.5999999999985448
 30
0.0
 11
354.40000000000958
 21
-0.5999999999985448
 31
0.0
  0
LINE
  8
DETAIL
  6
CONTINUOUS
 62
     5
 10
-360.95816558666769
 20
-0.5999999999985448
 30
0.0
 11
-366.64999999998048
 21
-0.5999999999985448
 31
0.0
  0
LINE
  8
DETAIL
  6
CONTINUOUS
 62
     5
 10
-358.99999999999909
 20
-0.5999999999985448
 30
0.0
 11
-354.40000000000327
 21
-0.5999999999985448
 31
0.0
  0
LINE
  8
DETAIL
  6
CONTINUOUS
 62
     5
 10
-361.49999999999909
 20
-1.099999999998545
 30
0.0
 11
-366.64999999998048
 21
-1.099999999998545
 31
0.0
  0
LINE
  8
DETAIL
  6
CONTINUOUS
 62
     5
 10
361.49999999999818
 20
-1.099999999998545
 30
0.0
 11
366.64999999997963
 21
-1.099999999998545
 31
0.0
  0
LINE
  8
DETAIL
  6
CONTINUOUS
 62
     5
 10
361.0
 20
-1.599999999998545
 30
0.0
 11
361.49999999999818
 21
-1.599999999998545
 31
0.0
  0
LINE
  8
DETAIL
  6
CONTINUOUS
 62
     5
 10
-361.00000000000091
 20
-2.5999999999985448
 30
0.0
 11
-358.99999999999909
 21
-2.5999999999985448
 31
0.0
  0
LINE
  8
DETAIL
  6
CONTINUOUS
 62
     5
 10
358.99999999999733
 20
-2.5999999999985448
 30
0.0
 11
361.0
 21
-2.5999999999985448
 31
0.0
  0
LINE
  8
DETAIL
  6
CONTINUOUS
 62
     5
 10
-365.10000000000042
 20
-3.999999999994543
 30
0.0
 11
-374.60000000000218
 21
-3.999999999994543
 31
0.0
  0
LINE
  8
DETAIL
  6
CONTINUOUS
 62
     5
 10
-365.10000000000042
 20
-4.500000000001819
 30
0.0
 11
-374.60000000000218
 21
-4.500000000001819
 31
0.0
  0
LINE
  8
DETAIL
  6
CONTINUOUS
 62
     5
 10
-364.10000000000042
 20
-4.500000000001819
 30
0.0
 11
-361.00000000000091
 21
-4.500000000001819
 31
0.0
  0
LINE
  8
DETAIL
  6
CONTINUOUS
 62
     5
 10
-375.09999999999951
 20
-5.000000000001819
 30
0.0
 11
-364.10000000000042
 21
-5.000000000001819
 31
0.0
  0
LINE
  8
DETAIL
  6
CONTINUOUS
 62
     5
 10
-476.0
 20
-10.699999999997431
 30
0.0
 11
-366.300000000002
 21
-10.699999999997431
 31
0.0
  0
LINE
  8
DETAIL
  6
CONTINUOUS
 62
     5
 10
-366.300000000002
 20
-11.299999999995981
 30
0.0
 11
-476.0
 21
-11.299999999995981
 31
0.0
  0
LINE
  8
DETAIL
  6
CONTINUOUS
 62
     5
 10
-477.20000000000158
 20
-11.89999999999452
 30
0.0
 11
-476.34891252930362
 21
-11.89999999999452
 31
0.0
  0
LINE
  8
DETAIL
  6
CONTINUOUS
 62
     5
 10
-366.300000000002
 20
-11.89999999999452
 30
0.0
 11
-361.800000000002
 21
-11.89999999999452
 31
0.0
  0
LINE
  8
DETAIL
  6
CONTINUOUS
 62
     5
 10
-417.00000000000091
 20
-23.79999999999745
 30
0.0
 11
-425.00000000000091
 21
-23.79999999999745
 31
0.0
  0
LINE
  8
DETAIL
  6
CONTINUOUS
 62
     5
 10
-181.0
 20
-206.8109888439958
 30
0.0
 11
-181.0
 21
-142.18901115733209
 31
0.0
  0
LINE
  8
DETAIL
  6
CONTINUOUS
 62
     5
 10
-355.00000000001461
 20
-289.00000000000358
 30
0.0
 11
-353.300000000002
 21
-287.29999999999927
 31
0.0
  0
LINE
  8
DETAIL
  6
CONTINUOUS
 62
     5
 10
-431.00000000000182
 20
-42.600000000000357
 30
0.0
 11
-425.00000000000091
 21
-42.600000000000357
 31
0.0
  0
LINE
  8
DETAIL
  6
CONTINUOUS
 62
     5
 10
-417.00000000000091
 20
-42.600000000000357
 30
0.0
 11
-411.00000000000091
 21
-42.600000000000357
 31
0.0
  0
LINE
  8
DETAIL
  6
CONTINUOUS
 62
     5
 10
-417.00000000000091
 20
-43.799999999997453
 30
0.0
 11
-425.00000000000091
 21
-43.799999999997453
 31
0.0
  0
LINE
  8
DETAIL
  6
CONTINUOUS
 62
     5
 10
-431.00000000000182
 20
-52.600000000000357
 30
0.0
 11
-411.00000000000091
 21
-52.600000000000357
 31
0.0
  0
LINE
  8
DETAIL
  6
CONTINUOUS
 62
     5
 10
-407.800000000002
 20
-58.199999999993452
 30
0.0
 11
-411.00000000000091
 21
-58.199999999993452
 31
0.0
  0
LINE
  8
DETAIL
  6
CONTINUOUS
 62
     5
 10
407.79999999999751
 20
-58.199999999993452
 30
0.0
 11
410.99999999999818
 21
-58.199999999993452
 31
0.0
  0
LINE
  8
DETAIL
  6
CONTINUOUS
 62
     5
 10
404.59999999999758
 20
-64.999999999996362
 30
0.0
 11
367.39999999999691
 21
-64.999999999996362
 31
0.0
  0
LINE
  8
DETAIL
  6
CONTINUOUS
 62
     5
 10
-404.60000000000218
 20
-64.999999999996362
 30
0.0
 11
-367.40000000000327
 21
-64.999999999996362
 31
0.0
  0
LINE
  8
DETAIL
  6
CONTINUOUS
 62
     5
 10
404.59999999999758
 20
-68.200000000000728
 30
0.0
 11
367.39999999999691
 21
-68.200000000000728
 31
0.0
  0
LINE
  8
DETAIL
  6
CONTINUOUS
 62
     5
 10
-404.60000000000218
 20
-68.200000000000728
 30
0.0
 11
-367.40000000000327
 21
-68.200000000000728
 31
0.0
  0
LINE
  8
DETAIL
  6
CONTINUOUS
 62
     5
 10
-407.800000000002
 20
-74.999999999996362
 30
0.0
 11
-411.00000000000091
 21
-74.999999999996362
 31
0.0
  0
LINE
  8
DETAIL
  6
CONTINUOUS
 62
     5
 10
407.79999999999751
 20
-74.999999999996362
 30
0.0
 11
410.99999999999818
 21
-74.999999999996362
 31
0.0
  0
LINE
  8
DETAIL
  6
CONTINUOUS
 62
     5
 10
-420.46381456666768
 20
-76.265506931997152
 30
0.0
 11
-421.53711191866932
 21
-76.265506931997152
 31
0.0
  0
LINE
  8
DETAIL
  6
CONTINUOUS
 62
     5
 10
-358.38087488800102
 20
-93.999999999996362
 30
0.0
 11
-358.91355287199889
 21
-93.999999999996362
 31
0.0
  0
LINE
  8
DETAIL
  6
CONTINUOUS
 62
     5
 10
358.38087488933161
 20
-93.999999999996362
 30
0.0
 11
358.91355287332948
 21
-93.999999999996362
 31
0.0
  0
LINE
  8
DETAIL
  6
CONTINUOUS
 62
     5
 10
-364.20000000000158
 20
-115.0000000000036
 30
0.0
 11
-345.99999999990632
 21
-115.00000000022921
 31
0.0
  0
LINE
  8
DETAIL
  6
CONTINUOUS
 62
     5
 10
345.99999999989001
 20
-115.00000000022921
 30
0.0
 11
364.19999999999709
 21
-115.0000000000036
 31
0.0
  0
LINE
  8
BASIS
  6
DASHDOT
 62
     6
 10
-510.87259907494717
 20
-144.49999999999449
 30
0.0
 11
427.23086871776007
 21
-144.49999999999449
 31
0.0
  0
LINE
  8
BASIS
  6
DASHDOT
 62
     6
 10
0.0
 20
66.654182246666096
 30
0.0
 11
0.0
 21
-355.96666666666903
 31
0.0
  0
LINE
  8
DETAIL
  6
CONTINUOUS
 62
     5
 10
-344.29128468400268
 20
-98.803169206668827
 30
0.0
 11
-356.67215957200011
 21
-94.301032882667641
 31
0.0
  0
LINE
  8
DETAIL
  6
CONTINUOUS
 62
     5
 10
344.29128468532957
 20
-98.803169206668827
 30
0.0
 11
356.67215957333337
 21
-94.301032882667641
 31
0.0
  0
LINE
  8
DETAIL
  6
CONTINUOUS
 62
     5
 10
-477.20000000000158
 20
-271.09999999999889
 30
0.0
 11
-476.34891252930902
 21
-271.09999999999889
 31
0.0
  0
LINE
  8
DETAIL
  6
CONTINUOUS
 62
     5
 10
-366.300000000002
 20
-271.09999999999889
 30
0.0
 11
-361.800000000002
 21
-271.09999999999889
 31
0.0
  0
LINE
  8
DETAIL
  6
CONTINUOUS
 62
     5
 10
-476.0
 20
-271.69999999999737
 30
0.0
 11
-366.300000000002
 21
-271.69999999999737
 31
0.0
  0
LINE
  8
DETAIL
  6
CONTINUOUS
 62
     5
 10
-476.0
 20
-272.29999999999598
 30
0.0
 11
-366.300000000002
 21
-272.29999999999598
 31
0.0
  0
LINE
  8
DETAIL
  6
CONTINUOUS
 62
     5
 10
-355.00000000000551
 20
0.0
 30
0.0
 11
-353.30000000000109
 21
-1.6999999999970901
 31
0.0
  0
LINE
  8
DETAIL
  6
CONTINUOUS
 62
     5
 10
-375.09999999999951
 20
-283.99999999999449
 30
0.0
 11
-364.10000000000042
 21
-283.99999999999449
 31
0.0
  0
LINE
  8
DETAIL
  6
CONTINUOUS
 62
     5
 10
-364.10000000000042
 20
-284.50000000000182
 30
0.0
 11
-361.00000000000091
 21
-284.50000000000182
 31
0.0
  0
LINE
  8
DETAIL
  6
CONTINUOUS
 62
     5
 10
-374.60000000000218
 20
-284.50000000000182
 30
0.0
 11
-365.10000000000042
 21
-284.50000000000182
 31
0.0
  0
LINE
  8
DETAIL
  6
CONTINUOUS
 62
     5
 10
-374.60000000000218
 20
-284.99999999999449
 30
0.0
 11
-365.10000000000042
 21
-284.99999999999449
 31
0.0
  0
LINE
  8
DETAIL
  6
CONTINUOUS
 62
     5
 10
-361.00000000000091
 20
-286.39999999999782
 30
0.0
 11
-358.99999999999909
 21
-286.39999999999782
 31
0.0
  0
LINE
  8
DETAIL
  6
CONTINUOUS
 62
     5
 10
358.99999999999733
 20
-286.39999999999782
 30
0.0
 11
361.0
 21
-286.39999999999782
 31
0.0
  0
LINE
  8
DETAIL
  6
CONTINUOUS
 62
     5
 10
361.0
 20
-287.39999999999782
 30
0.0
 11
361.49999999999818
 21
-287.39999999999782
 31
0.0
  0
LINE
  8
DETAIL
  6
CONTINUOUS
 62
     5
 10
-366.64999999998048
 20
-287.89999999999782
 30
0.0
 11
-361.49999999999909
 21
-287.89999999999782
 31
0.0
  0
LINE
  8
DETAIL
  6
CONTINUOUS
 62
     5
 10
361.49999999999818
 20
-287.89999999999782
 30
0.0
 11
366.64999999997963
 21
-287.89999999999782
 31
0.0
  0
LINE
  8
DETAIL
  6
CONTINUOUS
 62
     5
 10
366.64999999997963
 20
-288.39999999999782
 30
0.0
 11
361.23306493999729
 21
-288.39999999999782
 31
0.0
  0
LINE
  8
DETAIL
  6
CONTINUOUS
 62
     5
 10
-361.23306493866772
 20
-288.39999999999782
 30
0.0
 11
-366.64999999998048
 21
-288.39999999999782
 31
0.0
  0
LINE
  8
DETAIL
  6
CONTINUOUS
 62
     5
 10
-358.99999999999909
 20
-288.39999999999782
 30
0.0
 11
-354.40000000000327
 21
-288.39999999999782
 31
0.0
  0
LINE
  8
DETAIL
  6
CONTINUOUS
 62
     5
 10
354.39999999999509
 20
-288.40000000000509
 30
0.0
 11
358.99999999999733
 21
-288.39999999999782
 31
0.0
  0
LINE
  8
DETAIL
  6
CONTINUOUS
 62
     5
 10
366.649999999996
 20
-288.99999999999642
 30
0.0
 11
361.23306493999729
 21
-288.99999999999642
 31
0.0
  0
LINE
  8
DETAIL
  6
CONTINUOUS
 62
     5
 10
-361.23306493866772
 20
-288.99999999999642
 30
0.0
 11
-366.64999999999873
 21
-288.99999999999642
 31
0.0
  0
LINE
  8
DETAIL
  6
CONTINUOUS
 62
     5
 10
-358.90000000000049
 20
-288.99999999999642
 30
0.0
 11
358.89999999999509
 21
-288.99999999999642
 31
0.0
  0
LINE
  8
DETAIL
  6
CONTINUOUS
 62
     5
 10
-375.09999999999951
 20
-5.000000000001819
 30
0.0
 11
-375.41651376133541
 21
-4.6129353560045274
 31
0.0
  0
LINE
  8
DETAIL
  6
CONTINUOUS
 62
     5
 10
355.00000000000909
 20
0.0
 30
0.0
 11
353.29999999999751
 21
-1.6999999999970901
 31
0.0
  0
LINE
  8
DETAIL
  6
CONTINUOUS
 62
     5
 10
180.99999999999449
 20
-206.8109888439958
 30
0.0
 11
180.99999999999449
 21
-142.18901115733209
 31
0.0
  0
LINE
  8
DETAIL
  6
CONTINUOUS
 62
     5
 10
-425.00000000000091
 20
-69.968076369326809
 30
0.0
 11
-423.44333105600339
 21
-74.870757789331037
 31
0.0
  0
LINE
  8
DETAIL
  6
CONTINUOUS
 62
     5
 10
340.99999999999909
 20
-109.9999999999964
 30
0.0
 11
340.99999999999909
 21
-103.5021363239975
 31
0.0
  0
LINE
  8
DETAIL
  6
CONTINUOUS
 62
     5
 10
359.72273077066438
 20
-286.39999999999782
 30
0.0
 11
359.83839236266073
 21
-287.72201804000002
 31
0.0
  0
LINE
  8
DETAIL
  6
CONTINUOUS
 62
     5
 10
360.3250226733262
 20
-286.39999999999782
 30
0.0
 11
360.43610918133072
 21
-287.66972459466712
 31
0.0
  0
LINE
  8
DETAIL
  6
CONTINUOUS
 62
     5
 10
348.99999999999551
 20
-142.18901115733209
 30
0.0
 11
348.99999999999551
 21
-206.8109888439958
 31
0.0
  0
LINE
  8
DETAIL
  6
CONTINUOUS
 62
     5
 10
358.89999999999509
 20
-288.99999999999642
 30
0.0
 11
358.89999999999509
 21
-288.39999999999782
 31
0.0
  0
LINE
  8
DETAIL
  6
CONTINUOUS
 62
     5
 10
358.89999999999509
 20
0.0
 30
0.0
 11
358.89999999999509
 21
-0.5999999999985448
 31
0.0
  0
LINE
  8
DETAIL
  6
CONTINUOUS
 62
     5
 10
358.99999999999733
 20
-288.39999999999782
 30
0.0
 11
358.99999999999733
 21
-286.39999999999782
 31
0.0
  0
LINE
  8
DETAIL
  6
CONTINUOUS
 62
     5
 10
358.99999999999733
 20
-2.5999999999985448
 30
0.0
 11
358.99999999999733
 21
-0.5999999999985448
 31
0.0
  0
LINE
  8
DETAIL
  6
CONTINUOUS
 62
     5
 10
360.49999999999909
 20
-287.39999999999782
 30
0.0
 11
360.49999999999909
 21
-286.39999999999782
 31
0.0
  0
LINE
  8
DETAIL
  6
CONTINUOUS
 62
     5
 10
360.49999999999909
 20
-1.599999999998545
 30
0.0
 11
360.49999999999909
 21
-2.5999999999985448
 31
0.0
  0
LINE
  8
DETAIL
  6
CONTINUOUS
 62
     5
 10
361.0
 20
-287.39999999999782
 30
0.0
 11
361.0
 21
-1.599999999998545
 31
0.0
  0
LINE
  8
DETAIL
  6
CONTINUOUS
 62
     5
 10
361.49999999999818
 20
-287.39999999999782
 30
0.0
 11
361.49999999999818
 21
-115.0000000000036
 31
0.0
  0
LINE
  8
DETAIL
  6
CONTINUOUS
 62
     5
 10
361.49999999999818
 20
-68.923726158664067
 30
0.0
 11
361.49999999999818
 21
-1.599999999998545
 31
0.0
  0
LINE
  8
DETAIL
  6
CONTINUOUS
 62
     5
 10
364.19999999999709
 20
-115.0000000000036
 30
0.0
 11
364.19999999999709
 21
-71.399999999997817
 31
0.0
  0
LINE
  8
DETAIL
  6
CONTINUOUS
 62
     5
 10
365.99999999999733
 20
-0.5999999999985448
 30
0.0
 11
365.99999999999733
 21
-1.099999999998545
 31
0.0
  0
LINE
  8
DETAIL
  6
CONTINUOUS
 62
     5
 10
365.99999999999733
 20
-287.89999999999782
 30
0.0
 11
365.99999999999733
 21
-288.39999999999782
 31
0.0
  0
LINE
  8
DETAIL
  6
CONTINUOUS
 62
     5
 10
359.72273077066438
 20
-2.5999999999985448
 30
0.0
 11
359.86235141999532
 21
-1.0041286839987149
 31
0.0
  0
LINE
  8
DETAIL
  6
CONTINUOUS
 62
     5
 10
360.3250226733262
 20
-2.5999999999985448
 30
0.0
 11
360.46006823866259
 21
-1.0564221293316221
 31
0.0
  0
LINE
  8
DETAIL
  6
CONTINUOUS
 62
     5
 10
407.79999999999751
 20
-58.199999999993452
 30
0.0
 11
407.79999999999751
 21
-61.799999999999272
 31
0.0
  0
LINE
  8
DETAIL
  6
CONTINUOUS
 62
     5
 10
407.79999999999751
 20
-71.399999999997817
 30
0.0
 11
407.79999999999751
 21
-74.999999999996362
 31
0.0
  0
LINE
  8
DETAIL
  6
CONTINUOUS
 62
     5
 10
410.99999999999818
 20
-58.199999999993452
 30
0.0
 11
410.99999999999818
 21
-61.799999999999272
 31
0.0
  0
LINE
  8
DETAIL
  6
CONTINUOUS
 62
     5
 10
410.99999999999818
 20
-71.399999999997817
 30
0.0
 11
410.99999999999818
 21
-74.999999999996362
 31
0.0
  0
CIRCLE
  8
DETAIL
  6
CONTINUOUS
 62
     5
 10
-456.99999999999818
 20
-32.749999999994543
 30
0.0
 40
12.999999999999959
  0
ARC
  8
DETAIL
  6
CONTINUOUS
 62
     5
 10
-475.19999999999891
 20
-12.699999999997431
 30
0.0
 40
1.3999999999999959
 50
90.0
 51
180.0
  0
ARC
  8
DETAIL
  6
CONTINUOUS
 62
     5
 10
-360.95816558666769
 20
-1.099999999998545
 30
0.0
 40
1.099999999999997
 50
4.9999999999736451
 51
90.0
  0
ARC
  8
DETAIL
  6
CONTINUOUS
 62
     5
 10
-361.49999999999909
 20
-1.599999999998545
 30
0.0
 40
0.9999999999999969
 50
0.0
 51
89.999999999895778
  0
ARC
  8
DETAIL
  6
CONTINUOUS
 62
     5
 10
-365.10000000000042
 20
-5.000000000001819
 30
0.0
 40
0.9999999999999969
 50
0.0
 51
90.0
  0
ARC
  8
DETAIL
  6
CONTINUOUS
 62
     5
 10
-365.10000000000042
 20
-5.000000000001819
 30
0.0
 40
0.4999999999999984
 50
0.0
 51
90.0
  0
ARC
  8
DETAIL
  6
CONTINUOUS
 62
     5
 10
-360.95816558666769
 20
-1.099999999998545
 30
0.0
 40
0.4999999999999984
 50
4.9999999999736451
 51
90.0
  0
ARC
  8
DETAIL
  6
CONTINUOUS
 62
     5
 10
-374.60000000000218
 20
-4.500000000001819
 30
0.0
 40
0.4999999999999984
 50
90.0
 51
270.0
  0
ARC
  8
DETAIL
  6
CONTINUOUS
 62
     5
 10
-361.49999999999909
 20
-1.599999999998545
 30
0.0
 40
0.4999999999999984
 50
0.0
 51
90.0
  0
CIRCLE
  8
DETAIL
  6
CONTINUOUS
 62
     5
 10
-456.99999999999818
 20
-59.750000000001819
 30
0.0
 40
12.999999999999959
  0
CIRCLE
  8
DETAIL
  6
CONTINUOUS
 62
     5
 10
-421.00000000000182
 20
-69.265506931997152
 30
0.0
 40
2.6999999999999922
  0
ARC
  8
DETAIL
  6
CONTINUOUS
 62
     5
 10
-341.50613439826787
 20
-46.832956805541023
 30
0.0
 40
54.152045572887992
 50
128.77081854273479
 51
138.13642604905391
  0
ARC
  8
DETAIL
  6
CONTINUOUS
 62
     5
 10
-404.60000000000218
 20
-61.799999999999272
 30
0.0
 40
6.3999999999999782
 50
180.0
 51
228.65645515206469
  0
ARC
  8
DETAIL
  6
CONTINUOUS
 62
     5
 10
-404.60000000000218
 20
-71.399999999997817
 30
0.0
 40
6.3999999999999782
 50
90.0
 51
180.0
  0
ARC
  8
DETAIL
  6
CONTINUOUS
 62
     5
 10
-367.40000000000327
 20
-71.399999999997817
 30
0.0
 40
6.3999999999999782
 50
0.0
 51
90.0
  0
ARC
  8
DETAIL
  6
CONTINUOUS
 62
     5
 10
-404.60000000000218
 20
-71.399999999997817
 30
0.0
 40
3.1999999999999891
 50
90.0
 51
180.0
  0
ARC
  8
DETAIL
  6
CONTINUOUS
 62
     5
 10
-367.40000000000327
 20
-71.399999999997817
 30
0.0
 40
3.1999999999999891
 50
0.0
 51
90.0
  0
ARC
  8
DETAIL
  6
CONTINUOUS
 62
     5
 10
-404.60000000000218
 20
-61.799999999999272
 30
0.0
 40
3.1999999999999891
 50
180.0
 51
270.0
  0
CIRCLE
  8
DETAIL
  6
CONTINUOUS
 62
     5
 10
-349.99999999999909
 20
-106.0000000000036
 30
0.0
 40
6.9999999999999787
  0
ARC
  8
DETAIL
  6
CONTINUOUS
 62
     5
 10
-346.00000000000091
 20
-103.5021363239975
 30
0.0
 40
4.999999999999984
 50
0.0
 51
70.016893478078885
  0
ARC
  8
DETAIL
  6
CONTINUOUS
 62
     5
 10
-358.38087488800102
 20
-98.999999999996362
 30
0.0
 40
4.999999999999984
 50
70.016893478078885
 51
90.0
  0
ARC
  8
DETAIL
  6
CONTINUOUS
 62
     5
 10
-421.53711191866932
 20
-74.265506931997152
 30
0.0
 40
1.999999999999994
 50
197.6153608890267
 51
270.0
  0
ARC
  8
DETAIL
  6
CONTINUOUS
 62
     5
 10
-420.46381456666768
 20
-74.265506931997152
 30
0.0
 40
1.999999999999994
 50
270.0
 51
342.38346499357482
  0
CIRCLE
  8
DETAIL
  6
CONTINUOUS
 62
     5
 10
-335.50000000000091
 20
-93.999999999996362
 30
0.0
 40
4.6999999999999842
  0
ARC
  8
DETAIL
  6
CONTINUOUS
 62
     5
 10
404.59999999999758
 20
-61.799999999999272
 30
0.0
 40
6.3999999999999782
 50
311.34354484793528
 51
0.0
  0
ARC
  8
DETAIL
  6
CONTINUOUS
 62
     5
 10
404.59999999999758
 20
-61.799999999999272
 30
0.0
 40
3.1999999999999891
 50
270.0
 51
0.0
  0
ARC
  8
DETAIL
  6
CONTINUOUS
 62
     5
 10
360.9581655879947
 20
-1.099999999998545
 30
0.0
 40
1.099999999999997
 50
90.0
 51
174.999999999925
  0
ARC
  8
DETAIL
  6
CONTINUOUS
 62
     5
 10
361.49999999999818
 20
-1.599999999998545
 30
0.0
 40
0.9999999999999969
 50
90.000000000052125
 51
180.0
  0
ARC
  8
DETAIL
  6
CONTINUOUS
 62
     5
 10
360.9581655879947
 20
-1.099999999998545
 30
0.0
 40
0.4999999999999984
 50
90.0
 51
174.999999999925
  0
ARC
  8
DETAIL
  6
CONTINUOUS
 62
     5
 10
361.49999999999818
 20
-1.599999999998545
 30
0.0
 40
0.4999999999999984
 50
90.0
 51
180.0
  0
CIRCLE
  8
DETAIL
  6
CONTINUOUS
 62
     5
 10
349.99999999999358
 20
-106.0000000000036
 30
0.0
 40
6.9999999999999787
  0
ARC
  8
DETAIL
  6
CONTINUOUS
 62
     5
 10
404.59999999999758
 20
-71.399999999997817
 30
0.0
 40
6.3999999999999782
 50
0.0
 51
90.0
  0
ARC
  8
DETAIL
  6
CONTINUOUS
 62
     5
 10
367.39999999999691
 20
-71.399999999997817
 30
0.0
 40
6.3999999999999782
 50
90.0
 51
180.0
  0
ARC
  8
DETAIL
  6
CONTINUOUS
 62
     5
 10
358.38087488933161
 20
-98.999999999996362
 30
0.0
 40
4.999999999999984
 50
90.0
 51
109.9831065219211
  0
ARC
  8
DETAIL
  6
CONTINUOUS
 62
     5
 10
346.0
 20
-103.5021363239975
 30
0.0
 40
4.999999999999984
 50
109.9831065219211
 51
180.0
  0
CIRCLE
  8
DETAIL
  6
CONTINUOUS
 62
     5
 10
335.5
 20
-93.999999999996362
 30
0.0
 40
4.6999999999999842
  0
ARC
  8
DETAIL
  6
CONTINUOUS
 62
     5
 10
404.59999999999758
 20
-71.399999999997817
 30
0.0
 40
3.1999999999999891
 50
0.0
 51
90.0
  0
ARC
  8
DETAIL
  6
CONTINUOUS
 62
     5
 10
367.39999999999691
 20
-71.399999999997817
 30
0.0
 40
3.1999999999999891
 50
90.0
 51
180.0
  0
ARC
  8
DETAIL
  6
CONTINUOUS
 62
     5
 10
-265.0
 20
-174.49999999999449
 30
0.0
 40
89.999999999999702
 50
21.039469781302081
 51
158.9605302186979
  0
ARC
  8
DETAIL
  6
CONTINUOUS
 62
     5
 10
-265.0
 20
-174.49999999999449
 30
0.0
 40
89.999999999999702
 50
201.0394697813021
 51
338.9605302186979
  0
CIRCLE
  8
DETAIL
  6
CONTINUOUS
 62
     5
 10
-265.0
 20
-174.49999999999449
 30
0.0
 40
79.99999999999973
  0
CIRCLE
  8
DETAIL
  6
CONTINUOUS
 62
     5
 10
-265.0
 20
-174.49999999999449
 30
0.0
 40
70.999999999999758
  0
ARC
  8
DETAIL
  6
CONTINUOUS
 62
     5
 10
-340.07619884841642
 20
-241.59062239280431
 30
0.0
 40
55.502011923890223
 50
213.59413965056311
 51
230.4508916006275
  0
CIRCLE
  8
DETAIL
  6
CONTINUOUS
 62
     5
 10
-451.0
 20
-230.44999999999891
 30
0.0
 40
12.999999999999959
  0
ARC
  8
DETAIL
  6
CONTINUOUS
 62
     5
 10
-361.23306493866772
 20
-287.59999999999491
 30
0.0
 40
1.3999999999999959
 50
270.0
 51
355.00000000002638
  0
ARC
  8
DETAIL
  6
CONTINUOUS
 62
     5
 10
-475.19999999999891
 20
-270.30000000000331
 30
0.0
 40
1.3999999999999959
 50
180.0
 51
270.0
  0
ARC
  8
DETAIL
  6
CONTINUOUS
 62
     5
 10
-361.49999999999909
 20
-287.39999999999782
 30
0.0
 40
0.9999999999999969
 50
270.0
 51
0.0
  0
ARC
  8
DETAIL
  6
CONTINUOUS
 62
     5
 10
-365.10000000000042
 20
-283.99999999999449
 30
0.0
 40
0.9999999999999969
 50
270.0
 51
0.0
  0
ARC
  8
DETAIL
  6
CONTINUOUS
 62
     5
 10
-361.23306493866772
 20
-287.59999999999491
 30
0.0
 40
0.7999999999999975
 50
270.0
 51
355.00000000002638
  0
ARC
  8
DETAIL
  6
CONTINUOUS
 62
     5
 10
-365.10000000000042
 20
-283.99999999999449
 30
0.0
 40
0.4999999999999984
 50
270.0
 51
0.0
  0
ARC
  8
DETAIL
  6
CONTINUOUS
 62
     5
 10
-374.60000000000218
 20
-284.50000000000182
 30
0.0
 40
0.4999999999999984
 50
90.0
 51
270.0
  0
ARC
  8
DETAIL
  6
CONTINUOUS
 62
     5
 10
-361.49999999999909
 20
-287.39999999999782
 30
0.0
 40
0.4999999999999984
 50
270.0
 51
0.0
  0
ARC
  8
DETAIL
  6
CONTINUOUS
 62
     5
 10
264.99999999999909
 20
-174.49999999999449
 30
0.0
 40
89.999999999999702
 50
201.0394697813021
 51
338.9605302186979
  0
ARC
  8
DETAIL
  6
CONTINUOUS
 62
     5
 10
264.99999999999909
 20
-174.49999999999449
 30
0.0
 40
89.999999999999702
 50
21.039469781302081
 51
158.9605302186979
  0
CIRCLE
  8
DETAIL
  6
CONTINUOUS
 62
     5
 10
264.99999999999909
 20
-174.49999999999449
 30
0.0
 40
79.99999999999973
  0
CIRCLE
  8
DETAIL
  6
CONTINUOUS
 62
     5
 10
264.99999999999909
 20
-174.49999999999449
 30
0.0
 40
70.999999999999758
  0
ARC
  8
DETAIL
  6
CONTINUOUS
 62
     5
 10
361.23306493999729
 20
-287.59999999999491
 30
0.0
 40
1.3999999999999959
 50
184.99999999997371
 51
270.0
  0
ARC
  8
DETAIL
  6
CONTINUOUS
 62
     5
 10
361.49999999999818
 20
-287.39999999999782
 30
0.0
 40
0.9999999999999969
 50
180.0
 51
270.0
  0
ARC
  8
DETAIL
  6
CONTINUOUS
 62
     5
 10
361.23306493999729
 20
-287.59999999999491
 30
0.0
 40
0.7999999999999975
 50
184.99999999997371
 51
270.0
  0
ARC
  8
DETAIL
  6
CONTINUOUS
 62
     5
 10
361.49999999999818
 20
-287.39999999999782
 30
0.0
 40
0.4999999999999984
 50
180.0
 51
270.0
  0
LINE
  8
DETAIL
  6
CONTINUOUS
 62
     5
 10
-358.91355287199889
 20
-93.999999999996362
 30
0.0
 11
-359.25357220643616
 21
-93.99636278804492
 31
0.0
  0
LINE
  8
DETAIL
  6
CONTINUOUS
 62
     5
 10
-359.25357220643616
 20
-93.99636278804492
 30
0.0
 11
-359.59313175280312
 21
-93.979634731806357
 31
0.0
  0
LINE
  8
DETAIL
  6
CONTINUOUS
 62
     5
 10
-359.59313175280312
 20
-93.979634731806357
 30
0.0
 11
-359.93047970268691
 21
-93.936817837448231
 31
0.0
  0
LINE
  8
DETAIL
  6
CONTINUOUS
 62
     5
 10
-359.93047970268691
 20
-93.936817837448231
 30
0.0
 11
-360.25929710431626
 21
-93.845541287231498
 31
0.0
  0
LINE
  8
DETAIL
  6
CONTINUOUS
 62
     5
 10
-360.25929710431626
 20
-93.845541287231498
 30
0.0
 11
-360.55030628649394
 21
-93.66945829460208
 31
0.0
  0
LINE
  8
DETAIL
  6
CONTINUOUS
 62
     5
 10
-360.55030628649394
 20
-93.66945829460208
 30
0.0
 11
-360.76470726337544
 21
-93.406792141461153
 31
0.0
  0
LINE
  8
DETAIL
  6
CONTINUOUS
 62
     5
 10
-360.76470726337544
 20
-93.406792141461153
 30
0.0
 11
-360.88934163036191
 21
-93.091687843239214
 31
0.0
  0
LINE
  8
DETAIL
  6
CONTINUOUS
 62
     5
 10
-360.88934163036191
 20
-93.091687843239214
 30
0.0
 11
-360.95136157327681
 21
-92.749408632462874
 31
0.0
  0
LINE
  8
DETAIL
  6
CONTINUOUS
 62
     5
 10
-360.95136157327681
 20
-92.749408632462874
 30
0.0
 11
-360.98086245678849
 21
-92.403419825632199
 31
0.0
  0
LINE
  8
DETAIL
  6
CONTINUOUS
 62
     5
 10
-360.98086245678849
 20
-92.403419825632199
 30
0.0
 11
-360.99490004387781
 21
-92.062958721483298
 31
0.0
  0
LINE
  8
DETAIL
  6
CONTINUOUS
 62
     5
 10
-360.99490004387781
 20
-92.062958721483298
 30
0.0
 11
-360.99939464684485
 21
-91.72511229438588
 31
0.0
  0
LINE
  8
DETAIL
  6
CONTINUOUS
 62
     5
 10
-360.99939464684485
 20
-91.72511229438588
 30
0.0
 11
-360.99990884533509
 21
-91.386577182664041
 31
0.0
  0
LINE
  8
DETAIL
  6
CONTINUOUS
 62
     5
 10
358.91355287332948
 20
-93.999999999996362
 30
0.0
 11
359.25357220776556
 21
-93.99636278804492
 31
0.0
  0
LINE
  8
DETAIL
  6
CONTINUOUS
 62
     5
 10
359.25357220776556
 20
-93.99636278804492
 30
0.0
 11
359.5931317541345
 21
-93.979634731806357
 31
0.0
  0
LINE
  8
DETAIL
  6
CONTINUOUS
 62
     5
 10
359.5931317541345
 20
-93.979634731806357
 30
0.0
 11
359.9304797040175
 21
-93.936817837448231
 31
0.0
  0
LINE
  8
DETAIL
  6
CONTINUOUS
 62
     5
 10
359.9304797040175
 20
-93.936817837448231
 30
0.0
 11
360.2592971056439
 21
-93.845541287234283
 31
0.0
  0
LINE
  8
DETAIL
  6
CONTINUOUS
 62
     5
 10
360.2592971056439
 20
-93.845541287234283
 30
0.0
 11
360.55030628779139
 21
-93.669458294633316
 31
0.0
  0
LINE
  8
DETAIL
  6
CONTINUOUS
 62
     5
 10
360.55030628779139
 20
-93.669458294633316
 30
0.0
 11
360.7647072646414
 21
-93.406792141541587
 31
0.0
  0
LINE
  8
DETAIL
  6
CONTINUOUS
 62
     5
 10
360.7647072646414
 20
-93.406792141541587
 30
0.0
 11
360.8893416316406
 21
-93.091687843385458
 31
0.0
  0
LINE
  8
DETAIL
  6
CONTINUOUS
 62
     5
 10
360.8893416316406
 20
-93.091687843385458
 30
0.0
 11
360.95136157458342
 21
-92.749408632751397
 31
0.0
  0
LINE
  8
DETAIL
  6
CONTINUOUS
 62
     5
 10
360.95136157458342
 20
-92.749408632751397
 30
0.0
 11
360.98086245810754
 21
-92.403419826198075
 31
0.0
  0
LINE
  8
DETAIL
  6
CONTINUOUS
 62
     5
 10
360.98086245810754
 20
-92.403419826198075
 30
0.0
 11
360.99490004520169
 21
-92.062958722324097
 31
0.0
  0
LINE
  8
DETAIL
  6
CONTINUOUS
 62
     5
 10
360.99490004520169
 20
-92.062958722324097
 30
0.0
 11
360.99939464817004
 21
-91.725112295155569
 31
0.0
  0
LINE
  8
DETAIL
  6
CONTINUOUS
 62
     5
 10
360.99939464817004
 20
-91.725112295155569
 30
0.0
 11
360.99990884666022
 21
-91.386577182664041
 31
0.0
  0
ARC
  8
DETAIL
  6
CONTINUOUS
 62
     5
 10
-345.99999999990632
 20
-110.0000000000982
 30
0.0
 40
5.0000000001249836
 50
270.0
 51
0.0
  0
CIRCLE
  8
DETAIL
  6
CONTINUOUS
 62
     5
 10
325.81118318266363
 20
-113.6888168186651
 30
0.0
 40
4.6999999999999842
  0
CIRCLE
  8
DETAIL
  6
CONTINUOUS
 62
     5
 10
325.81118318266363
 20
-235.31118318266269
 30
0.0
 40
4.6999999999999842
  0
CIRCLE
  8
DETAIL
  6
CONTINUOUS
 62
     5
 10
204.18881681866421
 20
-235.31118318266269
 30
0.0
 40
4.6999999999999842
  0
CIRCLE
  8
DETAIL
  6
CONTINUOUS
 62
     5
 10
204.18881681866421
 20
-113.6888168186651
 30
0.0
 40
4.6999999999999842
  0
CIRCLE
  8
DETAIL
  6
CONTINUOUS
 62
     5
 10
-204.18881681733461
 20
-113.6888168186651
 30
0.0
 40
4.6999999999999842
  0
CIRCLE
  8
DETAIL
  6
CONTINUOUS
 62
     5
 10
-204.18881681733461
 20
-235.31118318266269
 30
0.0
 40
4.6999999999999842
  0
CIRCLE
  8
DETAIL
  6
CONTINUOUS
 62
     5
 10
-325.81118318133122
 20
-235.31118318266269
 30
0.0
 40
4.6999999999999842
  0
CIRCLE
  8
DETAIL
  6
CONTINUOUS
 62
     5
 10
-325.81118318133122
 20
-113.6888168186651
 30
0.0
 40
4.6999999999999842
  0
LINE
  8
DETAIL
  6
CONTINUOUS
 62
     5
 10
362.99999999999733
 20
-287.89999999999048
 30
0.0
 11
362.99999999999733
 21
-287.29999999999927
 31
0.0
  0
LINE
  8
DETAIL
  6
CONTINUOUS
 62
     5
 10
362.99999999999733
 20
-287.29999999999927
 30
0.0
 11
366.649999999996
 21
-287.29999999999927
 31
0.0
  0
ARC
  8
DETAIL
  6
CONTINUOUS
 62
     5
 10
366.649999999996
 20
-288.14999999999782
 30
0.0
 40
0.8500000000006154
 50
270.0
 51
90.0
  0
ARC
  8
DETAIL
  6
CONTINUOUS
 62
     5
 10
366.64999999997963
 20
-288.14999999999782
 30
0.0
 40
0.2499999999998972
 50
270.0
 51
90.0
  0
LINE
  8
DETAIL
  6
CONTINUOUS
 62
     5
 10
362.99999999999733
 20
-1.0999999999912691
 30
0.0
 11
362.99999999999733
 21
-1.6999999999970901
 31
0.0
  0
LINE
  8
DETAIL
  6
CONTINUOUS
 62
     5
 10
362.99999999999733
 20
-1.6999999999970901
 30
0.0
 11
366.649999999996
 21
-1.700000000004366
 31
0.0
  0
ARC
  8
DETAIL
  6
CONTINUOUS
 62
     5
 10
366.649999999996
 20
-0.8499999999985448
 30
0.0
 40
0.8500000000006154
 50
270.0
 51
90.0
  0
ARC
  8
DETAIL
  6
CONTINUOUS
 62
     5
 10
366.64999999997963
 20
-0.8499999999985448
 30
0.0
 40
0.2499999999998972
 50
270.0
 51
90.0
  0
LINE
  8
DETAIL
  6
CONTINUOUS
 62
     5
 10
-362.99999999999909
 20
-287.89999999999048
 30
0.0
 11
-362.99999999999909
 21
-287.29999999999927
 31
0.0
  0
LINE
  8
DETAIL
  6
CONTINUOUS
 62
     5
 10
-362.99999999999909
 20
-287.29999999999927
 30
0.0
 11
-366.64999999999873
 21
-287.29999999999927
 31
0.0
  0
ARC
  8
DETAIL
  6
CONTINUOUS
 62
     5
 10
-366.64999999999873
 20
-288.14999999999782
 30
0.0
 40
0.8500000000006154
 50
90.0
 51
270.0
  0
ARC
  8
DETAIL
  6
CONTINUOUS
 62
     5
 10
-366.64999999998048
 20
-288.14999999999782
 30
0.0
 40
0.2499999999998972
 50
90.0
 51
270.0
  0
LINE
  8
DETAIL
  6
CONTINUOUS
 62
     5
 10
-362.99999999999909
 20
-0.5999999999985448
 30
0.0
 11
-362.99999999999909
 21
-1.6999999999970901
 31
0.0
  0
LINE
  8
DETAIL
  6
CONTINUOUS
 62
     5
 10
-362.99999999999909
 20
-1.6999999999970901
 30
0.0
 11
-366.64999999999873
 21
-1.700000000004366
 31
0.0
  0
ARC
  8
DETAIL
  6
CONTINUOUS
 62
     5
 10
-366.64999999999873
 20
-0.8499999999985448
 30
0.0
 40
0.8500000000006154
 50
90.0
 51
270.0
  0
ARC
  8
DETAIL
  6
CONTINUOUS
 62
     5
 10
-366.64999999998048
 20
-0.8499999999985448
 30
0.0
 40
0.2499999999998972
 50
90.0
 51
270.0
  0
LINE
  8
DETAIL
  6
CONTINUOUS
 62
     5
 10
-353.300000000002
 20
-287.29999999999927
 30
0.0
 11
353.29999999999751
 21
-287.29999999999927
 31
0.0
  0
LINE
  8
DETAIL
  6
CONTINUOUS
 62
     5
 10
353.29999999999751
 20
-1.6999999999970901
 30
0.0
 11
-353.30000000000109
 21
-1.6999999999970901
 31
0.0
  0
ARC
  8
DETAIL
  6
CONTINUOUS
 62
     5
 10
345.99999999989001
 20
-110.0000000000982
 30
0.0
 40
5.0000000001249836
 50
180.0
 51
270.0
  0
LINE
  8
BASIS
  6
DASHDOT
 62
     6
 10
265.0000000132477
 20
-314.50000000350161
 30
0.0
 11
265.0000000132477
 21
-34.499999996502083
 31
0.0
  0
LINE
  8
BASIS
  6
DASHDOT
 62
     6
 10
405.10000001674689
 20
-174.49999999999449
 30
0.0
 11
-405.1000000035001
 21
-174.49999999999449
 31
0.0
  0
LINE
  8
BASIS
  6
DASHDOT
 62
     6
 10
-265.0
 20
-314.50000000350161
 30
0.0
 11
-265.0
 21
-34.499999996502083
 31
0.0
  0
LINE
  8
DETAIL
  6
CONTINUOUS
 62
     5
 10
-361.79999727461558
 20
-270.38358770799857
 30
0.0
 11
-361.0
 21
-270.3835877079913
 31
0.0
  0
LINE
  8
DETAIL
  6
CONTINUOUS
 62
     5
 10
-361.79998265110771
 20
-12.616356922801399
 30
0.0
 11
-360.99998537649208
 21
-12.616356922794131
 31
0.0
  0
LINE
  8
SIZE
  6
CONTINUOUS
 62
    30
 10
-530.87259907494752
 20
-144.4999999999946
 30
0.0
 11
-614.9887404320292
 21
-144.4999999999946
 31
0.0
  0
LINE
  8
SIZE
  6
CONTINUOUS
 62
    30
 10
-425.10000000350033
 20
-174.4999999999946
 30
0.0
 11
-614.9887404320292
 21
-174.49999999999471
 31
0.0
  0
LINE
  8
SIZE
  6
CONTINUOUS
 62
    30
 10
-594.9887404320292
 20
-132.4999999999946
 30
0.0
 11
-594.9887404320292
 21
-120.4999999999946
 31
0.0
  0
LINE
  8
SIZE
  6
CONTINUOUS
 62
    30
 10
-594.9887404320292
 20
-186.49999999999471
 30
0.0
 11
-594.9887404320292
 21
-198.49999999999471
 31
0.0
  0
LINE
  8
SIZE
  6
CONTINUOUS
 62
    30
 10
-594.9887404320292
 20
-144.4999999999946
 30
0.0
 11
-594.9887404320292
 21
-174.49999999999471
 31
0.0
  0
CIRCLE
  8
SIZE
  6
CONTINUOUS
 62
    30
 10
-594.9887404320292
 20
-144.4999999999946
 30
0.0
 40
6.0
  0
LINE
  8
SIZE
  6
CONTINUOUS
 62
    30
 10
-594.9887404320292
 20
-144.4999999999946
 30
0.0
 11
-594.9887404320292
 21
-132.4999999999946
 31
0.0
  0
CIRCLE
  8
SIZE
  6
CONTINUOUS
 62
    30
 10
-594.9887404320292
 20
-174.49999999999471
 30
0.0
 40
6.0
  0
LINE
  8
SIZE
  6
CONTINUOUS
 62
    30
 10
-594.9887404320292
 20
-174.49999999999471
 30
0.0
 11
-594.9887404320292
 21
-186.49999999999471
 31
0.0
  0
TEXT
  8
SIZE
  6
CONTINUOUS
 62
    30
 10
-619.98874043202909
 20
-213.64399999999449
 30
0.0
 40
64.0
  1
30
 50
90.0
 41
0.9
 51
0.0
  7
STANDARD
 71
     0
 72
     1
 11
-619.98874043202909
 21
-159.49999999999449
 31
0.0
210
0.0
220
0.0
230
1.0
  0
POINT
  8
DEFPOINTS
  6
CONTINUOUS
 62
    30
 10
-510.8725990749474
 20
-144.4999999999946
 30
0.0
  0
POINT
  8
DEFPOINTS
  6
CONTINUOUS
 62
    30
 10
-405.10000000350033
 20
-174.4999999999946
 30
0.0
  0
POINT
  8
DEFPOINTS
  6
CONTINUOUS
 62
    30
 10
-594.9887404320292
 20
-174.49999999999471
 30
0.0
  0
LINE
  8
SIZE
  6
CONTINUOUS
 62
    30
 10
-265.0
 20
-14.49999999650208
 30
0.0
 11
-265.0
 21
129.04808433359179
 31
0.0
  0
LINE
  8
SIZE
  6
CONTINUOUS
 62
    30
 10
265.0000000132477
 20
-14.49999999650208
 30
0.0
 11
265.0000000132477
 21
129.04808433359179
 31
0.0
  0
LINE
  8
SIZE
  6
CONTINUOUS
 62
    30
 10
-253.0
 20
109.0480843335918
 30
0.0
 11
253.0000000132477
 21
109.0480843335918
 31
0.0
  0
CIRCLE
  8
SIZE
  6
CONTINUOUS
 62
    30
 10
-265.0
 20
109.0480843335918
 30
0.0
 40
6.0
  0
LINE
  8
SIZE
  6
CONTINUOUS
 62
    30
 10
-265.0
 20
109.0480843335918
 30
0.0
 11
-253.0
 21
109.0480843335918
 31
0.0
  0
CIRCLE
  8
SIZE
  6
CONTINUOUS
 62
    30
 10
265.0000000132477
 20
109.0480843335918
 30
0.0
 40
6.0
  0
LINE
  8
SIZE
  6
CONTINUOUS
 62
    30
 10
265.0000000132477
 20
109.0480843335918
 30
0.0
 11
253.0000000132477
 21
109.0480843335918
 31
0.0
  0
TEXT
  8
SIZE
  6
CONTINUOUS
 62
    30
 10
-80.927999993376147
 20
134.04808433359179
 30
0.0
 40
64.0
  1
530
 50
0.0
 41
0.9
 51
0.0
  7
STANDARD
 71
     0
 72
     1
 11
0.0000000066238499
 21
134.04808433359179
 31
0.0
210
0.0
220
0.0
230
1.0
  0
POINT
  8
DEFPOINTS
  6
CONTINUOUS
 62
    30
 10
-265.0
 20
-34.499999996502083
 30
0.0
  0
POINT
  8
DEFPOINTS
  6
CONTINUOUS
 62
    30
 10
265.0000000132477
 20
-34.499999996502083
 30
0.0
  0
POINT
  8
DEFPOINTS
  6
CONTINUOUS
 62
    30
 10
265.0000000132477
 20
109.0480843335918
 30
0.0
  0
LINE
  8
SIZE
  6
CONTINUOUS
 62
    30
 10
-386.6499999999989
 20
-0.0000000000000032
 30
0.0
 11
-729.61015961762757
 21
-0.0000000000000584
 31
0.0
  0
LINE
  8
SIZE
  6
CONTINUOUS
 62
    30
 10
-386.6499999999989
 20
-288.99999999999648
 30
0.0
 11
-729.61015961762746
 21
-288.99999999999659
 31
0.0
  0
LINE
  8
SIZE
  6
CONTINUOUS
 62
    30
 10
-709.61015961762757
 20
-12.00000000000006
 30
0.0
 11
-709.61015961762746
 21
-276.99999999999659
 31
0.0
  0
CIRCLE
  8
SIZE
  6
CONTINUOUS
 62
    30
 10
-709.61015961762757
 20
-0.0000000000000552
 30
0.0
 40
6.0
  0
LINE
  8
SIZE
  6
CONTINUOUS
 62
    30
 10
-709.61015961762757
 20
-0.0000000000000552
 30
0.0
 11
-709.61015961762757
 21
-12.000000000000055
 31
0.0
  0
CIRCLE
  8
SIZE
  6
CONTINUOUS
 62
    30
 10
-709.61015961762746
 20
-288.99999999999659
 30
0.0
 40
6.0
  0
LINE
  8
SIZE
  6
CONTINUOUS
 62
    30
 10
-709.61015961762746
 20
-288.99999999999659
 30
0.0
 11
-709.61015961762746
 21
-276.99999999999659
 31
0.0
  0
TEXT
  8
SIZE
  6
CONTINUOUS
 62
    30
 10
-734.61015961762746
 20
-224.85199999999807
 30
0.0
 40
64.0
  1
289
 50
90.0
 41
0.9
 51
0.0
  7
STANDARD
 71
     0
 72
     1
 11
-734.61015961762746
 21
-144.4999999999981
 31
0.0
210
0.0
220
0.0
230
1.0
  0
POINT
  8
DEFPOINTS
  6
CONTINUOUS
 62
    30
 10
-366.64999999999878
 20
0.0
 30
0.0
  0
POINT
  8
DEFPOINTS
  6
CONTINUOUS
 62
    30
 10
-366.64999999999878
 20
-288.99999999999648
 30
0.0
  0
POINT
  8
DEFPOINTS
  6
CONTINUOUS
 62
    30
 10
-709.61015961762746
 20
-288.99999999999659
 30
0.0
  0
LINE
  8
SIZE
  6
CONTINUOUS
 62
    30
 10
386.64999999999623
 20
0.0000000000000032
 30
0.0
 11
628.13476791129335
 21
0.000000000000042
 31
0.0
  0
LINE
  8
SIZE
  6
CONTINUOUS
 62
    30
 10
424.59999999999792
 20
-64.999999999996376
 30
0.0
 11
628.13476791129335
 21
-64.999999999996348
 31
0.0
  0
LINE
  8
SIZE
  6
CONTINUOUS
 62
    30
 10
608.13476791129335
 20
-76.999999999996348
 30
0.0
 11
608.13476791129335
 21
-88.999999999996348
 31
0.0
  0
LINE
  8
SIZE
  6
CONTINUOUS
 62
    30
 10
608.13476791129335
 20
12.000000000000041
 30
0.0
 11
608.13476791129335
 21
167.25714285714301
 31
0.0
  0
LINE
  8
SIZE
  6
CONTINUOUS
 62
    30
 10
608.13476791129335
 20
-64.999999999996348
 30
0.0
 11
608.13476791129335
 21
0.0000000000000388
 31
0.0
  0
CIRCLE
  8
SIZE
  6
CONTINUOUS
 62
    30
 10
608.13476791129335
 20
-64.999999999996348
 30
0.0
 40
6.0
  0
LINE
  8
SIZE
  6
CONTINUOUS
 62
    30
 10
608.13476791129335
 20
-64.999999999996348
 30
0.0
 11
608.13476791129335
 21
-76.999999999996348
 31
0.0
  0
CIRCLE
  8
SIZE
  6
CONTINUOUS
 62
    30
 10
608.13476791129335
 20
0.0000000000000388
 30
0.0
 40
6.0
  0
LINE
  8
SIZE
  6
CONTINUOUS
 62
    30
 10
608.13476791129335
 20
0.0000000000000388
 30
0.0
 11
608.13476791129335
 21
12.000000000000039
 31
0.0
  0
TEXT
  8
SIZE
  6
CONTINUOUS
 62
    30
 10
583.13476791129324
 20
42.06057142857135
 30
0.0
 40
64.0
  1
65
 50
90.0
 41
0.9
 51
0.0
  7
STANDARD
 71
     0
 72
     1
 11
583.13476791129324
 21
95.628571428571334
 31
0.0
210
0.0
220
0.0
230
1.0
  0
POINT
  8
DEFPOINTS
  6
CONTINUOUS
 62
    30
 10
366.64999999999611
 20
0.0
 30
0.0
  0
POINT
  8
DEFPOINTS
  6
CONTINUOUS
 62
    30
 10
404.59999999999792
 20
-64.99999999999639
 30
0.0
  0
POINT
  8
DEFPOINTS
  6
CONTINUOUS
 62
    30
 10
608.13476791129335
 20
-64.999999999996348
 30
0.0
  0
LINE
  8
SIZE
  6
CONTINUOUS
 62
    30
 10
-386.6499999999989
 20
-0.0000000000000032
 30
0.0
 11
-614.9887404320317
 21
-0.0000000000000399
 31
0.0
  0
LINE
  8
SIZE
  6
CONTINUOUS
 62
    30
 10
-424.60000000000241
 20
-64.999999999996405
 30
0.0
 11
-614.9887404320317
 21
-64.999999999996433
 31
0.0
  0
LINE
  8
SIZE
  6
CONTINUOUS
 62
    30
 10
-594.9887404320317
 20
-76.999999999996419
 30
0.0
 11
-594.9887404320317
 21
-88.999999999996419
 31
0.0
  0
LINE
  8
SIZE
  6
CONTINUOUS
 62
    30
 10
-594.9887404320317
 20
11.99999999999997
 30
0.0
 11
-594.9887404320317
 21
167.2571428571429
 31
0.0
  0
LINE
  8
SIZE
  6
CONTINUOUS
 62
    30
 10
-594.9887404320317
 20
-64.999999999996419
 30
0.0
 11
-594.9887404320317
 21
-0.0000000000000367
 31
0.0
  0
CIRCLE
  8
SIZE
  6
CONTINUOUS
 62
    30
 10
-594.9887404320317
 20
-64.999999999996419
 30
0.0
 40
6.0
  0
LINE
  8
SIZE
  6
CONTINUOUS
 62
    30
 10
-594.9887404320317
 20
-64.999999999996419
 30
0.0
 11
-594.9887404320317
 21
-76.999999999996419
 31
0.0
  0
CIRCLE
  8
SIZE
  6
CONTINUOUS
 62
    30
 10
-594.9887404320317
 20
-0.0000000000000367
 30
0.0
 40
6.0
  0
LINE
  8
SIZE
  6
CONTINUOUS
 62
    30
 10
-594.9887404320317
 20
-0.0000000000000367
 30
0.0
 11
-594.9887404320317
 21
11.999999999999963
 31
0.0
  0
TEXT
  8
SIZE
  6
CONTINUOUS
 62
    30
 10
-619.98874043203159
 20
42.060571428571677
 30
0.0
 40
64.0
  1
65
 50
90.0
 41
0.9
 51
0.0
  7
STANDARD
 71
     0
 72
     1
 11
-619.98874043203159
 21
95.628571428571661
 31
0.0
210
0.0
220
0.0
230
1.0
  0
POINT
  8
DEFPOINTS
  6
CONTINUOUS
 62
    30
 10
-366.64999999999878
 20
0.0
 30
0.0
  0
POINT
  8
DEFPOINTS
  6
CONTINUOUS
 62
    30
 10
-404.60000000000241
 20
-64.99999999999639
 30
0.0
  0
POINT
  8
DEFPOINTS
  6
CONTINUOUS
 62
    30
 10
-594.9887404320317
 20
-64.999999999996419
 30
0.0
  0
LINE
  8
SIZE
  6
CONTINUOUS
 62
    30
 10
-476.0
 20
-292.399999999996
 30
0.0
 11
-476.0
 21
-464.81683766968399
 31
0.0
  0
LINE
  8
SIZE
  6
CONTINUOUS
 62
    30
 10
-361.00000000000091
 20
-307.39999999999782
 30
0.0
 11
-361.00000000000091
 21
-464.81683766968399
 31
0.0
  0
LINE
  8
SIZE
  6
CONTINUOUS
 62
    30
 10
-464.0
 20
-444.81683766968399
 30
0.0
 11
-373.00000000000091
 21
-444.81683766968399
 31
0.0
  0
LINE
  8
SIZE
  6
CONTINUOUS
 62
    30
 10
-361.00000000000091
 20
-444.81683766968399
 30
0.0
 11
-172.82857142857239
 21
-444.81683766968399
 31
0.0
  0
CIRCLE
  8
SIZE
  6
CONTINUOUS
 62
    30
 10
-476.0
 20
-444.81683766968399
 30
0.0
 40
6.0
  0
LINE
  8
SIZE
  6
CONTINUOUS
 62
    30
 10
-476.0
 20
-444.81683766968399
 30
0.0
 11
-464.0
 21
-444.81683766968399
 31
0.0
  0
CIRCLE
  8
SIZE
  6
CONTINUOUS
 62
    30
 10
-361.00000000000091
 20
-444.81683766968399
 30
0.0
 40
6.0
  0
LINE
  8
SIZE
  6
CONTINUOUS
 62
    30
 10
-361.00000000000091
 20
-444.81683766968399
 30
0.0
 11
-373.00000000000091
 21
-444.81683766968399
 31
0.0
  0
TEXT
  8
SIZE
  6
CONTINUOUS
 62
    30
 10
-329.74628571428661
 20
-419.81683766968399
 30
0.0
 40
64.0
  1
115
 50
0.0
 41
0.9
 51
0.0
  7
STANDARD
 71
     0
 72
     1
 11
-260.91428571428662
 21
-419.81683766968399
 31
0.0
210
0.0
220
0.0
230
1.0
  0
POINT
  8
DEFPOINTS
  6
CONTINUOUS
 62
    30
 10
-476.0
 20
-272.399999999996
 30
0.0
  0
POINT
  8
DEFPOINTS
  6
CONTINUOUS
 62
    30
 10
-361.00000000000091
 20
-287.39999999999782
 30
0.0
  0
POINT
  8
DEFPOINTS
  6
CONTINUOUS
 62
    30
 10
-361.00000000000091
 20
-444.81683766968399
 30
0.0
  0
LINE
  8
SIZE
  6
CONTINUOUS
 62
    30
 10
-367.49999999999909
 20
19.150000000001459
 30
0.0
 11
-367.49999999999909
 21
242.2726521356235
 31
0.0
  0
LINE
  8
SIZE
  6
CONTINUOUS
 62
    30
 10
367.49999999999642
 20
19.150000000001459
 30
0.0
 11
367.49999999999642
 21
242.2726521356235
 31
0.0
  0
LINE
  8
SIZE
  6
CONTINUOUS
 62
    30
 10
-355.49999999999909
 20
222.2726521356235
 30
0.0
 11
355.49999999999642
 21
222.2726521356235
 31
0.0
  0
CIRCLE
  8
SIZE
  6
CONTINUOUS
 62
    30
 10
-367.49999999999909
 20
222.2726521356235
 30
0.0
 40
6.0
  0
LINE
  8
SIZE
  6
CONTINUOUS
 62
    30
 10
-367.49999999999909
 20
222.2726521356235
 30
0.0
 11
-355.49999999999909
 21
222.2726521356235
 31
0.0
  0
CIRCLE
  8
SIZE
  6
CONTINUOUS
 62
    30
 10
367.49999999999642
 20
222.2726521356235
 30
0.0
 40
6.0
  0
LINE
  8
SIZE
  6
CONTINUOUS
 62
    30
 10
367.49999999999642
 20
222.2726521356235
 30
0.0
 11
355.49999999999642
 21
222.2726521356235
 31
0.0
  0
TEXT
  8
SIZE
  6
CONTINUOUS
 62
    30
 10
-80.352000000001368
 20
247.2726521356235
 30
0.0
 40
64.0
  1
735
 50
0.0
 41
0.9
 51
0.0
  7
STANDARD
 71
     0
 72
     1
 11
-0.0000000000013642
 21
247.2726521356235
 31
0.0
210
0.0
220
0.0
230
1.0
  0
POINT
  8
DEFPOINTS
  6
CONTINUOUS
 62
    30
 10
-367.49999999999909
 20
-0.8499999999985448
 30
0.0
  0
POINT
  8
DEFPOINTS
  6
CONTINUOUS
 62
    30
 10
367.49999999999642
 20
-0.8499999999985448
 30
0.0
  0
POINT
  8
DEFPOINTS
  6
CONTINUOUS
 62
    30
 10
367.49999999999642
 20
222.2726521356235
 30
0.0
  0
LINE
  8
BASIS
  6
DASHDOT
 62
     6
 10
-391.00000000000909
 20
-121.5000000014106
 30
0.0
 11
-391.00000000000909
 21
-8.4999999985802788
 31
0.0
  0
LINE
  8
BASIS
  6
DASHDOT
 62
     6
 10
-334.49999999858852
 20
-64.999999999999091
 30
0.0
 11
-447.50000000141517
 21
-64.999999999999091
 31
0.0
  0
LINE
  8
BASIS
  6
DASHDOT
 62
     6
 10
390.99999999999358
 20
-121.5000000014106
 30
0.0
 11
390.99999999999358
 21
-8.4999999985802788
 31
0.0
  0
LINE
  8
BASIS
  6
DASHDOT
 62
     6
 10
447.50000000141239
 20
-64.999999999999091
 30
0.0
 11
334.49999999858852
 21
-64.999999999999091
 31
0.0
  0
LINE
  8
SIZE
  6
CONTINUOUS
 62
    30
 10
390.99999999999358
 20
11.500000001419719
 30
0.0
 11
390.99999999999358
 21
353.9311319142198
 31
0.0
  0
LINE
  8
SIZE
  6
CONTINUOUS
 62
    30
 10
-391.00000000002461
 20
11.500000001419719
 30
0.0
 11
-391.00000000002461
 21
353.9311319142198
 31
0.0
  0
LINE
  8
SIZE
  6
CONTINUOUS
 62
    30
 10
378.99999999999358
 20
333.9311319142198
 30
0.0
 11
-379.00000000002461
 21
333.9311319142198
 31
0.0
  0
CIRCLE
  8
SIZE
  6
CONTINUOUS
 62
    30
 10
390.99999999999358
 20
333.9311319142198
 30
0.0
 40
6.0
  0
LINE
  8
SIZE
  6
CONTINUOUS
 62
    30
 10
390.99999999999358
 20
333.9311319142198
 30
0.0
 11
378.99999999999358
 21
333.9311319142198
 31
0.0
  0
CIRCLE
  8
SIZE
  6
CONTINUOUS
 62
    30
 10
-391.00000000002461
 20
333.9311319142198
 30
0.0
 40
6.0
  0
LINE
  8
SIZE
  6
CONTINUOUS
 62
    30
 10
-391.00000000002461
 20
333.9311319142198
 30
0.0
 11
-379.00000000002461
 21
333.9311319142198
 31
0.0
  0
TEXT
  8
SIZE
  6
CONTINUOUS
 62
    30
 10
-80.352000000015465
 20
358.9311319142198
 30
0.0
 40
64.0
  1
782
 50
0.0
 41
0.9
 51
0.0
  7
STANDARD
 71
     0
 72
     1
 11
-0.0000000000154614
 21
358.9311319142198
 31
0.0
210
0.0
220
0.0
230
1.0
  0
POINT
  8
DEFPOINTS
  6
CONTINUOUS
 62
    30
 10
390.99999999999358
 20
-8.4999999985802788
 30
0.0
  0
POINT
  8
DEFPOINTS
  6
CONTINUOUS
 62
    30
 10
-391.00000000002461
 20
-8.4999999985802788
 30
0.0
  0
POINT
  8
DEFPOINTS
  6
CONTINUOUS
 62
    30
 10
-391.00000000002461
 20
333.9311319142198
 30
0.0
  0
LINE
  8
SIZE
  6
CONTINUOUS
 62
    30
 10
-391.00000000000909
 20
11.500000001419719
 30
0.0
 11
-391.00000000000909
 21
353.93113191423441
 31
0.0
  0
LINE
  8
SIZE
  6
CONTINUOUS
 62
    30
 10
-411.00000000000091
 20
-38.199999999993452
 30
0.0
 11
-411.00000000000091
 21
353.93113191423441
 31
0.0
  0
LINE
  8
SIZE
  6
CONTINUOUS
 62
    30
 10
-379.00000000000909
 20
333.93113191423441
 30
0.0
 11
-367.00000000000909
 21
333.93113191423441
 31
0.0
  0
LINE
  8
SIZE
  6
CONTINUOUS
 62
    30
 10
-423.00000000000091
 20
333.93113191423441
 30
0.0
 11
-578.25714285714548
 21
333.93113191423441
 31
0.0
  0
LINE
  8
SIZE
  6
CONTINUOUS
 62
    30
 10
-391.00000000000909
 20
333.93113191423441
 30
0.0
 11
-411.00000000000091
 21
333.93113191423441
 31
0.0
  0
CIRCLE
  8
SIZE
  6
CONTINUOUS
 62
    30
 10
-391.00000000000909
 20
333.93113191423441
 30
0.0
 40
6.0
  0
LINE
  8
SIZE
  6
CONTINUOUS
 62
    30
 10
-391.00000000000909
 20
333.93113191423441
 30
0.0
 11
-379.00000000000909
 21
333.93113191423441
 31
0.0
  0
CIRCLE
  8
SIZE
  6
CONTINUOUS
 62
    30
 10
-411.00000000000091
 20
333.93113191423441
 30
0.0
 40
6.0
  0
LINE
  8
SIZE
  6
CONTINUOUS
 62
    30
 10
-411.00000000000091
 20
333.93113191423441
 30
0.0
 11
-423.00000000000091
 21
333.93113191423441
 31
0.0
  0
TEXT
  8
SIZE
  6
CONTINUOUS
 62
    30
 10
-560.77257142857411
 20
358.93113191423441
 30
0.0
 40
64.0
  1
20
 50
0.0
 41
0.9
 51
0.0
  7
STANDARD
 71
     0
 72
     1
 11
-506.62857142857411
 21
358.93113191423441
 31
0.0
210
0.0
220
0.0
230
1.0
  0
POINT
  8
DEFPOINTS
  6
CONTINUOUS
 62
    30
 10
-391.00000000000909
 20
-8.4999999985802788
 30
0.0
  0
POINT
  8
DEFPOINTS
  6
CONTINUOUS
 62
    30
 10
-411.00000000000091
 20
-58.199999999993452
 30
0.0
  0
POINT
  8
DEFPOINTS
  6
CONTINUOUS
 62
    30
 10
-411.00000000000091
 20
333.93113191423441
 30
0.0
  0
CIRCLE
  8
FIX
  6
CONTINUOUS
 62
    11
 10
390.99999999999358
 20
-64.999999999995453
 30
0.0
 40
6.5
  0
CIRCLE
  8
FIX
  6
CONTINUOUS
 62
    11
 10
-391.00000000000182
 20
-64.999999999999091
 30
0.0
 40
6.5
  0
ARC
  8
OUTLINE
  6
CONTINUOUS
 62
     3
 10
367.3999999999981
 20
-71.400000000005733
 30
0.0
 40
6.400000000002092
 50
90.0
 51
157.20175190037833
  0
LINE
  8
OUTLINE
  6
CONTINUOUS
 62
     3
 10
367.39999999999691
 20
-65.000000000003638
 30
0.0
 11
404.59999999999491
 21
-64.999999999990905
 31
0.0
  0
ARC
  8
OUTLINE
  6
CONTINUOUS
 62
     3
 10
404.5999999999944
 20
-61.799999999991506
 30
0.0
 40
3.1999999999993958
 50
270.0
 51
0.0
  0
LINE
  8
OUTLINE
  6
CONTINUOUS
 62
     3
 10
407.79999999999382
 20
-61.799999999991087
 30
0.0
 11
407.79999999999382
 21
-58.199999999995271
 31
0.0
  0
LINE
  8
OUTLINE
  6
CONTINUOUS
 62
     3
 10
407.79999999999382
 20
-58.199999999995271
 30
0.0
 11
410.99999999999818
 21
-58.199999999995271
 31
0.0
  0
LINE
  8
OUTLINE
  6
CONTINUOUS
 62
     3
 10
410.99999999999818
 20
-58.199999999995271
 30
0.0
 11
410.99999999999449
 21
-61.799999999991087
 31
0.0
  0
ARC
  8
OUTLINE
  6
CONTINUOUS
 62
     3
 10
404.5999999999953
 20
-61.799999999991421
 30
0.0
 40
6.3999999999992019
 50
311.34354484791652
 51
0.0
  0
LINE
  8
OUTLINE
  6
CONTINUOUS
 62
     3
 10
361.49999999999181
 20
-68.923726158670434
 30
0.0
 11
361.49999999999181
 21
-1.599999999996726
 31
0.0
  0
LINE
  8
OUTLINE
  6
CONTINUOUS
 62
     3
 10
361.49999999999181
 20
-1.599999999996726
 30
0.0
 11
360.99999999999181
 21
-1.599999999996726
 31
0.0
  0
ARC
  8
OUTLINE
  6
CONTINUOUS
 62
     3
 10
361.49999999998772
 20
-1.6000000000008261
 30
0.0
 40
0.4999999999959151
 50
90.0
 51
180.0
  0
LINE
  8
OUTLINE
  6
CONTINUOUS
 62
     3
 10
361.49999999999181
 20
-1.100000000004911
 30
0.0
 11
362.99999999999551
 21
-1.100000000004911
 31
0.0
  0
LINE
  8
OUTLINE
  6
CONTINUOUS
 62
     3
 10
362.99999999999551
 20
-1.100000000004911
 30
0.0
 11
362.99999999999551
 21
-1.700000000002547
 31
0.0
  0
LINE
  8
OUTLINE
  6
CONTINUOUS
 62
     3
 10
362.99999999999551
 20
-1.700000000002547
 30
0.0
 11
366.64999999999691
 21
-1.7000000000052751
 31
0.0
  0
ARC
  8
OUTLINE
  6
CONTINUOUS
 62
     3
 10
366.64999999999691
 20
-0.8500000000026375
 30
0.0
 40
0.8500000000026375
 50
270.0
 51
90.0
  0
LINE
  8
OUTLINE
  6
CONTINUOUS
 62
     3
 10
366.64999999999691
 20
0.0
 30
0.0
 11
360.9581655879947
 21
-0.0000000000045475
 31
0.0
  0
ARC
  8
OUTLINE
  6
CONTINUOUS
 62
     3
 10
360.95816558777483
 20
-1.099999999901125
 30
0.0
 40
1.0999999998965775
 50
90.0
 51
174.99999998851831
  0
LINE
  8
OUTLINE
  6
CONTINUOUS
 62
     3
 10
359.86235141999617
 20
-1.0041286826681239
 30
0.0
 11
359.72273077066262
 21
-2.6000000000030918
 31
0.0
  0
LINE
  8
OUTLINE
  6
CONTINUOUS
 62
     3
 10
359.72273077066262
 20
-2.6000000000030918
 30
0.0
 11
358.99999999999551
 21
-2.6000000000030918
 31
0.0
  0
LINE
  8
OUTLINE
  6
CONTINUOUS
 62
     3
 10
358.99999999999551
 20
-2.6000000000030918
 30
0.0
 11
358.99999999999551
 21
-0.6000000000049113
 31
0.0
  0
LINE
  8
OUTLINE
  6
CONTINUOUS
 62
     3
 10
358.99999999999551
 20
-0.6000000000049113
 30
0.0
 11
358.89999999999509
 21
-0.6000000000049113
 31
0.0
  0
LINE
  8
OUTLINE
  6
CONTINUOUS
 62
     3
 10
358.89999999999509
 20
-0.6000000000049113
 30
0.0
 11
358.89999999999509
 21
0.0
 31
0.0
  0
LINE
  8
OUTLINE
  6
CONTINUOUS
 62
     3
 10
358.89999999999509
 20
0.0
 30
0.0
 11
-358.90000000000049
 21
0.000000000003638
 31
0.0
  0
LINE
  8
OUTLINE
  6
CONTINUOUS
 62
     3
 10
-358.90000000000049
 20
0.000000000003638
 30
0.0
 11
-358.90000000000049
 21
-0.6000000000012733
 31
0.0
  0
LINE
  8
OUTLINE
  6
CONTINUOUS
 62
     3
 10
-358.90000000000049
 20
-0.6000000000012733
 30
0.0
 11
-358.99999999999909
 21
-0.6000000000012733
 31
0.0
  0
LINE
  8
OUTLINE
  6
CONTINUOUS
 62
     3
 10
-358.99999999999909
 20
-0.6000000000012733
 30
0.0
 11
-358.99999999999909
 21
-2.5999999999994539
 31
0.0
  0
LINE
  8
OUTLINE
  6
CONTINUOUS
 62
     3
 10
-358.99999999999909
 20
-2.5999999999994539
 30
0.0
 11
-359.72273077066978
 21
-2.5999999999994539
 31
0.0
  0
LINE
  8
OUTLINE
  6
CONTINUOUS
 62
     3
 10
-359.72273077066978
 20
-2.5999999999994539
 30
0.0
 11
-359.86235141876477
 21
-1.004128682979172
 31
0.0
  0
ARC
  8
OUTLINE
  6
CONTINUOUS
 62
     3
 10
-360.95816558666917
 20
-1.0999999999996433
 30
0.0
 40
1.1000000000032815
 50
4.9999999998829026
 51
90.0
  0
LINE
  8
OUTLINE
  6
CONTINUOUS
 62
     3
 10
-360.95816558666678
 20
0.000000000003638
 30
0.0
 11
-366.65000000000049
 21
-0.0000000000009095
 31
0.0
  0
ARC
  8
OUTLINE
  6
CONTINUOUS
 62
     3
 10
-366.65000000000049
 20
-0.8499999999999093
 30
0.0
 40
0.8499999999989998
 50
90.0
 51
270.0
  0
LINE
  8
OUTLINE
  6
CONTINUOUS
 62
     3
 10
-366.65000000000049
 20
-1.6999999999989091
 30
0.0
 11
-363.00000000000267
 21
-1.6999999999989091
 31
0.0
  0
LINE
  8
OUTLINE
  6
CONTINUOUS
 62
     3
 10
-363.00000000000267
 20
-1.6999999999989091
 30
0.0
 11
-363.00000000000267
 21
-1.100000000002183
 31
0.0
  0
LINE
  8
OUTLINE
  6
CONTINUOUS
 62
     3
 10
-363.00000000000267
 20
-1.100000000002183
 30
0.0
 11
-361.49999999999551
 21
-1.0999999999930881
 31
0.0
  0
ARC
  8
OUTLINE
  6
CONTINUOUS
 62
     3
 10
-361.49999999999721
 20
-1.5999999999912347
 30
0.0
 40
0.4999999999981465
 50
0.0
 51
90.0
  0
LINE
  8
OUTLINE
  6
CONTINUOUS
 62
     3
 10
-360.99999999999909
 20
-1.5999999999930881
 30
0.0
 11
-360.99999999999909
 21
-4.3999999999932697
 31
0.0
  0
LINE
  8
OUTLINE
  6
CONTINUOUS
 62
     3
 10
-360.99999999999909
 20
-4.3999999999932697
 30
0.0
 11
-364.10000000000127
 21
-4.3999999999932697
 31
0.0
  0
LINE
  8
OUTLINE
  6
CONTINUOUS
 62
     3
 10
-364.10000000000127
 20
-4.3999999999932697
 30
0.0
 11
-364.09999999999758
 21
-4.8999999999932697
 31
0.0
  0
ARC
  8
OUTLINE
  6
CONTINUOUS
 62
     3
 10
-365.09999999999707
 20
-4.8999999999936747
 30
0.0
 40
0.9999999999994962
 50
0.0
 51
90.0
  0
LINE
  8
OUTLINE
  6
CONTINUOUS
 62
     3
 10
-365.09999999999758
 20
-3.8999999999941788
 30
0.0
 11
-374.59999999999951
 21
-3.999999999993634
 31
0.0
  0
ARC
  8
OUTLINE
  6
CONTINUOUS
 62
     3
 10
-374.59999999999894
 20
-4.4999999999936033
 30
0.0
 40
0.4999999999999689
 50
90.0
 51
262.77181216476879
  0
LINE
  8
OUTLINE
  6
CONTINUOUS
 62
     3
 10
-374.66291065478708
 20
-4.996026460491521
 30
0.0
 11
-375.09999999999758
 21
-4.9999999999936344
 31
0.0
  0
LINE
  8
OUTLINE
  6
CONTINUOUS
 62
     3
 10
-375.09999999999758
 20
-4.9999999999936344
 30
0.0
 11
-375.4165137614209
 21
-4.6129353562855613
 31
0.0
  0
ARC
  8
OUTLINE
  6
CONTINUOUS
 62
     3
 10
-341.50538178899546
 20
-46.833224230558749
 30
0.0
 40
54.152725363349283
 50
128.77126219364823
 51
138.14508655614429
  0
LINE
  8
OUTLINE
  6
CONTINUOUS
 62
     3
 10
-381.84032657613812
 20
-10.699999999991061
 30
0.0
 11
-476.00000000000449
 21
-10.699999999991061
 31
0.0
  0
LINE
  8
OUTLINE
  6
CONTINUOUS
 62
     3
 10
-476.00000000000449
 20
-10.699999999991061
 30
0.0
 11
-476.00000000000449
 21
-11.551087470684591
 31
0.0
  0
ARC
  8
OUTLINE
  6
CONTINUOUS
 62
     3
 10
-475.20000000000312
 20
-12.699999999986925
 30
0.0
 40
1.3999999999964705
 50
124.84990457921594
 51
145.1500954212313
  0
LINE
  8
OUTLINE
  6
CONTINUOUS
 62
     3
 10
-476.34891252931169
 20
-11.89999999999452
 30
0.0
 11
-477.20000000000158
 21
-11.89999999999452
 31
0.0
  0
LINE
  8
OUTLINE
  6
CONTINUOUS
 62
     3
 10
-477.20000000000158
 20
-11.89999999999452
 30
0.0
 11
-477.19999999999709
 21
-271.09999999999252
 31
0.0
  0
LINE
  8
OUTLINE
  6
CONTINUOUS
 62
     3
 10
-477.19999999999709
 20
-271.09999999999252
 30
0.0
 11
-476.3489125293072
 21
-271.09999999999161
 31
0.0
  0
ARC
  8
OUTLINE
  6
CONTINUOUS
 62
     3
 10
-475.19999999999595
 20
-270.29999999999939
 30
0.0
 40
1.3999999999985526
 50
214.84990457870015
 51
235.15009542070993
  0
LINE
  8
OUTLINE
  6
CONTINUOUS
 62
     3
 10
-476.0
 20
-271.44891252930239
 30
0.0
 11
-476.0
 21
-272.29999999999598
 31
0.0
  0
LINE
  8
OUTLINE
  6
CONTINUOUS
 62
     3
 10
-476.0
 20
-272.29999999999598
 30
0.0
 11
-386.30830419363701
 21
-272.29999999999512
 31
0.0
  0
ARC
  8
OUTLINE
  6
CONTINUOUS
 62
     3
 10
-340.07620729651683
 20
-241.59062544818636
 30
0.0
 40
55.50200418784884
 50
213.59384596016457
 51
230.45089631632391
  0
LINE
  8
OUTLINE
  6
CONTINUOUS
 62
     3
 10
-375.41651376133359
 20
-284.3870646439982
 30
0.0
 11
-375.09999999999758
 21
-284.0
 31
0.0
  0
LINE
  8
OUTLINE
  6
CONTINUOUS
 62
     3
 10
-375.09999999999758
 20
-284.0
 30
0.0
 11
-374.59999999999951
 21
-283.99999999999181
 31
0.0
  0
ARC
  8
OUTLINE
  6
CONTINUOUS
 62
     3
 10
-374.59999999999951
 20
-284.499999999995
 30
0.0
 40
0.5000000000031832
 50
90.0
 51
270.0
  0
LINE
  8
OUTLINE
  6
CONTINUOUS
 62
     3
 10
-374.59999999999951
 20
-284.99999999999818
 30
0.0
 11
-365.09999999999758
 21
-285.0
 31
0.0
  0
ARC
  8
OUTLINE
  6
CONTINUOUS
 62
     3
 10
-365.0999999999994
 20
-284.00000000000188
 30
0.0
 40
0.9999999999981366
 50
270.0
 51
0.0
  0
LINE
  8
OUTLINE
  6
CONTINUOUS
 62
     3
 10
-364.10000000000127
 20
-284.0
 30
0.0
 11
-364.10000000000127
 21
-284.49999999999181
 31
0.0
  0
LINE
  8
OUTLINE
  6
CONTINUOUS
 62
     3
 10
-364.10000000000127
 20
-284.49999999999181
 30
0.0
 11
-360.99999999999909
 21
-284.49999999999091
 31
0.0
  0
LINE
  8
OUTLINE
  6
CONTINUOUS
 62
     3
 10
-360.99999999999909
 20
-284.49999999999091
 30
0.0
 11
-360.99999999999551
 21
-287.39999999999958
 31
0.0
  0
ARC
  8
OUTLINE
  6
CONTINUOUS
 62
     3
 10
-361.499999999995
 20
-287.39999999999924
 30
0.0
 40
0.4999999999995051
 50
270.0
 51
0.0
  0
LINE
  8
OUTLINE
  6
CONTINUOUS
 62
     3
 10
-361.49999999999551
 20
-287.89999999999873
 30
0.0
 11
-363.00000000000267
 21
-287.89999999999151
 31
0.0
  0
LINE
  8
OUTLINE
  6
CONTINUOUS
 62
     3
 10
-363.00000000000267
 20
-287.89999999999151
 30
0.0
 11
-363.00000000000267
 21
-287.30000000000109
 31
0.0
  0
LINE
  8
OUTLINE
  6
CONTINUOUS
 62
     3
 10
-363.00000000000267
 20
-287.30000000000109
 30
0.0
 11
-366.65000000000049
 21
-287.29999999999109
 31
0.0
  0
ARC
  8
OUTLINE
  6
CONTINUOUS
 62
     3
 10
-366.65000000000043
 20
-288.14999999999372
 30
0.0
 40
0.8500000000026659
 50
90.0
 51
270.0
  0
LINE
  8
OUTLINE
  6
CONTINUOUS
 62
     3
 10
-366.65000000000049
 20
-288.99999999999642
 30
0.0
 11
-361.23306493866858
 21
-288.99999999999642
 31
0.0
  0
ARC
  8
OUTLINE
  6
CONTINUOUS
 62
     3
 10
-361.2330649385803
 20
-287.60000000006897
 30
0.0
 40
1.3999999999274637
 50
270.0
 51
354.9999999963552
  0
LINE
  8
OUTLINE
  6
CONTINUOUS
 62
     3
 10
-359.8383923613319
 20
-287.72201803999809
 30
0.0
 11
-359.72273077066978
 21
-286.39999999999958
 31
0.0
  0
LINE
  8
OUTLINE
  6
CONTINUOUS
 62
     3
 10
-359.72273077066978
 20
-286.39999999999958
 30
0.0
 11
-358.99999999999909
 21
-286.40000000000049
 31
0.0
  0
LINE
  8
OUTLINE
  6
CONTINUOUS
 62
     3
 10
-358.99999999999909
 20
-286.40000000000049
 30
0.0
 11
-358.99999999999909
 21
-288.39999999999873
 31
0.0
  0
LINE
  8
OUTLINE
  6
CONTINUOUS
 62
     3
 10
-358.99999999999909
 20
-288.39999999999873
 30
0.0
 11
-358.90000000000049
 21
-288.39999999999873
 31
0.0
  0
LINE
  8
OUTLINE
  6
CONTINUOUS
 62
     3
 10
-358.90000000000049
 20
-288.39999999999873
 30
0.0
 11
-358.90000000000049
 21
-288.99999999999642
 31
0.0
  0
LINE
  8
OUTLINE
  6
CONTINUOUS
 62
     3
 10
-358.90000000000049
 20
-288.99999999999642
 30
0.0
 11
358.89999999999509
 21
-289.0
 31
0.0
  0
LINE
  8
OUTLINE
  6
CONTINUOUS
 62
     3
 10
358.89999999999509
 20
-289.0
 30
0.0
 11
358.89999999999509
 21
-288.40000000000242
 31
0.0
  0
LINE
  8
OUTLINE
  6
CONTINUOUS
 62
     3
 10
358.89999999999509
 20
-288.40000000000242
 30
0.0
 11
358.99999999999551
 21
-288.40000000000242
 31
0.0
  0
LINE
  8
OUTLINE
  6
CONTINUOUS
 62
     3
 10
358.99999999999551
 20
-288.40000000000242
 30
0.0
 11
358.99999999999551
 21
-286.40000000000418
 31
0.0
  0
LINE
  8
OUTLINE
  6
CONTINUOUS
 62
     3
 10
358.99999999999551
 20
-286.40000000000418
 30
0.0
 11
359.72273077066262
 21
-286.40000000000418
 31
0.0
  0
LINE
  8
OUTLINE
  6
CONTINUOUS
 62
     3
 10
359.72273077066262
 20
-286.40000000000418
 30
0.0
 11
359.83839236266698
 21
-287.72201803984723
 31
0.0
  0
ARC
  8
OUTLINE
  6
CONTINUOUS
 62
     3
 10
361.2330649399957
 20
-287.59999999999962
 30
0.0
 40
1.4000000000003681
 50
185.00000000003502
 51
270.0
  0
LINE
  8
OUTLINE
  6
CONTINUOUS
 62
     3
 10
361.23306493999638
 20
-289.0
 30
0.0
 11
366.64999999999691
 21
-288.99999999999551
 31
0.0
  0
ARC
  8
OUTLINE
  6
CONTINUOUS
 62
     3
 10
366.64999999999691
 20
-288.15000000000009
 30
0.0
 40
0.8499999999954185
 50
270.0
 51
90.0
  0
LINE
  8
OUTLINE
  6
CONTINUOUS
 62
     3
 10
366.64999999999691
 20
-287.30000000000467
 30
0.0
 11
362.99999999999551
 21
-287.30000000000467
 31
0.0
  0
LINE
  8
OUTLINE
  6
CONTINUOUS
 62
     3
 10
362.99999999999551
 20
-287.30000000000467
 30
0.0
 11
362.99999999999551
 21
-287.90000000000242
 31
0.0
  0
LINE
  8
OUTLINE
  6
CONTINUOUS
 62
     3
 10
362.99999999999551
 20
-287.90000000000242
 30
0.0
 11
361.49999999999181
 21
-287.90000000000327
 31
0.0
  0
ARC
  8
OUTLINE
  6
CONTINUOUS
 62
     3
 10
361.49999999999267
 20
-287.40000000000418
 30
0.0
 40
0.499999999999117
 50
180.0
 51
270.0
  0
LINE
  8
OUTLINE
  6
CONTINUOUS
 62
     3
 10
360.99999999999358
 20
-287.40000000000327
 30
0.0
 11
361.49999999999181
 21
-287.40000000000327
 31
0.0
  0
LINE
  8
OUTLINE
  6
CONTINUOUS
 62
     3
 10
361.49999999999181
 20
-287.40000000000327
 30
0.0
 11
361.49999999999181
 21
-115.00000000508039
 31
0.0
  0
LINE
  8
OUTLINE
  6
CONTINUOUS
 62
     3
 10
361.49999999999181
 20
-115.00000000508039
 30
0.0
 11
364.19999999999249
 21
-115.0000000000045
 31
0.0
  0
LINE
  8
OUTLINE
  6
CONTINUOUS
 62
     3
 10
364.19999999999249
 20
-115.0000000000045
 30
0.0
 11
364.19999999999618
 21
-71.400000000006003
 31
0.0
  0
ARC
  8
OUTLINE
  6
CONTINUOUS
 62
     3
 10
367.39999999999691
 20
-71.400000000006031
 30
0.0
 40
3.200000000000752
 50
90.0
 51
180.0
  0
LINE
  8
OUTLINE
  6
CONTINUOUS
 62
     3
 10
367.39999999999691
 20
-68.200000000005275
 30
0.0
 11
404.59999999999491
 21
-68.200000000001637
 31
0.0
  0
ARC
  8
OUTLINE
  6
CONTINUOUS
 62
     3
 10
404.5999999999944
 20
-71.400000000001029
 30
0.0
 40
3.1999999999993958
 50
0.0
 51
90.0
  0
LINE
  8
OUTLINE
  6
CONTINUOUS
 62
     3
 10
407.79999999999382
 20
-71.400000000001455
 30
0.0
 11
407.79999999999382
 21
-74.999999999996362
 31
0.0
  0
LINE
  8
OUTLINE
  6
CONTINUOUS
 62
     3
 10
407.79999999999382
 20
-74.999999999996362
 30
0.0
 11
410.99999999999818
 21
-74.999999999996362
 31
0.0
  0
LINE
  8
OUTLINE
  6
CONTINUOUS
 62
     3
 10
410.99999999999818
 20
-74.999999999996362
 30
0.0
 11
410.99999999999449
 21
-71.400000000001455
 31
0.0
  0
ARC
  8
OUTLINE
  6
CONTINUOUS
 62
     3
 10
404.59999999999462
 20
-71.400000000000631
 30
0.0
 40
6.3999999999998911
 50
0.0
 51
48.590377890795537
  0
POINT
  8
ARRANGE
  6
CONTINUOUS
 62
     1
 10
0.0
 20
0.0
 30
0.0
 50
270.0
  0
CIRCLE
  8
ARRANGE
  6
CONTINUOUS
 62
     1
 10
0.0
 20
0.0
 30
0.0
 40
40.0
  0
LINE
  8
SIZE
  6
CONTINUOUS
 62
    30
 10
662.08764873070197
 20
-247.56795910293889
 30
0.0
 11
346.62953456420342
 21
-189.5206220520665
 31
0.0
  0
LINE
  8
SIZE
  6
CONTINUOUS
 62
    30
 10
183.37046543579319
 20
-159.4793779479231
 30
0.0
 11
171.56860501687191
 21
-157.3077217476235
 31
0.0
  0
TEXT
  8
SIZE
  6
CONTINUOUS
 62
    30
 10
441.04241230113041
 20
-181.473781528328
 30
0.0
 40
64.0
  1
φ142
 50
349.57365669912224
 41
0.9
 51
0.0
  7
STANDARD
 71
     0
 72
     1
 11
548.95862397174653
 21
-201.33140582386696
 31
0.0
210
0.0
220
0.0
230
1.0
  0
LINE
  8
SIZE
  6
CONTINUOUS
 62
    30
 10
195.1723258547145
 20
-161.65103414822261
 30
0.0
 11
334.82767414528212
 21
-187.34896585176691
 31
0.0
  0
CIRCLE
  8
SIZE
  6
CONTINUOUS
 62
    30
 10
195.1723258547145
 20
-161.65103414822261
 30
0.0
 40
6.0
  0
LINE
  8
SIZE
  6
CONTINUOUS
 62
    30
 10
195.1723258547145
 20
-161.65103414822261
 30
0.0
 11
183.37046543579322
 21
-159.47937794792307
 31
0.0
  0
CIRCLE
  8
SIZE
  6
CONTINUOUS
 62
    30
 10
334.82767414528212
 20
-187.34896585176691
 30
0.0
 40
6.0
  0
LINE
  8
SIZE
  6
CONTINUOUS
 62
    30
 10
334.82767414528212
 20
-187.34896585176691
 30
0.0
 11
346.62953456420337
 21
-189.52062205206644
 31
0.0
  0
POINT
  8
DEFPOINTS
  6
CONTINUOUS
 62
    30
 10
334.82767414528212
 20
-187.34896585176691
 30
0.0
  0
POINT
  8
DEFPOINTS
  6
CONTINUOUS
 62
    30
 10
195.1723258547145
 20
-161.65103414822261
 30
0.0
  0
LINE
  8
SIZE
  6
CONTINUOUS
 62
    30
 10
578.28968002332363
 20
-422.19121318345879
 30
0.0
 11
337.16917161483332
 21
-231.55795885262299
 31
0.0
  0
LINE
  8
SIZE
  6
CONTINUOUS
 62
    30
 10
192.83082838516339
 20
-117.4420411473656
 30
0.0
 11
183.41745817453261
 21
-109.999698688327
 31
0.0
  0
TEXT
  8
SIZE
  6
CONTINUOUS
 62
    30
 10
413.87636705481037
 20
-260.33417942777936
 30
0.0
 40
64.0
  1
φ160
 50
321.66960922757204
 41
0.9
 51
0.0
  7
STANDARD
 71
     0
 72
     1
 11
499.95222426081813
 21
-328.38695887322865
 31
0.0
210
0.0
220
0.0
230
1.0
  0
LINE
  8
SIZE
  6
CONTINUOUS
 62
    30
 10
202.24419859579419
 20
-124.8843836064042
 30
0.0
 11
327.75580140420249
 21
-224.11561639358439
 31
0.0
  0
CIRCLE
  8
SIZE
  6
CONTINUOUS
 62
    30
 10
202.24419859579419
 20
-124.8843836064042
 30
0.0
 40
6.0
  0
LINE
  8
SIZE
  6
CONTINUOUS
 62
    30
 10
202.24419859579419
 20
-124.8843836064042
 30
0.0
 11
192.83082838516341
 21
-117.44204114736556
 31
0.0
  0
CIRCLE
  8
SIZE
  6
CONTINUOUS
 62
    30
 10
327.75580140420249
 20
-224.11561639358439
 30
0.0
 40
6.0
  0
LINE
  8
SIZE
  6
CONTINUOUS
 62
    30
 10
327.75580140420249
 20
-224.11561639358439
 30
0.0
 11
337.16917161483326
 21
-231.55795885262302
 31
0.0
  0
POINT
  8
DEFPOINTS
  6
CONTINUOUS
 62
    30
 10
327.75580140420249
 20
-224.11561639358439
 30
0.0
  0
POINT
  8
DEFPOINTS
  6
CONTINUOUS
 62
    30
 10
202.24419859579419
 20
-124.8843836064042
 30
0.0
  0
TEXT
  8
NOTE
  6
CONTINUOUS
 62
     4
 10
-310.73109707531597
 20
-208.12350967350241
 30
0.0
 40
64.065641025638456
  1
SA
 41
0.9
  0
TEXT
  8
NOTE
  6
CONTINUOUS
 62
     4
 10
214.96155726113469
 20
-208.12350967350241
 30
0.0
 40
64.065641025638456
  1
RA
 41
0.9
  0
TEXT
  8
ETC
  6
CONTINUOUS
 62
    61
 10
778.31624088342141
 20
762.35498991225609
 30
0.0
 40
64.065641025638456
  1
LGH-25RVX3-E_2
 41
0.9
  0
TEXT
  8
ETC
  6
CONTINUOUS
 62
    61
 10
774.12595355624126
 20
644.27870009228627
 30
0.0
 40
64.065641025638456
  1
LOSSNAY
 41
0.9
  0
TEXT
  8
ETC
  6
CONTINUOUS
 62
    61
 10
824.87935323889633
 20
536.01900538772031
 30
0.0
 40
40.041025641024042
  1
LGH-25RVX3-E
 50
0.0
 41
0.9
 51
0.0
  7
STANDARD
 71
     0
 11
0.0
 21
0.0
 31
0.0
210
0.0
220
0.0
230
1.0
  0
TEXT
  8
NOTE
  6
CONTINUOUS
 62
     4
 10
532.50888206007949
 20
384.50919305309247
 30
0.0
 40
69.0
  1
Ceiling suspension fixture
 50
0.0
 41
0.9
 51
0.0
  7
STANDARD
 71
     0
 11
0.0
 21
0.0
 31
0.0
210
0.0
220
0.0
230
1.0
  0
TEXT
  8
NOTE
  6
CONTINUOUS
 62
     4
 10
532.50888206007949
 20
270.65919305309251
 30
0.0
 40
69.0
  1
(4-13X20 oval)
 50
0.0
 41
0.9
 51
0.0
  7
STANDARD
 71
     0
 11
0.0
 21
0.0
 31
0.0
210
0.0
220
0.0
230
1.0
  0
LINE
  8
NOTE
  6
CONTINUOUS
 62
     4
 10
522.50888206007949
 20
233.36633591023519
 30
0.0
 11
1739.023167774365
 21
233.36633591023519
 31
0.0
  0
LINE
  8
NOTE
  6
CONTINUOUS
 62
     4
 10
412.88655926668713
 20
-36.122150042818731
 30
0.0
 11
391.00000906836982
 21
-65.000004767140581
 31
0.0
  0
LINE
  8
NOTE
  6
CONTINUOUS
 62
     4
 10
391.00000906836982
 20
-65.000004767140581
 30
0.0
 11
395.51533600116073
 21
-29.047767065538295
 31
0.0
  0
LINE
  8
NOTE
  6
CONTINUOUS
 62
     4
 10
391.00000906836982
 20
-65.000004767140581
 30
0.0
 11
417.40188619947804
 21
-0.1699123412164454
 31
0.0
  0
LINE
  8
NOTE
  6
CONTINUOUS
 62
     4
 10
417.40188619947787
 20
-0.169912341216417
 30
0.0
 11
512.50888206007949
 21
233.36633591023519
 31
0.0
  0
LINE
  8
NOTE
  6
CONTINUOUS
 62
     4
 10
512.50888206007949
 20
233.36633591023519
 30
0.0
 11
522.50888206007949
 21
233.36633591023519
 31
0.0
  0
TEXT
  8
NOTE
  6
CONTINUOUS
 62
     4
 10
-1162.631529203481
 20
-394.78549895820868
 30
0.0
 40
69.0
  1
Power supply
 50
0.0
 41
0.9
 51
0.0
  7
STANDARD
 71
     0
 72
     2
 11
-558.39852920348085
 21
-394.78549895820868
 31
0.0
210
0.0
220
0.0
230
1.0
  0
TEXT
  8
NOTE
  6
CONTINUOUS
 62
     4
 10
-1190.576529203481
 20
-508.6354989582087
 30
0.0
 40
69.0
  1
cable opening
 50
0.0
 41
0.9
 51
0.0
  7
STANDARD
 71
     0
 72
     2
 11
-558.39852920348085
 21
-508.6354989582087
 31
0.0
210
0.0
220
0.0
230
1.0
  0
LINE
  8
NOTE
  6
CONTINUOUS
 62
     4
 10
-548.39852920348085
 20
-532.78549895820879
 30
0.0
 11
-1200.0985292034809
 21
-532.78549895820879
 31
0.0
  0
LINE
  8
NOTE
  6
CONTINUOUS
 62
     4
 10
-469.72911866236785
 20
-261.46889242370492
 30
0.0
 11
-451.0
 21
-230.44999999999891
 31
0.0
  0
LINE
  8
NOTE
  6
CONTINUOUS
 62
     4
 10
-451.0
 20
-230.44999999999891
 30
0.0
 11
-451.71039174713206
 21
-266.6777092379304
 31
0.0
  0
LINE
  8
NOTE
  6
CONTINUOUS
 62
     4
 10
-451.0
 20
-230.44999999999891
 30
0.0
 11
-470.43951040949992
 21
-297.69660166163641
 31
0.0
  0
LINE
  8
NOTE
  6
CONTINUOUS
 62
     4
 10
-470.43951040949992
 20
-297.69660166163641
 30
0.0
 11
-538.39852920348085
 21
-532.78549895820879
 31
0.0
  0
LINE
  8
NOTE
  6
CONTINUOUS
 62
     4
 10
-538.39852920348085
 20
-532.78549895820879
 30
0.0
 11
-548.39852920348085
 21
-532.78549895820879
 31
0.0
  0
ENDSEC
  0
EOF
