  0
SECTION
  2
HEADER
  9
$ACADVER
  1
AC1009
  9
$DWGCODEPAGE
  3
dos932
  9
$INSBASE
 10
0.0
 20
0.0
 30
0.0
  9
$EXTMIN
 10
-1189.613326382374
 20
-936.30980331952378
 30
-0.0000000000112498
  9
$EXTMAX
 10
1695.368969865805
 20
1255.142220709406
 30
0.0000000000002956
  9
$LIMMIN
 10
-2970.0
 20
-2100.0
  9
$LIMMAX
 10
2970.0
 20
2100.0
  9
$ORTHOMODE
 70
     1
  9
$REGENMODE
 70
     1
  9
$FILLMODE
 70
     1
  9
$QTEXTMODE
 70
     0
  9
$MIRRTEXT
 70
     0
  9
$LTSCALE
 40
20.0
  9
$ATTMODE
 70
     1
  9
$TEXTSIZE
 40
64.0
  9
$TRACEWID
 40
0.05
  9
$TEXTSTYLE
  7
STANDARD
  9
$CLAYER
  8
SIZE
  9
$CELTYPE
  6
CONTINUOUS
  9
$CECOLOR
 62
     7
  9
$DIMSCALE
 40
1.0
  9
$DIMASZ
 40
12.0
  9
$DIMEXO
 40
20.0
  9
$DIMDLI
 40
200.0
  9
$DIMRND
 40
0.0
  9
$DIMDLE
 40
0.0
  9
$DIMEXE
 40
20.0
  9
$DIMTP
 40
0.0
  9
$DIMTM
 40
0.0
  9
$DIMTXT
 40
64.0
  9
$DIMCEN
 40
0.09
  9
$DIMTSZ
 40
0.0
  9
$DIMTOL
 70
     0
  9
$DIMLIM
 70
     0
  9
$DIMTIH
 70
     0
  9
$DIMTOH
 70
     0
  9
$DIMSE1
 70
     0
  9
$DIMSE2
 70
     0
  9
$DIMTAD
 70
     1
  9
$DIMZIN
 70
     8
  9
$DIMBLK
  1

  9
$DIMASO
 70
     1
  9
$DIMSHO
 70
     0
  9
$DIMPOST
  1

  9
$DIMAPOST
  1

  9
$DIMALT
 70
     0
  9
$DIMALTD
 70
     2
  9
$DIMALTF
 40
25.399999999999999
  9
$DIMLFAC
 40
1.0
  9
$DIMTOFL
 70
     1
  9
$DIMTVP
 40
0.0
  9
$DIMTIX
 70
     1
  9
$DIMSOXD
 70
     0
  9
$DIMSAH
 70
     0
  9
$DIMBLK1
  1

  9
$DIMBLK2
  1

  9
$DIMSTYLE
  2
STANDARD
  9
$DIMCLRD
 70
     7
  9
$DIMCLRE
 70
     7
  9
$DIMCLRT
 70
     7
  9
$DIMTFAC
 40
1.0
  9
$DIMGAP
 40
25.0
  9
$LUNITS
 70
     2
  9
$LUPREC
 70
     4
  9
$SKETCHINC
 40
0.1
  9
$FILLETRAD
 40
3.0
  9
$AUNITS
 70
     1
  9
$AUPREC
 70
     3
  9
$MENU
  1
ACAD
  9
$ELEVATION
 40
0.0
  9
$PELEVATION
 40
0.0
  9
$THICKNESS
 40
0.0
  9
$LIMCHECK
 70
     0
  9
$CHAMFERA
 40
0.0
  9
$CHAMFERB
 40
0.0
  9
$SKPOLY
 70
     0
  9
$TDCREATE
 40
2453019.62301037
  9
$TDUPDATE
 40
2460045.427726111
  9
$TDINDWG
 40
1.7134187616
  9
$TDUSRTIMER
 40
1.7134187616
  9
$USRTIMER
 70
     1
  9
$ANGBASE
 50
0.0
  9
$ANGDIR
 70
     0
  9
$PDMODE
 70
     3
  9
$PDSIZE
 40
-2.0
  9
$PLINEWID
 40
0.0
  9
$SPLFRAME
 70
     0
  9
$SPLINETYPE
 70
     6
  9
$SPLINESEGS
 70
     8
  9
$SURFTAB1
 70
     6
  9
$SURFTAB2
 70
     6
  9
$SURFTYPE
 70
     6
  9
$SURFU
 70
     6
  9
$SURFV
 70
     6
  9
$UCSNAME
  2

  9
$UCSORG
 10
0.0
 20
0.0
 30
0.0
  9
$UCSXDIR
 10
1.0
 20
0.0
 30
0.0
  9
$UCSYDIR
 10
0.0
 20
1.0
 30
0.0
  9
$PUCSNAME
  2

  9
$PUCSORG
 10
0.0
 20
0.0
 30
0.0
  9
$PUCSXDIR
 10
1.0
 20
0.0
 30
0.0
  9
$PUCSYDIR
 10
0.0
 20
1.0
 30
0.0
  9
$USERI1
 70
     0
  9
$USERI2
 70
     0
  9
$USERI3
 70
     0
  9
$USERI4
 70
     0
  9
$USERI5
 70
     0
  9
$USERR1
 40
20.0
  9
$USERR2
 40
0.0
  9
$USERR3
 40
0.0
  9
$USERR4
 40
0.0
  9
$USERR5
 40
0.0
  9
$WORLDVIEW
 70
     1
  9
$SHADEDGE
 70
     3
  9
$SHADEDIF
 70
    70
  9
$TILEMODE
 70
     1
  9
$MAXACTVP
 70
    48
  9
$PINSBASE
 10
0.0
 20
0.0
 30
0.0
  9
$PLIMCHECK
 70
     0
  9
$PEXTMIN
 10
-100000000000000000000.0
 20
-100000000000000000000.0
 30
-100000000000000000000.0
  9
$PEXTMAX
 10
100000000000000000000.0
 20
100000000000000000000.0
 30
100000000000000000000.0
  9
$PLIMMIN
 10
0.0
 20
0.0
  9
$PLIMMAX
 10
12.0
 20
9.0
  9
$UNITMODE
 70
     0
  9
$VISRETAIN
 70
     0
  9
$PLINEGEN
 70
     0
  9
$PSLTSCALE
 70
     0
  9
$TREEDEPTH
 70
  3020
  9
$ATTDIA
 70
     0
  9
$ATTREQ
 70
     1
  9
$BLIPMODE
 70
     1
  9
$COORDS
 70
     1
  9
$DRAGMODE
 70
     2
  9
$OSMODE
 70
     0
  9
$HANDLING
 70
     0
  9
$HANDSEED
  5
F1BB
  0
ENDSEC
  0
SECTION
  2
TABLES
  0
TABLE
  2
LTYPE
 70
     3
  0
LTYPE
  2
CONTINUOUS
 70
     0
  3
実線
 72
    65
 73
     0
 40
0.0
  0
LTYPE
  2
DASHDOT
 70
     0
  3
____ _ ____ _ ____ _ ____ _ ____ _ ____ _ ____
 72
    65
 73
     4
 40
5.5
 49
4.0
 49
-0.6
 49
0.3
 49
-0.6
  0
LTYPE
  2
DASHED
 70
     0
  3
-- -- -- -- -- -- -- -- -- -- -- -- -- -- --
 72
    65
 73
     2
 40
0.75
 49
0.5
 49
-0.25
  0
ENDTAB
  0
TABLE
  2
LAYER
 70
    12
  0
LAYER
  2
0
 70
     0
 62
     7
  6
CONTINUOUS
  0
LAYER
  2
BASIS
 70
     0
 62
     6
  6
DASHDOT
  0
LAYER
  2
OUTLINE
 70
     0
 62
     3
  6
CONTINUOUS
  0
LAYER
  2
DETAIL
 70
     0
 62
     5
  6
CONTINUOUS
  0
LAYER
  2
SIZE
 70
     0
 62
    30
  6
CONTINUOUS
  0
LAYER
  2
ARRANGE
 70
     0
 62
     1
  6
CONTINUOUS
  0
LAYER
  2
DEFPOINTS
 70
     0
 62
     7
  6
CONTINUOUS
  0
LAYER
  2
ETC
 70
     0
 62
    61
  6
CONTINUOUS
  0
LAYER
  2
FIX
 70
     0
 62
    11
  6
CONTINUOUS
  0
LAYER
  2
NOTE
 70
     0
 62
     4
  6
CONTINUOUS
  0
LAYER
  2
SERVICESPACE
 70
     0
 62
     2
  6
DASHDOT
  0
LAYER
  2
SYMBOLLINE
 70
    64
 62
    15
  6
CONTINUOUS
  0
ENDTAB
  0
TABLE
  2
STYLE
 70
     1
  0
STYLE
  2
STANDARD
 70
     0
 40
64.0
 41
0.9
 50
0.0
 71
     0
 42
64.0
  3
SIMPLEX.shx
  4
BIGFONT.shx
  0
ENDTAB
  0
TABLE
  2
APPID
 70
    19
  0
APPID
  2
ACAD
 70
     0
  0
APPID
  2
AUTOCAD_POSTSCRIPT_FIGURE
 70
     0
  0
APPID
  2
ACAD_EXEMPT_FROM_CAD_STANDARDS
 70
     0
  0
APPID
  2
ACAD_PSEXT
 70
     0
  0
APPID
  2
ACAUTHENVIRON
 70
     0
  0
APPID
  2
GENIUS_GENOENT_13
 70
     0
  0
APPID
  2
GENIUS_GENCFG_13
 70
     0
  0
APPID
  2
GENIUS_GENCFG0_13
 70
     0
  0
APPID
  2
GENIUS_GENCFG1_13
 70
     0
  0
APPID
  2
GENIUS_GENCFG2_13
 70
     0
  0
APPID
  2
GENIUS_GENCFG3_13
 70
     0
  0
APPID
  2
GENIUS_GENCFG4_13
 70
     0
  0
APPID
  2
GENIUS_GEVCFG0_13
 70
     0
  0
APPID
  2
CONTENTBLOCKICON
 70
     0
  0
APPID
  2
CONTENTBLOCKDESCRIPTION
 70
     0
  0
APPID
  2
ACAD_NAV_VCDISPLAY
 70
     0
  0
APPID
  2
ACAD_MLEADERVER
 70
     0
  0
APPID
  2
ACDBDYNAMICBLOCKTRUENAME
 70
     0
  0
APPID
  2
ACDBDYNAMICBLOCKGUID
 70
     0
  0
ENDTAB
  0
TABLE
  2
DIMSTYLE
 70
     1
  0
DIMSTYLE
  2
STANDARD
 70
     0
  3

  4

  5
_ORIGIN
  6

  7

 40
1.0
 41
12.0
 42
20.0
 43
200.0
 44
20.0
 45
0.0
 46
0.0
 47
0.0
 48
0.0
140
64.0
141
0.09
142
0.0
143
25.399999999999999
144
1.0
145
0.0
146
1.0
147
25.0
 71
     0
 72
     0
 73
     0
 74
     0
 75
     0
 76
     0
 77
     1
 78
     8
170
     0
171
     2
172
     1
173
     0
174
     1
175
     0
176
     7
177
     7
178
     7
  0
ENDTAB
  0
TABLE
  2
VIEW
 70
     1
  0
VIEW
  2
ALL
 70
     0
 40
4282.6198079999986
 10
0.0
 20
41.309904000000003
 41
5940.0
 11
0.0
 21
0.0
 31
1.0
 12
0.0
 22
0.0
 32
0.0
 42
50.0
 43
0.0
 44
0.0
 50
0.0
 71
     0
  0
ENDTAB
  0
TABLE
  2
UCS
 70
     0
  0
ENDTAB
  0
TABLE
  2
VPORT
 70
     1
  0
VPORT
  2
*ACTIVE
 70
     0
 10
0.0
 20
0.0
 11
1.0
 21
1.0
 12
252.87782174171559
 22
159.41620869494099
 13
0.0
 23
0.0
 14
1.0
 24
1.0
 15
0.0
 25
0.0
 16
0.0
 26
0.0
 36
1.0
 17
0.0
 27
0.0
 37
0.0
 40
2206.2591322993949
 41
1.781285231116122
 42
50.0
 43
0.0
 44
0.0
 50
0.0
 51
0.0
 71
     0
 72
  1000
 73
     1
 74
     3
 75
     0
 76
     0
 77
     0
 78
     0
  0
ENDTAB
  0
ENDSEC
  0
SECTION
  2
BLOCKS
  0
BLOCK
  8
0
  2
_ORIGIN
 70
     0
 10
0.0
 20
0.0
 30
0.0
  3
_ORIGIN
  1
_ORIGIN
  0
CIRCLE
  8
0
  6
CONTINUOUS
 62
     7
 10
0.0
 20
0.0
 30
0.0
 40
0.5
  0
LINE
  8
0
  6
CONTINUOUS
 62
     7
 10
0.0
 20
0.0
 30
0.0
 11
-1.0
 21
0.0
 31
0.0
  0
ENDBLK
  8
0
  0
ENDSEC
  0
SECTION
  2
ENTITIES
  0
LINE
  8
DETAIL
  6
CONTINUOUS
 62
     5
 10
367.49999999999551
 20
376.40000000000282
 30
0.0
 11
362.49999999999409
 21
381.39999999999549
 31
0.0
  0
LINE
  8
DETAIL
  6
CONTINUOUS
 62
     5
 10
353.90000000000509
 20
389.99999999999409
 30
0.0
 11
358.89999999999549
 21
384.99999999999409
 31
0.0
  0
LINE
  8
DETAIL
  6
CONTINUOUS
 62
     5
 10
-353.90000000001152
 20
389.99999999999409
 30
0.0
 11
-358.90000000000049
 21
384.99999999999409
 31
0.0
  0
LINE
  8
DETAIL
  6
CONTINUOUS
 62
     5
 10
-362.50000000000182
 20
381.39999999999549
 30
0.0
 11
-367.50000000000091
 21
376.39999999999549
 31
0.0
  0
LINE
  8
DETAIL
  6
CONTINUOUS
 62
     5
 10
335.99999999999409
 20
453.99999999999409
 30
0.0
 11
193.99999999999909
 21
453.99999999999409
 31
0.0
  0
LINE
  8
DETAIL
  6
CONTINUOUS
 62
     5
 10
-194.00000000000409
 20
453.99999999999409
 30
0.0
 11
-335.99999999999909
 21
453.99999999999409
 31
0.0
  0
LINE
  8
DETAIL
  6
CONTINUOUS
 62
     5
 10
335.99999999999409
 20
445.99999999999409
 30
0.0
 11
193.99999999999909
 21
445.99999999999409
 31
0.0
  0
LINE
  8
DETAIL
  6
CONTINUOUS
 62
     5
 10
-194.00000000000409
 20
445.99999999999409
 30
0.0
 11
-335.99999999999909
 21
445.99999999999409
 31
0.0
  0
LINE
  8
DETAIL
  6
CONTINUOUS
 62
     5
 10
-477.20000000000158
 20
-180.19999999999851
 30
0.0
 11
-477.20000000000158
 21
-191.59999999999991
 31
0.0
  0
LINE
  8
DETAIL
  6
CONTINUOUS
 62
     5
 10
-476.59999999999849
 20
-191.59999999999991
 30
0.0
 11
-476.59999999999849
 21
-349.39999999999549
 31
0.0
  0
LINE
  8
DETAIL
  6
CONTINUOUS
 62
     5
 10
-476.00000000000051
 20
-351.80000000000427
 30
0.0
 11
-476.00000000000051
 21
-349.39999999999549
 31
0.0
  0
LINE
  8
DETAIL
  6
CONTINUOUS
 62
     5
 10
-411.00000000000091
 20
402.49999999999409
 30
0.0
 11
-361.00000000000091
 21
402.49999999999409
 31
0.0
  0
LINE
  8
DETAIL
  6
CONTINUOUS
 62
     5
 10
361.00000000000051
 20
402.49999999999409
 30
0.0
 11
410.99999999999858
 21
402.49999999999409
 31
0.0
  0
LINE
  8
DETAIL
  6
CONTINUOUS
 62
     5
 10
344.99999999999909
 20
391.49999999999409
 30
0.0
 11
184.99999999999909
 21
391.49999999999409
 31
0.0
  0
LINE
  8
DETAIL
  6
CONTINUOUS
 62
     5
 10
-185.00000000000091
 20
391.49999999999409
 30
0.0
 11
-345.00000000000358
 21
391.49999999999409
 31
0.0
  0
LINE
  8
DETAIL
  6
CONTINUOUS
 62
     5
 10
353.90000000000242
 20
389.99999999999409
 30
0.0
 11
-353.90000000001152
 21
389.99999999999409
 31
0.0
  0
LINE
  8
DETAIL
  6
CONTINUOUS
 62
     5
 10
-411.00000000000091
 20
390.49999999999409
 30
0.0
 11
-391.00000000000182
 21
390.49999999999409
 31
0.0
  0
LINE
  8
DETAIL
  6
CONTINUOUS
 62
     5
 10
391.0
 20
390.49999999999409
 30
0.0
 11
410.99999999999858
 21
390.49999999999409
 31
0.0
  0
LINE
  8
DETAIL
  6
CONTINUOUS
 62
     5
 10
-360.00000000000182
 20
383.49999999999409
 30
0.0
 11
359.99999999999773
 21
383.49999999999409
 31
0.0
  0
LINE
  8
DETAIL
  6
CONTINUOUS
 62
     5
 10
-360.00000000000182
 20
382.99999999999409
 30
0.0
 11
-358.90000000000049
 21
382.99999999999409
 31
0.0
  0
LINE
  8
DETAIL
  6
CONTINUOUS
 62
     5
 10
358.89999999999549
 20
382.99999999999409
 30
0.0
 11
359.99999999999773
 21
382.99999999999409
 31
0.0
  0
LINE
  8
DETAIL
  6
CONTINUOUS
 62
     5
 10
-358.90000000000049
 20
381.39999999999549
 30
0.0
 11
-362.50000000000182
 21
381.39999999999549
 31
0.0
  0
LINE
  8
DETAIL
  6
CONTINUOUS
 62
     5
 10
358.89999999999549
 20
381.39999999999549
 30
0.0
 11
362.49999999999409
 21
381.39999999999549
 31
0.0
  0
LINE
  8
DETAIL
  6
CONTINUOUS
 62
     5
 10
-391.00000000000182
 20
377.49999999999409
 30
0.0
 11
-411.00000000000091
 21
377.49999999999409
 31
0.0
  0
LINE
  8
DETAIL
  6
CONTINUOUS
 62
     5
 10
391.0
 20
377.49999999999409
 30
0.0
 11
410.99999999999858
 21
377.49999999999409
 31
0.0
  0
LINE
  8
DETAIL
  6
CONTINUOUS
 62
     5
 10
-431.00000000000182
 20
-354.02449979999938
 30
0.0
 11
-431.00000000000182
 21
-353.90000000000282
 31
0.0
  0
LINE
  8
DETAIL
  6
CONTINUOUS
 62
     5
 10
-426.70000000000073
 20
-360.799999999997
 30
0.0
 11
-426.70000000000073
 21
-364.39999999999549
 31
0.0
  0
LINE
  8
DETAIL
  6
CONTINUOUS
 62
     5
 10
-425.49999999999909
 20
-363.44999999999851
 30
0.0
 11
-425.49999999999909
 21
-361.75000000000142
 31
0.0
  0
LINE
  8
DETAIL
  6
CONTINUOUS
 62
     5
 10
-425.00000000000091
 20
-381.99943100266819
 30
0.0
 11
-425.00000000000091
 21
-362.00000000000142
 31
0.0
  0
LINE
  8
DETAIL
  6
CONTINUOUS
 62
     5
 10
-424.70000000000073
 20
-356.50000000000142
 30
0.0
 11
-424.70000000000073
 21
-360.799999999997
 31
0.0
  0
LINE
  8
DETAIL
  6
CONTINUOUS
 62
     5
 10
-423.50000000000358
 20
-361.75000000000142
 30
0.0
 11
-423.50000000000358
 21
-357.75000000000142
 31
0.0
  0
LINE
  8
DETAIL
  6
CONTINUOUS
 62
     5
 10
-418.50000000000182
 20
-357.75000000000142
 30
0.0
 11
-418.50000000000182
 21
-361.75000000000142
 31
0.0
  0
LINE
  8
DETAIL
  6
CONTINUOUS
 62
     5
 10
-417.30000000000058
 20
-360.55000000000427
 30
0.0
 11
-417.30000000000058
 21
-356.94999999999851
 31
0.0
  0
LINE
  8
DETAIL
  6
CONTINUOUS
 62
     5
 10
-417.00000000000091
 20
-381.99943100266819
 30
0.0
 11
-417.00000000000091
 21
-362.00000000000142
 31
0.0
  0
LINE
  8
DETAIL
  6
CONTINUOUS
 62
     5
 10
-416.49999999999909
 20
-361.75000000000142
 30
0.0
 11
-416.49999999999909
 21
-363.44999999999851
 31
0.0
  0
LINE
  8
DETAIL
  6
CONTINUOUS
 62
     5
 10
-415.30000000000058
 20
-364.39999999999549
 30
0.0
 11
-415.30000000000058
 21
-360.55000000000427
 31
0.0
  0
LINE
  8
DETAIL
  6
CONTINUOUS
 62
     5
 10
-411.00000000000091
 20
390.49999999999409
 30
0.0
 11
-411.00000000000091
 21
402.49999999999409
 31
0.0
  0
LINE
  8
DETAIL
  6
CONTINUOUS
 62
     5
 10
-411.00000000000091
 20
377.49999999999409
 30
0.0
 11
-411.00000000000091
 21
359.00000000000142
 31
0.0
  0
LINE
  8
DETAIL
  6
CONTINUOUS
 62
     5
 10
-411.00000000000091
 20
-353.90000000000282
 30
0.0
 11
-411.00000000000091
 21
-354.02449979999938
 31
0.0
  0
LINE
  8
DETAIL
  6
CONTINUOUS
 62
     5
 10
-411.00000000000091
 20
-359.00000000000142
 30
0.0
 11
-411.00000000000091
 21
-377.50000000000142
 31
0.0
  0
LINE
  8
DETAIL
  6
CONTINUOUS
 62
     5
 10
-411.00000000000091
 20
-390.50000000000142
 30
0.0
 11
-411.00000000000091
 21
-402.50000000000142
 31
0.0
  0
LINE
  8
DETAIL
  6
CONTINUOUS
 62
     5
 10
-388.75577561200129
 20
138.5231873106618
 30
0.0
 11
-397.23701255466767
 21
118.54264519466371
 31
0.0
  0
LINE
  8
DETAIL
  6
CONTINUOUS
 62
     5
 10
-386.73066493466831
 20
137.66357882799781
 30
0.0
 11
-395.21190187733549
 21
117.68303671199961
 31
0.0
  0
LINE
  8
DETAIL
  6
CONTINUOUS
 62
     5
 10
-367.50000000000091
 20
359.00000000000142
 30
0.0
 11
-411.00000000000091
 21
359.00000000000142
 31
0.0
  0
LINE
  8
DETAIL
  6
CONTINUOUS
 62
     5
 10
367.49999999999551
 20
359.00000000000142
 30
0.0
 11
410.99999999999858
 21
359.00000000000142
 31
0.0
  0
LINE
  8
DETAIL
  6
CONTINUOUS
 62
     5
 10
-335.99999999999909
 20
-446.00000000000142
 30
0.0
 11
-345.00000000000358
 21
-391.50000000000142
 31
0.0
  0
LINE
  8
DETAIL
  6
CONTINUOUS
 62
     5
 10
-407.800000000002
 20
359.00000000000142
 30
0.0
 11
-407.800000000002
 21
377.49999999999409
 31
0.0
  0
LINE
  8
DETAIL
  6
CONTINUOUS
 62
     5
 10
-407.800000000002
 20
-359.00000000000142
 30
0.0
 11
-407.800000000002
 21
-377.50000000000142
 31
0.0
  0
LINE
  8
DETAIL
  6
CONTINUOUS
 62
     5
 10
-406.09999999999849
 20
142.59999999999991
 30
0.0
 11
-406.09999999999849
 21
149.59999999999991
 31
0.0
  0
LINE
  8
DETAIL
  6
CONTINUOUS
 62
     5
 10
-399.10000000000309
 20
152.59999999999991
 30
0.0
 11
-399.10000000000309
 21
139.59999999999991
 31
0.0
  0
LINE
  8
DETAIL
  6
CONTINUOUS
 62
     5
 10
-398.09999999999849
 20
152.29631777866729
 30
0.0
 11
-398.09999999999849
 21
139.59999999999991
 31
0.0
  0
LINE
  8
DETAIL
  6
CONTINUOUS
 62
     5
 10
-396.60000000000218
 20
143.50000000000139
 30
0.0
 11
-396.60000000000218
 21
148.69999999999851
 31
0.0
  0
LINE
  8
DETAIL
  6
CONTINUOUS
 62
     5
 10
-393.09999999999849
 20
153.59999999999991
 30
0.0
 11
-393.09999999999849
 21
154.59999999999991
 31
0.0
  0
LINE
  8
DETAIL
  6
CONTINUOUS
 62
     5
 10
-391.09999999999951
 20
147.59999999999991
 30
0.0
 11
-391.09999999999951
 21
146.6189985680044
 31
0.0
  0
LINE
  8
DETAIL
  6
CONTINUOUS
 62
     5
 10
-387.19999999999891
 20
152.59999999999991
 30
0.0
 11
-387.19999999999891
 21
152.09999999999991
 31
0.0
  0
LINE
  8
DETAIL
  6
CONTINUOUS
 62
     5
 10
-387.10000000000042
 20
155.5999999999926
 30
0.0
 11
-387.10000000000042
 21
156.59999999999991
 31
0.0
  0
LINE
  8
DETAIL
  6
CONTINUOUS
 62
     5
 10
-386.10000000000218
 20
152.09999999999991
 30
0.0
 11
-386.10000000000218
 21
148.59999999999991
 31
0.0
  0
LINE
  8
DETAIL
  6
CONTINUOUS
 62
     5
 10
-383.09999999999951
 20
152.09999999999991
 30
0.0
 11
-383.09999999999951
 21
148.59999999999991
 31
0.0
  0
LINE
  8
DETAIL
  6
CONTINUOUS
 62
     5
 10
-382.09999999999849
 20
155.5999999999926
 30
0.0
 11
-382.09999999999849
 21
156.59999999999991
 31
0.0
  0
LINE
  8
DETAIL
  6
CONTINUOUS
 62
     5
 10
-381.99999999999909
 20
152.59999999999991
 30
0.0
 11
-381.99999999999909
 21
152.09999999999991
 31
0.0
  0
LINE
  8
DETAIL
  6
CONTINUOUS
 62
     5
 10
-375.09999999999951
 20
-155.59999999999991
 30
0.0
 11
-375.09999999999951
 21
-155.10000000000721
 31
0.0
  0
LINE
  8
DETAIL
  6
CONTINUOUS
 62
     5
 10
-375.09999999999951
 20
155.5999999999926
 30
0.0
 11
-375.09999999999951
 21
155.09999999999991
 31
0.0
  0
LINE
  8
DETAIL
  6
CONTINUOUS
 62
     5
 10
-375.09999999999951
 20
154.59999999999991
 30
0.0
 11
-375.09999999999951
 21
-154.59999999999991
 31
0.0
  0
LINE
  8
DETAIL
  6
CONTINUOUS
 62
     5
 10
-373.60000000000218
 20
155.5999999999926
 30
0.0
 11
-373.60000000000218
 21
156.59999999999991
 31
0.0
  0
LINE
  8
DETAIL
  6
CONTINUOUS
 62
     5
 10
-373.41905584000409
 20
-155.10000000000721
 30
0.0
 11
-373.41905584000409
 21
-154.59999999999991
 31
0.0
  0
LINE
  8
DETAIL
  6
CONTINUOUS
 62
     5
 10
-373.41905584000409
 20
155.09999999999991
 30
0.0
 11
-373.41905584000409
 21
154.59999999999991
 31
0.0
  0
LINE
  8
DETAIL
  6
CONTINUOUS
 62
     5
 10
-335.99999999999909
 20
445.99999999999409
 30
0.0
 11
-345.00000000000358
 21
391.49999999999409
 31
0.0
  0
LINE
  8
DETAIL
  6
CONTINUOUS
 62
     5
 10
-380.59999999999849
 20
156.59999999999991
 30
0.0
 11
-380.68496762266841
 21
157.57118438399769
 31
0.0
  0
LINE
  8
DETAIL
  6
CONTINUOUS
 62
     5
 10
-367.50000000000091
 20
376.40000000000282
 30
0.0
 11
-367.50000000000091
 21
-376.40000000000282
 31
0.0
  0
LINE
  8
DETAIL
  6
CONTINUOUS
 62
     5
 10
-361.00000000000091
 20
-402.50000000000142
 30
0.0
 11
-361.00000000000091
 21
-381.39999999999549
 31
0.0
  0
LINE
  8
DETAIL
  6
CONTINUOUS
 62
     5
 10
-361.00000000000091
 20
402.49999999999409
 30
0.0
 11
-361.00000000000091
 21
381.399999999996
 31
0.0
  0
LINE
  8
DETAIL
  6
CONTINUOUS
 62
     5
 10
-360.49999999999909
 20
-382.49999999999409
 30
0.0
 11
-360.49999999999909
 21
-381.39999999999549
 31
0.0
  0
LINE
  8
DETAIL
  6
CONTINUOUS
 62
     5
 10
-360.49999999999909
 20
382.50000000000142
 30
0.0
 11
-360.49999999999909
 21
381.39999999999549
 31
0.0
  0
LINE
  8
DETAIL
  6
CONTINUOUS
 62
     5
 10
-358.90000000000049
 20
384.99999999999409
 30
0.0
 11
-358.90000000000049
 21
381.39999999999549
 31
0.0
  0
LINE
  8
DETAIL
  6
CONTINUOUS
 62
     5
 10
-358.900000000001
 20
-381.39999999999549
 30
0.0
 11
-358.900000000001
 21
-385.00000000000142
 31
0.0
  0
LINE
  8
DETAIL
  6
CONTINUOUS
 62
     5
 10
-335.99999999999909
 20
-454.00000000000142
 30
0.0
 11
-335.99999999999909
 21
-446.00000000000142
 31
0.0
  0
LINE
  8
DETAIL
  6
CONTINUOUS
 62
     5
 10
-335.99999999999909
 20
453.99999999999409
 30
0.0
 11
-335.99999999999909
 21
445.99999999999409
 31
0.0
  0
LINE
  8
DETAIL
  6
CONTINUOUS
 62
     5
 10
-367.50000000000091
 20
161.4066164600022
 30
0.0
 11
-395.28957005066792
 21
157.99448630266261
 31
0.0
  0
LINE
  8
DETAIL
  6
CONTINUOUS
 62
     5
 10
-367.50000000000091
 20
159.19009484399569
 30
0.0
 11
-395.02145749600191
 21
155.81088476933061
 31
0.0
  0
LINE
  8
DETAIL
  6
CONTINUOUS
 62
     5
 10
-387.42995115200301
 20
159.50000000000139
 30
0.0
 11
-383.02814495200352
 21
159.50000000000139
 31
0.0
  0
LINE
  8
DETAIL
  6
CONTINUOUS
 62
     5
 10
-388.59462968666412
 20
156.59999999999991
 30
0.0
 11
-380.60137781333469
 21
156.59999999999991
 31
0.0
  0
LINE
  8
DETAIL
  6
CONTINUOUS
 62
     5
 10
-367.50000000000091
 20
155.5999999999926
 30
0.0
 11
-395.10000000000042
 21
155.5999999999926
 31
0.0
  0
LINE
  8
DETAIL
  6
CONTINUOUS
 62
     5
 10
-367.50000000000091
 20
155.09999999999991
 30
0.0
 11
-375.09999999999951
 21
155.09999999999991
 31
0.0
  0
LINE
  8
DETAIL
  6
CONTINUOUS
 62
     5
 10
-373.41905584000409
 20
154.69999999999851
 30
0.0
 11
-371.10000000000218
 21
154.69999999999851
 31
0.0
  0
LINE
  8
DETAIL
  6
CONTINUOUS
 62
     5
 10
-396.37875689066823
 20
154.59999999999991
 30
0.0
 11
-367.50000000000091
 21
154.59999999999991
 31
0.0
  0
LINE
  8
DETAIL
  6
CONTINUOUS
 62
     5
 10
-396.29865441733273
 20
153.59999999999991
 30
0.0
 11
-375.09999999999951
 21
153.59999999999991
 31
0.0
  0
LINE
  8
DETAIL
  6
CONTINUOUS
 62
     5
 10
-403.09999999999758
 20
152.59999999999991
 30
0.0
 11
-398.26147070133362
 21
152.59999999999991
 31
0.0
  0
LINE
  8
DETAIL
  6
CONTINUOUS
 62
     5
 10
-387.19999999999891
 20
152.09999999999991
 30
0.0
 11
-381.99999999999909
 21
152.09999999999991
 31
0.0
  0
LINE
  8
DETAIL
  6
CONTINUOUS
 62
     5
 10
-397.10000000000042
 20
148.69999999999851
 30
0.0
 11
-396.60000000000218
 21
148.69999999999851
 31
0.0
  0
LINE
  8
DETAIL
  6
CONTINUOUS
 62
     5
 10
-383.09999999999951
 20
148.59999999999991
 30
0.0
 11
-386.10000000000218
 21
148.59999999999991
 31
0.0
  0
LINE
  8
DETAIL
  6
CONTINUOUS
 62
     5
 10
-396.60000000000218
 20
147.59999999999991
 30
0.0
 11
-394.59393604933672
 21
147.59999999999991
 31
0.0
  0
LINE
  8
DETAIL
  6
CONTINUOUS
 62
     5
 10
-391.83923760266862
 20
147.59999999999991
 30
0.0
 11
-391.09999999999951
 21
147.59999999999991
 31
0.0
  0
LINE
  8
DETAIL
  6
CONTINUOUS
 62
     5
 10
-396.60000000000218
 20
144.59999999999991
 30
0.0
 11
-392.3332739000025
 21
144.59999999999991
 31
0.0
  0
LINE
  8
DETAIL
  6
CONTINUOUS
 62
     5
 10
-397.10000000000042
 20
143.50000000000139
 30
0.0
 11
-396.60000000000218
 21
143.50000000000139
 31
0.0
  0
LINE
  8
DETAIL
  6
CONTINUOUS
 62
     5
 10
-403.09999999999758
 20
139.59999999999991
 30
0.0
 11
-398.09999999999849
 21
139.59999999999991
 31
0.0
  0
LINE
  8
DETAIL
  6
CONTINUOUS
 62
     5
 10
-194.00000000000449
 20
-454.00000000000142
 30
0.0
 11
-194.00000000000449
 21
-446.00000000000142
 31
0.0
  0
LINE
  8
DETAIL
  6
CONTINUOUS
 62
     5
 10
-194.00000000000409
 20
453.99999999999409
 30
0.0
 11
-194.00000000000409
 21
445.99999999999409
 31
0.0
  0
LINE
  8
DETAIL
  6
CONTINUOUS
 62
     5
 10
-185.00000000000091
 20
-391.50000000000142
 30
0.0
 11
-185.00000000000091
 21
-390.00000000000142
 31
0.0
  0
LINE
  8
DETAIL
  6
CONTINUOUS
 62
     5
 10
-185.00000000000091
 20
391.49999999999409
 30
0.0
 11
-185.00000000000091
 21
389.99999999999409
 31
0.0
  0
LINE
  8
DETAIL
  6
CONTINUOUS
 62
     5
 10
-380.17676900400369
 20
-154.59999999999991
 30
0.0
 11
-376.27920730666801
 21
-150.8361684186689
 31
0.0
  0
LINE
  8
DETAIL
  6
CONTINUOUS
 62
     5
 10
-379.83359004399932
 20
-155.93679223999919
 30
0.0
 11
-379.4848314706669
 21
-155.59999999999991
 31
0.0
  0
LINE
  8
DETAIL
  6
CONTINUOUS
 62
     5
 10
-378.44930115600158
 20
-154.59999999999991
 30
0.0
 11
-375.44561726133452
 21
-151.6993761799981
 31
0.0
  0
LINE
  8
DETAIL
  6
CONTINUOUS
 62
     5
 10
-194.00000000000409
 20
445.99999999999409
 30
0.0
 11
-185.00000000000091
 21
391.49999999999409
 31
0.0
  0
LINE
  8
DETAIL
  6
CONTINUOUS
 62
     5
 10
-194.00000000000449
 20
-446.00000000000142
 30
0.0
 11
-185.00000000000091
 21
-391.50000000000142
 31
0.0
  0
LINE
  8
DETAIL
  6
CONTINUOUS
 62
     5
 10
-417.30000000000058
 20
-356.94999999999851
 30
0.0
 11
-412.13256777066999
 21
-354.03819295067069
 31
0.0
  0
LINE
  8
DETAIL
  6
CONTINUOUS
 62
     5
 10
-395.10000000000082
 20
-154.59999999999991
 30
0.0
 11
-367.50000000000142
 21
-154.59999999999991
 31
0.0
  0
LINE
  8
DETAIL
  6
CONTINUOUS
 62
     5
 10
-375.09999999999951
 20
-155.10000000000721
 30
0.0
 11
-367.50000000000142
 21
-155.10000000000721
 31
0.0
  0
LINE
  8
DETAIL
  6
CONTINUOUS
 62
     5
 10
-395.10000000000082
 20
-155.59999999999991
 30
0.0
 11
-367.50000000000142
 21
-155.59999999999991
 31
0.0
  0
LINE
  8
DETAIL
  6
CONTINUOUS
 62
     5
 10
-367.50000000000142
 20
-158.00000000000139
 30
0.0
 11
-379.00000000000091
 21
-158.00000000000139
 31
0.0
  0
LINE
  8
DETAIL
  6
CONTINUOUS
 62
     5
 10
-367.50000000000142
 20
-159.19999999999851
 30
0.0
 11
-379.00000000000091
 21
-159.19999999999851
 31
0.0
  0
LINE
  8
DETAIL
  6
CONTINUOUS
 62
     5
 10
193.99999999999909
 20
-446.00000000000142
 30
0.0
 11
184.99999999999909
 21
-391.50000000000142
 31
0.0
  0
LINE
  8
DETAIL
  6
CONTINUOUS
 62
     5
 10
193.99999999999909
 20
445.99999999999409
 30
0.0
 11
184.99999999999909
 21
391.49999999999409
 31
0.0
  0
LINE
  8
DETAIL
  6
CONTINUOUS
 62
     5
 10
-476.00000000000051
 20
-179.00000000000139
 30
0.0
 11
-367.50000000000142
 21
-179.00000000000139
 31
0.0
  0
LINE
  8
DETAIL
  6
CONTINUOUS
 62
     5
 10
-476.59999999999849
 20
-191.59999999999991
 30
0.0
 11
-477.20000000000158
 21
-191.59999999999991
 31
0.0
  0
LINE
  8
DETAIL
  6
CONTINUOUS
 62
     5
 10
-396.10428336266608
 20
153.25990688933371
 30
0.0
 11
-387.19376844000089
 21
141.43525420400101
 31
0.0
  0
LINE
  8
DETAIL
  6
CONTINUOUS
 62
     5
 10
-397.86128148400081
 20
151.93591383866581
 30
0.0
 11
-388.95076656133642
 21
140.11126115333309
 31
0.0
  0
LINE
  8
DETAIL
  6
CONTINUOUS
 62
     5
 10
184.99999999999909
 20
-391.50000000000142
 30
0.0
 11
184.99999999999909
 21
-390.00000000000142
 31
0.0
  0
LINE
  8
DETAIL
  6
CONTINUOUS
 62
     5
 10
184.99999999999909
 20
391.49999999999409
 30
0.0
 11
184.99999999999909
 21
389.99999999999409
 31
0.0
  0
LINE
  8
DETAIL
  6
CONTINUOUS
 62
     5
 10
193.99999999999909
 20
-454.00000000000142
 30
0.0
 11
193.99999999999909
 21
-446.00000000000142
 31
0.0
  0
LINE
  8
DETAIL
  6
CONTINUOUS
 62
     5
 10
193.99999999999909
 20
453.99999999999409
 30
0.0
 11
193.99999999999909
 21
445.99999999999409
 31
0.0
  0
LINE
  8
DETAIL
  6
CONTINUOUS
 62
     5
 10
-476.59999999999849
 20
-349.39999999999549
 30
0.0
 11
-476.00000000000051
 21
-349.39999999999549
 31
0.0
  0
LINE
  8
DETAIL
  6
CONTINUOUS
 62
     5
 10
-474.40000000000151
 20
-353.39999999999549
 30
0.0
 11
-367.50000000000142
 21
-353.39999999999549
 31
0.0
  0
LINE
  8
DETAIL
  6
CONTINUOUS
 62
     5
 10
-467.20000000000073
 20
-356.39999999999549
 30
0.0
 11
-441.19999999999891
 21
-356.39999999999549
 31
0.0
  0
LINE
  8
DETAIL
  6
CONTINUOUS
 62
     5
 10
-423.50000000000358
 20
-357.75000000000142
 30
0.0
 11
-418.50000000000182
 21
-357.75000000000142
 31
0.0
  0
LINE
  8
DETAIL
  6
CONTINUOUS
 62
     5
 10
-367.50000000000142
 20
-359.00000000000142
 30
0.0
 11
-411.00000000000091
 21
-359.00000000000142
 31
0.0
  0
LINE
  8
DETAIL
  6
CONTINUOUS
 62
     5
 10
367.499999999995
 20
-359.00000000000142
 30
0.0
 11
410.99999999999818
 21
-359.00000000000142
 31
0.0
  0
LINE
  8
DETAIL
  6
CONTINUOUS
 62
     5
 10
-415.30000000000058
 20
-360.55000000000427
 30
0.0
 11
-417.30000000000058
 21
-360.55000000000427
 31
0.0
  0
LINE
  8
DETAIL
  6
CONTINUOUS
 62
     5
 10
-424.70000000000073
 20
-360.799999999997
 30
0.0
 11
-426.70000000000073
 21
-360.799999999997
 31
0.0
  0
LINE
  8
DETAIL
  6
CONTINUOUS
 62
     5
 10
-425.49999999999909
 20
-361.75000000000142
 30
0.0
 11
-423.50000000000358
 21
-361.75000000000142
 31
0.0
  0
LINE
  8
DETAIL
  6
CONTINUOUS
 62
     5
 10
-418.50000000000182
 20
-361.75000000000142
 30
0.0
 11
-416.49999999999909
 21
-361.75000000000142
 31
0.0
  0
LINE
  8
DETAIL
  6
CONTINUOUS
 62
     5
 10
-417.00000000000091
 20
-362.00000000000142
 30
0.0
 11
-425.00000000000091
 21
-362.00000000000142
 31
0.0
  0
LINE
  8
DETAIL
  6
CONTINUOUS
 62
     5
 10
-416.49999999999909
 20
-363.44999999999851
 30
0.0
 11
-417.00000000000091
 21
-363.44999999999851
 31
0.0
  0
LINE
  8
DETAIL
  6
CONTINUOUS
 62
     5
 10
-425.00000000000091
 20
-363.44999999999851
 30
0.0
 11
-425.49999999999909
 21
-363.44999999999851
 31
0.0
  0
LINE
  8
DETAIL
  6
CONTINUOUS
 62
     5
 10
-415.30000000000058
 20
-364.39999999999549
 30
0.0
 11
-417.00000000000091
 21
-364.39999999999549
 31
0.0
  0
LINE
  8
DETAIL
  6
CONTINUOUS
 62
     5
 10
-425.00000000000091
 20
-364.39999999999549
 30
0.0
 11
-426.70000000000073
 21
-364.39999999999549
 31
0.0
  0
LINE
  8
DETAIL
  6
CONTINUOUS
 62
     5
 10
-391.00000000000182
 20
-377.50000000000142
 30
0.0
 11
-411.00000000000091
 21
-377.50000000000142
 31
0.0
  0
LINE
  8
DETAIL
  6
CONTINUOUS
 62
     5
 10
390.99999999999949
 20
-377.50000000000142
 30
0.0
 11
410.99999999999818
 21
-377.50000000000142
 31
0.0
  0
LINE
  8
DETAIL
  6
CONTINUOUS
 62
     5
 10
-358.900000000001
 20
-381.39999999999549
 30
0.0
 11
-362.50000000000227
 21
-381.39999999999549
 31
0.0
  0
LINE
  8
DETAIL
  6
CONTINUOUS
 62
     5
 10
358.89999999999509
 20
-381.39999999999549
 30
0.0
 11
362.49999999999358
 21
-381.39999999999549
 31
0.0
  0
LINE
  8
DETAIL
  6
CONTINUOUS
 62
     5
 10
-417.00000000000091
 20
-382.00000000000142
 30
0.0
 11
-425.00000000000091
 21
-382.00000000000142
 31
0.0
  0
LINE
  8
DETAIL
  6
CONTINUOUS
 62
     5
 10
-360.00000000000227
 20
-383.00000000000142
 30
0.0
 11
-358.900000000001
 21
-383.00000000000142
 31
0.0
  0
LINE
  8
DETAIL
  6
CONTINUOUS
 62
     5
 10
358.89999999999509
 20
-383.00000000000142
 30
0.0
 11
359.99999999999733
 21
-383.00000000000142
 31
0.0
  0
LINE
  8
DETAIL
  6
CONTINUOUS
 62
     5
 10
-360.00000000000227
 20
-383.50000000000142
 30
0.0
 11
359.99999999999733
 21
-383.50000000000142
 31
0.0
  0
LINE
  8
DETAIL
  6
CONTINUOUS
 62
     5
 10
-376.27920730666801
 20
-150.8361684186689
 30
0.0
 11
-375.44561726133452
 21
-151.6993761799981
 31
0.0
  0
LINE
  8
DETAIL
  6
CONTINUOUS
 62
     5
 10
-377.96330656266582
 20
-154.13068047600379
 30
0.0
 11
-378.79689660800392
 21
-153.26747271599879
 31
0.0
  0
LINE
  8
DETAIL
  6
CONTINUOUS
 62
     5
 10
335.99999999999358
 20
-454.00000000000142
 30
0.0
 11
335.99999999999358
 21
-446.00000000000142
 31
0.0
  0
LINE
  8
DETAIL
  6
CONTINUOUS
 62
     5
 10
335.99999999999409
 20
453.99999999999409
 30
0.0
 11
335.99999999999409
 21
445.99999999999409
 31
0.0
  0
LINE
  8
DETAIL
  6
CONTINUOUS
 62
     5
 10
-411.00000000000091
 20
-390.50000000000142
 30
0.0
 11
-391.00000000000182
 21
-390.50000000000142
 31
0.0
  0
LINE
  8
DETAIL
  6
CONTINUOUS
 62
     5
 10
-353.89999999999458
 20
-390.00000000001592
 30
0.0
 11
353.89999999999242
 21
-390.00000000000142
 31
0.0
  0
LINE
  8
DETAIL
  6
CONTINUOUS
 62
     5
 10
390.99999999999949
 20
-390.50000000000142
 30
0.0
 11
410.99999999999818
 21
-390.50000000000142
 31
0.0
  0
LINE
  8
DETAIL
  6
CONTINUOUS
 62
     5
 10
344.99999999999358
 20
-391.50000000000142
 30
0.0
 11
184.99999999999909
 21
-391.50000000000142
 31
0.0
  0
LINE
  8
DETAIL
  6
CONTINUOUS
 62
     5
 10
-345.00000000000358
 20
-391.50000000000142
 30
0.0
 11
-185.00000000000091
 21
-391.50000000000142
 31
0.0
  0
LINE
  8
DETAIL
  6
CONTINUOUS
 62
     5
 10
-411.00000000000091
 20
-402.50000000000142
 30
0.0
 11
-361.00000000000091
 21
-402.50000000000142
 31
0.0
  0
LINE
  8
DETAIL
  6
CONTINUOUS
 62
     5
 10
361.0
 20
-402.50000000000142
 30
0.0
 11
410.99999999999818
 21
-402.50000000000142
 31
0.0
  0
LINE
  8
DETAIL
  6
CONTINUOUS
 62
     5
 10
358.89999999999549
 20
384.99999999999409
 30
0.0
 11
358.89999999999549
 21
381.39999999999549
 31
0.0
  0
LINE
  8
DETAIL
  6
CONTINUOUS
 62
     5
 10
358.89999999999509
 20
-381.39999999999549
 30
0.0
 11
358.89999999999509
 21
-385.00000000000142
 31
0.0
  0
LINE
  8
DETAIL
  6
CONTINUOUS
 62
     5
 10
360.49999999999858
 20
-382.49999999999409
 30
0.0
 11
360.49999999999858
 21
-381.39999999999549
 31
0.0
  0
LINE
  8
DETAIL
  6
CONTINUOUS
 62
     5
 10
360.49999999999909
 20
382.50000000000142
 30
0.0
 11
360.49999999999909
 21
381.39999999999549
 31
0.0
  0
LINE
  8
DETAIL
  6
CONTINUOUS
 62
     5
 10
361.00000000000051
 20
402.49999999999409
 30
0.0
 11
361.0
 21
-402.50000000000142
 31
0.0
  0
LINE
  8
DETAIL
  6
CONTINUOUS
 62
     5
 10
367.499999999995
 20
-376.4000000000101
 30
0.0
 11
367.49999999999551
 21
376.4000000000101
 31
0.0
  0
LINE
  8
DETAIL
  6
CONTINUOUS
 62
     5
 10
335.99999999999358
 20
-446.00000000000142
 30
0.0
 11
193.99999999999909
 21
-446.00000000000142
 31
0.0
  0
LINE
  8
DETAIL
  6
CONTINUOUS
 62
     5
 10
-335.99999999999909
 20
-446.00000000000142
 30
0.0
 11
-194.00000000000449
 21
-446.00000000000142
 31
0.0
  0
LINE
  8
DETAIL
  6
CONTINUOUS
 62
     5
 10
335.99999999999358
 20
-454.00000000000142
 30
0.0
 11
193.99999999999909
 21
-454.00000000000142
 31
0.0
  0
LINE
  8
DETAIL
  6
CONTINUOUS
 62
     5
 10
-335.99999999999909
 20
-454.00000000000142
 30
0.0
 11
-194.00000000000449
 21
-454.00000000000142
 31
0.0
  0
LINE
  8
DETAIL
  6
CONTINUOUS
 62
     5
 10
335.99999999999409
 20
445.99999999999409
 30
0.0
 11
344.99999999999909
 21
391.49999999999409
 31
0.0
  0
LINE
  8
DETAIL
  6
CONTINUOUS
 62
     5
 10
407.79999999999751
 20
359.00000000000142
 30
0.0
 11
407.79999999999751
 21
377.49999999999409
 31
0.0
  0
LINE
  8
DETAIL
  6
CONTINUOUS
 62
     5
 10
407.799999999997
 20
-359.00000000000142
 30
0.0
 11
407.799999999997
 21
-377.50000000000142
 31
0.0
  0
LINE
  8
DETAIL
  6
CONTINUOUS
 62
     5
 10
410.99999999999858
 20
390.49999999999409
 30
0.0
 11
410.99999999999858
 21
402.49999999999409
 31
0.0
  0
LINE
  8
DETAIL
  6
CONTINUOUS
 62
     5
 10
410.99999999999858
 20
377.49999999999409
 30
0.0
 11
410.99999999999858
 21
359.00000000000142
 31
0.0
  0
LINE
  8
DETAIL
  6
CONTINUOUS
 62
     5
 10
410.99999999999818
 20
-359.00000000000142
 30
0.0
 11
410.99999999999818
 21
-377.50000000000142
 31
0.0
  0
LINE
  8
DETAIL
  6
CONTINUOUS
 62
     5
 10
410.99999999999818
 20
-390.50000000000142
 30
0.0
 11
410.99999999999818
 21
-402.50000000000142
 31
0.0
  0
LINE
  8
DETAIL
  6
CONTINUOUS
 62
     5
 10
335.99999999999358
 20
-446.00000000000142
 30
0.0
 11
344.99999999999358
 21
-391.50000000003052
 31
0.0
  0
LINE
  8
DETAIL
  6
CONTINUOUS
 62
     5
 10
-429.83356526933579
 20
-353.97395994666431
 30
0.0
 11
-424.70000000000073
 21
-356.50000000000142
 31
0.0
  0
LINE
  8
DETAIL
  6
CONTINUOUS
 62
     5
 10
-362.50000000000227
 20
-381.39999999999549
 30
0.0
 11
-367.50000000000142
 21
-376.40000000000282
 31
0.0
  0
LINE
  8
DETAIL
  6
CONTINUOUS
 62
     5
 10
-358.900000000001
 20
-385.00000000000142
 30
0.0
 11
-353.89999999999458
 21
-390.00000000001592
 31
0.0
  0
LINE
  8
DETAIL
  6
CONTINUOUS
 62
     5
 10
367.49999999999551
 20
-376.4000000000101
 30
0.0
 11
362.49999999999358
 21
-381.39999999999549
 31
0.0
  0
LINE
  8
DETAIL
  6
CONTINUOUS
 62
     5
 10
358.89999999999509
 20
-385.00000000000142
 30
0.0
 11
353.89999999998918
 21
-390.00000000000142
 31
0.0
  0
ARC
  8
DETAIL
  6
CONTINUOUS
 62
     5
 10
-391.00000000000182
 20
383.99999999999409
 30
0.0
 40
6.4999999999999796
 50
270.0
 51
90.0
  0
ARC
  8
DETAIL
  6
CONTINUOUS
 62
     5
 10
-357.80000000000109
 20
389.89999999999549
 30
0.0
 40
6.3999999999999782
 50
239.99274859062231
 51
260.1031465572899
  0
ARC
  8
DETAIL
  6
CONTINUOUS
 62
     5
 10
-357.80000000000109
 20
389.89999999999549
 30
0.0
 40
3.1999999999999891
 50
180.44621106478991
 51
282.1073252784837
  0
ARC
  8
DETAIL
  6
CONTINUOUS
 62
     5
 10
-360.00000000000182
 20
382.50000000000142
 30
0.0
 40
0.9999999999999969
 50
90.0
 51
180.0
  0
ARC
  8
DETAIL
  6
CONTINUOUS
 62
     5
 10
-360.00000000000182
 20
382.50000000000142
 30
0.0
 40
0.4999999999999984
 50
90.0
 51
180.0
  0
ARC
  8
DETAIL
  6
CONTINUOUS
 62
     5
 10
-390.22858337733209
 20
139.1483571160002
 30
0.0
 40
3.7999999999999878
 50
336.99999999999568
 51
36.999999999995872
  0
ARC
  8
DETAIL
  6
CONTINUOUS
 62
     5
 10
-394.82646654533443
 20
154.2228109266666
 30
0.0
 40
3.7999999999999878
 50
97.000000000006011
 51
216.99999999999591
  0
ARC
  8
DETAIL
  6
CONTINUOUS
 62
     5
 10
-403.09999999999758
 20
142.59999999999991
 30
0.0
 40
2.9999999999999898
 50
180.0
 51
270.0
  0
ARC
  8
DETAIL
  6
CONTINUOUS
 62
     5
 10
-403.09999999999758
 20
149.59999999999991
 30
0.0
 40
2.9999999999999898
 50
90.0
 51
180.0
  0
ARC
  8
DETAIL
  6
CONTINUOUS
 62
     5
 10
-373.60000000000218
 20
154.0052631573358
 30
0.0
 40
2.5947368426666579
 50
15.53033203684792
 51
25.001554010254871
  0
ARC
  8
DETAIL
  6
CONTINUOUS
 62
     5
 10
-373.60000000000218
 20
154.0052631573358
 30
0.0
 40
2.5947368426666579
 50
37.926089973716188
 51
90.0
  0
ARC
  8
DETAIL
  6
CONTINUOUS
 62
     5
 10
-397.10000000000042
 20
152.59999999999991
 30
0.0
 40
1.999999999999994
 50
139.08449643875849
 51
180.0
  0
ARC
  8
DETAIL
  6
CONTINUOUS
 62
     5
 10
-390.22858337733209
 20
139.1483571160002
 30
0.0
 40
1.599999999999995
 50
336.99999999999568
 51
36.999999999995872
  0
ARC
  8
DETAIL
  6
CONTINUOUS
 62
     5
 10
-394.82646654533443
 20
154.2228109266666
 30
0.0
 40
1.599999999999995
 50
97.000000000006011
 51
216.99999999999591
  0
ARC
  8
DETAIL
  6
CONTINUOUS
 62
     5
 10
-396.22445721599979
 20
118.11284095333529
 30
0.0
 40
1.099999999999997
 50
156.99999999988651
 51
337.00000000011192
  0
ARC
  8
DETAIL
  6
CONTINUOUS
 62
     5
 10
-387.42995170133509
 20
158.50000000000139
 30
0.0
 40
0.9999999999999969
 50
90.0
 51
159.7376071649164
  0
ARC
  8
DETAIL
  6
CONTINUOUS
 62
     5
 10
-381.00000000000358
 20
152.59999999999991
 30
0.0
 40
0.9999999999999969
 50
90.0
 51
180.0
  0
ARC
  8
DETAIL
  6
CONTINUOUS
 62
     5
 10
-388.20000000000158
 20
152.59999999999991
 30
0.0
 40
0.9999999999999969
 50
0.0
 51
90.0
  0
ARC
  8
DETAIL
  6
CONTINUOUS
 62
     5
 10
-397.10000000000042
 20
142.50000000000139
 30
0.0
 40
0.9999999999999969
 50
90.0
 51
171.00000000003249
  0
ARC
  8
DETAIL
  6
CONTINUOUS
 62
     5
 10
-397.10000000000042
 20
149.69999999999851
 30
0.0
 40
0.9999999999999969
 50
188.99999999996751
 51
270.0
  0
ARC
  8
DETAIL
  6
CONTINUOUS
 62
     5
 10
-395.10000000000042
 20
155.09999999999991
 30
0.0
 40
0.4999999999999984
 50
90.0
 51
270.0
  0
ARC
  8
DETAIL
  6
CONTINUOUS
 62
     5
 10
-371.00000000000091
 20
154.69999999999851
 30
0.0
 40
0.0999999999999997
 50
180.0
 51
270.0
  0
ARC
  8
DETAIL
  6
CONTINUOUS
 62
     5
 10
391.0
 20
383.99999999999409
 30
0.0
 40
6.4999999999999796
 50
90.0
 51
270.0
  0
ARC
  8
DETAIL
  6
CONTINUOUS
 62
     5
 10
357.79999999999558
 20
389.89999999999549
 30
0.0
 40
6.3999999999999782
 50
279.8968534427101
 51
300.00725140937772
  0
ARC
  8
DETAIL
  6
CONTINUOUS
 62
     5
 10
357.79999999999558
 20
389.89999999999549
 30
0.0
 40
3.1999999999999891
 50
257.8926747215163
 51
359.55378893520998
  0
ARC
  8
DETAIL
  6
CONTINUOUS
 62
     5
 10
360.33140077733242
 20
387.23349359333361
 30
0.0
 40
2.666554902666658
 50
75.492718814204764
 51
76.018352055191471
  0
ARC
  8
DETAIL
  6
CONTINUOUS
 62
     5
 10
360.33222324266671
 20
387.23678920399971
 30
0.0
 40
2.6631582133333249
 50
76.018391694194861
 51
76.355113264800124
  0
ARC
  8
DETAIL
  6
CONTINUOUS
 62
     5
 10
359.99999999999773
 20
382.50000000000142
 30
0.0
 40
0.9999999999999969
 50
0.0
 51
90.0
  0
ARC
  8
DETAIL
  6
CONTINUOUS
 62
     5
 10
359.99999999999773
 20
382.50000000000142
 30
0.0
 40
0.4999999999999984
 50
0.0
 51
90.0
  0
ARC
  8
DETAIL
  6
CONTINUOUS
 62
     5
 10
-379.00000000000091
 20
-156.8000000000043
 30
0.0
 40
2.3999999999999928
 50
149.94463625963439
 51
270.0
  0
ARC
  8
DETAIL
  6
CONTINUOUS
 62
     5
 10
-379.00000000000091
 20
-156.8000000000043
 30
0.0
 40
1.199999999999996
 50
134.0000000000301
 51
270.0
  0
ARC
  8
DETAIL
  6
CONTINUOUS
 62
     5
 10
-476.00000000000051
 20
-180.19999999999851
 30
0.0
 40
1.199999999999996
 50
90.0
 51
180.0
  0
ARC
  8
DETAIL
  6
CONTINUOUS
 62
     5
 10
-395.10000000000082
 20
-155.10000000000721
 30
0.0
 40
0.4999999999999984
 50
90.0
 51
270.0
  0
ARC
  8
DETAIL
  6
CONTINUOUS
 62
     5
 10
-391.00000000000182
 20
-384.00000000000142
 30
0.0
 40
6.4999999999999796
 50
270.0
 51
90.0
  0
ARC
  8
DETAIL
  6
CONTINUOUS
 62
     5
 10
-357.80000000000109
 20
-389.89999999999549
 30
0.0
 40
6.3999999999999782
 50
99.89685344271011
 51
120.0072514093778
  0
ARC
  8
DETAIL
  6
CONTINUOUS
 62
     5
 10
-357.80000000000109
 20
-389.89999999999549
 30
0.0
 40
3.1999999999999891
 50
77.892674721675974
 51
179.55378893521009
  0
ARC
  8
DETAIL
  6
CONTINUOUS
 62
     5
 10
-441.19999999999891
 20
-353.39999999999549
 30
0.0
 40
2.9999999999999898
 50
270.0
 51
0.0
  0
ARC
  8
DETAIL
  6
CONTINUOUS
 62
     5
 10
-447.19999999999891
 20
-353.39999999999549
 30
0.0
 40
2.9999999999999898
 50
270.0
 51
0.0
  0
ARC
  8
DETAIL
  6
CONTINUOUS
 62
     5
 10
-467.20000000000073
 20
-353.39999999999549
 30
0.0
 40
2.9999999999999898
 50
180.0
 51
270.0
  0
ARC
  8
DETAIL
  6
CONTINUOUS
 62
     5
 10
-360.33140078266979
 20
-387.23349361999999
 30
0.0
 40
2.6665548733333249
 50
255.49271881129781
 51
256.01835205811813
  0
ARC
  8
DETAIL
  6
CONTINUOUS
 62
     5
 10
-360.33222321600169
 20
-387.23678909999722
 30
0.0
 40
2.663158319999992
 50
256.01839170208922
 51
256.35511325930298
  0
ARC
  8
DETAIL
  6
CONTINUOUS
 62
     5
 10
-474.40000000000151
 20
-351.80000000000427
 30
0.0
 40
1.599999999999995
 50
180.0
 51
270.0
  0
ARC
  8
DETAIL
  6
CONTINUOUS
 62
     5
 10
-411.00000000000091
 20
-353.39999999999549
 30
0.0
 40
1.299999999999996
 50
209.40091419726031
 51
231.31781254647851
  0
ARC
  8
DETAIL
  6
CONTINUOUS
 62
     5
 10
-431.00000000000182
 20
-353.39999999999549
 30
0.0
 40
1.299999999999996
 50
308.68218745352152
 51
333.7998851587455
  0
ARC
  8
DETAIL
  6
CONTINUOUS
 62
     5
 10
-360.00000000000227
 20
-382.49999999999409
 30
0.0
 40
0.9999999999999969
 50
180.0
 51
270.0
  0
ARC
  8
DETAIL
  6
CONTINUOUS
 62
     5
 10
-430.49999999999909
 20
-353.90000000000282
 30
0.0
 40
0.4999999999999984
 50
90.0
 51
180.0
  0
ARC
  8
DETAIL
  6
CONTINUOUS
 62
     5
 10
-411.50000000000227
 20
-353.90000000000282
 30
0.0
 40
0.4999999999999984
 50
0.0
 51
90.0
  0
ARC
  8
DETAIL
  6
CONTINUOUS
 62
     5
 10
-411.50000000000227
 20
-354.02449979999938
 30
0.0
 40
0.4999999999999984
 50
231.31781254647851
 51
0.0
  0
ARC
  8
DETAIL
  6
CONTINUOUS
 62
     5
 10
-430.49999999999909
 20
-354.02449979999938
 30
0.0
 40
0.4999999999999984
 50
180.0
 51
308.68218745352152
  0
ARC
  8
DETAIL
  6
CONTINUOUS
 62
     5
 10
-360.00000000000227
 20
-382.49999999999409
 30
0.0
 40
0.4999999999999984
 50
180.0
 51
270.0
  0
ARC
  8
DETAIL
  6
CONTINUOUS
 62
     5
 10
390.99999999999949
 20
-384.00000000000142
 30
0.0
 40
6.4999999999999796
 50
90.0
 51
270.0
  0
ARC
  8
DETAIL
  6
CONTINUOUS
 62
     5
 10
357.79999999999518
 20
-389.89999999999549
 30
0.0
 40
6.3999999999999782
 50
59.992748590622242
 51
80.10314655728989
  0
ARC
  8
DETAIL
  6
CONTINUOUS
 62
     5
 10
357.79999999999518
 20
-389.89999999999549
 30
0.0
 40
3.1999999999999891
 50
0.4462110647899379
 51
102.10732527843
  0
ARC
  8
DETAIL
  6
CONTINUOUS
 62
     5
 10
360.33140077733202
 20
-387.23349359333361
 30
0.0
 40
2.666554902666658
 50
283.98164794480851
 51
284.50728118579531
  0
ARC
  8
DETAIL
  6
CONTINUOUS
 62
     5
 10
360.33222324266632
 20
-387.23678920399971
 30
0.0
 40
2.6631582133333249
 50
283.64488673519992
 51
283.98160830580508
  0
ARC
  8
DETAIL
  6
CONTINUOUS
 62
     5
 10
359.99999999999733
 20
-382.49999999999409
 30
0.0
 40
0.9999999999999969
 50
270.0
 51
0.0
  0
ARC
  8
DETAIL
  6
CONTINUOUS
 62
     5
 10
359.99999999999733
 20
-382.49999999999409
 30
0.0
 40
0.4999999999999984
 50
270.0
 51
0.0
  0
LINE
  8
DETAIL
  6
CONTINUOUS
 62
     5
 10
-375.09999999999951
 20
155.5999999999926
 30
0.0
 11
-375.17720166130385
 21
155.58426456460174
 31
0.0
  0
LINE
  8
DETAIL
  6
CONTINUOUS
 62
     5
 10
-375.17720166130385
 20
155.58426456460174
 30
0.0
 11
-375.24610421236468
 21
155.54452459074605
 31
0.0
  0
LINE
  8
DETAIL
  6
CONTINUOUS
 62
     5
 10
-375.24610421236468
 20
155.54452459074605
 30
0.0
 11
-375.30211952434763
 21
155.48887293236373
 31
0.0
  0
LINE
  8
DETAIL
  6
CONTINUOUS
 62
     5
 10
-375.30211952434763
 20
155.48887293236373
 30
0.0
 11
-375.34582671531132
 21
155.42114178810107
 31
0.0
  0
LINE
  8
DETAIL
  6
CONTINUOUS
 62
     5
 10
-375.34582671531132
 20
155.42114178810107
 30
0.0
 11
-375.37817275987396
 21
155.34486004034576
 31
0.0
  0
LINE
  8
DETAIL
  6
CONTINUOUS
 62
     5
 10
-375.37817275987396
 20
155.34486004034576
 30
0.0
 11
-375.40010463265349
 21
155.2635565714854
 31
0.0
  0
LINE
  8
DETAIL
  6
CONTINUOUS
 62
     5
 10
-375.40010463265349
 20
155.2635565714854
 30
0.0
 11
-375.41256930826796
 21
155.18076026390756
 31
0.0
  0
LINE
  8
DETAIL
  6
CONTINUOUS
 62
     5
 10
-375.41256930826796
 20
155.18076026390756
 30
0.0
 11
-375.41651376133541
 21
155.09999999999991
 31
0.0
  0
LINE
  8
DETAIL
  6
CONTINUOUS
 62
     5
 10
-375.41651376133541
 20
155.09999999999991
 30
0.0
 11
-375.41348024738079
 21
155.02364403302767
 31
0.0
  0
LINE
  8
DETAIL
  6
CONTINUOUS
 62
     5
 10
-375.41348024738079
 20
155.02364403302767
 30
0.0
 11
-375.40215189785869
 21
154.94733186021952
 31
0.0
  0
LINE
  8
DETAIL
  6
CONTINUOUS
 62
     5
 10
-375.40215189785869
 20
154.94733186021952
 30
0.0
 11
-375.37928445611431
 21
154.86863197554405
 31
0.0
  0
LINE
  8
DETAIL
  6
CONTINUOUS
 62
     5
 10
-375.37928445611431
 20
154.86863197554405
 30
0.0
 11
-375.34383687514901
 21
154.78956291899195
 31
0.0
  0
LINE
  8
DETAIL
  6
CONTINUOUS
 62
     5
 10
-375.34383687514901
 20
154.78956291899195
 30
0.0
 11
-375.29695027401362
 21
154.71655077267005
 31
0.0
  0
LINE
  8
DETAIL
  6
CONTINUOUS
 62
     5
 10
-375.29695027401362
 20
154.71655077267005
 30
0.0
 11
-375.23985901774955
 21
154.65620995706979
 31
0.0
  0
LINE
  8
DETAIL
  6
CONTINUOUS
 62
     5
 10
-375.23985901774955
 20
154.65620995706979
 30
0.0
 11
-375.17379747139785
 21
154.61515489268263
 31
0.0
  0
LINE
  8
DETAIL
  6
CONTINUOUS
 62
     5
 10
-375.17379747139785
 20
154.61515489268263
 30
0.0
 11
-375.09999999999951
 21
154.59999999999991
 31
0.0
  0
LINE
  8
DETAIL
  6
CONTINUOUS
 62
     5
 10
-375.09999999999951
 20
-155.59999999999991
 30
0.0
 11
-375.17720166130385
 21
-155.58426456460776
 31
0.0
  0
LINE
  8
DETAIL
  6
CONTINUOUS
 62
     5
 10
-375.17720166130385
 20
-155.58426456460776
 30
0.0
 11
-375.24610421236468
 21
-155.54452459074992
 31
0.0
  0
LINE
  8
DETAIL
  6
CONTINUOUS
 62
     5
 10
-375.24610421236468
 20
-155.54452459074992
 30
0.0
 11
-375.30211952434775
 21
-155.48887293236604
 31
0.0
  0
LINE
  8
DETAIL
  6
CONTINUOUS
 62
     5
 10
-375.30211952434775
 20
-155.48887293236604
 30
0.0
 11
-375.3458267153116
 21
-155.42114178810263
 31
0.0
  0
LINE
  8
DETAIL
  6
CONTINUOUS
 62
     5
 10
-375.3458267153116
 20
-155.42114178810263
 30
0.0
 11
-375.3781727598743
 21
-155.34486004034736
 31
0.0
  0
LINE
  8
DETAIL
  6
CONTINUOUS
 62
     5
 10
-375.3781727598743
 20
-155.34486004034736
 30
0.0
 11
-375.40010463265389
 21
-155.2635565714879
 31
0.0
  0
LINE
  8
DETAIL
  6
CONTINUOUS
 62
     5
 10
-375.40010463265389
 20
-155.2635565714879
 30
0.0
 11
-375.41256930826842
 21
-155.18076026391196
 31
0.0
  0
LINE
  8
DETAIL
  6
CONTINUOUS
 62
     5
 10
-375.41256930826842
 20
-155.18076026391196
 30
0.0
 11
-375.41651376133592
 21
-155.10000000000721
 31
0.0
  0
LINE
  8
DETAIL
  6
CONTINUOUS
 62
     5
 10
-375.41651376133592
 20
-155.10000000000721
 30
0.0
 11
-375.4134802473813
 21
-155.02364403303008
 31
0.0
  0
LINE
  8
DETAIL
  6
CONTINUOUS
 62
     5
 10
-375.4134802473813
 20
-155.02364403303008
 30
0.0
 11
-375.40215189785914
 21
-154.94733186022205
 31
0.0
  0
LINE
  8
DETAIL
  6
CONTINUOUS
 62
     5
 10
-375.40215189785914
 20
-154.94733186022205
 30
0.0
 11
-375.37928445611482
 21
-154.86863197554754
 31
0.0
  0
LINE
  8
DETAIL
  6
CONTINUOUS
 62
     5
 10
-375.37928445611482
 20
-154.86863197554754
 30
0.0
 11
-375.34383687514952
 21
-154.78956291899533
 31
0.0
  0
LINE
  8
DETAIL
  6
CONTINUOUS
 62
     5
 10
-375.34383687514952
 20
-154.78956291899533
 30
0.0
 11
-375.29695027401408
 21
-154.7165507726726
 31
0.0
  0
LINE
  8
DETAIL
  6
CONTINUOUS
 62
     5
 10
-375.29695027401408
 20
-154.7165507726726
 30
0.0
 11
-375.23985901774989
 21
-154.65620995707121
 31
0.0
  0
LINE
  8
DETAIL
  6
CONTINUOUS
 62
     5
 10
-375.23985901774989
 20
-154.65620995707121
 30
0.0
 11
-375.17379747139807
 21
-154.61515489268308
 31
0.0
  0
LINE
  8
DETAIL
  6
CONTINUOUS
 62
     5
 10
-375.17379747139807
 20
-154.61515489268308
 30
0.0
 11
-375.09999999999951
 21
-154.59999999999991
 31
0.0
  0
LINE
  8
SERVICESPACE
  6
DASHDOT
 62
     2
 10
-1067.500000016594
 20
-390.40000001950187
 30
0.0
 11
-1067.500000016593
 21
389.99999999999449
 31
0.0
  0
LINE
  8
SERVICESPACE
  6
DASHDOT
 62
     2
 10
-517.50000000409455
 20
224.3999999958555
 30
0.0
 11
-967.50000001534318
 21
224.39999999585601
 31
0.0
  0
LINE
  8
SERVICESPACE
  6
DASHDOT
 62
     2
 10
-517.500000004095
 20
-224.8000000153929
 30
0.0
 11
-967.50000001534318
 21
-224.8000000153925
 31
0.0
  0
LINE
  8
SERVICESPACE
  6
DASHDOT
 62
     2
 10
-517.500000004095
 20
-224.8000000153929
 30
0.0
 11
-517.50000000409455
 21
224.3999999958555
 31
0.0
  0
LINE
  8
SERVICESPACE
  6
DASHDOT
 62
     2
 10
-1067.500000016594
 20
-389.99999999997908
 30
0.0
 11
-353.89999999999458
 21
-390.00000000001592
 31
0.0
  0
LINE
  8
SERVICESPACE
  6
DASHDOT
 62
     2
 10
-1067.500000016593
 20
389.99999999999449
 30
0.0
 11
-353.90000000001152
 21
389.99999999999409
 31
0.0
  0
LINE
  8
SERVICESPACE
  6
DASHDOT
 62
     2
 10
-967.50000001534318
 20
-224.8000000153925
 30
0.0
 11
-967.50000001534318
 21
224.39999999585601
 31
0.0
  0
LINE
  8
DETAIL
  6
CONTINUOUS
 62
     5
 10
344.99999999999358
 20
-391.50000000003052
 30
0.0
 11
344.99999999999358
 21
-390.00000000000142
 31
0.0
  0
LINE
  8
DETAIL
  6
CONTINUOUS
 62
     5
 10
344.99999999999358
 20
391.49999999999409
 30
0.0
 11
344.99999999999358
 21
389.99999999999409
 31
0.0
  0
LINE
  8
DETAIL
  6
CONTINUOUS
 62
     5
 10
-345.00000000000182
 20
-391.50000000000142
 30
0.0
 11
-345.00000000000358
 21
-390.00000000000142
 31
0.0
  0
LINE
  8
DETAIL
  6
CONTINUOUS
 62
     5
 10
-345.00000000000182
 20
391.49999999999409
 30
0.0
 11
-345.00000000000182
 21
389.99999999999409
 31
0.0
  0
LINE
  8
DETAIL
  6
CONTINUOUS
 62
     5
 10
-360.8997147519085
 20
-381.39999999999549
 30
0.0
 11
-361.10028524463269
 21
381.30517949497289
 31
0.0
  0
LINE
  8
BASIS
  6
DASHDOT
 62
     6
 10
0.0
 20
428.30778715526822
 30
0.0
 11
-0.0000000000004547
 21
-422.55476614070488
 31
0.0
  0
LINE
  8
BASIS
  6
DASHDOT
 62
     6
 10
414.89307198719831
 20
0.0
 30
0.0
 11
-416.19070863145907
 21
0.0
 31
0.0
  0
LINE
  8
DETAIL
  6
CONTINUOUS
 62
     5
 10
-354.88320360361968
 20
0.0
 30
0.0
 11
-356.26005571965612
 21
0.0
 31
0.0
  0
ARC
  8
DETAIL
  6
CONTINUOUS
 62
     5
 10
360.97962817702461
 20
0.008438290002232
 30
0.0
 40
0.0203718330014467
 50
314.99999999776622
 51
0.0
  0
LINE
  8
BASIS
  6
DASHDOT
 62
     6
 10
-386.34709613344779
 20
287.99999999760757
 30
0.0
 11
-444.45440110016261
 21
287.99999999760757
 31
0.0
  0
LINE
  8
DETAIL
  6
DASHED
 62
     5
 10
-367.50000000000091
 20
207.99999999561399
 30
0.0
 11
-368.99999999944879
 21
207.99999999561399
 31
0.0
  0
LINE
  8
DETAIL
  6
DASHED
 62
     5
 10
-368.99999999944879
 20
207.99999999561399
 30
0.0
 11
-368.99999999944839
 21
359.00000000000142
 31
0.0
  0
LINE
  8
DETAIL
  6
DASHED
 62
     5
 10
-431.00000000099499
 20
216.99999999583221
 30
0.0
 11
-431.00000000099499
 21
358.99999999937558
 31
0.0
  0
LINE
  8
DETAIL
  6
DASHED
 62
     5
 10
-423.00000000079848
 20
216.99999999583221
 30
0.0
 11
-423.00000000079848
 21
358.99999999937558
 31
0.0
  0
LINE
  8
DETAIL
  6
DASHED
 62
     5
 10
-411.00000000049391
 20
360.99999999943378
 30
0.0
 11
-423.00000000079848
 21
358.99999999937558
 31
0.0
  0
LINE
  8
DETAIL
  6
DASHED
 62
     5
 10
-423.00000000079848
 20
358.99999999937558
 30
0.0
 11
-431.00000000099499
 21
358.99999999937558
 31
0.0
  0
LINE
  8
DETAIL
  6
DASHED
 62
     5
 10
-423.00000000079848
 20
216.99999999583221
 30
0.0
 11
-431.00000000099499
 21
216.99999999583221
 31
0.0
  0
LINE
  8
DETAIL
  6
DASHED
 62
     5
 10
-368.99999999944879
 20
207.99999999561399
 30
0.0
 11
-423.00000000079848
 21
216.99999999583221
 31
0.0
  0
LINE
  8
BASIS
  6
DASHDOT
 62
     6
 10
386.34709613344648
 20
287.99999999760757
 30
0.0
 11
444.4544011001617
 21
287.99999999760757
 31
0.0
  0
LINE
  8
DETAIL
  6
DASHED
 62
     5
 10
367.49999999999551
 20
207.99999999561399
 30
0.0
 11
368.99999999944657
 21
207.99999999561399
 31
0.0
  0
LINE
  8
DETAIL
  6
DASHED
 62
     5
 10
368.99999999944657
 20
207.99999999561399
 30
0.0
 11
368.99999999944657
 21
359.00000000000091
 31
0.0
  0
LINE
  8
DETAIL
  6
DASHED
 62
     5
 10
431.00000000099271
 20
216.99999999583221
 30
0.0
 11
431.00000000099271
 21
358.99999999937558
 31
0.0
  0
LINE
  8
DETAIL
  6
DASHED
 62
     5
 10
423.00000000079672
 20
216.99999999583221
 30
0.0
 11
423.00000000079672
 21
358.99999999937558
 31
0.0
  0
LINE
  8
DETAIL
  6
DASHED
 62
     5
 10
411.0000000004934
 20
360.99999999943378
 30
0.0
 11
423.00000000079672
 21
358.99999999937558
 31
0.0
  0
LINE
  8
DETAIL
  6
DASHED
 62
     5
 10
423.00000000079672
 20
358.99999999937558
 30
0.0
 11
431.00000000099271
 21
358.99999999937558
 31
0.0
  0
LINE
  8
DETAIL
  6
DASHED
 62
     5
 10
423.00000000079672
 20
216.99999999583221
 30
0.0
 11
431.00000000099271
 21
216.99999999583221
 31
0.0
  0
LINE
  8
DETAIL
  6
DASHED
 62
     5
 10
368.99999999944657
 20
207.99999999561399
 30
0.0
 11
423.00000000079672
 21
216.99999999583221
 31
0.0
  0
LINE
  8
BASIS
  6
DASHDOT
 62
     6
 10
-391.00000000000909
 20
327.49999999858261
 30
0.0
 11
-391.00000000000909
 21
440.5000000014129
 31
0.0
  0
LINE
  8
BASIS
  6
DASHDOT
 62
     6
 10
-334.49999999858852
 20
383.99999999999409
 30
0.0
 11
-447.50000000141432
 21
383.99999999999409
 31
0.0
  0
LINE
  8
BASIS
  6
DASHDOT
 62
     6
 10
-391.00000000000949
 20
-440.5000000014129
 30
0.0
 11
-391.00000000000949
 21
-327.49999999858261
 31
0.0
  0
LINE
  8
BASIS
  6
DASHDOT
 62
     6
 10
-334.49999999858892
 20
-384.00000000000142
 30
0.0
 11
-447.50000000141472
 21
-384.00000000000142
 31
0.0
  0
LINE
  8
BASIS
  6
DASHDOT
 62
     6
 10
390.99999999999358
 20
-440.5000000014129
 30
0.0
 11
390.99999999999358
 21
-327.49999999858261
 31
0.0
  0
LINE
  8
BASIS
  6
DASHDOT
 62
     6
 10
447.50000000141239
 20
-384.00000000000142
 30
0.0
 11
334.49999999858852
 21
-384.00000000000142
 31
0.0
  0
LINE
  8
BASIS
  6
DASHDOT
 62
     6
 10
390.99999999999409
 20
327.49999999858261
 30
0.0
 11
390.99999999999409
 21
440.5000000014129
 31
0.0
  0
LINE
  8
BASIS
  6
DASHDOT
 62
     6
 10
447.5000000014129
 20
383.99999999999409
 30
0.0
 11
334.49999999858892
 21
383.99999999999409
 31
0.0
  0
LINE
  8
BASIS
  6
DASHDOT
 62
     6
 10
264.99999999999733
 20
-369.83606660700889
 30
0.0
 11
264.99999999999733
 21
-474.08246786406522
 31
0.0
  0
LINE
  8
BASIS
  6
DASHDOT
 62
     6
 10
-265.00000000000267
 20
-369.83606660700889
 30
0.0
 11
-265.00000000000267
 21
-474.08246786406522
 31
0.0
  0
LINE
  8
BASIS
  6
DASHDOT
 62
     6
 10
-265.00000000000227
 20
474.96847408083107
 30
0.0
 11
-265.00000000000227
 21
370.72207282378213
 31
0.0
  0
LINE
  8
BASIS
  6
DASHDOT
 62
     6
 10
264.99999999999773
 20
474.96847408083107
 30
0.0
 11
264.99999999999733
 21
370.72207282378213
 31
0.0
  0
LINE
  8
SIZE
  6
CONTINUOUS
 62
    30
 10
264.99999999999773
 20
494.96847408083107
 30
0.0
 11
264.99999999999773
 21
622.70924305551443
 31
0.0
  0
LINE
  8
SIZE
  6
CONTINUOUS
 62
    30
 10
-265.00000000000227
 20
494.96847408083107
 30
0.0
 11
-265.00000000000227
 21
622.70924305551443
 31
0.0
  0
LINE
  8
SIZE
  6
CONTINUOUS
 62
    30
 10
252.9999999999977
 20
602.70924305551443
 30
0.0
 11
-253.0000000000023
 21
602.70924305551443
 31
0.0
  0
CIRCLE
  8
SIZE
  6
CONTINUOUS
 62
    30
 10
264.99999999999773
 20
602.70924305551443
 30
0.0
 40
6.0
  0
LINE
  8
SIZE
  6
CONTINUOUS
 62
    30
 10
264.99999999999773
 20
602.70924305551443
 30
0.0
 11
252.99999999999773
 21
602.70924305551443
 31
0.0
  0
CIRCLE
  8
SIZE
  6
CONTINUOUS
 62
    30
 10
-265.00000000000227
 20
602.70924305551443
 30
0.0
 40
6.0
  0
LINE
  8
SIZE
  6
CONTINUOUS
 62
    30
 10
-265.00000000000227
 20
602.70924305551443
 30
0.0
 11
-253.00000000000227
 21
602.70924305551443
 31
0.0
  0
TEXT
  8
SIZE
  6
CONTINUOUS
 62
    30
 10
-80.928000000002271
 20
627.70924305551443
 30
0.0
 40
64.0
  1
530
 50
0.0
 41
0.9
 51
0.0
  7
STANDARD
 71
     0
 72
     1
 11
-0.0000000000022737
 21
627.70924305551443
 31
0.0
210
0.0
220
0.0
230
1.0
  0
POINT
  8
DEFPOINTS
  6
CONTINUOUS
 62
    30
 10
264.99999999999773
 20
474.96847408083107
 30
0.0
  0
POINT
  8
DEFPOINTS
  6
CONTINUOUS
 62
    30
 10
-265.00000000000227
 20
474.96847408083107
 30
0.0
  0
POINT
  8
DEFPOINTS
  6
CONTINUOUS
 62
    30
 10
-265.00000000000227
 20
602.70924305551443
 30
0.0
  0
LINE
  8
SIZE
  6
CONTINUOUS
 62
    30
 10
373.90000000000248
 20
389.99999999999432
 30
0.0
 11
890.899344683707
 21
389.99999999999437
 31
0.0
  0
LINE
  8
SIZE
  6
CONTINUOUS
 62
    30
 10
373.89999999999247
 20
-390.00000000000159
 30
0.0
 11
890.89934468370723
 21
-390.00000000000148
 31
0.0
  0
LINE
  8
SIZE
  6
CONTINUOUS
 62
    30
 10
870.89934468370689
 20
377.99999999999432
 30
0.0
 11
870.89934468370711
 21
-378.00000000000148
 31
0.0
  0
CIRCLE
  8
SIZE
  6
CONTINUOUS
 62
    30
 10
870.89934468370689
 20
389.99999999999437
 30
0.0
 40
6.0
  0
LINE
  8
SIZE
  6
CONTINUOUS
 62
    30
 10
870.89934468370689
 20
389.99999999999437
 30
0.0
 11
870.89934468370689
 21
377.99999999999437
 31
0.0
  0
CIRCLE
  8
SIZE
  6
CONTINUOUS
 62
    30
 10
870.89934468370711
 20
-390.00000000000148
 30
0.0
 40
6.0
  0
LINE
  8
SIZE
  6
CONTINUOUS
 62
    30
 10
870.89934468370711
 20
-390.00000000000148
 30
0.0
 11
870.89934468370711
 21
-378.00000000000148
 31
0.0
  0
TEXT
  8
SIZE
  6
CONTINUOUS
 62
    30
 10
845.89934468370677
 20
-80.928000000003792
 30
0.0
 40
64.0
  1
780
 50
90.0
 41
0.9
 51
0.0
  7
STANDARD
 71
     0
 72
     1
 11
845.89934468370677
 21
-0.0000000000038
 31
0.0
210
0.0
220
0.0
230
1.0
  0
POINT
  8
DEFPOINTS
  6
CONTINUOUS
 62
    30
 10
353.90000000000248
 20
389.99999999999432
 30
0.0
  0
POINT
  8
DEFPOINTS
  6
CONTINUOUS
 62
    30
 10
353.89999999999247
 20
-390.00000000000159
 30
0.0
  0
POINT
  8
DEFPOINTS
  6
CONTINUOUS
 62
    30
 10
870.89934468370711
 20
-390.00000000000148
 30
0.0
  0
LINE
  8
SIZE
  6
CONTINUOUS
 62
    30
 10
355.99999999999369
 20
-454.00000000000159
 30
0.0
 11
890.89934468370154
 21
-454.00000000000148
 31
0.0
  0
LINE
  8
SIZE
  6
CONTINUOUS
 62
    30
 10
373.89999999999247
 20
-390.00000000000159
 30
0.0
 11
890.89934468370154
 21
-390.00000000000148
 31
0.0
  0
LINE
  8
SIZE
  6
CONTINUOUS
 62
    30
 10
870.89934468370154
 20
-378.00000000000148
 30
0.0
 11
870.89934468370154
 21
-366.00000000000148
 31
0.0
  0
LINE
  8
SIZE
  6
CONTINUOUS
 62
    30
 10
870.89934468370154
 20
-466.00000000000148
 30
0.0
 11
870.89934468370154
 21
-624.0000000000025
 31
0.0
  0
LINE
  8
SIZE
  6
CONTINUOUS
 62
    30
 10
870.89934468370154
 20
-390.00000000000148
 30
0.0
 11
870.89934468370154
 21
-454.00000000000148
 31
0.0
  0
CIRCLE
  8
SIZE
  6
CONTINUOUS
 62
    30
 10
870.89934468370154
 20
-390.00000000000148
 30
0.0
 40
6.0
  0
LINE
  8
SIZE
  6
CONTINUOUS
 62
    30
 10
870.89934468370154
 20
-390.00000000000148
 30
0.0
 11
870.89934468370154
 21
-378.00000000000148
 31
0.0
  0
CIRCLE
  8
SIZE
  6
CONTINUOUS
 62
    30
 10
870.89934468370154
 20
-454.00000000000148
 30
0.0
 40
6.0
  0
LINE
  8
SIZE
  6
CONTINUOUS
 62
    30
 10
870.89934468370154
 20
-454.00000000000148
 30
0.0
 11
870.89934468370154
 21
-466.00000000000148
 31
0.0
  0
TEXT
  8
SIZE
  6
CONTINUOUS
 62
    30
 10
845.8993446837012
 20
-605.14400000000262
 30
0.0
 40
64.0
  1
64
 50
90.0
 41
0.9
 51
0.0
  7
STANDARD
 71
     0
 72
     1
 11
845.8993446837012
 21
-551.00000000000261
 31
0.0
210
0.0
220
0.0
230
1.0
  0
POINT
  8
DEFPOINTS
  6
CONTINUOUS
 62
    30
 10
335.99999999999369
 20
-454.00000000000159
 30
0.0
  0
POINT
  8
DEFPOINTS
  6
CONTINUOUS
 62
    30
 10
353.89999999999247
 20
-390.00000000000159
 30
0.0
  0
POINT
  8
DEFPOINTS
  6
CONTINUOUS
 62
    30
 10
870.89934468370154
 20
-390.00000000000148
 30
0.0
  0
LINE
  8
SIZE
  6
CONTINUOUS
 62
    30
 10
355.9999999999942
 20
453.99999999999432
 30
0.0
 11
890.89934468370132
 21
453.99999999999437
 31
0.0
  0
LINE
  8
SIZE
  6
CONTINUOUS
 62
    30
 10
373.90000000000248
 20
389.99999999999432
 30
0.0
 11
890.89934468370132
 21
389.99999999999437
 31
0.0
  0
LINE
  8
SIZE
  6
CONTINUOUS
 62
    30
 10
870.89934468370132
 20
377.99999999999432
 30
0.0
 11
870.89934468370132
 21
365.99999999999432
 31
0.0
  0
LINE
  8
SIZE
  6
CONTINUOUS
 62
    30
 10
870.89934468370132
 20
465.99999999999437
 30
0.0
 11
870.89934468370132
 21
623.99999999999443
 31
0.0
  0
LINE
  8
SIZE
  6
CONTINUOUS
 62
    30
 10
870.89934468370132
 20
389.99999999999437
 30
0.0
 11
870.89934468370132
 21
453.99999999999437
 31
0.0
  0
CIRCLE
  8
SIZE
  6
CONTINUOUS
 62
    30
 10
870.89934468370132
 20
389.99999999999437
 30
0.0
 40
6.0
  0
LINE
  8
SIZE
  6
CONTINUOUS
 62
    30
 10
870.89934468370132
 20
389.99999999999437
 30
0.0
 11
870.89934468370132
 21
377.99999999999437
 31
0.0
  0
CIRCLE
  8
SIZE
  6
CONTINUOUS
 62
    30
 10
870.89934468370132
 20
453.99999999999437
 30
0.0
 40
6.0
  0
LINE
  8
SIZE
  6
CONTINUOUS
 62
    30
 10
870.89934468370132
 20
453.99999999999437
 30
0.0
 11
870.89934468370132
 21
465.99999999999437
 31
0.0
  0
TEXT
  8
SIZE
  6
CONTINUOUS
 62
    30
 10
845.8993446837012
 20
496.85599999999408
 30
0.0
 40
64.0
  1
64
 50
90.0
 41
0.9
 51
0.0
  7
STANDARD
 71
     0
 72
     1
 11
845.8993446837012
 21
550.99999999999409
 31
0.0
210
0.0
220
0.0
230
1.0
  0
POINT
  8
DEFPOINTS
  6
CONTINUOUS
 62
    30
 10
335.9999999999942
 20
453.99999999999432
 30
0.0
  0
POINT
  8
DEFPOINTS
  6
CONTINUOUS
 62
    30
 10
353.90000000000248
 20
389.99999999999432
 30
0.0
  0
POINT
  8
DEFPOINTS
  6
CONTINUOUS
 62
    30
 10
870.89934468370132
 20
389.99999999999437
 30
0.0
  0
LINE
  8
SIZE
  6
CONTINUOUS
 62
    30
 10
467.50000000141313
 20
383.9999999999942
 30
0.0
 11
775.44817498106124
 21
383.99999999999432
 31
0.0
  0
LINE
  8
SIZE
  6
CONTINUOUS
 62
    30
 10
467.50000000141267
 20
-384.00000000000159
 30
0.0
 11
775.44817498106147
 21
-384.00000000000148
 31
0.0
  0
LINE
  8
SIZE
  6
CONTINUOUS
 62
    30
 10
755.44817498106113
 20
371.99999999999432
 30
0.0
 11
755.44817498106136
 21
-372.00000000000148
 31
0.0
  0
CIRCLE
  8
SIZE
  6
CONTINUOUS
 62
    30
 10
755.44817498106113
 20
383.99999999999432
 30
0.0
 40
6.0
  0
LINE
  8
SIZE
  6
CONTINUOUS
 62
    30
 10
755.44817498106113
 20
383.99999999999432
 30
0.0
 11
755.44817498106113
 21
371.99999999999432
 31
0.0
  0
CIRCLE
  8
SIZE
  6
CONTINUOUS
 62
    30
 10
755.44817498106136
 20
-384.00000000000148
 30
0.0
 40
6.0
  0
LINE
  8
SIZE
  6
CONTINUOUS
 62
    30
 10
755.44817498106136
 20
-384.00000000000148
 30
0.0
 11
755.44817498106136
 21
-372.00000000000148
 31
0.0
  0
TEXT
  8
SIZE
  6
CONTINUOUS
 62
    30
 10
730.44817498106113
 20
-80.352000000003798
 30
0.0
 40
64.0
  1
768
 50
90.0
 41
0.9
 51
0.0
  7
STANDARD
 71
     0
 72
     1
 11
730.44817498106113
 21
-0.0000000000038214
 31
0.0
210
0.0
220
0.0
230
1.0
  0
POINT
  8
DEFPOINTS
  6
CONTINUOUS
 62
    30
 10
447.50000000141313
 20
383.9999999999942
 30
0.0
  0
POINT
  8
DEFPOINTS
  6
CONTINUOUS
 62
    30
 10
447.50000000141267
 20
-384.00000000000159
 30
0.0
  0
POINT
  8
DEFPOINTS
  6
CONTINUOUS
 62
    30
 10
755.44817498106136
 20
-384.00000000000148
 30
0.0
  0
LINE
  8
SIZE
  6
CONTINUOUS
 62
    30
 10
367.49999999999551
 20
396.4000000000101
 30
0.0
 11
367.49999999999551
 21
784.05190380846943
 31
0.0
  0
LINE
  8
SIZE
  6
CONTINUOUS
 62
    30
 10
-367.50000000000091
 20
396.40000000000282
 30
0.0
 11
-367.50000000000091
 21
784.05190380846943
 31
0.0
  0
LINE
  8
SIZE
  6
CONTINUOUS
 62
    30
 10
355.49999999999551
 20
764.05190380846943
 30
0.0
 11
-355.50000000000091
 21
764.05190380846943
 31
0.0
  0
CIRCLE
  8
SIZE
  6
CONTINUOUS
 62
    30
 10
367.49999999999551
 20
764.05190380846943
 30
0.0
 40
6.0
  0
LINE
  8
SIZE
  6
CONTINUOUS
 62
    30
 10
367.49999999999551
 20
764.05190380846943
 30
0.0
 11
355.49999999999551
 21
764.05190380846943
 31
0.0
  0
CIRCLE
  8
SIZE
  6
CONTINUOUS
 62
    30
 10
-367.50000000000091
 20
764.05190380846943
 30
0.0
 40
6.0
  0
LINE
  8
SIZE
  6
CONTINUOUS
 62
    30
 10
-367.50000000000091
 20
764.05190380846943
 30
0.0
 11
-355.50000000000091
 21
764.05190380846943
 31
0.0
  0
TEXT
  8
SIZE
  6
CONTINUOUS
 62
    30
 10
-80.352000000002732
 20
789.05190380846943
 30
0.0
 40
64.0
  1
735
 50
0.0
 41
0.9
 51
0.0
  7
STANDARD
 71
     0
 72
     1
 11
-0.0000000000027285
 21
789.05190380846943
 31
0.0
210
0.0
220
0.0
230
1.0
  0
POINT
  8
DEFPOINTS
  6
CONTINUOUS
 62
    30
 10
367.49999999999551
 20
376.4000000000101
 30
0.0
  0
POINT
  8
DEFPOINTS
  6
CONTINUOUS
 62
    30
 10
-367.50000000000091
 20
376.40000000000282
 30
0.0
  0
POINT
  8
DEFPOINTS
  6
CONTINUOUS
 62
    30
 10
-367.50000000000091
 20
764.05190380846943
 30
0.0
  0
LINE
  8
SIZE
  6
CONTINUOUS
 62
    30
 10
390.99999999999358
 20
-460.5000000014129
 30
0.0
 11
390.99999999999358
 21
-936.2575755584694
 31
0.0
  0
LINE
  8
SIZE
  6
CONTINUOUS
 62
    30
 10
-391.00000000000949
 20
-460.5000000014129
 30
0.0
 11
-391.00000000000961
 21
-936.2575755584694
 31
0.0
  0
LINE
  8
SIZE
  6
CONTINUOUS
 62
    30
 10
378.99999999999358
 20
-916.2575755584694
 30
0.0
 11
-379.00000000000961
 21
-916.2575755584694
 31
0.0
  0
CIRCLE
  8
SIZE
  6
CONTINUOUS
 62
    30
 10
390.99999999999358
 20
-916.2575755584694
 30
0.0
 40
6.0
  0
LINE
  8
SIZE
  6
CONTINUOUS
 62
    30
 10
390.99999999999358
 20
-916.2575755584694
 30
0.0
 11
378.99999999999358
 21
-916.2575755584694
 31
0.0
  0
CIRCLE
  8
SIZE
  6
CONTINUOUS
 62
    30
 10
-391.00000000000961
 20
-916.2575755584694
 30
0.0
 40
6.0
  0
LINE
  8
SIZE
  6
CONTINUOUS
 62
    30
 10
-391.00000000000961
 20
-916.2575755584694
 30
0.0
 11
-379.00000000000961
 21
-916.2575755584694
 31
0.0
  0
TEXT
  8
SIZE
  6
CONTINUOUS
 62
    30
 10
-80.352000000008019
 20
-891.2575755584694
 30
0.0
 40
64.0
  1
782
 50
0.0
 41
0.9
 51
0.0
  7
STANDARD
 71
     0
 72
     1
 11
-0.0000000000080149
 21
-891.2575755584694
 31
0.0
210
0.0
220
0.0
230
1.0
  0
POINT
  8
DEFPOINTS
  6
CONTINUOUS
 62
    30
 10
390.99999999999358
 20
-440.5000000014129
 30
0.0
  0
POINT
  8
DEFPOINTS
  6
CONTINUOUS
 62
    30
 10
-391.00000000000949
 20
-440.5000000014129
 30
0.0
  0
POINT
  8
DEFPOINTS
  6
CONTINUOUS
 62
    30
 10
-391.00000000000961
 20
-916.2575755584694
 30
0.0
  0
LINE
  8
SIZE
  6
CONTINUOUS
 62
    30
 10
373.90000000000248
 20
389.99999999999432
 30
0.0
 11
648.59441086188872
 21
389.99999999999437
 31
0.0
  0
LINE
  8
SIZE
  6
CONTINUOUS
 62
    30
 10
464.45440110016187
 20
287.99999999760769
 30
0.0
 11
648.59441086188872
 21
287.99999999760769
 31
0.0
  0
LINE
  8
SIZE
  6
CONTINUOUS
 62
    30
 10
628.59441086188872
 20
299.99999999760769
 30
0.0
 11
628.59441086188872
 21
377.99999999999432
 31
0.0
  0
LINE
  8
SIZE
  6
CONTINUOUS
 62
    30
 10
628.59441086188872
 20
389.99999999999437
 30
0.0
 11
628.59441086188872
 21
647.83772782086578
 31
0.0
  0
CIRCLE
  8
SIZE
  6
CONTINUOUS
 62
    30
 10
628.59441086188872
 20
287.99999999760769
 30
0.0
 40
6.0
  0
LINE
  8
SIZE
  6
CONTINUOUS
 62
    30
 10
628.59441086188872
 20
287.99999999760769
 30
0.0
 11
628.59441086188872
 21
299.99999999760769
 31
0.0
  0
CIRCLE
  8
SIZE
  6
CONTINUOUS
 62
    30
 10
628.59441086188872
 20
389.99999999999437
 30
0.0
 40
6.0
  0
LINE
  8
SIZE
  6
CONTINUOUS
 62
    30
 10
628.59441086188872
 20
389.99999999999437
 30
0.0
 11
628.59441086188872
 21
377.99999999999437
 31
0.0
  0
TEXT
  8
SIZE
  6
CONTINUOUS
 62
    30
 10
603.59441086188872
 20
479.09829924943699
 30
0.0
 40
64.0
  1
102
 50
90.0
 41
0.9
 51
0.0
  7
STANDARD
 71
     0
 72
     1
 11
603.59441086188872
 21
554.266299249437
 31
0.0
210
0.0
220
0.0
230
1.0
  0
POINT
  8
DEFPOINTS
  6
CONTINUOUS
 62
    30
 10
353.90000000000248
 20
389.99999999999432
 30
0.0
  0
POINT
  8
DEFPOINTS
  6
CONTINUOUS
 62
    30
 10
444.45440110016187
 20
287.99999999760769
 30
0.0
  0
POINT
  8
DEFPOINTS
  6
CONTINUOUS
 62
    30
 10
628.59441086188872
 20
287.99999999760769
 30
0.0
  0
LINE
  8
SIZE
  6
CONTINUOUS
 62
    30
 10
-373.90000000001157
 20
389.99999999999432
 30
0.0
 11
-698.78368758416514
 21
389.9999999999942
 31
0.0
  0
LINE
  8
SIZE
  6
CONTINUOUS
 62
    30
 10
-464.45440110016278
 20
287.99999999760769
 30
0.0
 11
-698.78368758416514
 21
287.99999999760757
 31
0.0
  0
LINE
  8
SIZE
  6
CONTINUOUS
 62
    30
 10
-678.78368758416514
 20
299.99999999760757
 30
0.0
 11
-678.78368758416514
 21
377.99999999999409
 31
0.0
  0
LINE
  8
SIZE
  6
CONTINUOUS
 62
    30
 10
-678.78368758416514
 20
389.9999999999942
 30
0.0
 11
-678.78368758416514
 21
589.14285714285143
 31
0.0
  0
CIRCLE
  8
SIZE
  6
CONTINUOUS
 62
    30
 10
-678.78368758416514
 20
287.99999999760757
 30
0.0
 40
6.0
  0
LINE
  8
SIZE
  6
CONTINUOUS
 62
    30
 10
-678.78368758416514
 20
287.99999999760757
 30
0.0
 11
-678.78368758416514
 21
299.99999999760757
 31
0.0
  0
CIRCLE
  8
SIZE
  6
CONTINUOUS
 62
    30
 10
-678.78368758416514
 20
389.9999999999942
 30
0.0
 40
6.0
  0
LINE
  8
SIZE
  6
CONTINUOUS
 62
    30
 10
-678.78368758416514
 20
389.9999999999942
 30
0.0
 11
-678.78368758416514
 21
377.9999999999942
 31
0.0
  0
TEXT
  8
SIZE
  6
CONTINUOUS
 62
    30
 10
-703.78368758416502
 20
420.40342857142292
 30
0.0
 40
64.0
  1
102
 50
90.0
 41
0.9
 51
0.0
  7
STANDARD
 71
     0
 72
     1
 11
-703.78368758416491
 21
495.57142857142293
 31
0.0
210
0.0
220
0.0
230
1.0
  0
POINT
  8
DEFPOINTS
  6
CONTINUOUS
 62
    30
 10
-353.90000000001157
 20
389.99999999999432
 30
0.0
  0
POINT
  8
DEFPOINTS
  6
CONTINUOUS
 62
    30
 10
-444.45440110016278
 20
287.99999999760769
 30
0.0
  0
POINT
  8
DEFPOINTS
  6
CONTINUOUS
 62
    30
 10
-678.78368758416514
 20
287.99999999760757
 30
0.0
  0
LINE
  8
SIZE
  6
CONTINUOUS
 62
    30
 10
-390.99999999999449
 20
-460.5000000014129
 30
0.0
 11
-390.9999999999946
 21
-936.25757555846667
 31
0.0
  0
LINE
  8
SIZE
  6
CONTINUOUS
 62
    30
 10
-410.99999999999909
 20
-422.50000000000142
 30
0.0
 11
-410.99999999999909
 21
-936.25757555846667
 31
0.0
  0
LINE
  8
SIZE
  6
CONTINUOUS
 62
    30
 10
-378.9999999999946
 20
-916.25757555846667
 30
0.0
 11
-366.9999999999946
 21
-916.25757555846667
 31
0.0
  0
LINE
  8
SIZE
  6
CONTINUOUS
 62
    30
 10
-422.99999999999909
 20
-916.25757555846667
 30
0.0
 11
-578.25714285714321
 21
-916.25757555846667
 31
0.0
  0
LINE
  8
SIZE
  6
CONTINUOUS
 62
    30
 10
-390.9999999999946
 20
-916.25757555846667
 30
0.0
 11
-410.99999999999909
 21
-916.25757555846667
 31
0.0
  0
CIRCLE
  8
SIZE
  6
CONTINUOUS
 62
    30
 10
-390.9999999999946
 20
-916.25757555846667
 30
0.0
 40
6.0
  0
LINE
  8
SIZE
  6
CONTINUOUS
 62
    30
 10
-390.9999999999946
 20
-916.25757555846667
 30
0.0
 11
-378.9999999999946
 21
-916.25757555846667
 31
0.0
  0
CIRCLE
  8
SIZE
  6
CONTINUOUS
 62
    30
 10
-410.99999999999909
 20
-916.25757555846667
 30
0.0
 40
6.0
  0
LINE
  8
SIZE
  6
CONTINUOUS
 62
    30
 10
-410.99999999999909
 20
-916.25757555846667
 30
0.0
 11
-422.99999999999909
 21
-916.25757555846667
 31
0.0
  0
TEXT
  8
SIZE
  6
CONTINUOUS
 62
    30
 10
-560.77257142857172
 20
-891.25757555846667
 30
0.0
 40
64.0
  1
20
 50
0.0
 41
0.9
 51
0.0
  7
STANDARD
 71
     0
 72
     1
 11
-506.62857142857172
 21
-891.25757555846667
 31
0.0
210
0.0
220
0.0
230
1.0
  0
POINT
  8
DEFPOINTS
  6
CONTINUOUS
 62
    30
 10
-390.99999999999449
 20
-440.5000000014129
 30
0.0
  0
POINT
  8
DEFPOINTS
  6
CONTINUOUS
 62
    30
 10
-410.99999999999909
 20
-402.50000000000142
 30
0.0
  0
POINT
  8
DEFPOINTS
  6
CONTINUOUS
 62
    30
 10
-410.99999999999909
 20
-916.25757555846667
 30
0.0
  0
LINE
  8
SIZE
  6
CONTINUOUS
 62
    30
 10
193.99999999999909
 20
-474.00000000000142
 30
0.0
 11
193.99999999999909
 21
-647.90736981323062
 31
0.0
  0
LINE
  8
SIZE
  6
CONTINUOUS
 62
    30
 10
335.99999999999358
 20
-474.00000000000142
 30
0.0
 11
335.99999999999358
 21
-647.90736981323062
 31
0.0
  0
LINE
  8
SIZE
  6
CONTINUOUS
 62
    30
 10
205.99999999999909
 20
-627.90736981323062
 30
0.0
 11
323.99999999999358
 21
-627.90736981323062
 31
0.0
  0
LINE
  8
SIZE
  6
CONTINUOUS
 62
    30
 10
335.99999999999358
 20
-627.90736981323062
 30
0.0
 11
641.61346946368622
 21
-627.90736981323062
 31
0.0
  0
CIRCLE
  8
SIZE
  6
CONTINUOUS
 62
    30
 10
193.99999999999909
 20
-627.90736981323062
 30
0.0
 40
6.0
  0
LINE
  8
SIZE
  6
CONTINUOUS
 62
    30
 10
193.99999999999909
 20
-627.90736981323062
 30
0.0
 11
205.99999999999909
 21
-627.90736981323062
 31
0.0
  0
CIRCLE
  8
SIZE
  6
CONTINUOUS
 62
    30
 10
335.99999999999358
 20
-627.90736981323062
 30
0.0
 40
6.0
  0
LINE
  8
SIZE
  6
CONTINUOUS
 62
    30
 10
335.99999999999358
 20
-627.90736981323062
 30
0.0
 11
323.99999999999358
 21
-627.90736981323062
 31
0.0
  0
TEXT
  8
SIZE
  6
CONTINUOUS
 62
    30
 10
412.25689803511483
 20
-602.90736981323062
 30
0.0
 40
64.0
  1
φ142
 50
0.0
 41
0.9
 51
0.0
  7
STANDARD
 71
     0
 72
     1
 11
521.98489803511484
 21
-602.90736981323062
 31
0.0
210
0.0
220
0.0
230
1.0
  0
POINT
  8
DEFPOINTS
  6
CONTINUOUS
 62
    30
 10
193.99999999999909
 20
-454.00000000000142
 30
0.0
  0
POINT
  8
DEFPOINTS
  6
CONTINUOUS
 62
    30
 10
335.99999999999358
 20
-454.00000000000142
 30
0.0
  0
POINT
  8
DEFPOINTS
  6
CONTINUOUS
 62
    30
 10
335.99999999999358
 20
-627.90736981323062
 30
0.0
  0
LINE
  8
SIZE
  6
CONTINUOUS
 62
    30
 10
184.99999999999909
 20
-411.50000000000142
 30
0.0
 11
184.99999999999909
 21
-771.29317733210337
 31
0.0
  0
LINE
  8
SIZE
  6
CONTINUOUS
 62
    30
 10
344.99999999999358
 20
-411.50000000003052
 30
0.0
 11
344.99999999999358
 21
-771.29317733210337
 31
0.0
  0
LINE
  8
SIZE
  6
CONTINUOUS
 62
    30
 10
196.99999999999909
 20
-751.29317733210337
 30
0.0
 11
332.99999999999358
 21
-751.29317733210337
 31
0.0
  0
LINE
  8
SIZE
  6
CONTINUOUS
 62
    30
 10
344.99999999999358
 20
-751.29317733210337
 30
0.0
 11
640.36776098646124
 21
-751.29317733210337
 31
0.0
  0
CIRCLE
  8
SIZE
  6
CONTINUOUS
 62
    30
 10
184.99999999999909
 20
-751.29317733210337
 30
0.0
 40
6.0
  0
LINE
  8
SIZE
  6
CONTINUOUS
 62
    30
 10
184.99999999999909
 20
-751.29317733210337
 30
0.0
 11
196.99999999999909
 21
-751.29317733210337
 31
0.0
  0
CIRCLE
  8
SIZE
  6
CONTINUOUS
 62
    30
 10
344.99999999999358
 20
-751.29317733210337
 30
0.0
 40
6.0
  0
LINE
  8
SIZE
  6
CONTINUOUS
 62
    30
 10
344.99999999999358
 20
-751.29317733210337
 30
0.0
 11
332.99999999999358
 21
-751.29317733210337
 31
0.0
  0
TEXT
  8
SIZE
  6
CONTINUOUS
 62
    30
 10
411.01118955788985
 20
-726.29317733210337
 30
0.0
 40
64.0
  1
φ160
 50
0.0
 41
0.9
 51
0.0
  7
STANDARD
 71
     0
 72
     1
 11
520.73918955788986
 21
-726.29317733210337
 31
0.0
210
0.0
220
0.0
230
1.0
  0
POINT
  8
DEFPOINTS
  6
CONTINUOUS
 62
    30
 10
184.99999999999909
 20
-391.50000000000142
 30
0.0
  0
POINT
  8
DEFPOINTS
  6
CONTINUOUS
 62
    30
 10
344.99999999999358
 20
-391.50000000003052
 30
0.0
  0
POINT
  8
DEFPOINTS
  6
CONTINUOUS
 62
    30
 10
344.99999999999358
 20
-751.29317733210337
 30
0.0
  0
LINE
  8
SIZE
  6
CONTINUOUS
 62
    30
 10
-476.00000000000182
 20
-371.80000000000427
 30
0.0
 11
-476.00000000000182
 21
-771.29317733210337
 31
0.0
  0
LINE
  8
SIZE
  6
CONTINUOUS
 62
    30
 10
-361.00000000000091
 20
-422.50000000000142
 30
0.0
 11
-361.00000000000091
 21
-771.29317733210337
 31
0.0
  0
LINE
  8
SIZE
  6
CONTINUOUS
 62
    30
 10
-373.00000000000091
 20
-751.29317733210337
 30
0.0
 11
-464.00000000000182
 21
-751.29317733210337
 31
0.0
  0
LINE
  8
SIZE
  6
CONTINUOUS
 62
    30
 10
-476.00000000000182
 20
-751.29317733210337
 30
0.0
 11
-664.17142857143369
 21
-751.29317733210337
 31
0.0
  0
CIRCLE
  8
SIZE
  6
CONTINUOUS
 62
    30
 10
-361.00000000000091
 20
-751.29317733210337
 30
0.0
 40
6.0
  0
LINE
  8
SIZE
  6
CONTINUOUS
 62
    30
 10
-361.00000000000091
 20
-751.29317733210337
 30
0.0
 11
-373.00000000000091
 21
-751.29317733210337
 31
0.0
  0
CIRCLE
  8
SIZE
  6
CONTINUOUS
 62
    30
 10
-476.00000000000182
 20
-751.29317733210337
 30
0.0
 40
6.0
  0
LINE
  8
SIZE
  6
CONTINUOUS
 62
    30
 10
-476.00000000000182
 20
-751.29317733210337
 30
0.0
 11
-464.00000000000182
 21
-751.29317733210337
 31
0.0
  0
TEXT
  8
SIZE
  6
CONTINUOUS
 62
    30
 10
-644.9177142857194
 20
-726.29317733210337
 30
0.0
 40
64.0
  1
115
 50
0.0
 41
0.9
 51
0.0
  7
STANDARD
 71
     0
 72
     1
 11
-576.0857142857194
 21
-726.29317733210337
 31
0.0
210
0.0
220
0.0
230
1.0
  0
POINT
  8
DEFPOINTS
  6
CONTINUOUS
 62
    30
 10
-476.00000000000182
 20
-351.80000000000427
 30
0.0
  0
POINT
  8
DEFPOINTS
  6
CONTINUOUS
 62
    30
 10
-361.00000000000091
 20
-402.50000000000142
 30
0.0
  0
POINT
  8
DEFPOINTS
  6
CONTINUOUS
 62
    30
 10
-361.00000000000091
 20
-751.29317733210337
 30
0.0
  0
CIRCLE
  8
FIX
  6
CONTINUOUS
 62
    11
 10
-391.00000000000182
 20
383.99999999999409
 30
0.0
 40
6.5
  0
CIRCLE
  8
FIX
  6
CONTINUOUS
 62
    11
 10
390.99999999999409
 20
383.99999999999409
 30
0.0
 40
6.5
  0
CIRCLE
  8
FIX
  6
CONTINUOUS
 62
    11
 10
390.99999999999358
 20
-383.99999999999773
 30
0.0
 40
6.5
  0
CIRCLE
  8
FIX
  6
CONTINUOUS
 62
    11
 10
-391.00000000000182
 20
-384.00000000000142
 30
0.0
 40
6.5
  0
LINE
  8
SIZE
  6
CONTINUOUS
 62
    30
 10
-517.50000000409455
 20
244.3999999958555
 30
0.0
 11
-517.50000000409455
 21
622.70924305551534
 31
0.0
  0
LINE
  8
SIZE
  6
CONTINUOUS
 62
    30
 10
-367.50000000000091
 20
396.40000000000282
 30
0.0
 11
-367.50000000000091
 21
622.70924305551534
 31
0.0
  0
LINE
  8
SIZE
  6
CONTINUOUS
 62
    30
 10
-379.50000000000091
 20
602.70924305551534
 30
0.0
 11
-505.50000000409449
 21
602.70924305551534
 31
0.0
  0
LINE
  8
SIZE
  6
CONTINUOUS
 62
    30
 10
-517.50000000409455
 20
602.70924305551534
 30
0.0
 11
-1040.848571432668
 21
602.70924305551534
 31
0.0
  0
CIRCLE
  8
SIZE
  6
CONTINUOUS
 62
    30
 10
-367.50000000000091
 20
602.70924305551534
 30
0.0
 40
6.0
  0
LINE
  8
SIZE
  6
CONTINUOUS
 62
    30
 10
-367.50000000000091
 20
602.70924305551534
 30
0.0
 11
-379.50000000000091
 21
602.70924305551534
 31
0.0
  0
CIRCLE
  8
SIZE
  6
CONTINUOUS
 62
    30
 10
-517.50000000409455
 20
602.70924305551534
 30
0.0
 40
6.0
  0
LINE
  8
SIZE
  6
CONTINUOUS
 62
    30
 10
-517.50000000409455
 20
602.70924305551534
 30
0.0
 11
-505.50000000409455
 21
602.70924305551534
 31
0.0
  0
TEXT
  8
SIZE
  6
CONTINUOUS
 62
    30
 10
-1021.0462857183817
 20
627.70924305551534
 30
0.0
 40
64.0
  1
150 to 250
 50
0.0
 41
0.9
 51
0.0
  7
STANDARD
 71
     0
 72
     1
 11
-785.17428571838173
 21
627.70924305551534
 31
0.0
210
0.0
220
0.0
230
1.0
  0
POINT
  8
DEFPOINTS
  6
CONTINUOUS
 62
    30
 10
-517.50000000409455
 20
224.3999999958555
 30
0.0
  0
POINT
  8
DEFPOINTS
  6
CONTINUOUS
 62
    30
 10
-367.50000000000091
 20
376.40000000000282
 30
0.0
  0
POINT
  8
DEFPOINTS
  6
CONTINUOUS
 62
    30
 10
-367.50000000000091
 20
602.70924305551534
 30
0.0
  0
LINE
  8
SIZE
  6
CONTINUOUS
 62
    30
 10
-1067.500000016593
 20
409.99999999999449
 30
0.0
 11
-1067.500000016593
 21
784.05190380846852
 31
0.0
  0
LINE
  8
SIZE
  6
CONTINUOUS
 62
    30
 10
-367.50000000000091
 20
396.40000000000282
 30
0.0
 11
-367.50000000000091
 21
784.05190380846852
 31
0.0
  0
LINE
  8
SIZE
  6
CONTINUOUS
 62
    30
 10
-1055.500000016593
 20
764.05190380846852
 30
0.0
 11
-379.50000000000091
 21
764.05190380846852
 31
0.0
  0
CIRCLE
  8
SIZE
  6
CONTINUOUS
 62
    30
 10
-1067.500000016593
 20
764.05190380846852
 30
0.0
 40
6.0
  0
LINE
  8
SIZE
  6
CONTINUOUS
 62
    30
 10
-1067.500000016593
 20
764.05190380846852
 30
0.0
 11
-1055.500000016593
 21
764.05190380846852
 31
0.0
  0
CIRCLE
  8
SIZE
  6
CONTINUOUS
 62
    30
 10
-367.50000000000091
 20
764.05190380846852
 30
0.0
 40
6.0
  0
LINE
  8
SIZE
  6
CONTINUOUS
 62
    30
 10
-367.50000000000091
 20
764.05190380846852
 30
0.0
 11
-379.50000000000091
 21
764.05190380846852
 31
0.0
  0
TEXT
  8
SIZE
  6
CONTINUOUS
 62
    30
 10
-1038.908000008297
 20
789.05190380846852
 30
0.0
 40
64.0
  1
more than 600
 50
0.0
 41
0.9
 51
0.0
  7
STANDARD
 71
     0
 72
     1
 11
-717.50000000829709
 21
789.05190380846852
 31
0.0
210
0.0
220
0.0
230
1.0
  0
POINT
  8
DEFPOINTS
  6
CONTINUOUS
 62
    30
 10
-1067.500000016593
 20
389.99999999999449
 30
0.0
  0
POINT
  8
DEFPOINTS
  6
CONTINUOUS
 62
    30
 10
-367.50000000000091
 20
376.40000000000282
 30
0.0
  0
POINT
  8
DEFPOINTS
  6
CONTINUOUS
 62
    30
 10
-367.50000000000091
 20
764.05190380846852
 30
0.0
  0
LINE
  8
OUTLINE
  6
CONTINUOUS
 62
     3
 10
367.49999999999358
 20
-358.99999999999642
 30
0.0
 11
410.99999999999818
 21
-358.99999999999977
 31
0.0
  0
LINE
  8
OUTLINE
  6
CONTINUOUS
 62
     3
 10
410.99999999999818
 20
-358.99999999999977
 30
0.0
 11
410.99999999999818
 21
-377.50000000000301
 31
0.0
  0
LINE
  8
OUTLINE
  6
CONTINUOUS
 62
     3
 10
410.99999999999818
 20
-377.50000000000301
 30
0.0
 11
390.99999999999358
 21
-377.49999999999773
 31
0.0
  0
ARC
  8
OUTLINE
  6
CONTINUOUS
 62
     3
 10
390.99999999999358
 20
-383.99999999999773
 30
0.0
 40
6.5
 50
90.0
 51
270.0
  0
LINE
  8
OUTLINE
  6
CONTINUOUS
 62
     3
 10
390.99999999999358
 20
-390.49999999999773
 30
0.0
 11
410.99999999999818
 21
-390.50000000000023
 31
0.0
  0
LINE
  8
OUTLINE
  6
CONTINUOUS
 62
     3
 10
410.99999999999818
 20
-390.50000000000023
 30
0.0
 11
410.99999999999818
 21
-402.5000000000025
 31
0.0
  0
LINE
  8
OUTLINE
  6
CONTINUOUS
 62
     3
 10
410.99999999999818
 20
-402.5000000000025
 30
0.0
 11
360.99999999999358
 21
-402.50000000000358
 31
0.0
  0
LINE
  8
OUTLINE
  6
CONTINUOUS
 62
     3
 10
360.99999999999358
 20
-402.50000000000358
 30
0.0
 11
360.99999999999272
 21
-389.90000000000282
 31
0.0
  0
ARC
  8
OUTLINE
  6
CONTINUOUS
 62
     3
 10
357.79999999999302
 20
-389.90000000000271
 30
0.0
 40
3.1999999999996827
 50
0.0
 51
102.1073252795328
  0
LINE
  8
OUTLINE
  6
CONTINUOUS
 62
     3
 10
357.12882057273509
 20
-386.77117942725909
 30
0.0
 11
353.89999999999242
 21
-390.00000000000142
 31
0.0
  0
LINE
  8
OUTLINE
  6
CONTINUOUS
 62
     3
 10
353.89999999999242
 20
-390.00000000000142
 30
0.0
 11
344.99999999999358
 21
-390.00000000000102
 31
0.0
  0
LINE
  8
OUTLINE
  6
CONTINUOUS
 62
     3
 10
344.99999999999358
 20
-390.00000000000102
 30
0.0
 11
344.99999999999358
 21
-391.50000000000142
 31
0.0
  0
LINE
  8
OUTLINE
  6
CONTINUOUS
 62
     3
 10
344.99999999999358
 20
-391.50000000000142
 30
0.0
 11
335.99999999999358
 21
-446.00000000000142
 31
0.0
  0
LINE
  8
OUTLINE
  6
CONTINUOUS
 62
     3
 10
335.99999999999358
 20
-446.00000000000142
 30
0.0
 11
335.99999999999358
 21
-454.00000000000142
 31
0.0
  0
LINE
  8
OUTLINE
  6
CONTINUOUS
 62
     3
 10
335.99999999999358
 20
-454.00000000000142
 30
0.0
 11
193.99999999999909
 21
-454.00000000000142
 31
0.0
  0
LINE
  8
OUTLINE
  6
CONTINUOUS
 62
     3
 10
193.99999999999909
 20
-454.00000000000142
 30
0.0
 11
193.99999999999909
 21
-446.00000000000142
 31
0.0
  0
LINE
  8
OUTLINE
  6
CONTINUOUS
 62
     3
 10
193.99999999999909
 20
-446.00000000000142
 30
0.0
 11
184.99999999999909
 21
-391.50000000000142
 31
0.0
  0
LINE
  8
OUTLINE
  6
CONTINUOUS
 62
     3
 10
184.99999999999909
 20
-391.50000000000142
 30
0.0
 11
184.99999999999909
 21
-389.999999999995
 31
0.0
  0
LINE
  8
OUTLINE
  6
CONTINUOUS
 62
     3
 10
184.99999999999909
 20
-389.999999999995
 30
0.0
 11
-185.00000000000091
 21
-390.00000000001762
 31
0.0
  0
LINE
  8
OUTLINE
  6
CONTINUOUS
 62
     3
 10
-185.00000000000091
 20
-390.00000000001762
 30
0.0
 11
-185.00000000000091
 21
-391.50000000000142
 31
0.0
  0
LINE
  8
OUTLINE
  6
CONTINUOUS
 62
     3
 10
-185.00000000000091
 20
-391.50000000000142
 30
0.0
 11
-194.00000000000449
 21
-446.00000000000142
 31
0.0
  0
LINE
  8
OUTLINE
  6
CONTINUOUS
 62
     3
 10
-194.00000000000449
 20
-446.00000000000142
 30
0.0
 11
-194.00000000000449
 21
-454.00000000000142
 31
0.0
  0
LINE
  8
OUTLINE
  6
CONTINUOUS
 62
     3
 10
-194.00000000000449
 20
-454.00000000000142
 30
0.0
 11
-335.99999999999909
 21
-454.00000000000142
 31
0.0
  0
LINE
  8
OUTLINE
  6
CONTINUOUS
 62
     3
 10
-335.99999999999909
 20
-454.00000000000142
 30
0.0
 11
-335.99999999999909
 21
-446.00000000000142
 31
0.0
  0
LINE
  8
OUTLINE
  6
CONTINUOUS
 62
     3
 10
-335.99999999999909
 20
-446.00000000000142
 30
0.0
 11
-345.00000000000358
 21
-391.50000000000142
 31
0.0
  0
LINE
  8
OUTLINE
  6
CONTINUOUS
 62
     3
 10
-345.00000000000358
 20
-391.50000000000142
 30
0.0
 11
-345.00000000000358
 21
-390.00000000001631
 31
0.0
  0
LINE
  8
OUTLINE
  6
CONTINUOUS
 62
     3
 10
-345.00000000000358
 20
-390.00000000001631
 30
0.0
 11
-353.89999999999458
 21
-390.00000000001592
 31
0.0
  0
LINE
  8
OUTLINE
  6
CONTINUOUS
 62
     3
 10
-353.89999999999458
 20
-390.00000000001592
 30
0.0
 11
-357.12882057272191
 21
-386.77117942729637
 31
0.0
  0
ARC
  8
OUTLINE
  6
CONTINUOUS
 62
     3
 10
-357.79999999998427
 20
-389.9000000000392
 30
0.0
 40
3.1999999999998359
 50
77.892674720386594
 51
180.0
  0
LINE
  8
OUTLINE
  6
CONTINUOUS
 62
     3
 10
-360.99999999998408
 20
-389.9000000000392
 30
0.0
 11
-360.9999999999859
 21
-402.50000000004002
 31
0.0
  0
LINE
  8
OUTLINE
  6
CONTINUOUS
 62
     3
 10
-360.9999999999859
 20
-402.50000000004002
 30
0.0
 11
-410.99999999998857
 21
-402.50000000004002
 31
0.0
  0
LINE
  8
OUTLINE
  6
CONTINUOUS
 62
     3
 10
-410.99999999998857
 20
-402.50000000004002
 30
0.0
 11
-410.99999999998948
 21
-390.50000000003769
 31
0.0
  0
LINE
  8
OUTLINE
  6
CONTINUOUS
 62
     3
 10
-410.99999999998948
 20
-390.50000000003769
 30
0.0
 11
-390.99999999998681
 21
-390.50000000003678
 31
0.0
  0
ARC
  8
OUTLINE
  6
CONTINUOUS
 62
     3
 10
-390.99999999998681
 20
-384.00000000003678
 30
0.0
 40
6.5
 50
270.0
 51
90.0
  0
LINE
  8
OUTLINE
  6
CONTINUOUS
 62
     3
 10
-390.99999999998681
 20
-377.50000000003678
 30
0.0
 11
-410.99999999998857
 21
-377.50000000003593
 31
0.0
  0
LINE
  8
OUTLINE
  6
CONTINUOUS
 62
     3
 10
-410.99999999998857
 20
-377.50000000003593
 30
0.0
 11
-410.99999999998857
 21
-359.00000000003268
 31
0.0
  0
LINE
  8
OUTLINE
  6
CONTINUOUS
 62
     3
 10
-410.99999999998857
 20
-359.00000000003268
 30
0.0
 11
-367.49999999998499
 21
-359.00000000003268
 31
0.0
  0
LINE
  8
OUTLINE
  6
CONTINUOUS
 62
     3
 10
-367.49999999998499
 20
-359.00000000003268
 30
0.0
 11
-367.49999999998499
 21
-353.30000000004071
 31
0.0
  0
LINE
  8
OUTLINE
  6
CONTINUOUS
 62
     3
 10
-367.49999999998499
 20
-353.30000000004071
 30
0.0
 11
-411.49999999999733
 21
-353.39999999999549
 31
0.0
  0
ARC
  8
OUTLINE
  6
CONTINUOUS
 62
     3
 10
-411.49999999999733
 20
-353.89999999999549
 30
0.0
 40
0.4999999999999902
 50
0.0
 51
90.0
  0
LINE
  8
OUTLINE
  6
CONTINUOUS
 62
     3
 10
-410.99999999999733
 20
-353.89999999999549
 30
0.0
 11
-410.99999999999733
 21
-354.02449980000478
 31
0.0
  0
ARC
  8
OUTLINE
  6
CONTINUOUS
 62
     3
 10
-411.49999999999767
 20
-354.02449979984493
 30
0.0
 40
0.5000000000003424
 50
231.31781256422289
 51
0.0
  0
ARC
  8
OUTLINE
  6
CONTINUOUS
 62
     3
 10
-411.00000000000045
 20
-353.40000000000367
 30
0.0
 40
1.2999999999996936
 50
209.40091418833674
 51
231.317812553458
  0
LINE
  8
OUTLINE
  6
CONTINUOUS
 62
     3
 10
-412.13256777185143
 20
-354.03819295057878
 30
0.0
 11
-417.29999999999927
 21
-356.95000000000528
 31
0.0
  0
LINE
  8
OUTLINE
  6
CONTINUOUS
 62
     3
 10
-417.29999999999927
 20
-356.95000000000528
 30
0.0
 11
-417.29999999999927
 21
-360.55000000000018
 31
0.0
  0
LINE
  8
OUTLINE
  6
CONTINUOUS
 62
     3
 10
-417.29999999999927
 20
-360.55000000000018
 30
0.0
 11
-415.29999999999751
 21
-360.55000000000018
 31
0.0
  0
LINE
  8
OUTLINE
  6
CONTINUOUS
 62
     3
 10
-415.29999999999751
 20
-360.55000000000018
 30
0.0
 11
-415.29999999999751
 21
-364.40000000000242
 31
0.0
  0
LINE
  8
OUTLINE
  6
CONTINUOUS
 62
     3
 10
-415.29999999999751
 20
-364.40000000000242
 30
0.0
 11
-416.99999999999642
 21
-364.40000000000242
 31
0.0
  0
LINE
  8
OUTLINE
  6
CONTINUOUS
 62
     3
 10
-416.99999999999642
 20
-364.40000000000242
 30
0.0
 11
-416.99999999999642
 21
-382.000000000005
 31
0.0
  0
LINE
  8
OUTLINE
  6
CONTINUOUS
 62
     3
 10
-416.99999999999642
 20
-382.000000000005
 30
0.0
 11
-424.99999999999642
 21
-382.000000000005
 31
0.0
  0
LINE
  8
OUTLINE
  6
CONTINUOUS
 62
     3
 10
-424.99999999999642
 20
-382.000000000005
 30
0.0
 11
-424.99999999999642
 21
-364.40000000000242
 31
0.0
  0
LINE
  8
OUTLINE
  6
CONTINUOUS
 62
     3
 10
-424.99999999999642
 20
-364.40000000000242
 30
0.0
 11
-426.69999999999533
 21
-364.40000000000242
 31
0.0
  0
LINE
  8
OUTLINE
  6
CONTINUOUS
 62
     3
 10
-426.69999999999533
 20
-364.40000000000242
 30
0.0
 11
-426.69999999999533
 21
-360.80000000000018
 31
0.0
  0
LINE
  8
OUTLINE
  6
CONTINUOUS
 62
     3
 10
-426.69999999999533
 20
-360.80000000000018
 30
0.0
 11
-424.70000000000073
 21
-360.80000000000018
 31
0.0
  0
LINE
  8
OUTLINE
  6
CONTINUOUS
 62
     3
 10
-424.70000000000073
 20
-360.80000000000018
 30
0.0
 11
-424.70000000000073
 21
-356.50000000000142
 31
0.0
  0
LINE
  8
OUTLINE
  6
CONTINUOUS
 62
     3
 10
-424.70000000000073
 20
-356.50000000000142
 30
0.0
 11
-429.8335652697715
 21
-353.97395994644921
 31
0.0
  0
ARC
  8
OUTLINE
  6
CONTINUOUS
 62
     3
 10
-431.00000000001597
 20
-353.40000000004022
 30
0.0
 40
1.3000000000008953
 50
308.68274796746846
 51
333.79988516732271
  0
ARC
  8
OUTLINE
  6
CONTINUOUS
 62
     3
 10
-430.49999999999937
 20
-354.02449979999585
 30
0.0
 40
0.4999999999996934
 50
180.0
 51
308.68364479664331
  0
LINE
  8
OUTLINE
  6
CONTINUOUS
 62
     3
 10
-430.99999999999909
 20
-354.02449979999568
 30
0.0
 11
-430.99999999999909
 21
-353.89999999999549
 31
0.0
  0
ARC
  8
OUTLINE
  6
CONTINUOUS
 62
     3
 10
-430.49999999999909
 20
-353.89999999999549
 30
0.0
 40
0.4999999999999902
 50
90.0
 51
180.0
  0
LINE
  8
OUTLINE
  6
CONTINUOUS
 62
     3
 10
-430.49999999999909
 20
-353.39999999999549
 30
0.0
 11
-438.19999999999942
 21
-353.3999999999985
 31
0.0
  0
ARC
  8
OUTLINE
  6
CONTINUOUS
 62
     3
 10
-441.19999999999936
 20
-353.39999999999856
 30
0.0
 40
2.9999999999999418
 50
270.0
 51
0.0
  0
LINE
  8
OUTLINE
  6
CONTINUOUS
 62
     3
 10
-441.19999999999942
 20
-356.3999999999985
 30
0.0
 11
-467.20000000000118
 21
-356.3999999999985
 31
0.0
  0
ARC
  8
OUTLINE
  6
CONTINUOUS
 62
     3
 10
-467.20000000000061
 20
-353.39999999999884
 30
0.0
 40
2.9999999999996501
 50
180.0
 51
270.0
  0
LINE
  8
OUTLINE
  6
CONTINUOUS
 62
     3
 10
-470.20000000000027
 20
-353.3999999999985
 30
0.0
 11
-474.39999999998548
 21
-353.39999999999418
 31
0.0
  0
ARC
  8
OUTLINE
  6
CONTINUOUS
 62
     3
 10
-474.39999999998582
 20
-351.7999999999941
 30
0.0
 40
1.6000000000000854
 50
180.0
 51
270.0
  0
LINE
  8
OUTLINE
  6
CONTINUOUS
 62
     3
 10
-475.9999999999859
 20
-351.79999999999433
 30
0.0
 11
-475.99999999998857
 21
-349.39999999999549
 31
0.0
  0
LINE
  8
OUTLINE
  6
CONTINUOUS
 62
     3
 10
-475.99999999998857
 20
-349.39999999999549
 30
0.0
 11
-476.59999999998439
 21
-349.39999999999549
 31
0.0
  0
LINE
  8
OUTLINE
  6
CONTINUOUS
 62
     3
 10
-476.59999999998439
 20
-349.39999999999549
 30
0.0
 11
-476.59999999999951
 21
-191.59999999999991
 31
0.0
  0
LINE
  8
OUTLINE
  6
CONTINUOUS
 62
     3
 10
-476.59999999999951
 20
-191.59999999999991
 30
0.0
 11
-477.20000000000158
 21
-191.59999999999991
 31
0.0
  0
LINE
  8
OUTLINE
  6
CONTINUOUS
 62
     3
 10
-477.20000000000158
 20
-191.59999999999991
 30
0.0
 11
-477.20000000000351
 21
-180.20000000000249
 31
0.0
  0
ARC
  8
OUTLINE
  6
CONTINUOUS
 62
     3
 10
-476.00000000000364
 20
-180.20000000000258
 30
0.0
 40
1.1999999999998701
 50
90.0
 51
180.0
  0
LINE
  8
OUTLINE
  6
CONTINUOUS
 62
     3
 10
-476.00000000000358
 20
-179.0000000000027
 30
0.0
 11
-367.49999999999909
 21
-179.00000000000639
 31
0.0
  0
LINE
  8
OUTLINE
  6
CONTINUOUS
 62
     3
 10
-367.49999999999909
 20
-179.00000000000639
 30
0.0
 11
-367.49999999998499
 21
-159.2000000000312
 31
0.0
  0
LINE
  8
OUTLINE
  6
CONTINUOUS
 62
     3
 10
-367.49999999998499
 20
-159.2000000000312
 30
0.0
 11
-378.9999999999859
 21
-159.20000000003981
 31
0.0
  0
ARC
  8
OUTLINE
  6
CONTINUOUS
 62
     3
 10
-378.99999999998613
 20
-156.80000000003977
 30
0.0
 40
2.4000000000000319
 50
149.99999999990405
 51
270.0
  0
LINE
  8
OUTLINE
  6
CONTINUOUS
 62
     3
 10
-381.07846096906678
 20
-155.60000000003629
 30
0.0
 11
-395.09999999998632
 21
-155.60000000003629
 31
0.0
  0
ARC
  8
OUTLINE
  6
CONTINUOUS
 62
     3
 10
-395.09999999998638
 20
-155.10000000003649
 30
0.0
 40
0.4999999999998011
 50
90.0
 51
270.0
  0
LINE
  8
OUTLINE
  6
CONTINUOUS
 62
     3
 10
-395.09999999998632
 20
-154.60000000003669
 30
0.0
 11
-380.17676900398919
 21
-154.6000000000372
 31
0.0
  0
LINE
  8
OUTLINE
  6
CONTINUOUS
 62
     3
 10
-380.17676900398919
 20
-154.6000000000372
 30
0.0
 11
-376.27920730665443
 21
-150.83616841870341
 31
0.0
  0
LINE
  8
OUTLINE
  6
CONTINUOUS
 62
     3
 10
-376.27920730665443
 20
-150.83616841870341
 30
0.0
 11
-375.44561726265471
 21
-151.69937618003499
 31
0.0
  0
LINE
  8
OUTLINE
  6
CONTINUOUS
 62
     3
 10
-375.44561726265471
 20
-151.69937618003499
 30
0.0
 11
-378.44930115732183
 21
-154.6000000000372
 31
0.0
  0
LINE
  8
OUTLINE
  6
CONTINUOUS
 62
     3
 10
-378.44930115732183
 20
-154.6000000000372
 30
0.0
 11
-375.09999999998439
 21
-154.6000000000372
 31
0.0
  0
LINE
  8
OUTLINE
  6
CONTINUOUS
 62
     3
 10
-375.09999999998439
 20
-154.6000000000372
 30
0.0
 11
-375.09999999998439
 21
153.59999999996131
 31
0.0
  0
LINE
  8
OUTLINE
  6
CONTINUOUS
 62
     3
 10
-375.09999999998439
 20
153.59999999996131
 30
0.0
 11
-380.99999999998772
 21
153.59999999996219
 31
0.0
  0
ARC
  8
OUTLINE
  6
CONTINUOUS
 62
     3
 10
-380.99999999998732
 20
152.59999999996231
 30
0.0
 40
0.9999999999998852
 50
90.0
 51
209.99999999998477
  0
LINE
  8
OUTLINE
  6
CONTINUOUS
 62
     3
 10
-381.8660254037718
 20
152.09999999996259
 30
0.0
 11
-383.09999999998809
 21
152.09999999996259
 31
0.0
  0
LINE
  8
OUTLINE
  6
CONTINUOUS
 62
     3
 10
-383.09999999998809
 20
152.09999999996259
 30
0.0
 11
-383.09999999998809
 21
148.59999999996629
 31
0.0
  0
LINE
  8
OUTLINE
  6
CONTINUOUS
 62
     3
 10
-383.09999999998809
 20
148.59999999996629
 30
0.0
 11
-386.09999999998632
 21
148.59999999996629
 31
0.0
  0
LINE
  8
OUTLINE
  6
CONTINUOUS
 62
     3
 10
-386.09999999998632
 20
148.59999999996629
 30
0.0
 11
-386.09999999998632
 21
152.09999999996259
 31
0.0
  0
LINE
  8
OUTLINE
  6
CONTINUOUS
 62
     3
 10
-386.09999999998632
 20
152.09999999996259
 30
0.0
 11
-387.33397459620261
 21
152.09999999996259
 31
0.0
  0
ARC
  8
OUTLINE
  6
CONTINUOUS
 62
     3
 10
-388.19999999998703
 20
152.59999999996234
 30
0.0
 40
0.9999999999998644
 50
330.00000000001216
 51
90.0
  0
LINE
  8
OUTLINE
  6
CONTINUOUS
 62
     3
 10
-388.19999999998657
 20
153.59999999996219
 30
0.0
 11
-396.29865441733273
 21
153.59999999999991
 31
0.0
  0
LINE
  8
OUTLINE
  6
CONTINUOUS
 62
     3
 10
-396.29865441733273
 20
153.59999999999991
 30
0.0
 11
-387.19376843915228
 21
141.43525420397779
 31
0.0
  0
ARC
  8
OUTLINE
  6
CONTINUOUS
 62
     3
 10
-390.22858337547109
 20
139.14835711675221
 30
0.0
 40
3.7999999980611525
 50
336.99999997948021
 51
37.000000007828191
  0
LINE
  8
OUTLINE
  6
CONTINUOUS
 62
     3
 10
-386.73066493466831
 20
137.66357882799781
 30
0.0
 11
-395.21190187733549
 21
117.68303671199961
 31
0.0
  0
ARC
  8
OUTLINE
  6
CONTINUOUS
 62
     3
 10
-396.22445721606613
 20
118.11284095333757
 30
0.0
 40
1.0999999999382084
 50
156.9999999986494
 51
336.9999999986469
  0
LINE
  8
OUTLINE
  6
CONTINUOUS
 62
     3
 10
-397.23701255479682
 20
118.5426451946755
 30
0.0
 11
-388.75577561200129
 21
138.5231873106618
 31
0.0
  0
ARC
  8
OUTLINE
  6
CONTINUOUS
 62
     3
 10
-390.22858337677479
 20
139.14835711645517
 30
0.0
 40
1.5999999993915137
 50
336.99999998256044
 51
37.000000009005191
  0
LINE
  8
OUTLINE
  6
CONTINUOUS
 62
     3
 10
-388.95076656133642
 20
140.11126115333309
 30
0.0
 11
-392.3332739000025
 21
144.59999999999991
 31
0.0
  0
LINE
  8
OUTLINE
  6
CONTINUOUS
 62
     3
 10
-392.3332739000025
 20
144.59999999999991
 30
0.0
 11
-396.59999999998718
 21
144.5999999999631
 31
0.0
  0
LINE
  8
OUTLINE
  6
CONTINUOUS
 62
     3
 10
-396.59999999998718
 20
144.5999999999631
 30
0.0
 11
-396.59999999998718
 21
143.366025403745
 31
0.0
  0
ARC
  8
OUTLINE
  6
CONTINUOUS
 62
     3
 10
-397.09999999998456
 20
142.49999999995927
 30
0.0
 40
0.9999999999998166
 50
60.000000000166665
 51
180.0
  0
LINE
  8
OUTLINE
  6
CONTINUOUS
 62
     3
 10
-398.09999999998439
 20
142.4999999999591
 30
0.0
 11
-398.09999999998718
 21
139.59999999996811
 31
0.0
  0
LINE
  8
OUTLINE
  6
CONTINUOUS
 62
     3
 10
-398.09999999998718
 20
139.59999999996811
 30
0.0
 11
-403.09999999998632
 21
139.59999999996489
 31
0.0
  0
ARC
  8
OUTLINE
  6
CONTINUOUS
 62
     3
 10
-403.09999999998627
 20
142.59999999996492
 30
0.0
 40
3.0000000000000386
 50
180.0
 51
270.0
  0
LINE
  8
OUTLINE
  6
CONTINUOUS
 62
     3
 10
-406.09999999998632
 20
142.59999999996489
 30
0.0
 11
-406.09999999998632
 21
149.5999999999658
 31
0.0
  0
ARC
  8
OUTLINE
  6
CONTINUOUS
 62
     3
 10
-403.09999999998632
 20
149.59999999996529
 30
0.0
 40
2.9999999999999907
 50
90.0
 51
180.0
  0
LINE
  8
OUTLINE
  6
CONTINUOUS
 62
     3
 10
-403.09999999998632
 20
152.59999999996529
 30
0.0
 11
-399.09999999998439
 21
152.59999999996259
 31
0.0
  0
ARC
  8
OUTLINE
  6
CONTINUOUS
 62
     3
 10
-397.09999999997802
 20
152.59999999996853
 30
0.0
 40
2.0000000000063918
 50
139.17270711945991
 51
180.0
  0
ARC
  8
OUTLINE
  6
CONTINUOUS
 62
     3
 10
-394.82646654560716
 20
154.22281092671057
 30
0.0
 40
3.7999999997319249
 50
97.000000002337401
 51
184.75873733919548
  0
LINE
  8
OUTLINE
  6
CONTINUOUS
 62
     3
 10
-395.28957005066792
 20
157.99448630266261
 30
0.0
 11
-388.36806815165482
 21
158.84631997580391
 31
0.0
  0
ARC
  8
OUTLINE
  6
CONTINUOUS
 62
     3
 10
-387.42995170133418
 20
158.5
 30
0.0
 40
1.0000000000015303
 50
90.0
 51
159.73760716486117
  0
LINE
  8
OUTLINE
  6
CONTINUOUS
 62
     3
 10
-387.42995115200301
 20
159.50000000000139
 30
0.0
 11
-383.02814495200352
 21
159.50000000000139
 31
0.0
  0
LINE
  8
OUTLINE
  6
CONTINUOUS
 62
     3
 10
-383.02814495200352
 20
159.50000000000139
 30
0.0
 11
-367.50000000000091
 21
161.4066164600022
 31
0.0
  0
LINE
  8
OUTLINE
  6
CONTINUOUS
 62
     3
 10
-367.50000000000091
 20
161.4066164600022
 30
0.0
 11
-367.49999999998408
 21
358.99999999996999
 31
0.0
  0
LINE
  8
OUTLINE
  6
CONTINUOUS
 62
     3
 10
-367.49999999998408
 20
358.99999999996999
 30
0.0
 11
-411.00000000000091
 21
359.00000000000318
 31
0.0
  0
LINE
  8
OUTLINE
  6
CONTINUOUS
 62
     3
 10
-411.00000000000091
 20
359.00000000000318
 30
0.0
 11
-411.00000000000091
 21
377.49999999999233
 31
0.0
  0
LINE
  8
OUTLINE
  6
CONTINUOUS
 62
     3
 10
-411.00000000000091
 20
377.49999999999233
 30
0.0
 11
-391.00000000000182
 21
377.49999999999409
 31
0.0
  0
ARC
  8
OUTLINE
  6
CONTINUOUS
 62
     3
 10
-391.00000000000182
 20
383.99999999999409
 30
0.0
 40
6.5
 50
270.0
 51
90.0
  0
LINE
  8
OUTLINE
  6
CONTINUOUS
 62
     3
 10
-391.00000000000182
 20
390.49999999999409
 30
0.0
 11
-411.00000000000091
 21
390.49999999999272
 31
0.0
  0
LINE
  8
OUTLINE
  6
CONTINUOUS
 62
     3
 10
-411.00000000000091
 20
390.49999999999272
 30
0.0
 11
-411.00000000000091
 21
402.49999999999551
 31
0.0
  0
LINE
  8
OUTLINE
  6
CONTINUOUS
 62
     3
 10
-411.00000000000091
 20
402.49999999999551
 30
0.0
 11
-360.9999999999859
 21
402.49999999996322
 31
0.0
  0
LINE
  8
OUTLINE
  6
CONTINUOUS
 62
     3
 10
-360.9999999999859
 20
402.49999999996322
 30
0.0
 11
-360.99990295946372
 21
389.87507912474229
 31
0.0
  0
ARC
  8
OUTLINE
  6
CONTINUOUS
 62
     3
 10
-357.80186595562367
 20
389.89767284102089
 30
0.0
 40
3.1981168136804192
 50
180.40478050997069
 51
282.14875583404216
  0
LINE
  8
OUTLINE
  6
CONTINUOUS
 62
     3
 10
-357.128820572731
 20
386.77117942722452
 30
0.0
 11
-353.90000000000009
 21
389.99999999996038
 31
0.0
  0
LINE
  8
OUTLINE
  6
CONTINUOUS
 62
     3
 10
-353.90000000000009
 20
389.99999999996038
 30
0.0
 11
-345.00000000000182
 21
389.99999999999409
 31
0.0
  0
LINE
  8
OUTLINE
  6
CONTINUOUS
 62
     3
 10
-345.00000000000182
 20
389.99999999999409
 30
0.0
 11
-345.00000000000358
 21
391.49999999999409
 31
0.0
  0
LINE
  8
OUTLINE
  6
CONTINUOUS
 62
     3
 10
-345.00000000000358
 20
391.49999999999409
 30
0.0
 11
-335.99999999999909
 21
445.99999999999409
 31
0.0
  0
LINE
  8
OUTLINE
  6
CONTINUOUS
 62
     3
 10
-335.99999999999909
 20
445.99999999999409
 30
0.0
 11
-335.99999999999909
 21
453.99999999999409
 31
0.0
  0
LINE
  8
OUTLINE
  6
CONTINUOUS
 62
     3
 10
-335.99999999999909
 20
453.99999999999409
 30
0.0
 11
-194.00000000000409
 21
453.99999999999409
 31
0.0
  0
LINE
  8
OUTLINE
  6
CONTINUOUS
 62
     3
 10
-194.00000000000409
 20
453.99999999999409
 30
0.0
 11
-194.00000000000409
 21
445.99999999999409
 31
0.0
  0
LINE
  8
OUTLINE
  6
CONTINUOUS
 62
     3
 10
-194.00000000000409
 20
445.99999999999409
 30
0.0
 11
-185.00000000000091
 21
391.49999999999409
 31
0.0
  0
LINE
  8
OUTLINE
  6
CONTINUOUS
 62
     3
 10
-185.00000000000091
 20
391.49999999999409
 30
0.0
 11
-185.00000000000091
 21
389.99999999999409
 31
0.0
  0
LINE
  8
OUTLINE
  6
CONTINUOUS
 62
     3
 10
-185.00000000000091
 20
389.99999999999409
 30
0.0
 11
184.99999999999909
 21
389.99999999999682
 31
0.0
  0
LINE
  8
OUTLINE
  6
CONTINUOUS
 62
     3
 10
184.99999999999909
 20
389.99999999999682
 30
0.0
 11
184.99999999999909
 21
391.49999999999409
 31
0.0
  0
LINE
  8
OUTLINE
  6
CONTINUOUS
 62
     3
 10
184.99999999999909
 20
391.49999999999409
 30
0.0
 11
193.99999999999909
 21
445.99999999999409
 31
0.0
  0
LINE
  8
OUTLINE
  6
CONTINUOUS
 62
     3
 10
193.99999999999909
 20
445.99999999999409
 30
0.0
 11
193.99999999999909
 21
453.99999999999409
 31
0.0
  0
LINE
  8
OUTLINE
  6
CONTINUOUS
 62
     3
 10
193.99999999999909
 20
453.99999999999409
 30
0.0
 11
335.99999999999409
 21
453.99999999999409
 31
0.0
  0
LINE
  8
OUTLINE
  6
CONTINUOUS
 62
     3
 10
335.99999999999409
 20
453.99999999999409
 30
0.0
 11
335.99999999999409
 21
445.99999999999409
 31
0.0
  0
LINE
  8
OUTLINE
  6
CONTINUOUS
 62
     3
 10
335.99999999999409
 20
445.99999999999409
 30
0.0
 11
344.99999999999909
 21
391.49999999999409
 31
0.0
  0
LINE
  8
OUTLINE
  6
CONTINUOUS
 62
     3
 10
344.99999999999909
 20
391.49999999999409
 30
0.0
 11
344.99999999999358
 21
389.99999999999409
 31
0.0
  0
LINE
  8
OUTLINE
  6
CONTINUOUS
 62
     3
 10
344.99999999999358
 20
389.99999999999409
 30
0.0
 11
353.899999999996
 21
389.99999999999682
 31
0.0
  0
LINE
  8
OUTLINE
  6
CONTINUOUS
 62
     3
 10
353.899999999996
 20
389.99999999999682
 30
0.0
 11
357.12882057273418
 21
386.77117942726181
 31
0.0
  0
ARC
  8
OUTLINE
  6
CONTINUOUS
 62
     3
 10
357.79999999999308
 20
389.90000000000521
 30
0.0
 40
3.199999999999644
 50
257.89267472044935
 51
0.0
  0
LINE
  8
OUTLINE
  6
CONTINUOUS
 62
     3
 10
360.99999999999272
 20
389.90000000000549
 30
0.0
 11
360.99999999999358
 21
402.49999999999949
 31
0.0
  0
LINE
  8
OUTLINE
  6
CONTINUOUS
 62
     3
 10
360.99999999999358
 20
402.49999999999949
 30
0.0
 11
410.99999999999858
 21
402.49999999999551
 31
0.0
  0
LINE
  8
OUTLINE
  6
CONTINUOUS
 62
     3
 10
410.99999999999858
 20
402.49999999999551
 30
0.0
 11
410.99999999999858
 21
390.49999999999272
 31
0.0
  0
LINE
  8
OUTLINE
  6
CONTINUOUS
 62
     3
 10
410.99999999999858
 20
390.49999999999272
 30
0.0
 11
391.0
 21
390.49999999999409
 31
0.0
  0
ARC
  8
OUTLINE
  6
CONTINUOUS
 62
     3
 10
391.0
 20
383.99999999999409
 30
0.0
 40
6.5
 50
90.0
 51
270.0
  0
LINE
  8
OUTLINE
  6
CONTINUOUS
 62
     3
 10
391.0
 20
377.49999999999409
 30
0.0
 11
410.99999999999858
 21
377.49999999999233
 31
0.0
  0
LINE
  8
OUTLINE
  6
CONTINUOUS
 62
     3
 10
410.99999999999858
 20
377.49999999999233
 30
0.0
 11
410.99999999999858
 21
359.00000000000318
 31
0.0
  0
LINE
  8
OUTLINE
  6
CONTINUOUS
 62
     3
 10
410.99999999999858
 20
359.00000000000318
 30
0.0
 11
367.49999999999358
 21
359.00000000000642
 31
0.0
  0
LINE
  8
OUTLINE
  6
CONTINUOUS
 62
     3
 10
367.49999999999358
 20
359.00000000000642
 30
0.0
 11
367.49999999999358
 21
-358.99999999999642
 31
0.0
  0
POINT
  8
ARRANGE
  6
CONTINUOUS
 62
     1
 10
0.0
 20
0.0
 30
0.0
 50
270.0
  0
CIRCLE
  8
ARRANGE
  6
CONTINUOUS
 62
     1
 10
0.0
 20
0.0
 30
0.0
 40
40.0
  0
TEXT
  8
ETC
  6
CONTINUOUS
 62
    61
 10
767.74055112323913
 20
1190.850449951575
 30
0.0
 40
64.065641025638456
  1
LGH-25RVX3-E_1
 41
0.9
  0
TEXT
  8
ETC
  6
CONTINUOUS
 62
    61
 10
763.55026379605897
 20
1072.774160131605
 30
0.0
 40
64.065641025638456
  1
LOSSNAY
 41
0.9
  0
TEXT
  8
ETC
  6
CONTINUOUS
 62
    61
 10
814.30366347871404
 20
964.514465427039
 30
0.0
 40
40.041025641024042
  1
LGH-25RVX3-E
 50
0.0
 41
0.9
 51
0.0
  7
STANDARD
 71
     0
 11
0.0
 21
0.0
 31
0.0
210
0.0
220
0.0
230
1.0
  0
TEXT
  8
NOTE
  6
CONTINUOUS
 62
     4
 10
-313.98575577897373
 20
-537.51643293540178
 30
0.0
 40
64.065641025638456
  1
SA
 41
0.9
  0
TEXT
  8
NOTE
  6
CONTINUOUS
 62
     4
 10
211.70689855747699
 20
-537.51643293540178
 30
0.0
 40
64.065641025638456
  1
RA
 41
0.9
  0
TEXT
  8
NOTE
  6
CONTINUOUS
 62
     4
 10
-313.98575577897373
 20
475.71325056624943
 30
0.0
 40
64.065641025638456
  1
OA
 41
0.9
  0
TEXT
  8
NOTE
  6
CONTINUOUS
 62
     4
 10
218.03537372516081
 20
475.71325056624943
 30
0.0
 40
64.065641025638456
  1
EA
 41
0.9
  0
TEXT
  8
NOTE
  6
CONTINUOUS
 62
     4
 10
-957.92192499862313
 20
132.39513524722258
 30
0.0
 40
64.0
  1
Inspection
 50
0.0
 41
0.9
 51
0.0
  7
STANDARD
 71
     0
 72
     1
 11
-739.90592499862305
 21
132.39513524722258
 31
0.0
210
0.0
220
0.0
230
1.0
  0
TEXT
  8
NOTE
  6
CONTINUOUS
 62
     4
 10
-905.50592499862307
 20
26.795135247222589
 30
0.0
 40
64.0
  1
opening
 50
0.0
 41
0.9
 51
0.0
  7
STANDARD
 71
     0
 72
     1
 11
-739.90592499862305
 21
26.795135247222589
 31
0.0
210
0.0
220
0.0
230
1.0
  0
TEXT
  8
NOTE
  6
CONTINUOUS
 62
     4
 10
-930.2739249986231
 20
-78.804864752777405
 30
0.0
 40
64.0
  1
450X450
 50
0.0
 41
0.9
 51
0.0
  7
STANDARD
 71
     0
 72
     1
 11
-739.90592499862305
 21
-78.804864752777405
 31
0.0
210
0.0
220
0.0
230
1.0
  0
TEXT
  8
NOTE
  6
CONTINUOUS
 62
     4
 10
-909.2499249986231
 20
-184.4048647527774
 30
0.0
 40
64.0
  1
or more
 50
0.0
 41
0.9
 51
0.0
  7
STANDARD
 71
     0
 72
     1
 11
-739.90592499862305
 21
-184.4048647527774
 31
0.0
210
0.0
220
0.0
230
1.0
  0
TEXT
  8
NOTE
  6
CONTINUOUS
 62
     4
 10
532.50888013073518
 20
833.50919249856588
 30
0.0
 40
69.0
  1
Ceiling suspension fixture
 50
0.0
 41
0.9
 51
0.0
  7
STANDARD
 71
     0
 11
0.0
 21
0.0
 31
0.0
210
0.0
220
0.0
230
1.0
  0
TEXT
  8
NOTE
  6
CONTINUOUS
 62
     4
 10
532.50888013073518
 20
719.65919249856586
 30
0.0
 40
69.0
  1
(4-13X20 oval)
 50
0.0
 41
0.9
 51
0.0
  7
STANDARD
 71
     0
 11
0.0
 21
0.0
 31
0.0
210
0.0
220
0.0
230
1.0
  0
LINE
  8
NOTE
  6
CONTINUOUS
 62
     4
 10
522.50888013073518
 20
682.36633535570854
 30
0.0
 11
1739.0231658450209
 21
682.36633535570854
 31
0.0
  0
LINE
  8
NOTE
  6
CONTINUOUS
 62
     4
 10
412.88655733734282
 20
412.87784940265465
 30
0.0
 11
391.00000713902551
 21
383.99999467833283
 31
0.0
  0
LINE
  8
NOTE
  6
CONTINUOUS
 62
     4
 10
391.00000713902551
 20
383.99999467833283
 30
0.0
 11
395.51533407181643
 21
419.95223237993514
 31
0.0
  0
LINE
  8
NOTE
  6
CONTINUOUS
 62
     4
 10
391.00000713902551
 20
383.99999467833283
 30
0.0
 11
417.40188427013373
 21
448.83008710425696
 31
0.0
  0
LINE
  8
NOTE
  6
CONTINUOUS
 62
     4
 10
417.40188427013362
 20
448.8300871042569
 30
0.0
 11
512.50888013073518
 21
682.36633535570854
 31
0.0
  0
LINE
  8
NOTE
  6
CONTINUOUS
 62
     4
 10
512.50888013073518
 20
682.36633535570854
 30
0.0
 11
522.50888013073518
 21
682.36633535570854
 31
0.0
  0
TEXT
  8
NOTE
  6
CONTINUOUS
 62
     4
 10
-1176.9541472795891
 20
-499.20777452298779
 30
0.0
 40
69.0
  1
Power supply
 50
0.0
 41
0.9
 51
0.0
  7
STANDARD
 71
     0
 72
     2
 11
-572.7211472795891
 21
-499.20777452298779
 31
0.0
210
0.0
220
0.0
230
1.0
  0
TEXT
  8
NOTE
  6
CONTINUOUS
 62
     4
 10
-1204.8991472795892
 20
-613.05777452298776
 30
0.0
 40
69.0
  1
cable opening
 50
0.0
 41
0.9
 51
0.0
  7
STANDARD
 71
     0
 72
     2
 11
-572.7211472795891
 21
-613.05777452298776
 31
0.0
210
0.0
220
0.0
230
1.0
  0
LINE
  8
NOTE
  6
CONTINUOUS
 62
     4
 10
-562.7211472795891
 20
-637.20777452298785
 30
0.0
 11
-1214.4211472795889
 21
-637.20777452298785
 31
0.0
  0
LINE
  8
NOTE
  6
CONTINUOUS
 62
     4
 10
-474.63663731937845
 20
-386.32148773270825
 30
0.0
 11
-454.20000000000027
 21
-356.3999999999985
 31
0.0
  0
LINE
  8
NOTE
  6
CONTINUOUS
 62
     4
 10
-454.20000000000027
 20
-356.3999999999985
 30
0.0
 11
-456.93784877263744
 21
-392.53109128106377
 31
0.0
  0
LINE
  8
NOTE
  6
CONTINUOUS
 62
     4
 10
-454.20000000000027
 20
-356.3999999999985
 30
0.0
 11
-477.37448609201562
 21
-422.45257901377352
 31
0.0
  0
LINE
  8
NOTE
  6
CONTINUOUS
 62
     4
 10
-477.37448609201562
 20
-422.45257901377352
 30
0.0
 11
-552.7211472795891
 21
-637.20777452298785
 31
0.0
  0
LINE
  8
NOTE
  6
CONTINUOUS
 62
     4
 10
-552.7211472795891
 20
-637.20777452298785
 30
0.0
 11
-562.7211472795891
 21
-637.20777452298785
 31
0.0
  0
ENDSEC
  0
EOF
