  0
SECTION
  2
HEADER
  9
$ACADVER
  1
AC1009
  9
$DWGCODEPAGE
  3
dos932
  9
$INSBASE
 10
0.0
 20
0.0
 30
0.0
  9
$EXTMIN
 10
-1245.355208771485
 20
-576.78221501035478
 30
-0.0000000349181948
  9
$EXTMAX
 10
1765.1596193611149
 20
821.27381200119089
 30
0.0000000814935746
  9
$LIMMIN
 10
-2970.0
 20
-2100.0
  9
$LIMMAX
 10
2970.0
 20
2100.0
  9
$ORTHOMODE
 70
     1
  9
$REGENMODE
 70
     1
  9
$FILLMODE
 70
     1
  9
$QTEXTMODE
 70
     0
  9
$MIRRTEXT
 70
     0
  9
$LTSCALE
 40
20.0
  9
$ATTMODE
 70
     1
  9
$TEXTSIZE
 40
64.0
  9
$TRACEWID
 40
0.05
  9
$TEXTSTYLE
  7
STANDARD
  9
$CLAYER
  8
SIZE
  9
$CELTYPE
  6
CONTINUOUS
  9
$CECOLOR
 62
     7
  9
$DIMSCALE
 40
1.0
  9
$DIMASZ
 40
12.0
  9
$DIMEXO
 40
20.0
  9
$DIMDLI
 40
200.0
  9
$DIMRND
 40
0.0
  9
$DIMDLE
 40
0.0
  9
$DIMEXE
 40
20.0
  9
$DIMTP
 40
0.0
  9
$DIMTM
 40
0.0
  9
$DIMTXT
 40
64.0
  9
$DIMCEN
 40
0.09
  9
$DIMTSZ
 40
0.0
  9
$DIMTOL
 70
     0
  9
$DIMLIM
 70
     0
  9
$DIMTIH
 70
     0
  9
$DIMTOH
 70
     0
  9
$DIMSE1
 70
     0
  9
$DIMSE2
 70
     0
  9
$DIMTAD
 70
     1
  9
$DIMZIN
 70
     8
  9
$DIMBLK
  1

  9
$DIMASO
 70
     1
  9
$DIMSHO
 70
     0
  9
$DIMPOST
  1

  9
$DIMAPOST
  1

  9
$DIMALT
 70
     0
  9
$DIMALTD
 70
     2
  9
$DIMALTF
 40
25.399999999999999
  9
$DIMLFAC
 40
1.0
  9
$DIMTOFL
 70
     1
  9
$DIMTVP
 40
0.0
  9
$DIMTIX
 70
     1
  9
$DIMSOXD
 70
     0
  9
$DIMSAH
 70
     0
  9
$DIMBLK1
  1

  9
$DIMBLK2
  1

  9
$DIMSTYLE
  2
STANDARD
  9
$DIMCLRD
 70
     7
  9
$DIMCLRE
 70
     7
  9
$DIMCLRT
 70
     7
  9
$DIMTFAC
 40
1.0
  9
$DIMGAP
 40
25.0
  9
$LUNITS
 70
     2
  9
$LUPREC
 70
     4
  9
$SKETCHINC
 40
0.1
  9
$FILLETRAD
 40
3.0
  9
$AUNITS
 70
     1
  9
$AUPREC
 70
     3
  9
$MENU
  1
ACAD
  9
$ELEVATION
 40
0.0
  9
$PELEVATION
 40
0.0
  9
$THICKNESS
 40
0.0
  9
$LIMCHECK
 70
     0
  9
$CHAMFERA
 40
0.0
  9
$CHAMFERB
 40
0.0
  9
$SKPOLY
 70
     0
  9
$TDCREATE
 40
2453019.62301037
  9
$TDUPDATE
 40
2460045.428023588
  9
$TDINDWG
 40
1.7145877431
  9
$TDUSRTIMER
 40
1.7145877431
  9
$USRTIMER
 70
     1
  9
$ANGBASE
 50
0.0
  9
$ANGDIR
 70
     0
  9
$PDMODE
 70
     3
  9
$PDSIZE
 40
-2.0
  9
$PLINEWID
 40
0.0
  9
$SPLFRAME
 70
     0
  9
$SPLINETYPE
 70
     6
  9
$SPLINESEGS
 70
     8
  9
$SURFTAB1
 70
     6
  9
$SURFTAB2
 70
     6
  9
$SURFTYPE
 70
     6
  9
$SURFU
 70
     6
  9
$SURFV
 70
     6
  9
$UCSNAME
  2

  9
$UCSORG
 10
0.0
 20
0.0
 30
0.0
  9
$UCSXDIR
 10
1.0
 20
0.0
 30
0.0
  9
$UCSYDIR
 10
0.0
 20
1.0
 30
0.0
  9
$PUCSNAME
  2

  9
$PUCSORG
 10
0.0
 20
0.0
 30
0.0
  9
$PUCSXDIR
 10
1.0
 20
0.0
 30
0.0
  9
$PUCSYDIR
 10
0.0
 20
1.0
 30
0.0
  9
$USERI1
 70
     0
  9
$USERI2
 70
     0
  9
$USERI3
 70
     0
  9
$USERI4
 70
     0
  9
$USERI5
 70
     0
  9
$USERR1
 40
20.0
  9
$USERR2
 40
0.0
  9
$USERR3
 40
0.0
  9
$USERR4
 40
0.0
  9
$USERR5
 40
0.0
  9
$WORLDVIEW
 70
     1
  9
$SHADEDGE
 70
     3
  9
$SHADEDIF
 70
    70
  9
$TILEMODE
 70
     1
  9
$MAXACTVP
 70
    48
  9
$PINSBASE
 10
0.0
 20
0.0
 30
0.0
  9
$PLIMCHECK
 70
     0
  9
$PEXTMIN
 10
-100000000000000000000.0
 20
-100000000000000000000.0
 30
-100000000000000000000.0
  9
$PEXTMAX
 10
100000000000000000000.0
 20
100000000000000000000.0
 30
100000000000000000000.0
  9
$PLIMMIN
 10
0.0
 20
0.0
  9
$PLIMMAX
 10
12.0
 20
9.0
  9
$UNITMODE
 70
     0
  9
$VISRETAIN
 70
     0
  9
$PLINEGEN
 70
     0
  9
$PSLTSCALE
 70
     0
  9
$TREEDEPTH
 70
  3020
  9
$ATTDIA
 70
     0
  9
$ATTREQ
 70
     1
  9
$BLIPMODE
 70
     1
  9
$COORDS
 70
     1
  9
$DRAGMODE
 70
     2
  9
$OSMODE
 70
     0
  9
$HANDLING
 70
     0
  9
$HANDSEED
  5
F5F4
  0
ENDSEC
  0
SECTION
  2
TABLES
  0
TABLE
  2
LTYPE
 70
     2
  0
LTYPE
  2
CONTINUOUS
 70
     0
  3
実線
 72
    65
 73
     0
 40
0.0
  0
LTYPE
  2
DASHDOT
 70
     0
  3
____ _ ____ _ ____ _ ____ _ ____ _ ____ _ ____
 72
    65
 73
     4
 40
5.5
 49
4.0
 49
-0.6
 49
0.3
 49
-0.6
  0
ENDTAB
  0
TABLE
  2
LAYER
 70
    12
  0
LAYER
  2
0
 70
     0
 62
     7
  6
CONTINUOUS
  0
LAYER
  2
BASIS
 70
     0
 62
     6
  6
DASHDOT
  0
LAYER
  2
OUTLINE
 70
     0
 62
     3
  6
CONTINUOUS
  0
LAYER
  2
DETAIL
 70
     0
 62
     5
  6
CONTINUOUS
  0
LAYER
  2
SIZE
 70
     0
 62
    30
  6
CONTINUOUS
  0
LAYER
  2
ARRANGE
 70
     0
 62
     1
  6
CONTINUOUS
  0
LAYER
  2
DEFPOINTS
 70
     0
 62
     7
  6
CONTINUOUS
  0
LAYER
  2
ETC
 70
     0
 62
    61
  6
CONTINUOUS
  0
LAYER
  2
FIX
 70
     0
 62
    11
  6
CONTINUOUS
  0
LAYER
  2
NOTE
 70
     0
 62
     4
  6
CONTINUOUS
  0
LAYER
  2
SERVICESPACE
 70
    64
 62
     2
  6
DASHDOT
  0
LAYER
  2
SYMBOLLINE
 70
    64
 62
    15
  6
CONTINUOUS
  0
ENDTAB
  0
TABLE
  2
STYLE
 70
     1
  0
STYLE
  2
STANDARD
 70
     0
 40
64.0
 41
0.9
 50
0.0
 71
     0
 42
64.0
  3
SIMPLEX.shx
  4
BIGFONT.shx
  0
ENDTAB
  0
TABLE
  2
APPID
 70
    20
  0
APPID
  2
ACAD
 70
     0
  0
APPID
  2
AUTOCAD_POSTSCRIPT_FIGURE
 70
     0
  0
APPID
  2
ACAD_EXEMPT_FROM_CAD_STANDARDS
 70
     0
  0
APPID
  2
ACAD_PSEXT
 70
     0
  0
APPID
  2
ACAUTHENVIRON
 70
     0
  0
APPID
  2
GENIUS_GENOENT_13
 70
     0
  0
APPID
  2
GENIUS_GENCFG_13
 70
     0
  0
APPID
  2
GENIUS_GENCFG0_13
 70
     0
  0
APPID
  2
GENIUS_GENCFG1_13
 70
     0
  0
APPID
  2
GENIUS_GENCFG2_13
 70
     0
  0
APPID
  2
GENIUS_GENCFG3_13
 70
     0
  0
APPID
  2
GENIUS_GENCFG4_13
 70
     0
  0
APPID
  2
GENIUS_GEVCFG0_13
 70
     0
  0
APPID
  2
CONTENTBLOCKICON
 70
     0
  0
APPID
  2
CONTENTBLOCKDESCRIPTION
 70
     0
  0
APPID
  2
ACAD_NAV_VCDISPLAY
 70
     0
  0
APPID
  2
ACAD_MLEADERVER
 70
     0
  0
APPID
  2
ACDBDYNAMICBLOCKTRUENAME
 70
     0
  0
APPID
  2
ACDBDYNAMICBLOCKGUID
 70
     0
  0
APPID
  2
ACAD_DSTYLE_DIMRADIAL_EXTENSION
 70
     0
  0
ENDTAB
  0
TABLE
  2
DIMSTYLE
 70
     1
  0
DIMSTYLE
  2
STANDARD
 70
     0
  3

  4

  5
_ORIGIN
  6

  7

 40
1.0
 41
12.0
 42
20.0
 43
200.0
 44
20.0
 45
0.0
 46
0.0
 47
0.0
 48
0.0
140
64.0
141
0.09
142
0.0
143
25.399999999999999
144
1.0
145
0.0
146
1.0
147
25.0
 71
     0
 72
     0
 73
     0
 74
     0
 75
     0
 76
     0
 77
     1
 78
     8
170
     0
171
     2
172
     1
173
     0
174
     1
175
     0
176
     7
177
     7
178
     7
  0
ENDTAB
  0
TABLE
  2
VIEW
 70
     1
  0
VIEW
  2
ALL
 70
     0
 40
4282.6198079999986
 10
0.0
 20
41.309904000000003
 41
5940.0
 11
0.0
 21
0.0
 31
1.0
 12
0.0
 22
0.0
 32
0.0
 42
50.0
 43
0.0
 44
0.0
 50
0.0
 71
     0
  0
ENDTAB
  0
TABLE
  2
UCS
 70
     0
  0
ENDTAB
  0
TABLE
  2
VPORT
 70
     1
  0
VPORT
  2
*ACTIVE
 70
     0
 10
0.0
 20
0.0
 11
1.0
 21
1.0
 12
259.90220529481479
 22
122.2457984954181
 13
0.0
 23
0.0
 14
1.0
 24
1.0
 15
0.0
 25
0.0
 16
0.0
 26
0.0
 36
1.0
 17
0.0
 27
0.0
 37
0.0
 40
1696.4909582608491
 41
1.781285231116122
 42
50.0
 43
0.0
 44
0.0
 50
0.0
 51
0.0
 71
     0
 72
  1000
 73
     1
 74
     3
 75
     0
 76
     0
 77
     0
 78
     0
  0
ENDTAB
  0
ENDSEC
  0
SECTION
  2
BLOCKS
  0
BLOCK
  8
0
  2
_ORIGIN
 70
     0
 10
0.0
 20
0.0
 30
0.0
  3
_ORIGIN
  1
_ORIGIN
  0
CIRCLE
  8
0
  6
CONTINUOUS
 62
     7
 10
0.0
 20
0.0
 30
0.0
 40
0.5
  0
LINE
  8
0
  6
CONTINUOUS
 62
     7
 10
0.0
 20
0.0
 30
0.0
 11
-1.0
 21
0.0
 31
0.0
  0
ENDBLK
  8
0
  0
ENDSEC
  0
SECTION
  2
ENTITIES
  0
LINE
  8
DETAIL
  6
CONTINUOUS
 62
     5
 10
-500.59999999999758
 20
-96.550000000000182
 30
0.0
 11
-500.59999999999758
 21
-86.550000000000182
 31
0.0
  0
LINE
  8
DETAIL
  6
CONTINUOUS
 62
     5
 10
-499.43356526933349
 20
-96.550000000000182
 30
0.0
 11
-499.43356526933349
 21
-86.550000000000182
 31
0.0
  0
LINE
  8
DETAIL
  6
CONTINUOUS
 62
     5
 10
-496.30000000000109
 20
-86.550000000000182
 30
0.0
 11
-496.30000000000109
 21
-96.550000000000182
 31
0.0
  0
LINE
  8
DETAIL
  6
CONTINUOUS
 62
     5
 10
-494.59999999999758
 20
-87.750000000004547
 30
0.0
 11
-494.59999999999758
 21
-67.750568997337723
 31
0.0
  0
LINE
  8
DETAIL
  6
CONTINUOUS
 62
     5
 10
-494.59999999999758
 20
-96.550000000000182
 30
0.0
 11
-494.59999999999758
 21
-113.9180763693339
 31
0.0
  0
LINE
  8
DETAIL
  6
CONTINUOUS
 62
     5
 10
-486.59999999999758
 20
-87.750000000004547
 30
0.0
 11
-486.59999999999758
 21
-67.750568997337723
 31
0.0
  0
LINE
  8
DETAIL
  6
CONTINUOUS
 62
     5
 10
-486.59999999999758
 20
-96.550000000000182
 30
0.0
 11
-486.59999999999758
 21
-113.91550693200131
 31
0.0
  0
LINE
  8
DETAIL
  6
CONTINUOUS
 62
     5
 10
-484.89999999999782
 20
-86.550000000000182
 30
0.0
 11
-484.89999999999782
 21
-96.550000000000182
 31
0.0
  0
LINE
  8
DETAIL
  6
CONTINUOUS
 62
     5
 10
-481.73256777199731
 20
-96.550000000000182
 30
0.0
 11
-481.73256777199731
 21
-86.550000000000182
 31
0.0
  0
LINE
  8
DETAIL
  6
CONTINUOUS
 62
     5
 10
-480.49999999999551
 20
-78.200000000001637
 30
0.0
 11
-480.49999999999551
 21
-81.800000000000182
 31
0.0
  0
LINE
  8
DETAIL
  6
CONTINUOUS
 62
     5
 10
-480.59999999999582
 20
-86.550000000000182
 30
0.0
 11
-480.59999999999582
 21
-96.550000000000182
 31
0.0
  0
LINE
  8
DETAIL
  6
CONTINUOUS
 62
     5
 10
-477.29999999999927
 20
-78.200000000001637
 30
0.0
 11
-477.29999999999927
 21
-81.800000000000182
 31
0.0
  0
LINE
  8
DETAIL
  6
CONTINUOUS
 62
     5
 10
-477.29999999999927
 20
-91.399999999998727
 30
0.0
 11
-477.29999999999927
 21
-95.000000000004547
 31
0.0
  0
LINE
  8
DETAIL
  6
CONTINUOUS
 62
     5
 10
-465.19999999999982
 20
-54.500000000004547
 30
0.0
 11
-465.19999999999982
 21
-47.640046220000841
 31
0.0
  0
LINE
  8
DETAIL
  6
CONTINUOUS
 62
     5
 10
-488.1576078333328
 20
-118.8207968506658
 30
0.0
 11
-486.59999999999758
 21
-113.91550693200131
 31
0.0
  0
LINE
  8
DETAIL
  6
CONTINUOUS
 62
     5
 10
-457.09999999999758
 20
-54.500000000004547
 30
0.0
 11
-457.09999999999758
 21
-46.999999999997272
 31
0.0
  0
LINE
  8
DETAIL
  6
CONTINUOUS
 62
     5
 10
-451.00000000000091
 20
-54.500000000004547
 30
0.0
 11
-451.00000000000091
 21
-46.950000000001637
 31
0.0
  0
LINE
  8
DETAIL
  6
CONTINUOUS
 62
     5
 10
-448.59999999999582
 20
-45.000000000004547
 30
0.0
 11
-448.59999999999582
 21
-46.950000000001637
 31
0.0
  0
LINE
  8
DETAIL
  6
CONTINUOUS
 62
     5
 10
-439.69999999999982
 20
-326.14999999999873
 30
0.0
 11
-439.69999999999982
 21
-325.55000000000018
 31
0.0
  0
LINE
  8
DETAIL
  6
CONTINUOUS
 62
     5
 10
-439.69999999999982
 20
-4.8500000000030923
 30
0.0
 11
-439.69999999999982
 21
-5.4500000000016371
 31
0.0
  0
LINE
  8
DETAIL
  6
CONTINUOUS
 62
     5
 10
-435.59999999999673
 20
-330.05000000000018
 30
0.0
 11
-435.59999999999673
 21
-329.55000000000018
 31
0.0
  0
LINE
  8
DETAIL
  6
CONTINUOUS
 62
     5
 10
-435.59999999999673
 20
-1.150000000001455
 30
0.0
 11
-435.59999999999673
 21
-0.6500000000087312
 31
0.0
  0
LINE
  8
DETAIL
  6
CONTINUOUS
 62
     5
 10
-433.79999999999927
 20
-134.9999999999973
 30
0.0
 11
-433.79999999999927
 21
-91.399999999998727
 31
0.0
  0
LINE
  8
DETAIL
  6
CONTINUOUS
 62
     5
 10
-433.59999999999673
 20
-5.0000000000045466
 30
0.0
 11
-433.59999999999673
 21
-46.950000000001637
 31
0.0
  0
LINE
  8
DETAIL
  6
CONTINUOUS
 62
     5
 10
-433.59999999999673
 20
-314.900000000006
 30
0.0
 11
-433.59999999999673
 21
-326.00000000000449
 31
0.0
  0
LINE
  8
DETAIL
  6
CONTINUOUS
 62
     5
 10
-431.79999999999927
 20
-55.700000000001637
 30
0.0
 11
-431.79999999999927
 21
-46.950000000001637
 31
0.0
  0
LINE
  8
DETAIL
  6
CONTINUOUS
 62
     5
 10
-430.59999999999758
 20
-1.650000000001455
 30
0.0
 11
-430.59999999999758
 21
-329.05000000000018
 31
0.0
  0
LINE
  8
DETAIL
  6
CONTINUOUS
 62
     5
 10
-430.09999999999673
 20
-329.05000000000018
 30
0.0
 11
-430.09999999999673
 21
-328.05000000000018
 31
0.0
  0
LINE
  8
DETAIL
  6
CONTINUOUS
 62
     5
 10
-430.09999999999673
 20
-1.650000000001455
 30
0.0
 11
-430.09999999999673
 21
-2.6500000000087311
 31
0.0
  0
LINE
  8
DETAIL
  6
CONTINUOUS
 62
     5
 10
-428.59999999999951
 20
-0.6500000000087312
 30
0.0
 11
-428.59999999999951
 21
-2.6500000000087311
 31
0.0
  0
LINE
  8
DETAIL
  6
CONTINUOUS
 62
     5
 10
-428.59999999999951
 20
-328.05000000000018
 30
0.0
 11
-428.59999999999951
 21
-330.05000000000018
 31
0.0
  0
LINE
  8
DETAIL
  6
CONTINUOUS
 62
     5
 10
-428.49999999999818
 20
-0.6500000000087312
 30
0.0
 11
-428.49999999999818
 21
0.0
 31
0.0
  0
LINE
  8
DETAIL
  6
CONTINUOUS
 62
     5
 10
-428.09999999999758
 20
-330.05000000000018
 30
0.0
 11
-428.09999999999758
 21
-331.00000000000449
 31
0.0
  0
LINE
  8
DETAIL
  6
CONTINUOUS
 62
     5
 10
-430.06006823866568
 20
-0.9564221280015772
 30
0.0
 11
-429.91189937333269
 21
-2.6500000000087311
 31
0.0
  0
LINE
  8
DETAIL
  6
CONTINUOUS
 62
     5
 10
-429.56197088933101
 20
-0.9128442573419306
 30
0.0
 11
-429.40998945466248
 21
-2.6500000000087311
 31
0.0
  0
LINE
  8
DETAIL
  6
CONTINUOUS
 62
     5
 10
-410.59999999999673
 20
-130.00000000000449
 30
0.0
 11
-410.59999999999673
 21
-123.502136322667
 31
0.0
  0
LINE
  8
DETAIL
  6
CONTINUOUS
 62
     5
 10
-409.00000000000091
 20
-188.18901115733931
 30
0.0
 11
-409.00000000000091
 21
-252.81098884267161
 31
0.0
  0
LINE
  8
DETAIL
  6
CONTINUOUS
 62
     5
 10
-430.03610918132841
 20
-329.46972459467088
 30
0.0
 11
-429.91189937333269
 21
-328.05000000000018
 31
0.0
  0
LINE
  8
DETAIL
  6
CONTINUOUS
 62
     5
 10
-429.23915342266451
 20
-329.53944918799698
 30
0.0
 11
-429.1088435039992
 21
-328.05000000000018
 31
0.0
  0
LINE
  8
DETAIL
  6
CONTINUOUS
 62
     5
 10
-444.59999999999951
 20
-325.55000000000018
 30
0.0
 11
-444.97978629999761
 21
-326.01444062533568
 31
0.0
  0
LINE
  8
DETAIL
  6
CONTINUOUS
 62
     5
 10
424.33000000000811
 20
-331.00000000000449
 30
0.0
 11
422.07999999998538
 21
-328.74999999999
 31
0.0
  0
LINE
  8
DETAIL
  6
CONTINUOUS
 62
     5
 10
-240.99999999999551
 20
-252.81098884267161
 30
0.0
 11
-240.99999999999551
 21
-188.18901115733931
 31
0.0
  0
LINE
  8
DETAIL
  6
CONTINUOUS
 62
     5
 10
436.17499999999018
 20
0.0
 30
0.0
 11
430.5581655866672
 21
0.0
 31
0.0
  0
LINE
  8
DETAIL
  6
CONTINUOUS
 62
     5
 10
-436.17499999998932
 20
0.0
 30
0.0
 11
-430.55816558666538
 21
0.0
 31
0.0
  0
LINE
  8
DETAIL
  6
CONTINUOUS
 62
     5
 10
-428.49999999999818
 20
0.0
 30
0.0
 11
428.5
 21
0.0
 31
0.0
  0
LINE
  8
DETAIL
  6
CONTINUOUS
 62
     5
 10
436.17500000000018
 20
-0.500000000007276
 30
0.0
 11
430.5581655866672
 21
-0.500000000007276
 31
0.0
  0
LINE
  8
DETAIL
  6
CONTINUOUS
 62
     5
 10
-436.17499999999927
 20
-0.500000000007276
 30
0.0
 11
-430.55816558666538
 21
-0.500000000007276
 31
0.0
  0
LINE
  8
DETAIL
  6
CONTINUOUS
 62
     5
 10
-435.59999999999673
 20
-0.6500000000087312
 30
0.0
 11
-431.09999999999951
 21
-0.6500000000087312
 31
0.0
  0
LINE
  8
DETAIL
  6
CONTINUOUS
 62
     5
 10
-428.59999999999951
 20
-0.6500000000087312
 30
0.0
 11
-423.74999999999
 21
-0.6500000000087312
 31
0.0
  0
LINE
  8
DETAIL
  6
CONTINUOUS
 62
     5
 10
423.74999999998909
 20
-0.6500000000087312
 30
0.0
 11
428.60000000000042
 21
-0.6500000000087312
 31
0.0
  0
LINE
  8
DETAIL
  6
CONTINUOUS
 62
     5
 10
431.10000000000218
 20
-0.6500000000087312
 30
0.0
 11
435.60000000000218
 21
-0.6500000000087312
 31
0.0
  0
LINE
  8
DETAIL
  6
CONTINUOUS
 62
     5
 10
-431.09999999999951
 20
-1.150000000001455
 30
0.0
 11
-436.17499999999927
 21
-1.150000000001455
 31
0.0
  0
LINE
  8
DETAIL
  6
CONTINUOUS
 62
     5
 10
-432.59999999999758
 20
-1.6500000000160071
 30
0.0
 11
-436.17499999998932
 21
-1.6500000000160071
 31
0.0
  0
LINE
  8
DETAIL
  6
CONTINUOUS
 62
     5
 10
431.10000000000218
 20
-1.150000000001455
 30
0.0
 11
436.17500000000018
 21
-1.150000000001455
 31
0.0
  0
LINE
  8
DETAIL
  6
CONTINUOUS
 62
     5
 10
430.60000000000309
 20
-1.650000000001455
 30
0.0
 11
431.10000000000218
 21
-1.650000000001455
 31
0.0
  0
LINE
  8
DETAIL
  6
CONTINUOUS
 62
     5
 10
-430.59999999999758
 20
-2.6500000000087311
 30
0.0
 11
-428.59999999999951
 21
-2.6500000000087311
 31
0.0
  0
LINE
  8
DETAIL
  6
CONTINUOUS
 62
     5
 10
428.60000000000042
 20
-2.6500000000087311
 30
0.0
 11
430.60000000000309
 21
-2.6500000000087311
 31
0.0
  0
LINE
  8
DETAIL
  6
CONTINUOUS
 62
     5
 10
-434.79999999999842
 20
-4.2500000000045466
 30
0.0
 11
-444.09999999999758
 21
-4.2500000000045466
 31
0.0
  0
LINE
  8
DETAIL
  6
CONTINUOUS
 62
     5
 10
-434.79999999999842
 20
-4.8500000000030923
 30
0.0
 11
-444.09999999999758
 21
-4.8500000000030923
 31
0.0
  0
LINE
  8
DETAIL
  6
CONTINUOUS
 62
     5
 10
-433.59999999999673
 20
-5.0000000000045466
 30
0.0
 11
-430.59999999999758
 21
-5.0000000000045466
 31
0.0
  0
LINE
  8
DETAIL
  6
CONTINUOUS
 62
     5
 10
-444.59999999999951
 20
-5.4500000000016371
 30
0.0
 11
-433.59999999999673
 21
-5.4500000000016371
 31
0.0
  0
LINE
  8
DETAIL
  6
CONTINUOUS
 62
     5
 10
-424.33000000000447
 20
-331.00000000000449
 30
0.0
 11
-422.07999999998168
 21
-328.74999999999
 31
0.0
  0
LINE
  8
DETAIL
  6
CONTINUOUS
 62
     5
 10
-452.59999999999951
 20
-45.000000000004547
 30
0.0
 11
-448.59999999999582
 21
-45.000000000004547
 31
0.0
  0
LINE
  8
DETAIL
  6
CONTINUOUS
 62
     5
 10
-430.59999999999758
 20
-46.950000000001637
 30
0.0
 11
-450.99998262399822
 21
-46.950000000001637
 31
0.0
  0
LINE
  8
DETAIL
  6
CONTINUOUS
 62
     5
 10
-457.09999999999758
 20
-46.999999999997272
 30
0.0
 11
-454.59999999999758
 21
-46.999999999997272
 31
0.0
  0
LINE
  8
DETAIL
  6
CONTINUOUS
 62
     5
 10
-486.59999999999758
 20
-67.750000000004547
 30
0.0
 11
-494.59999999999758
 21
-67.750000000004547
 31
0.0
  0
LINE
  8
DETAIL
  6
CONTINUOUS
 62
     5
 10
-477.29999999999927
 20
-78.200000000001637
 30
0.0
 11
-480.49999999999551
 21
-78.200000000001637
 31
0.0
  0
LINE
  8
DETAIL
  6
CONTINUOUS
 62
     5
 10
477.29999999999649
 20
-78.200000000001637
 30
0.0
 11
480.50000000000182
 21
-78.200000000001637
 31
0.0
  0
LINE
  8
DETAIL
  6
CONTINUOUS
 62
     5
 10
474.09999999999951
 20
-85.000000000004547
 30
0.0
 11
437.0
 21
-85.000000000004547
 31
0.0
  0
LINE
  8
DETAIL
  6
CONTINUOUS
 62
     5
 10
-474.099999999994
 20
-85.000000000004547
 30
0.0
 11
-436.99999999999642
 21
-85.000000000004547
 31
0.0
  0
LINE
  8
DETAIL
  6
CONTINUOUS
 62
     5
 10
-500.59999999999758
 20
-86.550000000000182
 30
0.0
 11
-494.59999999999758
 21
-86.550000000000182
 31
0.0
  0
LINE
  8
DETAIL
  6
CONTINUOUS
 62
     5
 10
-486.59999999999758
 20
-86.550000000000182
 30
0.0
 11
-480.59999999999582
 21
-86.550000000000182
 31
0.0
  0
LINE
  8
DETAIL
  6
CONTINUOUS
 62
     5
 10
-486.59999999999758
 20
-87.750000000004547
 30
0.0
 11
-494.59999999999758
 21
-87.750000000004547
 31
0.0
  0
LINE
  8
DETAIL
  6
CONTINUOUS
 62
     5
 10
474.09999999999951
 20
-88.200000000008913
 30
0.0
 11
437.0
 21
-88.200000000008913
 31
0.0
  0
LINE
  8
DETAIL
  6
CONTINUOUS
 62
     5
 10
-474.099999999994
 20
-88.200000000008913
 30
0.0
 11
-436.99999999999642
 21
-88.200000000008913
 31
0.0
  0
LINE
  8
DETAIL
  6
CONTINUOUS
 62
     5
 10
-477.29999999999927
 20
-95.000000000004547
 30
0.0
 11
-480.49999999999551
 21
-95.000000000004547
 31
0.0
  0
LINE
  8
DETAIL
  6
CONTINUOUS
 62
     5
 10
477.29999999999649
 20
-95.000000000004547
 30
0.0
 11
480.50000000000182
 21
-95.000000000004547
 31
0.0
  0
LINE
  8
DETAIL
  6
CONTINUOUS
 62
     5
 10
-500.59999999999758
 20
-96.550000000000182
 30
0.0
 11
-480.59999999999582
 21
-96.550000000000182
 31
0.0
  0
LINE
  8
DETAIL
  6
CONTINUOUS
 62
     5
 10
-427.98087488799871
 20
-114.0000000000045
 30
0.0
 11
-428.51355287200022
 21
-114.0000000000045
 31
0.0
  0
LINE
  8
DETAIL
  6
CONTINUOUS
 62
     5
 10
427.98087488799962
 20
-114.0000000000045
 30
0.0
 11
428.51355287199931
 21
-114.0000000000045
 31
0.0
  0
LINE
  8
DETAIL
  6
CONTINUOUS
 62
     5
 10
-490.06381456666531
 20
-120.215506931997
 30
0.0
 11
-491.13711191866508
 21
-120.215506931997
 31
0.0
  0
LINE
  8
DETAIL
  6
CONTINUOUS
 62
     5
 10
-433.79999999999927
 20
-134.9999999999973
 30
0.0
 11
-415.60000000010041
 21
-134.99999999977899
 31
0.0
  0
LINE
  8
DETAIL
  6
CONTINUOUS
 62
     5
 10
415.60000000010132
 20
-134.99999999977899
 30
0.0
 11
433.80000000000018
 21
-134.9999999999973
 31
0.0
  0
LINE
  8
BASIS
  6
DASHDOT
 62
     6
 10
501.27651730399879
 20
-165.50000000000449
 30
0.0
 11
-600.50111397999808
 21
-165.50000000000449
 31
0.0
  0
LINE
  8
BASIS
  6
DASHDOT
 62
     6
 10
0.0
 20
66.446724353331774
 30
0.0
 11
0.0
 21
-397.86666666667321
 31
0.0
  0
LINE
  8
DETAIL
  6
CONTINUOUS
 62
     5
 10
-413.89128468399582
 20
-118.80316920533819
 30
0.0
 11
-426.27215957333101
 21
-114.30103288266859
 31
0.0
  0
LINE
  8
DETAIL
  6
CONTINUOUS
 62
     5
 10
413.89128468400122
 20
-118.80316920533819
 30
0.0
 11
426.27215957333368
 21
-114.30103288266859
 31
0.0
  0
LINE
  8
DETAIL
  6
CONTINUOUS
 62
     5
 10
-444.59999999999951
 20
-325.55000000000018
 30
0.0
 11
-433.59999999999673
 21
-325.55000000000018
 31
0.0
  0
LINE
  8
DETAIL
  6
CONTINUOUS
 62
     5
 10
-433.59999999999673
 20
-326.00000000000449
 30
0.0
 11
-430.59999999999758
 21
-326.00000000000449
 31
0.0
  0
LINE
  8
DETAIL
  6
CONTINUOUS
 62
     5
 10
-444.09999999999758
 20
-326.14999999999873
 30
0.0
 11
-434.79999999999842
 21
-326.14999999999873
 31
0.0
  0
LINE
  8
DETAIL
  6
CONTINUOUS
 62
     5
 10
-444.09999999999758
 20
-326.75000000000449
 30
0.0
 11
-434.79999999999842
 21
-326.75000000000449
 31
0.0
  0
LINE
  8
DETAIL
  6
CONTINUOUS
 62
     5
 10
-430.59999999999758
 20
-328.05000000000018
 30
0.0
 11
-428.59999999999951
 21
-328.05000000000018
 31
0.0
  0
LINE
  8
DETAIL
  6
CONTINUOUS
 62
     5
 10
428.59999999999951
 20
-328.05000000000018
 30
0.0
 11
430.60000000000309
 21
-328.05000000000018
 31
0.0
  0
LINE
  8
DETAIL
  6
CONTINUOUS
 62
     5
 10
430.60000000000309
 20
-329.05000000000018
 30
0.0
 11
431.10000000000127
 21
-329.05000000000018
 31
0.0
  0
LINE
  8
DETAIL
  6
CONTINUOUS
 62
     5
 10
431.10000000000127
 20
-329.55000000000018
 30
0.0
 11
436.17499999999927
 21
-329.55000000000018
 31
0.0
  0
LINE
  8
DETAIL
  6
CONTINUOUS
 62
     5
 10
432.59999999999849
 20
-328.74999999998272
 30
0.0
 11
436.17499999998932
 21
-328.74999999998272
 31
0.0
  0
LINE
  8
DETAIL
  6
CONTINUOUS
 62
     5
 10
-431.09999999999951
 20
-330.05000000000018
 30
0.0
 11
-435.59999999999673
 21
-330.05000000000018
 31
0.0
  0
LINE
  8
DETAIL
  6
CONTINUOUS
 62
     5
 10
-428.59999999999951
 20
-330.05000000000018
 30
0.0
 11
-423.37999999999653
 21
-330.05000000000109
 31
0.0
  0
LINE
  8
DETAIL
  6
CONTINUOUS
 62
     5
 10
423.38000000000102
 20
-330.05000000000018
 30
0.0
 11
428.59999999999951
 21
-330.05000000000018
 31
0.0
  0
LINE
  8
DETAIL
  6
CONTINUOUS
 62
     5
 10
431.10000000000127
 20
-330.05000000000018
 30
0.0
 11
435.60000000000218
 21
-330.05000000000018
 31
0.0
  0
LINE
  8
DETAIL
  6
CONTINUOUS
 62
     5
 10
436.17499999999927
 20
-330.20000000000158
 30
0.0
 11
430.8330649386653
 21
-330.20000000000158
 31
0.0
  0
LINE
  8
DETAIL
  6
CONTINUOUS
 62
     5
 10
-436.24999999999909
 20
-330.20000000000158
 30
0.0
 11
-430.83306493866439
 21
-330.20000000000158
 31
0.0
  0
LINE
  8
DETAIL
  6
CONTINUOUS
 62
     5
 10
436.17499999998932
 20
-331.00000000000449
 30
0.0
 11
430.8330649386653
 21
-331.00000000000449
 31
0.0
  0
LINE
  8
DETAIL
  6
CONTINUOUS
 62
     5
 10
-436.24999999999909
 20
-331.00000000000449
 30
0.0
 11
-430.83306493866439
 21
-331.00000000000449
 31
0.0
  0
LINE
  8
DETAIL
  6
CONTINUOUS
 62
     5
 10
-428.09999999999758
 20
-331.00000000000449
 30
0.0
 11
428.10000000000309
 21
-331.00000000000449
 31
0.0
  0
LINE
  8
DETAIL
  6
CONTINUOUS
 62
     5
 10
-424.39999999999418
 20
0.0
 30
0.0
 11
-422.74999999998818
 21
-1.6500000000160071
 31
0.0
  0
LINE
  8
DETAIL
  6
CONTINUOUS
 62
     5
 10
-444.59999999999951
 20
-5.4500000000016371
 30
0.0
 11
-444.97978629999761
 21
-4.9855593746733584
 31
0.0
  0
LINE
  8
DETAIL
  6
CONTINUOUS
 62
     5
 10
424.39999999999418
 20
0.0
 30
0.0
 11
422.74999999998909
 21
-1.6500000000160071
 31
0.0
  0
LINE
  8
DETAIL
  6
CONTINUOUS
 62
     5
 10
241.0
 20
-252.81098884267161
 30
0.0
 11
241.0
 21
-188.18901115733931
 31
0.0
  0
LINE
  8
DETAIL
  6
CONTINUOUS
 62
     5
 10
-494.59999999999758
 20
-113.9180763693339
 30
0.0
 11
-493.04333105733173
 21
-118.8207577893309
 31
0.0
  0
LINE
  8
DETAIL
  6
CONTINUOUS
 62
     5
 10
429.10884350266952
 20
-328.05000000000018
 30
0.0
 11
429.23915342266542
 21
-329.53944918799698
 31
0.0
  0
LINE
  8
DETAIL
  6
CONTINUOUS
 62
     5
 10
429.91189937333462
 20
-328.05000000000018
 30
0.0
 11
430.0361091813329
 21
-329.46972459467088
 31
0.0
  0
LINE
  8
DETAIL
  6
CONTINUOUS
 62
     5
 10
409.00000000000182
 20
-188.18901115733931
 30
0.0
 11
409.00000000000182
 21
-252.81098884267161
 31
0.0
  0
LINE
  8
DETAIL
  6
CONTINUOUS
 62
     5
 10
410.60000000000127
 20
-130.00000000000449
 30
0.0
 11
410.60000000000218
 21
-123.502136322667
 31
0.0
  0
LINE
  8
DETAIL
  6
CONTINUOUS
 62
     5
 10
428.10000000000309
 20
-330.05000000000018
 30
0.0
 11
428.10000000000309
 21
-331.00000000000449
 31
0.0
  0
LINE
  8
DETAIL
  6
CONTINUOUS
 62
     5
 10
428.5
 20
-0.6500000000087312
 30
0.0
 11
428.5
 21
0.0
 31
0.0
  0
LINE
  8
DETAIL
  6
CONTINUOUS
 62
     5
 10
428.59999999999951
 20
-330.05000000000018
 30
0.0
 11
428.59999999999951
 21
-328.05000000000018
 31
0.0
  0
LINE
  8
DETAIL
  6
CONTINUOUS
 62
     5
 10
428.60000000000042
 20
-0.6500000000087312
 30
0.0
 11
428.60000000000042
 21
-2.6500000000087311
 31
0.0
  0
LINE
  8
DETAIL
  6
CONTINUOUS
 62
     5
 10
430.10000000000127
 20
-329.05000000000018
 30
0.0
 11
430.10000000000127
 21
-328.05000000000018
 31
0.0
  0
LINE
  8
DETAIL
  6
CONTINUOUS
 62
     5
 10
430.10000000000127
 20
-1.650000000001455
 30
0.0
 11
430.10000000000127
 21
-2.6500000000087311
 31
0.0
  0
LINE
  8
DETAIL
  6
CONTINUOUS
 62
     5
 10
430.60000000000309
 20
-329.05000000000018
 30
0.0
 11
430.60000000000309
 21
-1.650000000001455
 31
0.0
  0
LINE
  8
DETAIL
  6
CONTINUOUS
 62
     5
 10
431.10000000000127
 20
-329.05000000000018
 30
0.0
 11
431.10000000000127
 21
-134.9999999999973
 31
0.0
  0
LINE
  8
DETAIL
  6
CONTINUOUS
 62
     5
 10
431.10000000000218
 20
-88.923726158672252
 30
0.0
 11
431.10000000000218
 21
-1.650000000001455
 31
0.0
  0
LINE
  8
DETAIL
  6
CONTINUOUS
 62
     5
 10
433.80000000000018
 20
-134.9999999999973
 30
0.0
 11
433.80000000000018
 21
-91.399999999998727
 31
0.0
  0
LINE
  8
DETAIL
  6
CONTINUOUS
 62
     5
 10
435.60000000000218
 20
-0.6500000000087312
 30
0.0
 11
435.60000000000218
 21
-1.150000000001455
 31
0.0
  0
LINE
  8
DETAIL
  6
CONTINUOUS
 62
     5
 10
435.60000000000218
 20
-329.55000000000018
 30
0.0
 11
435.60000000000218
 21
-330.05000000000018
 31
0.0
  0
LINE
  8
DETAIL
  6
CONTINUOUS
 62
     5
 10
429.40998945466339
 20
-2.6500000000087311
 30
0.0
 11
429.56197088933368
 21
-0.9128442573419306
 31
0.0
  0
LINE
  8
DETAIL
  6
CONTINUOUS
 62
     5
 10
429.91189937333462
 20
-2.6500000000087311
 30
0.0
 11
430.06006823733242
 21
-0.9564221280015772
 31
0.0
  0
LINE
  8
DETAIL
  6
CONTINUOUS
 62
     5
 10
477.29999999999649
 20
-78.200000000001637
 30
0.0
 11
477.29999999999649
 21
-81.800000000000182
 31
0.0
  0
LINE
  8
DETAIL
  6
CONTINUOUS
 62
     5
 10
477.29999999999649
 20
-91.399999999998727
 30
0.0
 11
477.29999999999649
 21
-95.000000000004547
 31
0.0
  0
LINE
  8
DETAIL
  6
CONTINUOUS
 62
     5
 10
480.50000000000182
 20
-78.200000000001637
 30
0.0
 11
480.50000000000182
 21
-81.800000000000182
 31
0.0
  0
LINE
  8
DETAIL
  6
CONTINUOUS
 62
     5
 10
480.50000000000182
 20
-91.399999999998727
 30
0.0
 11
480.50000000000182
 21
-95.000000000004547
 31
0.0
  0
ARC
  8
DETAIL
  6
CONTINUOUS
 62
     5
 10
-410.09999999999951
 20
-47.640046220000841
 30
0.0
 40
55.099999999999874
 50
129.27384257795549
 51
180.0
  0
CIRCLE
  8
DETAIL
  6
CONTINUOUS
 62
     5
 10
-526.79999999999927
 20
-76.700000000008913
 30
0.0
 40
12.99999999999997
  0
ARC
  8
DETAIL
  6
CONTINUOUS
 62
     5
 10
-434.79999999999842
 20
-5.4500000000016371
 30
0.0
 40
1.1999999999999971
 50
0.0
 51
90.0
  0
ARC
  8
DETAIL
  6
CONTINUOUS
 62
     5
 10
-430.55816558666538
 20
-1.000000000007276
 30
0.0
 40
0.9999999999999976
 50
4.9999999999735039
 51
90.0
  0
ARC
  8
DETAIL
  6
CONTINUOUS
 62
     5
 10
-454.59999999999758
 20
-46.000000000004547
 30
0.0
 40
0.9999999999999976
 50
270.0
 51
0.0
  0
ARC
  8
DETAIL
  6
CONTINUOUS
 62
     5
 10
-452.59999999999951
 20
-46.000000000004547
 30
0.0
 40
0.9999999999999976
 50
90.0
 51
180.0
  0
ARC
  8
DETAIL
  6
CONTINUOUS
 62
     5
 10
-431.09999999999951
 20
-1.650000000001455
 30
0.0
 40
0.9999999999999976
 50
0.0
 51
90.0
  0
ARC
  8
DETAIL
  6
CONTINUOUS
 62
     5
 10
-434.79999999999842
 20
-5.4500000000016371
 30
0.0
 40
0.5999999999999987
 50
0.0
 51
90.0
  0
ARC
  8
DETAIL
  6
CONTINUOUS
 62
     5
 10
-444.09999999999758
 20
-4.8500000000030923
 30
0.0
 40
0.5999999999999987
 50
90.0
 51
270.0
  0
ARC
  8
DETAIL
  6
CONTINUOUS
 62
     5
 10
-431.09999999999951
 20
-1.650000000001455
 30
0.0
 40
0.4999999999999988
 50
0.0
 51
90.0
  0
ARC
  8
DETAIL
  6
CONTINUOUS
 62
     5
 10
-430.55816558666538
 20
-1.000000000007276
 30
0.0
 40
0.4999999999999988
 50
4.9999999999215916
 51
90.0
  0
CIRCLE
  8
DETAIL
  6
CONTINUOUS
 62
     5
 10
-526.79999999999927
 20
-103.70000000000159
 30
0.0
 40
12.99999999999997
  0
CIRCLE
  8
DETAIL
  6
CONTINUOUS
 62
     5
 10
-419.59999999999951
 20
-126.0000000000045
 30
0.0
 40
6.9999999999999831
  0
ARC
  8
DETAIL
  6
CONTINUOUS
 62
     5
 10
-474.099999999994
 20
-81.800000000000182
 30
0.0
 40
6.3999999999999826
 50
180.0
 51
228.6564551520641
  0
ARC
  8
DETAIL
  6
CONTINUOUS
 62
     5
 10
-474.099999999994
 20
-91.399999999998727
 30
0.0
 40
6.3999999999999826
 50
90.0
 51
180.0
  0
ARC
  8
DETAIL
  6
CONTINUOUS
 62
     5
 10
-436.99999999999642
 20
-91.399999999998727
 30
0.0
 40
6.3999999999999826
 50
0.0
 51
90.0
  0
ARC
  8
DETAIL
  6
CONTINUOUS
 62
     5
 10
-415.59999999999849
 20
-123.502136322667
 30
0.0
 40
4.9999999999999876
 50
0.0
 51
70.016893478078885
  0
ARC
  8
DETAIL
  6
CONTINUOUS
 62
     5
 10
-427.98087488799871
 20
-119.0000000000045
 30
0.0
 40
4.9999999999999876
 50
70.016893478078885
 51
90.0
  0
CIRCLE
  8
DETAIL
  6
CONTINUOUS
 62
     5
 10
-405.09999999999758
 20
-114.0000000000045
 30
0.0
 40
4.6999999999999869
  0
ARC
  8
DETAIL
  6
CONTINUOUS
 62
     5
 10
-474.099999999994
 20
-91.399999999998727
 30
0.0
 40
3.1999999999999909
 50
90.0
 51
180.0
  0
ARC
  8
DETAIL
  6
CONTINUOUS
 62
     5
 10
-436.99999999999642
 20
-91.399999999998727
 30
0.0
 40
3.1999999999999909
 50
0.0
 51
90.0
  0
ARC
  8
DETAIL
  6
CONTINUOUS
 62
     5
 10
-474.099999999994
 20
-81.800000000000182
 30
0.0
 40
3.1999999999999909
 50
180.0
 51
270.0
  0
CIRCLE
  8
DETAIL
  6
CONTINUOUS
 62
     5
 10
-490.59999999999582
 20
-113.2155069320042
 30
0.0
 40
2.699999999999994
  0
ARC
  8
DETAIL
  6
CONTINUOUS
 62
     5
 10
-491.13711191866508
 20
-118.2155069320042
 30
0.0
 40
1.9999999999999949
 50
197.61536088907039
 51
270.0
  0
ARC
  8
DETAIL
  6
CONTINUOUS
 62
     5
 10
-490.06381456666531
 20
-118.2155069320042
 30
0.0
 40
1.9999999999999949
 50
270.0
 51
342.38346499349592
  0
ARC
  8
DETAIL
  6
CONTINUOUS
 62
     5
 10
430.5581655866672
 20
-1.000000000007276
 30
0.0
 40
0.9999999999999976
 50
90.0
 51
174.99999999997729
  0
ARC
  8
DETAIL
  6
CONTINUOUS
 62
     5
 10
431.10000000000218
 20
-1.650000000001455
 30
0.0
 40
0.9999999999999976
 50
90.000000000052125
 51
180.0
  0
ARC
  8
DETAIL
  6
CONTINUOUS
 62
     5
 10
431.10000000000218
 20
-1.650000000001455
 30
0.0
 40
0.4999999999999988
 50
90.0
 51
180.0
  0
ARC
  8
DETAIL
  6
CONTINUOUS
 62
     5
 10
430.5581655866672
 20
-1.000000000007276
 30
0.0
 40
0.4999999999999988
 50
90.0
 51
175.00000000007839
  0
CIRCLE
  8
DETAIL
  6
CONTINUOUS
 62
     5
 10
419.59999999999758
 20
-126.0000000000045
 30
0.0
 40
6.9999999999999831
  0
ARC
  8
DETAIL
  6
CONTINUOUS
 62
     5
 10
474.09999999999951
 20
-81.800000000000182
 30
0.0
 40
6.3999999999999826
 50
311.34354484793579
 51
0.0
  0
ARC
  8
DETAIL
  6
CONTINUOUS
 62
     5
 10
474.09999999999951
 20
-91.399999999998727
 30
0.0
 40
6.3999999999999826
 50
0.0
 51
90.0
  0
ARC
  8
DETAIL
  6
CONTINUOUS
 62
     5
 10
437.0
 20
-91.399999999998727
 30
0.0
 40
6.3999999999999826
 50
90.0
 51
180.0
  0
ARC
  8
DETAIL
  6
CONTINUOUS
 62
     5
 10
427.98087488799962
 20
-119.0000000000045
 30
0.0
 40
4.9999999999999876
 50
90.0
 51
109.9831065219211
  0
ARC
  8
DETAIL
  6
CONTINUOUS
 62
     5
 10
415.600000000004
 20
-123.502136322667
 30
0.0
 40
4.9999999999999876
 50
109.9831065219211
 51
180.0
  0
CIRCLE
  8
DETAIL
  6
CONTINUOUS
 62
     5
 10
405.09999999999849
 20
-114.0000000000045
 30
0.0
 40
4.6999999999999869
  0
ARC
  8
DETAIL
  6
CONTINUOUS
 62
     5
 10
474.09999999999951
 20
-91.399999999998727
 30
0.0
 40
3.1999999999999909
 50
0.0
 51
90.0
  0
ARC
  8
DETAIL
  6
CONTINUOUS
 62
     5
 10
437.0
 20
-91.399999999998727
 30
0.0
 40
3.1999999999999909
 50
90.0
 51
180.0
  0
ARC
  8
DETAIL
  6
CONTINUOUS
 62
     5
 10
474.09999999999951
 20
-81.800000000000182
 30
0.0
 40
3.1999999999999909
 50
270.0
 51
0.0
  0
ARC
  8
DETAIL
  6
CONTINUOUS
 62
     5
 10
-325.0
 20
-220.50000000000909
 30
0.0
 40
89.999999999999773
 50
201.03946978130301
 51
338.96053021869699
  0
ARC
  8
DETAIL
  6
CONTINUOUS
 62
     5
 10
-325.0
 20
-220.50000000000909
 30
0.0
 40
89.999999999999773
 50
21.039469781302959
 51
158.96053021869699
  0
CIRCLE
  8
DETAIL
  6
CONTINUOUS
 62
     5
 10
-325.0
 20
-220.50000000000909
 30
0.0
 40
79.999999999999787
  0
CIRCLE
  8
DETAIL
  6
CONTINUOUS
 62
     5
 10
-325.0
 20
-220.50000000000909
 30
0.0
 40
70.999999999999815
  0
CIRCLE
  8
DETAIL
  6
CONTINUOUS
 62
     5
 10
-325.0
 20
-220.50000000000909
 30
0.0
 40
70.399999999999807
  0
ARC
  8
DETAIL
  6
CONTINUOUS
 62
     5
 10
-408.52289603259578
 20
-282.71728503159579
 30
0.0
 40
56.60171316219548
 50
216.1483943250455
 51
229.90209146585761
  0
ARC
  8
DETAIL
  6
CONTINUOUS
 62
     5
 10
-430.83306493866439
 20
-329.39999999999873
 30
0.0
 40
1.5999999999999961
 50
270.0
 51
355.00000000002649
  0
ARC
  8
DETAIL
  6
CONTINUOUS
 62
     5
 10
-434.79999999999842
 20
-325.55000000000018
 30
0.0
 40
1.1999999999999971
 50
270.0
 51
0.0
  0
ARC
  8
DETAIL
  6
CONTINUOUS
 62
     5
 10
-431.09999999999951
 20
-329.05000000000018
 30
0.0
 40
0.9999999999999976
 50
270.00000000010431
 51
0.0
  0
ARC
  8
DETAIL
  6
CONTINUOUS
 62
     5
 10
-430.83306493866439
 20
-329.39999999999873
 30
0.0
 40
0.7999999999999981
 50
270.0
 51
355.00000000002649
  0
ARC
  8
DETAIL
  6
CONTINUOUS
 62
     5
 10
-434.79999999999842
 20
-325.55000000000018
 30
0.0
 40
0.5999999999999987
 50
270.0
 51
0.0
  0
ARC
  8
DETAIL
  6
CONTINUOUS
 62
     5
 10
-444.09999999999758
 20
-326.14999999999873
 30
0.0
 40
0.5999999999999987
 50
90.0
 51
270.0
  0
ARC
  8
DETAIL
  6
CONTINUOUS
 62
     5
 10
-431.09999999999951
 20
-329.05000000000018
 30
0.0
 40
0.4999999999999988
 50
270.0
 51
0.0
  0
ARC
  8
DETAIL
  6
CONTINUOUS
 62
     5
 10
324.99999999999733
 20
-220.50000000000909
 30
0.0
 40
89.999999999999773
 50
201.03946978130301
 51
338.96053021869699
  0
ARC
  8
DETAIL
  6
CONTINUOUS
 62
     5
 10
324.99999999999733
 20
-220.50000000000909
 30
0.0
 40
89.999999999999773
 50
21.039469781302959
 51
158.96053021869699
  0
CIRCLE
  8
DETAIL
  6
CONTINUOUS
 62
     5
 10
324.99999999999733
 20
-220.50000000000909
 30
0.0
 40
79.999999999999787
  0
CIRCLE
  8
DETAIL
  6
CONTINUOUS
 62
     5
 10
324.99999999999733
 20
-220.50000000000909
 30
0.0
 40
70.999999999999815
  0
ARC
  8
DETAIL
  6
CONTINUOUS
 62
     5
 10
430.8330649386653
 20
-329.39999999999873
 30
0.0
 40
1.5999999999999961
 50
184.99999999997351
 51
270.0
  0
ARC
  8
DETAIL
  6
CONTINUOUS
 62
     5
 10
431.10000000000127
 20
-329.05000000000018
 30
0.0
 40
0.9999999999999976
 50
180.0
 51
269.99999999989569
  0
ARC
  8
DETAIL
  6
CONTINUOUS
 62
     5
 10
430.8330649386653
 20
-329.39999999999873
 30
0.0
 40
0.7999999999999981
 50
184.99999999997351
 51
270.0
  0
ARC
  8
DETAIL
  6
CONTINUOUS
 62
     5
 10
431.10000000000127
 20
-329.05000000000018
 30
0.0
 40
0.4999999999999988
 50
180.0
 51
270.0
  0
LINE
  8
DETAIL
  6
CONTINUOUS
 62
     5
 10
-428.51355287200022
 20
-114.0000000000045
 30
0.0
 11
-428.85357220694323
 21
-113.99636278759728
 31
0.0
  0
LINE
  8
DETAIL
  6
CONTINUOUS
 62
     5
 10
-428.85357220694323
 20
-113.99636278759728
 30
0.0
 11
-429.19313175397843
 21
-113.97963473106012
 31
0.0
  0
LINE
  8
DETAIL
  6
CONTINUOUS
 62
     5
 10
-429.19313175397843
 20
-113.97963473106012
 30
0.0
 11
-429.53047970401661
 21
-113.93681783700733
 31
0.0
  0
LINE
  8
DETAIL
  6
CONTINUOUS
 62
     5
 10
-429.53047970401661
 20
-113.93681783700733
 30
0.0
 11
-429.85929710564807
 21
-113.84554128644199
 31
0.0
  0
LINE
  8
DETAIL
  6
CONTINUOUS
 62
     5
 10
-429.85929710564807
 20
-113.84554128644199
 30
0.0
 11
-430.15030628782512
 21
-113.66945829373803
 31
0.0
  0
LINE
  8
DETAIL
  6
CONTINUOUS
 62
     5
 10
-430.15030628782512
 20
-113.66945829373803
 30
0.0
 11
-430.36470726470526
 21
-113.40679214112576
 31
0.0
  0
LINE
  8
DETAIL
  6
CONTINUOUS
 62
     5
 10
-430.36470726470526
 20
-113.40679214112576
 30
0.0
 11
-430.48934163169184
 21
-113.09168784317694
 31
0.0
  0
LINE
  8
DETAIL
  6
CONTINUOUS
 62
     5
 10
-430.48934163169184
 20
-113.09168784317694
 30
0.0
 11
-430.55136157460748
 21
-112.74940863246987
 31
0.0
  0
LINE
  8
DETAIL
  6
CONTINUOUS
 62
     5
 10
-430.55136157460748
 20
-112.74940863246987
 30
0.0
 11
-430.58086245811916
 21
-112.4034198256375
 31
0.0
  0
LINE
  8
DETAIL
  6
CONTINUOUS
 62
     5
 10
-430.58086245811916
 20
-112.4034198256375
 30
0.0
 11
-430.59490004520785
 21
-112.06295872138325
 31
0.0
  0
LINE
  8
DETAIL
  6
CONTINUOUS
 62
     5
 10
-430.59490004520785
 20
-112.06295872138325
 30
0.0
 11
-430.59939464817495
 21
-111.72511229390257
 31
0.0
  0
LINE
  8
DETAIL
  6
CONTINUOUS
 62
     5
 10
-430.59939464817495
 20
-111.72511229390257
 30
0.0
 11
-430.59990884666689
 21
-111.3865771813407
 31
0.0
  0
LINE
  8
DETAIL
  6
CONTINUOUS
 62
     5
 10
428.5135528719984
 20
-114.0000000000045
 30
0.0
 11
428.85357220694345
 21
-113.99636278759728
 31
0.0
  0
LINE
  8
DETAIL
  6
CONTINUOUS
 62
     5
 10
428.85357220694345
 20
-113.99636278759728
 30
0.0
 11
429.19313175398241
 21
-113.97963473106012
 31
0.0
  0
LINE
  8
DETAIL
  6
CONTINUOUS
 62
     5
 10
429.19313175398241
 20
-113.97963473106012
 30
0.0
 11
429.5304797040198
 21
-113.93681783700733
 31
0.0
  0
LINE
  8
DETAIL
  6
CONTINUOUS
 62
     5
 10
429.5304797040198
 20
-113.93681783700733
 30
0.0
 11
429.8592971056467
 21
-113.84554128644476
 31
0.0
  0
LINE
  8
DETAIL
  6
CONTINUOUS
 62
     5
 10
429.8592971056467
 20
-113.84554128644476
 30
0.0
 11
430.1503062877938
 21
-113.66945829376924
 31
0.0
  0
LINE
  8
DETAIL
  6
CONTINUOUS
 62
     5
 10
430.1503062877938
 20
-113.66945829376924
 30
0.0
 11
430.36470726464444
 21
-113.40679214120581
 31
0.0
  0
LINE
  8
DETAIL
  6
CONTINUOUS
 62
     5
 10
430.36470726464444
 20
-113.40679214120581
 30
0.0
 11
430.48934163164392
 21
-113.09168784329559
 31
0.0
  0
LINE
  8
DETAIL
  6
CONTINUOUS
 62
     5
 10
430.48934163164392
 20
-113.09168784329559
 30
0.0
 11
430.55136157458708
 21
-112.7494086326079
 31
0.0
  0
LINE
  8
DETAIL
  6
CONTINUOUS
 62
     5
 10
430.55136157458708
 20
-112.7494086326079
 30
0.0
 11
430.58086245811131
 21
-112.40341982577361
 31
0.0
  0
LINE
  8
DETAIL
  6
CONTINUOUS
 62
     5
 10
430.58086245811131
 20
-112.40341982577361
 30
0.0
 11
430.59490004520552
 21
-112.06295872150712
 31
0.0
  0
LINE
  8
DETAIL
  6
CONTINUOUS
 62
     5
 10
430.59490004520552
 20
-112.06295872150712
 30
0.0
 11
430.59939464817359
 21
-111.72511229398758
 31
0.0
  0
LINE
  8
DETAIL
  6
CONTINUOUS
 62
     5
 10
430.59939464817359
 20
-111.72511229398758
 30
0.0
 11
430.59990884666331
 21
-111.3865771813407
 31
0.0
  0
CIRCLE
  8
DETAIL
  6
CONTINUOUS
 62
     5
 10
385.81118318133213
 20
-281.31118318266999
 30
0.0
 40
4.6999999999999869
  0
CIRCLE
  8
DETAIL
  6
CONTINUOUS
 62
     5
 10
385.81118318133213
 20
-159.68881681733359
 30
0.0
 40
4.6999999999999869
  0
CIRCLE
  8
DETAIL
  6
CONTINUOUS
 62
     5
 10
264.18881681733183
 20
-159.68881681733359
 30
0.0
 40
4.6999999999999869
  0
CIRCLE
  8
DETAIL
  6
CONTINUOUS
 62
     5
 10
264.18881681733183
 20
-281.31118318266999
 30
0.0
 40
4.6999999999999869
  0
ARC
  8
DETAIL
  6
CONTINUOUS
 62
     5
 10
415.60000000010132
 20
-129.99999999990999
 30
0.0
 40
4.999999999875353
 50
180.0
 51
270.0
  0
ARC
  8
DETAIL
  6
CONTINUOUS
 62
     5
 10
-415.60000000010041
 20
-129.99999999990999
 30
0.0
 40
4.999999999875353
 50
270.0
 51
0.0
  0
CIRCLE
  8
DETAIL
  6
CONTINUOUS
 62
     5
 10
-264.18881684266489
 20
-281.31118315866661
 30
0.0
 40
4.6999999999999869
  0
CIRCLE
  8
DETAIL
  6
CONTINUOUS
 62
     5
 10
-385.8111832066661
 20
-281.31118315866661
 30
0.0
 40
4.6999999999999869
  0
CIRCLE
  8
DETAIL
  6
CONTINUOUS
 62
     5
 10
-385.8111832066661
 20
-159.68881679333751
 30
0.0
 40
4.6999999999999869
  0
CIRCLE
  8
DETAIL
  6
CONTINUOUS
 62
     5
 10
-264.18881684266489
 20
-159.68881679333751
 30
0.0
 40
4.6999999999999869
  0
LINE
  8
BASIS
  6
DASHDOT
 62
     6
 10
324.99999999988449
 20
-346.56473271225877
 30
0.0
 11
325.00000000009368
 21
-106.1870586921814
 31
0.0
  0
LINE
  8
BASIS
  6
DASHDOT
 62
     6
 10
458.57715359247499
 20
-220.50000000069389
 30
0.0
 11
-458.57715359247499
 21
-220.49999999988631
 31
0.0
  0
LINE
  8
BASIS
  6
DASHDOT
 62
     6
 10
-325.00000000010459
 20
-337.89912639030263
 30
0.0
 11
-324.99999999989541
 21
-94.416258045837822
 31
0.0
  0
LINE
  8
DETAIL
  6
CONTINUOUS
 62
     5
 10
-546.79999999999927
 20
-55.700000000001637
 30
0.0
 11
-546.79999999999927
 21
-314.900000000006
 31
0.0
  0
LINE
  8
DETAIL
  6
CONTINUOUS
 62
     5
 10
-546.19999999999618
 20
-55.700000000001637
 30
0.0
 11
-546.19999999999618
 21
-314.900000000006
 31
0.0
  0
LINE
  8
DETAIL
  6
CONTINUOUS
 62
     5
 10
-545.59999999999764
 20
-54.500000000004547
 30
0.0
 11
-545.59999999999764
 21
-55.352055014668622
 31
0.0
  0
LINE
  8
DETAIL
  6
CONTINUOUS
 62
     5
 10
-545.59999999999764
 20
-315.24794498667052
 30
0.0
 11
-545.59999999999764
 21
-316.10000000000309
 31
0.0
  0
LINE
  8
DETAIL
  6
CONTINUOUS
 62
     5
 10
-435.89999999999958
 20
-315.49562532400608
 30
0.0
 11
-435.89999999999958
 21
-314.900000000006
 31
0.0
  0
LINE
  8
DETAIL
  6
CONTINUOUS
 62
     5
 10
-435.89999999999958
 20
-55.700000000001637
 30
0.0
 11
-435.89999999999958
 21
-54.500000000004547
 31
0.0
  0
LINE
  8
DETAIL
  6
CONTINUOUS
 62
     5
 10
-435.89999999999958
 20
-315.50000000000449
 30
0.0
 11
-435.89999999999958
 21
-316.10000000000309
 31
0.0
  0
LINE
  8
DETAIL
  6
CONTINUOUS
 62
     5
 10
-431.39999999999958
 20
-55.700000000001637
 30
0.0
 11
-431.39999999999958
 21
-56.416399298676879
 31
0.0
  0
LINE
  8
DETAIL
  6
CONTINUOUS
 62
     5
 10
-431.39999999999958
 20
-314.18360070266948
 30
0.0
 11
-431.39999999999958
 21
-314.900000000006
 31
0.0
  0
LINE
  8
DETAIL
  6
CONTINUOUS
 62
     5
 10
-545.59999999999764
 20
-54.500000000004547
 30
0.0
 11
-435.89999999999958
 21
-54.500000000004547
 31
0.0
  0
LINE
  8
DETAIL
  6
CONTINUOUS
 62
     5
 10
-435.89999999999958
 20
-55.100000000003092
 30
0.0
 11
-545.59999999999764
 21
-55.100000000003092
 31
0.0
  0
LINE
  8
DETAIL
  6
CONTINUOUS
 62
     5
 10
-546.79999999999927
 20
-55.700000000001637
 30
0.0
 11
-545.94794305733012
 21
-55.700000000001637
 31
0.0
  0
LINE
  8
DETAIL
  6
CONTINUOUS
 62
     5
 10
-435.89999999999958
 20
-55.700000000001637
 30
0.0
 11
-431.39999999999958
 21
-55.700000000001637
 31
0.0
  0
LINE
  8
DETAIL
  6
CONTINUOUS
 62
     5
 10
-546.79999999999927
 20
-314.900000000006
 30
0.0
 11
-545.94794305733103
 21
-314.900000000006
 31
0.0
  0
LINE
  8
DETAIL
  6
CONTINUOUS
 62
     5
 10
-435.89999999999958
 20
-314.900000000006
 30
0.0
 11
-431.39999999999958
 21
-314.900000000006
 31
0.0
  0
LINE
  8
DETAIL
  6
CONTINUOUS
 62
     5
 10
-545.59999999999764
 20
-315.50000000000449
 30
0.0
 11
-435.89999999999958
 21
-315.50000000000449
 31
0.0
  0
LINE
  8
DETAIL
  6
CONTINUOUS
 62
     5
 10
-545.59999999999764
 20
-316.10000000000309
 30
0.0
 11
-435.89999999999958
 21
-316.10000000000309
 31
0.0
  0
ARC
  8
DETAIL
  6
CONTINUOUS
 62
     5
 10
-544.79999999999654
 20
-56.500000000004547
 30
0.0
 40
1.399999999999997
 50
90.0
 51
180.0
  0
CIRCLE
  8
DETAIL
  6
CONTINUOUS
 62
     5
 10
-520.79999999999745
 20
-274.39999999999873
 30
0.0
 40
12.99999999999997
  0
ARC
  8
DETAIL
  6
CONTINUOUS
 62
     5
 10
-544.79999999999654
 20
-314.10000000000309
 30
0.0
 40
1.399999999999997
 50
180.0
 51
270.0
  0
ARC
  8
DETAIL
  6
CONTINUOUS
 62
     5
 10
436.17499999998932
 20
-329.87499999999733
 30
0.0
 40
1.1250000000097859
 50
270.0
 51
90.0
  0
ARC
  8
DETAIL
  6
CONTINUOUS
 62
     5
 10
436.17499999999927
 20
-329.87500000000449
 30
0.0
 40
0.3249999999997037
 50
270.0
 51
90.0
  0
LINE
  8
DETAIL
  6
CONTINUOUS
 62
     5
 10
432.59999999999849
 20
-329.55000000000018
 30
0.0
 11
432.59999999999849
 21
-328.74999999998272
 31
0.0
  0
LINE
  8
DETAIL
  6
CONTINUOUS
 62
     5
 10
-432.599999999994
 20
-328.74999999999
 30
0.0
 11
-436.17499999998472
 21
-328.74999999999
 31
0.0
  0
ARC
  8
DETAIL
  6
CONTINUOUS
 62
     5
 10
-436.17499999998472
 20
-329.87499999999733
 30
0.0
 40
1.1250000000097859
 50
90.0
 51
270.0
  0
ARC
  8
DETAIL
  6
CONTINUOUS
 62
     5
 10
-436.17499999999382
 20
-329.87500000000449
 30
0.0
 40
0.3249999999997037
 50
90.0
 51
270.0
  0
LINE
  8
DETAIL
  6
CONTINUOUS
 62
     5
 10
-432.599999999994
 20
-329.55000000000751
 30
0.0
 11
-432.599999999994
 21
-328.74999999999
 31
0.0
  0
LINE
  8
DETAIL
  6
CONTINUOUS
 62
     5
 10
-431.09999999999951
 20
-329.55000000000018
 30
0.0
 11
-436.17499999999382
 21
-329.55000000000751
 31
0.0
  0
LINE
  8
DETAIL
  6
CONTINUOUS
 62
     5
 10
-432.59999999999758
 20
-1.150000000001455
 30
0.0
 11
-432.59999999999758
 21
-1.6500000000160071
 31
0.0
  0
ARC
  8
DETAIL
  6
CONTINUOUS
 62
     5
 10
-436.17499999999927
 20
-0.8250000000043656
 30
0.0
 40
0.3249999999990287
 50
90.0
 51
270.0
  0
ARC
  8
DETAIL
  6
CONTINUOUS
 62
     5
 10
-436.17499999998932
 20
-0.8250000000116415
 30
0.0
 40
0.8250000000070016
 50
90.0
 51
270.0
  0
LINE
  8
DETAIL
  6
CONTINUOUS
 62
     5
 10
-422.74999999998818
 20
-1.6500000000160071
 30
0.0
 11
422.74999999998909
 21
-1.6500000000160071
 31
0.0
  0
LINE
  8
DETAIL
  6
CONTINUOUS
 62
     5
 10
432.59999999999849
 20
-1.6500000000160071
 30
0.0
 11
436.17499999999018
 21
-1.6500000000160071
 31
0.0
  0
LINE
  8
DETAIL
  6
CONTINUOUS
 62
     5
 10
432.59999999999849
 20
-1.150000000001455
 30
0.0
 11
432.59999999999849
 21
-1.6500000000160071
 31
0.0
  0
ARC
  8
DETAIL
  6
CONTINUOUS
 62
     5
 10
436.17500000000018
 20
-0.8250000000043656
 30
0.0
 40
0.3249999999990287
 50
270.0
 51
90.0
  0
ARC
  8
DETAIL
  6
CONTINUOUS
 62
     5
 10
436.17499999999018
 20
-0.8250000000116415
 30
0.0
 40
0.8250000000070016
 50
270.0
 51
90.0
  0
LINE
  8
DETAIL
  6
CONTINUOUS
 62
     5
 10
-422.07999999998168
 20
-328.74999999999
 30
0.0
 11
422.07999999998538
 21
-328.74999999999
 31
0.0
  0
LINE
  8
SIZE
  6
CONTINUOUS
 62
    30
 10
-324.99999999989541
 20
-74.416258045837822
 30
0.0
 11
-324.99999999989541
 21
141.52809881270599
 31
0.0
  0
LINE
  8
SIZE
  6
CONTINUOUS
 62
    30
 10
325.00000000009368
 20
-86.187058692181381
 30
0.0
 11
325.00000000009368
 21
141.52809881270599
 31
0.0
  0
LINE
  8
SIZE
  6
CONTINUOUS
 62
    30
 10
-312.99999999989541
 20
121.52809881270601
 30
0.0
 11
313.00000000009368
 21
121.52809881270601
 31
0.0
  0
CIRCLE
  8
SIZE
  6
CONTINUOUS
 62
    30
 10
-324.99999999989541
 20
121.52809881270601
 30
0.0
 40
6.0
  0
LINE
  8
SIZE
  6
CONTINUOUS
 62
    30
 10
-324.99999999989541
 20
121.52809881270601
 30
0.0
 11
-312.99999999989541
 21
121.52809881270601
 31
0.0
  0
CIRCLE
  8
SIZE
  6
CONTINUOUS
 62
    30
 10
325.00000000009368
 20
121.52809881270601
 30
0.0
 40
6.0
  0
LINE
  8
SIZE
  6
CONTINUOUS
 62
    30
 10
325.00000000009368
 20
121.52809881270601
 30
0.0
 11
313.00000000009368
 21
121.52809881270601
 31
0.0
  0
TEXT
  8
SIZE
  6
CONTINUOUS
 62
    30
 10
-80.927999999900862
 20
146.52809881270599
 30
0.0
 40
64.0
  1
650
 50
0.0
 41
0.9
 51
0.0
  7
STANDARD
 71
     0
 72
     1
 11
0.0000000000991349
 21
146.52809881270599
 31
0.0
210
0.0
220
0.0
230
1.0
  0
POINT
  8
DEFPOINTS
  6
CONTINUOUS
 62
    30
 10
-324.99999999989541
 20
-94.416258045837822
 30
0.0
  0
POINT
  8
DEFPOINTS
  6
CONTINUOUS
 62
    30
 10
325.00000000009368
 20
-106.1870586921814
 30
0.0
  0
POINT
  8
DEFPOINTS
  6
CONTINUOUS
 62
    30
 10
325.00000000009368
 20
121.52809881270601
 30
0.0
  0
LINE
  8
SIZE
  6
CONTINUOUS
 62
    30
 10
-436.99999999999642
 20
19.174999999988358
 30
0.0
 11
-436.99999999999642
 21
265.16906197992012
 31
0.0
  0
LINE
  8
SIZE
  6
CONTINUOUS
 62
    30
 10
436.99999999999642
 20
19.174999999988358
 30
0.0
 11
436.99999999999642
 21
265.16906197992012
 31
0.0
  0
LINE
  8
SIZE
  6
CONTINUOUS
 62
    30
 10
-424.99999999999642
 20
245.16906197992009
 30
0.0
 11
424.99999999999642
 21
245.16906197992009
 31
0.0
  0
CIRCLE
  8
SIZE
  6
CONTINUOUS
 62
    30
 10
-436.99999999999642
 20
245.16906197992009
 30
0.0
 40
6.0
  0
LINE
  8
SIZE
  6
CONTINUOUS
 62
    30
 10
-436.99999999999642
 20
245.16906197992009
 30
0.0
 11
-424.99999999999642
 21
245.16906197992009
 31
0.0
  0
CIRCLE
  8
SIZE
  6
CONTINUOUS
 62
    30
 10
436.99999999999642
 20
245.16906197992009
 30
0.0
 40
6.0
  0
LINE
  8
SIZE
  6
CONTINUOUS
 62
    30
 10
436.99999999999642
 20
245.16906197992009
 30
0.0
 11
424.99999999999642
 21
245.16906197992009
 31
0.0
  0
TEXT
  8
SIZE
  6
CONTINUOUS
 62
    30
 10
-80.927999999999997
 20
270.16906197992012
 30
0.0
 40
64.0
  1
874
 50
0.0
 41
0.9
 51
0.0
  7
STANDARD
 71
     0
 72
     1
 11
0.0
 21
270.16906197992012
 31
0.0
210
0.0
220
0.0
230
1.0
  0
POINT
  8
DEFPOINTS
  6
CONTINUOUS
 62
    30
 10
-436.99999999999642
 20
-0.8250000000116415
 30
0.0
  0
POINT
  8
DEFPOINTS
  6
CONTINUOUS
 62
    30
 10
436.99999999999642
 20
-0.8250000000116415
 30
0.0
  0
POINT
  8
DEFPOINTS
  6
CONTINUOUS
 62
    30
 10
436.99999999999642
 20
245.16906197992009
 30
0.0
  0
LINE
  8
DETAIL
  6
CONTINUOUS
 62
     5
 10
-431.40000167932789
 20
-314.18360145128548
 30
0.0
 11
-430.59999999999758
 21
-314.18360145128548
 31
0.0
  0
LINE
  8
DETAIL
  6
CONTINUOUS
 62
     5
 10
-431.39999932934728
 20
-56.416400110564609
 30
0.0
 11
-430.59999765001697
 21
-56.416400110564609
 31
0.0
  0
LINE
  8
SIZE
  6
CONTINUOUS
 62
    30
 10
-456.1749999999895
 20
-0.0000000000000032
 30
0.0
 11
-850.11523286380134
 21
-0.0000000000000666
 31
0.0
  0
LINE
  8
SIZE
  6
CONTINUOUS
 62
    30
 10
-456.17499999998489
 20
-331.00000000000739
 30
0.0
 11
-850.11523286380122
 21
-331.00000000000739
 31
0.0
  0
LINE
  8
SIZE
  6
CONTINUOUS
 62
    30
 10
-830.11523286380134
 20
-12.000000000000069
 30
0.0
 11
-830.11523286380122
 21
-319.00000000000739
 31
0.0
  0
CIRCLE
  8
SIZE
  6
CONTINUOUS
 62
    30
 10
-830.11523286380134
 20
-0.0000000000000634
 30
0.0
 40
6.0
  0
LINE
  8
SIZE
  6
CONTINUOUS
 62
    30
 10
-830.11523286380134
 20
-0.0000000000000634
 30
0.0
 11
-830.11523286380134
 21
-12.000000000000064
 31
0.0
  0
CIRCLE
  8
SIZE
  6
CONTINUOUS
 62
    30
 10
-830.11523286380122
 20
-331.00000000000739
 30
0.0
 40
6.0
  0
LINE
  8
SIZE
  6
CONTINUOUS
 62
    30
 10
-830.11523286380122
 20
-331.00000000000739
 30
0.0
 11
-830.11523286380122
 21
-319.00000000000739
 31
0.0
  0
TEXT
  8
SIZE
  6
CONTINUOUS
 62
    30
 10
-855.11523286380111
 20
-240.09200000000348
 30
0.0
 40
64.0
  1
331
 50
90.0
 41
0.9
 51
0.0
  7
STANDARD
 71
     0
 72
     1
 11
-855.11523286380111
 21
-165.5000000000035
 31
0.0
210
0.0
220
0.0
230
1.0
  0
POINT
  8
DEFPOINTS
  6
CONTINUOUS
 62
    30
 10
-436.1749999999895
 20
0.0
 30
0.0
  0
POINT
  8
DEFPOINTS
  6
CONTINUOUS
 62
    30
 10
-436.17499999998489
 20
-331.00000000000739
 30
0.0
  0
POINT
  8
DEFPOINTS
  6
CONTINUOUS
 62
    30
 10
-830.11523286380122
 20
-331.00000000000739
 30
0.0
  0
LINE
  8
SIZE
  6
CONTINUOUS
 62
    30
 10
-456.1749999999895
 20
-0.0000000000000032
 30
0.0
 11
-714.84995138193165
 21
-0.0000000000000448
 31
0.0
  0
LINE
  8
SIZE
  6
CONTINUOUS
 62
    30
 10
-531.43427874225949
 20
-84.999999999998778
 30
0.0
 11
-714.84995138193165
 21
-84.999999999998806
 31
0.0
  0
LINE
  8
SIZE
  6
CONTINUOUS
 62
    30
 10
-694.84995138193165
 20
-72.999999999998806
 30
0.0
 11
-694.84995138193165
 21
-12.000000000000041
 31
0.0
  0
LINE
  8
SIZE
  6
CONTINUOUS
 62
    30
 10
-694.84995138193165
 20
-0.0000000000000416
 30
0.0
 11
-694.84995138193165
 21
155.2571428571429
 31
0.0
  0
CIRCLE
  8
SIZE
  6
CONTINUOUS
 62
    30
 10
-694.84995138193165
 20
-84.999999999998806
 30
0.0
 40
6.0
  0
LINE
  8
SIZE
  6
CONTINUOUS
 62
    30
 10
-694.84995138193165
 20
-84.999999999998806
 30
0.0
 11
-694.84995138193165
 21
-72.999999999998806
 31
0.0
  0
CIRCLE
  8
SIZE
  6
CONTINUOUS
 62
    30
 10
-694.84995138193165
 20
-0.0000000000000416
 30
0.0
 40
6.0
  0
LINE
  8
SIZE
  6
CONTINUOUS
 62
    30
 10
-694.84995138193165
 20
-0.0000000000000416
 30
0.0
 11
-694.84995138193165
 21
-12.000000000000041
 31
0.0
  0
TEXT
  8
SIZE
  6
CONTINUOUS
 62
    30
 10
-719.84995138193153
 20
30.060571428571606
 30
0.0
 40
64.0
  1
85
 50
90.0
 41
0.9
 51
0.0
  7
STANDARD
 71
     0
 72
     1
 11
-719.84995138193153
 21
83.62857142857159
 31
0.0
210
0.0
220
0.0
230
1.0
  0
POINT
  8
DEFPOINTS
  6
CONTINUOUS
 62
    30
 10
-436.1749999999895
 20
0.0
 30
0.0
  0
POINT
  8
DEFPOINTS
  6
CONTINUOUS
 62
    30
 10
-511.43427874225949
 20
-84.999999999998778
 30
0.0
  0
POINT
  8
DEFPOINTS
  6
CONTINUOUS
 62
    30
 10
-694.84995138193165
 20
-84.999999999998806
 30
0.0
  0
LINE
  8
SIZE
  6
CONTINUOUS
 62
    30
 10
-620.50111397999831
 20
-165.5000000000046
 30
0.0
 11
-714.8499513819288
 21
-165.5000000000046
 31
0.0
  0
LINE
  8
SIZE
  6
CONTINUOUS
 62
    30
 10
-478.57715359247533
 20
-220.4999999998864
 30
0.0
 11
-714.8499513819288
 21
-220.49999999988651
 31
0.0
  0
LINE
  8
SIZE
  6
CONTINUOUS
 62
    30
 10
-694.8499513819288
 20
-153.5000000000046
 30
0.0
 11
-694.8499513819288
 21
-141.5000000000046
 31
0.0
  0
LINE
  8
SIZE
  6
CONTINUOUS
 62
    30
 10
-694.8499513819288
 20
-232.4999999998864
 30
0.0
 11
-694.8499513819288
 21
-244.4999999998864
 31
0.0
  0
LINE
  8
SIZE
  6
CONTINUOUS
 62
    30
 10
-694.8499513819288
 20
-165.5000000000046
 30
0.0
 11
-694.8499513819288
 21
-220.4999999998864
 31
0.0
  0
CIRCLE
  8
SIZE
  6
CONTINUOUS
 62
    30
 10
-694.8499513819288
 20
-165.5000000000046
 30
0.0
 40
6.0
  0
LINE
  8
SIZE
  6
CONTINUOUS
 62
    30
 10
-694.8499513819288
 20
-165.5000000000046
 30
0.0
 11
-694.8499513819288
 21
-153.5000000000046
 31
0.0
  0
CIRCLE
  8
SIZE
  6
CONTINUOUS
 62
    30
 10
-694.8499513819288
 20
-220.4999999998864
 30
0.0
 40
6.0
  0
LINE
  8
SIZE
  6
CONTINUOUS
 62
    30
 10
-694.8499513819288
 20
-220.4999999998864
 30
0.0
 11
-694.8499513819288
 21
-232.4999999998864
 31
0.0
  0
TEXT
  8
SIZE
  6
CONTINUOUS
 62
    30
 10
-719.84995138192869
 20
-246.56799999994527
 30
0.0
 40
64.0
  1
55
 50
90.0
 41
0.9
 51
0.0
  7
STANDARD
 71
     0
 72
     1
 11
-719.84995138192869
 21
-192.99999999994529
 31
0.0
210
0.0
220
0.0
230
1.0
  0
POINT
  8
DEFPOINTS
  6
CONTINUOUS
 62
    30
 10
-600.50111397999831
 20
-165.5000000000046
 30
0.0
  0
POINT
  8
DEFPOINTS
  6
CONTINUOUS
 62
    30
 10
-458.57715359247533
 20
-220.4999999998864
 30
0.0
  0
POINT
  8
DEFPOINTS
  6
CONTINUOUS
 62
    30
 10
-694.8499513819288
 20
-220.4999999998864
 30
0.0
  0
LINE
  8
SIZE
  6
CONTINUOUS
 62
    30
 10
-545.59999999999764
 20
-336.10000000000309
 30
0.0
 11
-545.59999999999764
 21
-566.09992396341204
 31
0.0
  0
LINE
  8
SIZE
  6
CONTINUOUS
 62
    30
 10
-430.59999999999758
 20
-349.05000000000018
 30
0.0
 11
-430.59999999999758
 21
-566.09992396341204
 31
0.0
  0
LINE
  8
SIZE
  6
CONTINUOUS
 62
    30
 10
-533.59999999999764
 20
-546.09992396341204
 30
0.0
 11
-442.59999999999758
 21
-546.09992396341204
 31
0.0
  0
LINE
  8
SIZE
  6
CONTINUOUS
 62
    30
 10
-430.59999999999758
 20
-546.09992396341204
 30
0.0
 11
-242.42857142856909
 21
-546.09992396341204
 31
0.0
  0
CIRCLE
  8
SIZE
  6
CONTINUOUS
 62
    30
 10
-545.59999999999764
 20
-546.09992396341204
 30
0.0
 40
6.0
  0
LINE
  8
SIZE
  6
CONTINUOUS
 62
    30
 10
-545.59999999999764
 20
-546.09992396341204
 30
0.0
 11
-533.59999999999764
 21
-546.09992396341204
 31
0.0
  0
CIRCLE
  8
SIZE
  6
CONTINUOUS
 62
    30
 10
-430.59999999999758
 20
-546.09992396341204
 30
0.0
 40
6.0
  0
LINE
  8
SIZE
  6
CONTINUOUS
 62
    30
 10
-430.59999999999758
 20
-546.09992396341204
 30
0.0
 11
-442.59999999999758
 21
-546.09992396341204
 31
0.0
  0
TEXT
  8
SIZE
  6
CONTINUOUS
 62
    30
 10
-399.34628571428328
 20
-521.09992396341204
 30
0.0
 40
64.0
  1
115
 50
0.0
 41
0.9
 51
0.0
  7
STANDARD
 71
     0
 72
     1
 11
-330.51428571428329
 21
-521.09992396341204
 31
0.0
210
0.0
220
0.0
230
1.0
  0
POINT
  8
DEFPOINTS
  6
CONTINUOUS
 62
    30
 10
-545.59999999999764
 20
-316.10000000000309
 30
0.0
  0
POINT
  8
DEFPOINTS
  6
CONTINUOUS
 62
    30
 10
-430.59999999999758
 20
-329.05000000000018
 30
0.0
  0
POINT
  8
DEFPOINTS
  6
CONTINUOUS
 62
    30
 10
-430.59999999999758
 20
-546.09992396341204
 30
0.0
  0
LINE
  8
SIZE
  6
CONTINUOUS
 62
    30
 10
456.1749999999904
 20
0.0000000000000032
 30
0.0
 11
683.38602679135613
 21
0.0000000000000398
 31
0.0
  0
LINE
  8
SIZE
  6
CONTINUOUS
 62
    30
 10
531.43427874223221
 20
-84.999999999998778
 30
0.0
 11
683.38602679135613
 21
-84.999999999998749
 31
0.0
  0
LINE
  8
SIZE
  6
CONTINUOUS
 62
    30
 10
663.38602679135613
 20
-72.999999999998764
 30
0.0
 11
663.38602679135613
 21
-11.99999999999997
 31
0.0
  0
LINE
  8
SIZE
  6
CONTINUOUS
 62
    30
 10
663.38602679135613
 20
0.0000000000000365
 30
0.0
 11
663.38602679135613
 21
155.2571428571429
 31
0.0
  0
CIRCLE
  8
SIZE
  6
CONTINUOUS
 62
    30
 10
663.38602679135613
 20
-84.999999999998764
 30
0.0
 40
6.0
  0
LINE
  8
SIZE
  6
CONTINUOUS
 62
    30
 10
663.38602679135613
 20
-84.999999999998764
 30
0.0
 11
663.38602679135613
 21
-72.999999999998764
 31
0.0
  0
CIRCLE
  8
SIZE
  6
CONTINUOUS
 62
    30
 10
663.38602679135613
 20
0.0000000000000365
 30
0.0
 40
6.0
  0
LINE
  8
SIZE
  6
CONTINUOUS
 62
    30
 10
663.38602679135613
 20
0.0000000000000365
 30
0.0
 11
663.38602679135613
 21
-11.999999999999963
 31
0.0
  0
TEXT
  8
SIZE
  6
CONTINUOUS
 62
    30
 10
638.38602679135602
 20
30.060571428571293
 30
0.0
 40
64.0
  1
85
 50
90.0
 41
0.9
 51
0.0
  7
STANDARD
 71
     0
 72
     1
 11
638.38602679135602
 21
83.628571428571277
 31
0.0
210
0.0
220
0.0
230
1.0
  0
POINT
  8
DEFPOINTS
  6
CONTINUOUS
 62
    30
 10
436.1749999999904
 20
0.0
 30
0.0
  0
POINT
  8
DEFPOINTS
  6
CONTINUOUS
 62
    30
 10
511.43427874223221
 20
-84.999999999998778
 30
0.0
  0
POINT
  8
DEFPOINTS
  6
CONTINUOUS
 62
    30
 10
663.38602679135613
 20
-84.999999999998764
 30
0.0
  0
POINT
  8
ARRANGE
  6
CONTINUOUS
 62
     1
 10
0.0
 20
0.0
 30
0.0
 50
270.0
  0
CIRCLE
  8
ARRANGE
  6
CONTINUOUS
 62
     1
 10
0.0
 20
0.0
 30
0.0
 40
40.0
  0
LINE
  8
BASIS
  6
DASHDOT
 62
     6
 10
460.49999999997732
 20
-135.93427874224889
 30
0.0
 11
460.49999999997732
 21
-34.065721257755847
 31
0.0
  0
LINE
  8
BASIS
  6
DASHDOT
 62
     6
 10
511.43427874223198
 20
-84.999999999998749
 30
0.0
 11
409.56572125773442
 21
-84.999999999998749
 31
0.0
  0
LINE
  8
BASIS
  6
DASHDOT
 62
     6
 10
-460.50000000001643
 20
-135.93427874224889
 30
0.0
 11
-460.50000000001643
 21
-34.065721257755847
 31
0.0
  0
LINE
  8
BASIS
  6
DASHDOT
 62
     6
 10
-409.56572125776353
 20
-84.999999999998749
 30
0.0
 11
-511.43427874225932
 21
-84.999999999998749
 31
0.0
  0
LINE
  8
SIZE
  6
CONTINUOUS
 62
    30
 10
-460.50000000001643
 20
-14.06572125775585
 30
0.0
 11
-460.50000000001643
 21
380.54717227155828
 31
0.0
  0
LINE
  8
SIZE
  6
CONTINUOUS
 62
    30
 10
460.49999999997732
 20
-14.06572125775585
 30
0.0
 11
460.49999999997732
 21
380.54717227155828
 31
0.0
  0
LINE
  8
SIZE
  6
CONTINUOUS
 62
    30
 10
-448.50000000001643
 20
360.54717227155828
 30
0.0
 11
448.49999999997732
 21
360.54717227155828
 31
0.0
  0
CIRCLE
  8
SIZE
  6
CONTINUOUS
 62
    30
 10
-460.50000000001643
 20
360.54717227155828
 30
0.0
 40
6.0
  0
LINE
  8
SIZE
  6
CONTINUOUS
 62
    30
 10
-460.50000000001643
 20
360.54717227155828
 30
0.0
 11
-448.50000000001643
 21
360.54717227155828
 31
0.0
  0
CIRCLE
  8
SIZE
  6
CONTINUOUS
 62
    30
 10
460.49999999997732
 20
360.54717227155828
 30
0.0
 40
6.0
  0
LINE
  8
SIZE
  6
CONTINUOUS
 62
    30
 10
460.49999999997732
 20
360.54717227155828
 30
0.0
 11
448.49999999997732
 21
360.54717227155828
 31
0.0
  0
TEXT
  8
SIZE
  6
CONTINUOUS
 62
    30
 10
-74.592000000019553
 20
385.54717227155828
 30
0.0
 40
64.0
  1
921
 50
0.0
 41
0.9
 51
0.0
  7
STANDARD
 71
     0
 72
     1
 11
-0.0000000000195541
 21
385.54717227155828
 31
0.0
210
0.0
220
0.0
230
1.0
  0
POINT
  8
DEFPOINTS
  6
CONTINUOUS
 62
    30
 10
-460.50000000001643
 20
-34.065721257755847
 30
0.0
  0
POINT
  8
DEFPOINTS
  6
CONTINUOUS
 62
    30
 10
460.49999999997732
 20
-34.065721257755847
 30
0.0
  0
POINT
  8
DEFPOINTS
  6
CONTINUOUS
 62
    30
 10
460.49999999997732
 20
360.54717227155828
 30
0.0
  0
LINE
  8
SIZE
  6
CONTINUOUS
 62
    30
 10
-460.50000000001643
 20
-14.06572125775585
 30
0.0
 11
-460.50000000001643
 21
380.54717227155919
 31
0.0
  0
LINE
  8
SIZE
  6
CONTINUOUS
 62
    30
 10
-480.49999999999551
 20
-58.200000000001637
 30
0.0
 11
-480.49999999999551
 21
380.54717227155919
 31
0.0
  0
LINE
  8
SIZE
  6
CONTINUOUS
 62
    30
 10
-448.50000000001643
 20
360.54717227155919
 30
0.0
 11
-436.50000000001643
 21
360.54717227155919
 31
0.0
  0
LINE
  8
SIZE
  6
CONTINUOUS
 62
    30
 10
-492.49999999999551
 20
360.54717227155919
 30
0.0
 11
-647.85714285713857
 21
360.54717227155919
 31
0.0
  0
LINE
  8
SIZE
  6
CONTINUOUS
 62
    30
 10
-460.50000000001643
 20
360.54717227155919
 30
0.0
 11
-480.49999999999551
 21
360.54717227155919
 31
0.0
  0
CIRCLE
  8
SIZE
  6
CONTINUOUS
 62
    30
 10
-460.50000000001643
 20
360.54717227155919
 30
0.0
 40
6.0
  0
LINE
  8
SIZE
  6
CONTINUOUS
 62
    30
 10
-460.50000000001643
 20
360.54717227155919
 30
0.0
 11
-448.50000000001643
 21
360.54717227155919
 31
0.0
  0
CIRCLE
  8
SIZE
  6
CONTINUOUS
 62
    30
 10
-480.49999999999551
 20
360.54717227155919
 30
0.0
 40
6.0
  0
LINE
  8
SIZE
  6
CONTINUOUS
 62
    30
 10
-480.49999999999551
 20
360.54717227155919
 30
0.0
 11
-492.49999999999551
 21
360.54717227155919
 31
0.0
  0
TEXT
  8
SIZE
  6
CONTINUOUS
 62
    30
 10
-630.3725714285672
 20
385.54717227155919
 30
0.0
 40
64.0
  1
20
 50
0.0
 41
0.9
 51
0.0
  7
STANDARD
 71
     0
 72
     1
 11
-576.22857142856719
 21
385.54717227155919
 31
0.0
210
0.0
220
0.0
230
1.0
  0
POINT
  8
DEFPOINTS
  6
CONTINUOUS
 62
    30
 10
-460.50000000001643
 20
-34.065721257755847
 30
0.0
  0
POINT
  8
DEFPOINTS
  6
CONTINUOUS
 62
    30
 10
-480.49999999999551
 20
-78.200000000001637
 30
0.0
  0
POINT
  8
DEFPOINTS
  6
CONTINUOUS
 62
    30
 10
-480.49999999999551
 20
360.54717227155919
 30
0.0
  0
CIRCLE
  8
FIX
  6
CONTINUOUS
 62
    11
 10
-460.50000000001643
 20
-84.999999999998749
 30
0.0
 40
6.5
  0
CIRCLE
  8
FIX
  6
CONTINUOUS
 62
    11
 10
460.49999999997732
 20
-85.000000000002387
 30
0.0
 40
6.5
  0
LINE
  8
DETAIL
  6
CONTINUOUS
 62
     5
 10
-480.49999999999551
 20
-91.400000000006003
 30
0.0
 11
-480.49999999999551
 21
-95.000000000004547
 31
0.0
  0
LINE
  8
OUTLINE
  6
CONTINUOUS
 62
     3
 10
431.10000000000218
 20
-88.920080646467227
 30
0.0
 11
431.10000000000218
 21
-1.64999999999327
 31
0.0
  0
LINE
  8
OUTLINE
  6
CONTINUOUS
 62
     3
 10
431.10000000000218
 20
-1.64999999999327
 30
0.0
 11
430.60000000000218
 21
-1.64999999999327
 31
0.0
  0
ARC
  8
OUTLINE
  6
CONTINUOUS
 62
     3
 10
431.09999999999809
 20
-1.64999999999737
 30
0.0
 40
0.4999999999959151
 50
90.0
 51
180.0
  0
LINE
  8
OUTLINE
  6
CONTINUOUS
 62
     3
 10
431.10000000000218
 20
-1.150000000001455
 30
0.0
 11
432.59999999999849
 21
-1.150000000001455
 31
0.0
  0
LINE
  8
OUTLINE
  6
CONTINUOUS
 62
     3
 10
432.59999999999849
 20
-1.150000000001455
 30
0.0
 11
432.59999999999849
 21
-1.6500000000160071
 31
0.0
  0
LINE
  8
OUTLINE
  6
CONTINUOUS
 62
     3
 10
432.59999999999849
 20
-1.6500000000160071
 30
0.0
 11
436.17499999999018
 21
-1.6500000000186219
 31
0.0
  0
ARC
  8
OUTLINE
  6
CONTINUOUS
 62
     3
 10
436.17499999999018
 20
-0.825000000009311
 30
0.0
 40
0.825000000009311
 50
270.0
 51
90.0
  0
LINE
  8
OUTLINE
  6
CONTINUOUS
 62
     3
 10
436.17499999999018
 20
0.0
 30
0.0
 11
430.5581655866672
 21
0.0
 31
0.0
  0
ARC
  8
OUTLINE
  6
CONTINUOUS
 62
     3
 10
430.55816558668073
 20
-1.0000000000143594
 30
0.0
 40
1.0000000000143594
 50
90.0
 51
174.9999999996387
  0
LINE
  8
OUTLINE
  6
CONTINUOUS
 62
     3
 10
429.56197088857522
 20
-0.9128442572591666
 30
0.0
 11
429.40998945466339
 21
-2.6500000000087311
 31
0.0
  0
LINE
  8
OUTLINE
  6
CONTINUOUS
 62
     3
 10
429.40998945466339
 20
-2.6500000000087311
 30
0.0
 11
428.60000000000042
 21
-2.6500000000087311
 31
0.0
  0
LINE
  8
OUTLINE
  6
CONTINUOUS
 62
     3
 10
428.60000000000042
 20
-2.6500000000087311
 30
0.0
 11
428.59999999999849
 21
-0.6000000000049113
 31
0.0
  0
LINE
  8
OUTLINE
  6
CONTINUOUS
 62
     3
 10
428.59999999999849
 20
-0.6000000000049113
 30
0.0
 11
428.5
 21
-0.6000000000049113
 31
0.0
  0
LINE
  8
OUTLINE
  6
CONTINUOUS
 62
     3
 10
428.5
 20
-0.6000000000049113
 30
0.0
 11
428.5
 21
0.0
 31
0.0
  0
LINE
  8
OUTLINE
  6
CONTINUOUS
 62
     3
 10
428.5
 20
0.0
 30
0.0
 11
-428.49999999999818
 21
0.0
 31
0.0
  0
LINE
  8
OUTLINE
  6
CONTINUOUS
 62
     3
 10
-428.49999999999818
 20
0.0
 30
0.0
 11
-428.49999999999818
 21
-0.6500000000087312
 31
0.0
  0
LINE
  8
OUTLINE
  6
CONTINUOUS
 62
     3
 10
-428.49999999999818
 20
-0.6500000000087312
 30
0.0
 11
-428.59999999999951
 21
-0.6500000000087312
 31
0.0
  0
LINE
  8
OUTLINE
  6
CONTINUOUS
 62
     3
 10
-428.59999999999951
 20
-0.6500000000087312
 30
0.0
 11
-428.59999999999951
 21
-2.6500000000087311
 31
0.0
  0
LINE
  8
OUTLINE
  6
CONTINUOUS
 62
     3
 10
-428.59999999999951
 20
-2.6500000000087311
 30
0.0
 11
-429.40998945466248
 21
-2.6500000000087311
 31
0.0
  0
LINE
  8
OUTLINE
  6
CONTINUOUS
 62
     3
 10
-429.40998945466248
 20
-2.6500000000087311
 30
0.0
 11
-429.56197088933101
 21
-0.9128442573419306
 31
0.0
  0
ARC
  8
OUTLINE
  6
CONTINUOUS
 62
     3
 10
-430.48941772027047
 20
-0.9249748682095814
 30
0.0
 40
0.9275261591673417
 50
0.7493617447389624
 51
94.250638206721817
  0
LINE
  8
OUTLINE
  6
CONTINUOUS
 62
     3
 10
-430.55816558666538
 20
-0.000000000007276
 30
0.0
 11
-436.17499999998932
 21
-0.0000000000046612
 31
0.0
  0
ARC
  8
OUTLINE
  6
CONTINUOUS
 62
     3
 10
-436.17499999998932
 20
-0.8250000000103341
 30
0.0
 40
0.825000000005673
 50
90.0
 51
270.0
  0
LINE
  8
OUTLINE
  6
CONTINUOUS
 62
     3
 10
-436.17499999998932
 20
-1.6500000000160071
 30
0.0
 11
-432.60000000000042
 21
-1.6500000000160071
 31
0.0
  0
LINE
  8
OUTLINE
  6
CONTINUOUS
 62
     3
 10
-432.60000000000042
 20
-1.6500000000160071
 30
0.0
 11
-432.60000000000042
 21
-1.150000000001455
 31
0.0
  0
LINE
  8
OUTLINE
  6
CONTINUOUS
 62
     3
 10
-432.60000000000042
 20
-1.150000000001455
 30
0.0
 11
-431.09999999999951
 21
-1.150000000001455
 31
0.0
  0
ARC
  8
OUTLINE
  6
CONTINUOUS
 62
     3
 10
-431.10000000000105
 20
-1.6500000000049386
 30
0.0
 40
0.5000000000034837
 50
0.0
 51
90.0
  0
LINE
  8
OUTLINE
  6
CONTINUOUS
 62
     3
 10
-430.59999999999758
 20
-1.650000000001455
 30
0.0
 11
-430.59999999999758
 21
-5.0000000000045466
 31
0.0
  0
LINE
  8
OUTLINE
  6
CONTINUOUS
 62
     3
 10
-430.59999999999758
 20
-5.0000000000045466
 30
0.0
 11
-433.60000000000218
 21
-5.0000000000045466
 31
0.0
  0
LINE
  8
OUTLINE
  6
CONTINUOUS
 62
     3
 10
-433.60000000000218
 20
-5.0000000000045466
 30
0.0
 11
-433.59999999999849
 21
-5.4500000000016371
 31
0.0
  0
ARC
  8
OUTLINE
  6
CONTINUOUS
 62
     3
 10
-434.79999999999285
 20
-5.4499999999989353
 30
0.0
 40
1.1999999999943889
 50
0.0
 51
90.0
  0
LINE
  8
OUTLINE
  6
CONTINUOUS
 62
     3
 10
-434.79999999999842
 20
-4.2500000000045466
 30
0.0
 11
-444.09999999999758
 21
-4.2500000000045466
 31
0.0
  0
ARC
  8
OUTLINE
  6
CONTINUOUS
 62
     3
 10
-444.09999999999758
 20
-4.8500000000038312
 30
0.0
 40
0.5999999999992842
 50
90.0
 51
270.0
  0
LINE
  8
OUTLINE
  6
CONTINUOUS
 62
     3
 10
-444.09999999999758
 20
-5.450000000003115
 30
0.0
 11
-444.59999999999951
 21
-5.4500000000016371
 31
0.0
  0
LINE
  8
OUTLINE
  6
CONTINUOUS
 62
     3
 10
-444.59999999999951
 20
-5.4500000000016371
 30
0.0
 11
-444.97978629999761
 21
-4.9855593746732438
 31
0.0
  0
ARC
  8
OUTLINE
  6
CONTINUOUS
 62
     3
 10
-408.83021608736453
 20
-48.633845487262697
 30
0.0
 40
56.674194366788839
 50
129.63160071844015
 51
185.94113358263701
  0
LINE
  8
OUTLINE
  6
CONTINUOUS
 62
     3
 10
-465.19999999999982
 20
-54.500000000004547
 30
0.0
 11
-545.60000000000218
 21
-54.499999999998181
 31
0.0
  0
LINE
  8
OUTLINE
  6
CONTINUOUS
 62
     3
 10
-545.60000000000218
 20
-54.499999999998181
 30
0.0
 11
-545.60000000000218
 21
-55.351087470691709
 31
0.0
  0
ARC
  8
OUTLINE
  6
CONTINUOUS
 62
     3
 10
-544.80000000000064
 20
-56.499999999988162
 30
0.0
 40
1.3999999999917083
 50
124.84990457935925
 51
145.15009542139018
  0
LINE
  8
OUTLINE
  6
CONTINUOUS
 62
     3
 10
-545.94891252930756
 20
-55.700000000001637
 30
0.0
 11
-546.79999999999927
 21
-55.700000000001637
 31
0.0
  0
LINE
  8
OUTLINE
  6
CONTINUOUS
 62
     3
 10
-546.79999999999927
 20
-55.700000000001637
 30
0.0
 11
-546.79999999999472
 21
-314.89999999999958
 31
0.0
  0
LINE
  8
OUTLINE
  6
CONTINUOUS
 62
     3
 10
-546.79999999999472
 20
-314.89999999999958
 30
0.0
 11
-545.94891252930483
 21
-314.89999999999873
 31
0.0
  0
ARC
  8
OUTLINE
  6
CONTINUOUS
 62
     3
 10
-544.79999999999313
 20
-314.10000000000639
 30
0.0
 40
1.3999999999990056
 50
214.84990457869333
 51
235.15009542070004
  0
LINE
  8
OUTLINE
  6
CONTINUOUS
 62
     3
 10
-545.59999999999764
 20
-315.24891252930962
 30
0.0
 11
-545.59999999999764
 21
-316.10000000000309
 31
0.0
  0
LINE
  8
OUTLINE
  6
CONTINUOUS
 62
     3
 10
-545.59999999999764
 20
-316.10000000000309
 30
0.0
 11
-454.22832301705421
 21
-316.10542479804269
 31
0.0
  0
ARC
  8
OUTLINE
  6
CONTINUOUS
 62
     3
 10
-408.52289603261954
 20
-282.71728503161785
 30
0.0
 40
56.601713162163264
 50
216.14839432503993
 51
229.90209146586471
  0
LINE
  8
OUTLINE
  6
CONTINUOUS
 62
     3
 10
-444.97981651370719
 20
-326.01447757256051
 30
0.0
 11
-444.59999999999951
 21
-325.55000000000018
 31
0.0
  0
LINE
  8
OUTLINE
  6
CONTINUOUS
 62
     3
 10
-444.59999999999951
 20
-325.55000000000018
 30
0.0
 11
-444.09999999999758
 21
-325.5499999999987
 31
0.0
  0
ARC
  8
OUTLINE
  6
CONTINUOUS
 62
     3
 10
-444.09999999999758
 20
-326.15000000000157
 30
0.0
 40
0.6000000000028933
 50
90.0
 51
270.0
  0
LINE
  8
OUTLINE
  6
CONTINUOUS
 62
     3
 10
-444.09999999999758
 20
-326.75000000000449
 30
0.0
 11
-434.79999999999842
 21
-326.75000000000449
 31
0.0
  0
ARC
  8
OUTLINE
  6
CONTINUOUS
 62
     3
 10
-434.8000000000053
 20
-325.54999999999768
 30
0.0
 40
1.2000000000068085
 50
270.0
 51
0.0
  0
LINE
  8
OUTLINE
  6
CONTINUOUS
 62
     3
 10
-433.59999999999849
 20
-325.55000000000018
 30
0.0
 11
-433.59999999999673
 21
-326.00000000000449
 31
0.0
  0
LINE
  8
OUTLINE
  6
CONTINUOUS
 62
     3
 10
-433.59999999999673
 20
-326.00000000000449
 30
0.0
 11
-430.59999999999758
 21
-326.00000000000449
 31
0.0
  0
LINE
  8
OUTLINE
  6
CONTINUOUS
 62
     3
 10
-430.59999999999758
 20
-326.00000000000449
 30
0.0
 11
-430.59999999999758
 21
-329.05000000000018
 31
0.0
  0
ARC
  8
OUTLINE
  6
CONTINUOUS
 62
     3
 10
-431.10000000000127
 20
-329.04999999999649
 30
0.0
 40
0.5000000000036777
 50
270.0
 51
0.0
  0
LINE
  8
OUTLINE
  6
CONTINUOUS
 62
     3
 10
-431.09999999999951
 20
-329.55000000000018
 30
0.0
 11
-432.599999999994
 21
-329.55000000000229
 31
0.0
  0
LINE
  8
OUTLINE
  6
CONTINUOUS
 62
     3
 10
-432.599999999994
 20
-329.55000000000229
 30
0.0
 11
-432.599999999994
 21
-328.74999999999
 31
0.0
  0
LINE
  8
OUTLINE
  6
CONTINUOUS
 62
     3
 10
-432.599999999994
 20
-328.74999999999
 30
0.0
 11
-436.17499999998472
 21
-328.74999999999
 31
0.0
  0
ARC
  8
OUTLINE
  6
CONTINUOUS
 62
     3
 10
-436.17370689654501
 20
-329.87629310344573
 30
0.0
 40
1.1262938457651337
 50
90.065781577449229
 51
266.11591355585142
  0
LINE
  8
OUTLINE
  6
CONTINUOUS
 62
     3
 10
-436.24999999999909
 20
-331.00000000000449
 30
0.0
 11
-430.83306493866439
 21
-331.00000000000449
 31
0.0
  0
ARC
  8
OUTLINE
  6
CONTINUOUS
 62
     3
 10
-430.83854400693559
 20
-329.38591059933566
 30
0.0
 40
1.614098700061587
 50
270.19449126033965
 51
0.4931512829905955
  0
LINE
  8
OUTLINE
  6
CONTINUOUS
 62
     3
 10
-429.22450509466131
 20
-329.37201803999869
 30
0.0
 11
-429.1088435039992
 21
-328.05000000000018
 31
0.0
  0
LINE
  8
OUTLINE
  6
CONTINUOUS
 62
     3
 10
-429.1088435039992
 20
-328.05000000000018
 30
0.0
 11
-428.59999999999951
 21
-328.05000000000018
 31
0.0
  0
LINE
  8
OUTLINE
  6
CONTINUOUS
 62
     3
 10
-428.59999999999951
 20
-328.05000000000018
 30
0.0
 11
-428.59999999999951
 21
-330.04999999999842
 31
0.0
  0
LINE
  8
OUTLINE
  6
CONTINUOUS
 62
     3
 10
-428.59999999999951
 20
-330.04999999999842
 30
0.0
 11
-428.09999999999758
 21
-330.05000000000018
 31
0.0
  0
LINE
  8
OUTLINE
  6
CONTINUOUS
 62
     3
 10
-428.09999999999758
 20
-330.05000000000018
 30
0.0
 11
-428.09999999999758
 21
-330.64999999999782
 31
0.0
  0
LINE
  8
OUTLINE
  6
CONTINUOUS
 62
     3
 10
-428.09999999999758
 20
-330.64999999999782
 30
0.0
 11
428.10000000000309
 21
-331.00000000000449
 31
0.0
  0
LINE
  8
OUTLINE
  6
CONTINUOUS
 62
     3
 10
428.10000000000309
 20
-331.00000000000449
 30
0.0
 11
428.10000000000309
 21
-330.05000000000018
 31
0.0
  0
LINE
  8
OUTLINE
  6
CONTINUOUS
 62
     3
 10
428.10000000000309
 20
-330.05000000000018
 30
0.0
 11
428.59999999999951
 21
-330.05000000000018
 31
0.0
  0
LINE
  8
OUTLINE
  6
CONTINUOUS
 62
     3
 10
428.59999999999951
 20
-330.05000000000018
 30
0.0
 11
428.59999999999951
 21
-328.05000000000018
 31
0.0
  0
LINE
  8
OUTLINE
  6
CONTINUOUS
 62
     3
 10
428.59999999999951
 20
-328.05000000000018
 30
0.0
 11
429.10884350266952
 21
-328.05000000000018
 31
0.0
  0
LINE
  8
OUTLINE
  6
CONTINUOUS
 62
     3
 10
429.10884350266952
 20
-328.05000000000018
 30
0.0
 11
429.23915342171858
 21
-329.5394491883942
 31
0.0
  0
ARC
  8
OUTLINE
  6
CONTINUOUS
 62
     3
 10
430.8330649386653
 20
-329.3999999999989
 30
0.0
 40
1.5999999999998191
 50
184.99999999996635
 51
270.0
  0
LINE
  8
OUTLINE
  6
CONTINUOUS
 62
     3
 10
430.8330649386653
 20
-330.99999999999869
 30
0.0
 11
436.17499999998932
 21
-331.00000000000699
 31
0.0
  0
ARC
  8
OUTLINE
  6
CONTINUOUS
 62
     3
 10
436.17499999998932
 20
-329.87499999999488
 30
0.0
 40
1.1250000000121361
 50
270.0
 51
90.0
  0
LINE
  8
OUTLINE
  6
CONTINUOUS
 62
     3
 10
436.17499999998932
 20
-328.74999999998272
 30
0.0
 11
432.59999999999849
 21
-328.74999999998272
 31
0.0
  0
LINE
  8
OUTLINE
  6
CONTINUOUS
 62
     3
 10
432.59999999999849
 20
-328.74999999998272
 30
0.0
 11
432.59999999999849
 21
-329.55000000000018
 31
0.0
  0
LINE
  8
OUTLINE
  6
CONTINUOUS
 62
     3
 10
432.59999999999849
 20
-329.55000000000018
 30
0.0
 11
431.10000000000127
 21
-329.55000000000018
 31
0.0
  0
ARC
  8
OUTLINE
  6
CONTINUOUS
 62
     3
 10
431.10000000000304
 20
-329.05000000000206
 30
0.0
 40
0.4999999999981465
 50
180.0
 51
270.0
  0
LINE
  8
OUTLINE
  6
CONTINUOUS
 62
     3
 10
430.60000000000491
 20
-329.05000000000018
 30
0.0
 11
431.10000000000127
 21
-329.05000000000018
 31
0.0
  0
LINE
  8
OUTLINE
  6
CONTINUOUS
 62
     3
 10
431.10000000000127
 20
-329.05000000000018
 30
0.0
 11
431.10000000000127
 21
-134.9999999999973
 31
0.0
  0
LINE
  8
OUTLINE
  6
CONTINUOUS
 62
     3
 10
431.10000000000127
 20
-134.9999999999973
 30
0.0
 11
433.80000000000018
 21
-134.9999999999973
 31
0.0
  0
LINE
  8
OUTLINE
  6
CONTINUOUS
 62
     3
 10
433.80000000000018
 20
-134.9999999999973
 30
0.0
 11
433.80000000000018
 21
-91.399999999998727
 31
0.0
  0
ARC
  8
OUTLINE
  6
CONTINUOUS
 62
     3
 10
436.99999999998272
 20
-91.399999999991422
 30
0.0
 40
3.1999999999825102
 50
90.0
 51
180.0
  0
LINE
  8
OUTLINE
  6
CONTINUOUS
 62
     3
 10
437.0
 20
-88.200000000008913
 30
0.0
 11
474.09999999999849
 21
-88.200000000009823
 31
0.0
  0
ARC
  8
OUTLINE
  6
CONTINUOUS
 62
     3
 10
474.09999999999809
 20
-91.400000000009214
 30
0.0
 40
3.1999999999993944
 50
0.0
 51
90.0
  0
LINE
  8
OUTLINE
  6
CONTINUOUS
 62
     3
 10
477.29999999999751
 20
-91.400000000009641
 30
0.0
 11
477.29999999999751
 21
-95.000000000004547
 31
0.0
  0
LINE
  8
OUTLINE
  6
CONTINUOUS
 62
     3
 10
477.29999999999751
 20
-95.000000000004547
 30
0.0
 11
480.50000000000182
 21
-95.000000000004547
 31
0.0
  0
LINE
  8
OUTLINE
  6
CONTINUOUS
 62
     3
 10
480.50000000000182
 20
-95.000000000004547
 30
0.0
 11
480.49999999999818
 21
-91.400000000009641
 31
0.0
  0
ARC
  8
OUTLINE
  6
CONTINUOUS
 62
     3
 10
474.0999999999982
 20
-91.400000000008959
 30
0.0
 40
6.3999999999999995
 50
0.0
 51
48.59037789079639
  0
ARC
  8
OUTLINE
  6
CONTINUOUS
 62
     3
 10
474.09999999999991
 20
-81.799999999994967
 30
0.0
 40
6.4000000000019162
 50
311.40962210916791
 51
0.0
  0
LINE
  8
OUTLINE
  6
CONTINUOUS
 62
     3
 10
480.50000000000182
 20
-81.800000000000182
 30
0.0
 11
480.50000000000182
 21
-78.200000000001637
 31
0.0
  0
LINE
  8
OUTLINE
  6
CONTINUOUS
 62
     3
 10
480.50000000000182
 20
-78.200000000001637
 30
0.0
 11
477.29999999999649
 21
-78.200000000001637
 31
0.0
  0
LINE
  8
OUTLINE
  6
CONTINUOUS
 62
     3
 10
477.29999999999649
 20
-78.200000000001637
 30
0.0
 11
477.29999999999649
 21
-81.800000000000182
 31
0.0
  0
ARC
  8
OUTLINE
  6
CONTINUOUS
 62
     3
 10
474.10000000000116
 20
-81.800000000004914
 30
0.0
 40
3.1999999999953195
 50
270.0
 51
0.0
  0
LINE
  8
OUTLINE
  6
CONTINUOUS
 62
     3
 10
474.09999999999951
 20
-85.000000000000227
 30
0.0
 11
437.0
 21
-84.999999999998749
 31
0.0
  0
ARC
  8
OUTLINE
  6
CONTINUOUS
 62
     3
 10
436.99999999999858
 20
-91.399999999995913
 30
0.0
 40
6.3999999999971573
 50
90.0
 51
157.2017519002552
  0
TEXT
  8
ETC
  6
CONTINUOUS
 62
    61
 10
767.70153456318985
 20
757.13855711291808
 30
0.0
 40
64.065641025638456
  1
LGH-35RVX3-E_2
 41
0.9
  0
TEXT
  8
ETC
  6
CONTINUOUS
 62
    61
 10
763.51124723600969
 20
639.06226729294804
 30
0.0
 40
64.065641025638456
  1
LOSSNAY
 41
0.9
  0
TEXT
  8
ETC
  6
CONTINUOUS
 62
    61
 10
814.26464691866477
 20
530.80257258838208
 30
0.0
 40
40.041025641024042
  1
LGH-35RVX3-E
 50
0.0
 41
0.9
 51
0.0
  7
STANDARD
 71
     0
 11
0.0
 21
0.0
 31
0.0
210
0.0
220
0.0
230
1.0
  0
TEXT
  8
NOTE
  6
CONTINUOUS
 62
     4
 10
-374.44411879723702
 20
-253.08435178939791
 30
0.0
 40
64.065641025638456
  1
SA
 41
0.9
  0
TEXT
  8
NOTE
  6
CONTINUOUS
 62
     4
 10
276.04746905852238
 20
-253.08435178939791
 30
0.0
 40
64.065641025638456
  1
RA
 41
0.9
  0
LINE
  8
SIZE
  6
CONTINUOUS
 62
    30
 10
706.60987465961557
 20
-285.19667954431429
 30
0.0
 11
406.83229817869523
 21
-234.37353505033661
 31
0.0
  0
LINE
  8
SIZE
  6
CONTINUOUS
 62
    30
 10
243.1677018212994
 20
-206.6264649496818
 30
0.0
 11
231.33652618100569
 21
-204.6206526532489
 31
0.0
  0
TEXT
  8
SIZE
  6
CONTINUOUS
 62
    30
 10
484.65882687493468
 20
-222.2112110237764
 30
0.0
 40
64.0
  1
φ142
 50
350.37778527178801
 41
0.9
 51
0.0
  7
STANDARD
 71
     0
 72
     1
 11
592.84309692978013
 21
-240.55235866235864
 31
0.0
210
0.0
220
0.0
230
1.0
  0
LINE
  8
SIZE
  6
CONTINUOUS
 62
    30
 10
254.99887746159311
 20
-208.63227724611471
 30
0.0
 11
395.00112253840138
 21
-232.36772275390359
 31
0.0
  0
CIRCLE
  8
SIZE
  6
CONTINUOUS
 62
    30
 10
254.99887746159311
 20
-208.63227724611471
 30
0.0
 40
6.0
  0
LINE
  8
SIZE
  6
CONTINUOUS
 62
    30
 10
254.99887746159311
 20
-208.63227724611471
 30
0.0
 11
243.16770182129943
 21
-206.62646494968183
 31
0.0
  0
CIRCLE
  8
SIZE
  6
CONTINUOUS
 62
    30
 10
395.00112253840138
 20
-232.36772275390359
 30
0.0
 40
6.0
  0
LINE
  8
SIZE
  6
CONTINUOUS
 62
    30
 10
395.00112253840138
 20
-232.36772275390359
 30
0.0
 11
406.83229817869505
 21
-234.37353505033647
 31
0.0
  0
POINT
  8
DEFPOINTS
  6
CONTINUOUS
 62
    30
 10
395.00112253840138
 20
-232.36772275390359
 30
0.0
  0
POINT
  8
DEFPOINTS
  6
CONTINUOUS
 62
    30
 10
254.99887746159311
 20
-208.63227724611471
 30
0.0
  0
LINE
  8
SIZE
  6
CONTINUOUS
 62
    30
 10
635.75533589392739
 20
-444.58179788464457
 30
0.0
 11
399.62265819429751
 21
-274.30946834914471
 31
0.0
  0
LINE
  8
SIZE
  6
CONTINUOUS
 62
    30
 10
250.37734180569711
 20
-166.6905316508736
 30
0.0
 11
240.6439516064406
 21
-159.67190534446459
 31
0.0
  0
TEXT
  8
SIZE
  6
CONTINUOUS
 62
    30
 10
464.34272365911755
 20
-290.15656282149803
 30
0.0
 40
64.0
  1
φ160
 50
324.20509667237872
 41
0.9
 51
0.0
  7
STANDARD
 71
     0
 72
     1
 11
553.3448436411195
 21
-354.33488176730185
 31
0.0
210
0.0
220
0.0
230
1.0
  0
LINE
  8
SIZE
  6
CONTINUOUS
 62
    30
 10
260.11073200495372
 20
-173.7091579572826
 30
0.0
 11
389.88926799504088
 21
-267.29084204273562
 31
0.0
  0
CIRCLE
  8
SIZE
  6
CONTINUOUS
 62
    30
 10
260.11073200495372
 20
-173.7091579572826
 30
0.0
 40
6.0
  0
LINE
  8
SIZE
  6
CONTINUOUS
 62
    30
 10
260.11073200495372
 20
-173.7091579572826
 30
0.0
 11
250.37734180569717
 21
-166.6905316508736
 31
0.0
  0
CIRCLE
  8
SIZE
  6
CONTINUOUS
 62
    30
 10
389.88926799504088
 20
-267.29084204273562
 30
0.0
 40
6.0
  0
LINE
  8
SIZE
  6
CONTINUOUS
 62
    30
 10
389.88926799504088
 20
-267.29084204273562
 30
0.0
 11
399.62265819429746
 21
-274.30946834914459
 31
0.0
  0
POINT
  8
DEFPOINTS
  6
CONTINUOUS
 62
    30
 10
389.88926799504088
 20
-267.29084204273562
 30
0.0
  0
POINT
  8
DEFPOINTS
  6
CONTINUOUS
 62
    30
 10
260.11073200495372
 20
-173.7091579572826
 30
0.0
  0
TEXT
  8
NOTE
  6
CONTINUOUS
 62
     4
 10
-1232.431529203478
 20
-438.73549895820861
 30
0.0
 40
69.0
  1
Power supply
 50
0.0
 41
0.9
 51
0.0
  7
STANDARD
 71
     0
 72
     2
 11
-628.19852920347785
 21
-438.73549895820861
 31
0.0
210
0.0
220
0.0
230
1.0
  0
TEXT
  8
NOTE
  6
CONTINUOUS
 62
     4
 10
-1260.376529203478
 20
-552.58549895820863
 30
0.0
 40
69.0
  1
cable opening
 50
0.0
 41
0.9
 51
0.0
  7
STANDARD
 71
     0
 72
     2
 11
-628.19852920347785
 21
-552.58549895820863
 31
0.0
210
0.0
220
0.0
230
1.0
  0
LINE
  8
NOTE
  6
CONTINUOUS
 62
     4
 10
-618.19852920347785
 20
-576.73549895820861
 30
0.0
 11
-1269.8985292034779
 21
-576.73549895820861
 31
0.0
  0
LINE
  8
NOTE
  6
CONTINUOUS
 62
     4
 10
-539.52911866236525
 20
-305.41889242370473
 30
0.0
 11
-520.79999999999745
 21
-274.39999999999873
 31
0.0
  0
LINE
  8
NOTE
  6
CONTINUOUS
 62
     4
 10
-520.79999999999745
 20
-274.39999999999873
 30
0.0
 11
-521.51039174712946
 21
-310.62770923793022
 31
0.0
  0
LINE
  8
NOTE
  6
CONTINUOUS
 62
     4
 10
-520.79999999999745
 20
-274.39999999999873
 30
0.0
 11
-540.23951040949726
 21
-341.64660166163623
 31
0.0
  0
LINE
  8
NOTE
  6
CONTINUOUS
 62
     4
 10
-540.23951040949726
 20
-341.64660166163623
 30
0.0
 11
-608.19852920347785
 21
-576.73549895820861
 31
0.0
  0
LINE
  8
NOTE
  6
CONTINUOUS
 62
     4
 10
-608.19852920347785
 20
-576.73549895820861
 30
0.0
 11
-618.19852920347785
 21
-576.73549895820861
 31
0.0
  0
TEXT
  8
NOTE
  6
CONTINUOUS
 62
     4
 10
602.00887788306954
 20
364.50919312465061
 30
0.0
 40
69.0
  1
Ceiling suspension fixture
 50
0.0
 41
0.9
 51
0.0
  7
STANDARD
 71
     0
 11
0.0
 21
0.0
 31
0.0
210
0.0
220
0.0
230
1.0
  0
TEXT
  8
NOTE
  6
CONTINUOUS
 62
     4
 10
602.00887788306954
 20
250.65919312465061
 30
0.0
 40
69.0
  1
(4-13X20 oval)
 50
0.0
 41
0.9
 51
0.0
  7
STANDARD
 71
     0
 11
0.0
 21
0.0
 31
0.0
210
0.0
220
0.0
230
1.0
  0
LINE
  8
NOTE
  6
CONTINUOUS
 62
     4
 10
592.00887788306954
 20
213.36633598179321
 30
0.0
 11
1808.5231635973551
 21
213.36633598179321
 31
0.0
  0
LINE
  8
NOTE
  6
CONTINUOUS
 62
     4
 10
482.38655508967713
 20
-56.122149971260711
 30
0.0
 11
460.50000489135982
 21
-85.000004695582561
 31
0.0
  0
LINE
  8
NOTE
  6
CONTINUOUS
 62
     4
 10
460.50000489135982
 20
-85.000004695582561
 30
0.0
 11
465.01533182415073
 21
-49.047766993980275
 31
0.0
  0
LINE
  8
NOTE
  6
CONTINUOUS
 62
     4
 10
460.50000489135982
 20
-85.000004695582561
 30
0.0
 11
486.90188202246804
 21
-20.169912269658425
 31
0.0
  0
LINE
  8
NOTE
  6
CONTINUOUS
 62
     4
 10
486.90188202246787
 20
-20.169912269658401
 30
0.0
 11
582.00887788306954
 21
213.36633598179321
 31
0.0
  0
LINE
  8
NOTE
  6
CONTINUOUS
 62
     4
 10
582.00887788306954
 20
213.36633598179321
 30
0.0
 11
592.00887788306954
 21
213.36633598179321
 31
0.0
  0
ENDSEC
  0
EOF
