  0
SECTION
  2
HEADER
  9
$ACADVER
  1
AC1009
  9
$DWGCODEPAGE
  3
dos932
  9
$INSBASE
 10
0.0
 20
0.0
 30
0.0
  9
$EXTMIN
 10
-1074.9572593543651
 20
-566.52830874841675
 30
-0.0015258207003583
  9
$EXTMAX
 10
1822.261059857276
 20
872.86377788156278
 30
0.0000000349246037
  9
$LIMMIN
 10
-2970.0
 20
-2100.0
  9
$LIMMAX
 10
2970.0
 20
2100.0
  9
$ORTHOMODE
 70
     1
  9
$REGENMODE
 70
     1
  9
$FILLMODE
 70
     1
  9
$QTEXTMODE
 70
     0
  9
$MIRRTEXT
 70
     0
  9
$LTSCALE
 40
20.0
  9
$ATTMODE
 70
     1
  9
$TEXTSIZE
 40
64.0
  9
$TRACEWID
 40
0.05
  9
$TEXTSTYLE
  7
STANDARD
  9
$CLAYER
  8
SIZE
  9
$CELTYPE
  6
CONTINUOUS
  9
$CECOLOR
 62
     7
  9
$DIMSCALE
 40
1.0
  9
$DIMASZ
 40
12.0
  9
$DIMEXO
 40
20.0
  9
$DIMDLI
 40
200.0
  9
$DIMRND
 40
0.0
  9
$DIMDLE
 40
0.0
  9
$DIMEXE
 40
20.0
  9
$DIMTP
 40
0.0
  9
$DIMTM
 40
0.0
  9
$DIMTXT
 40
64.0
  9
$DIMCEN
 40
0.09
  9
$DIMTSZ
 40
0.0
  9
$DIMTOL
 70
     0
  9
$DIMLIM
 70
     0
  9
$DIMTIH
 70
     0
  9
$DIMTOH
 70
     0
  9
$DIMSE1
 70
     0
  9
$DIMSE2
 70
     0
  9
$DIMTAD
 70
     1
  9
$DIMZIN
 70
     8
  9
$DIMBLK
  1

  9
$DIMASO
 70
     1
  9
$DIMSHO
 70
     0
  9
$DIMPOST
  1

  9
$DIMAPOST
  1

  9
$DIMALT
 70
     0
  9
$DIMALTD
 70
     2
  9
$DIMALTF
 40
25.399999999999999
  9
$DIMLFAC
 40
1.0
  9
$DIMTOFL
 70
     1
  9
$DIMTVP
 40
0.0
  9
$DIMTIX
 70
     1
  9
$DIMSOXD
 70
     0
  9
$DIMSAH
 70
     0
  9
$DIMBLK1
  1

  9
$DIMBLK2
  1

  9
$DIMSTYLE
  2
STANDARD
  9
$DIMCLRD
 70
     7
  9
$DIMCLRE
 70
     7
  9
$DIMCLRT
 70
     7
  9
$DIMTFAC
 40
1.0
  9
$DIMGAP
 40
25.0
  9
$LUNITS
 70
     2
  9
$LUPREC
 70
     4
  9
$SKETCHINC
 40
0.1
  9
$FILLETRAD
 40
3.0
  9
$AUNITS
 70
     1
  9
$AUPREC
 70
     3
  9
$MENU
  1
ACAD
  9
$ELEVATION
 40
0.0
  9
$PELEVATION
 40
0.0
  9
$THICKNESS
 40
0.0
  9
$LIMCHECK
 70
     0
  9
$CHAMFERA
 40
0.0
  9
$CHAMFERB
 40
0.0
  9
$SKPOLY
 70
     0
  9
$TDCREATE
 40
2453019.62301037
  9
$TDUPDATE
 40
2460045.428145833
  9
$TDINDWG
 40
1.716138669
  9
$TDUSRTIMER
 40
1.716138669
  9
$USRTIMER
 70
     1
  9
$ANGBASE
 50
0.0
  9
$ANGDIR
 70
     0
  9
$PDMODE
 70
     3
  9
$PDSIZE
 40
-2.0
  9
$PLINEWID
 40
0.0
  9
$SPLFRAME
 70
     0
  9
$SPLINETYPE
 70
     6
  9
$SPLINESEGS
 70
     8
  9
$SURFTAB1
 70
     6
  9
$SURFTAB2
 70
     6
  9
$SURFTYPE
 70
     6
  9
$SURFU
 70
     6
  9
$SURFV
 70
     6
  9
$UCSNAME
  2

  9
$UCSORG
 10
0.0
 20
0.0
 30
0.0
  9
$UCSXDIR
 10
1.0
 20
0.0
 30
0.0
  9
$UCSYDIR
 10
0.0
 20
1.0
 30
0.0
  9
$PUCSNAME
  2

  9
$PUCSORG
 10
0.0
 20
0.0
 30
0.0
  9
$PUCSXDIR
 10
1.0
 20
0.0
 30
0.0
  9
$PUCSYDIR
 10
0.0
 20
1.0
 30
0.0
  9
$USERI1
 70
     0
  9
$USERI2
 70
     0
  9
$USERI3
 70
     0
  9
$USERI4
 70
     0
  9
$USERI5
 70
     0
  9
$USERR1
 40
20.0
  9
$USERR2
 40
0.0
  9
$USERR3
 40
0.0
  9
$USERR4
 40
0.0
  9
$USERR5
 40
0.0
  9
$WORLDVIEW
 70
     1
  9
$SHADEDGE
 70
     3
  9
$SHADEDIF
 70
    70
  9
$TILEMODE
 70
     1
  9
$MAXACTVP
 70
    48
  9
$PINSBASE
 10
0.0
 20
0.0
 30
0.0
  9
$PLIMCHECK
 70
     0
  9
$PEXTMIN
 10
-100000000000000000000.0
 20
-100000000000000000000.0
 30
-100000000000000000000.0
  9
$PEXTMAX
 10
100000000000000000000.0
 20
100000000000000000000.0
 30
100000000000000000000.0
  9
$PLIMMIN
 10
0.0
 20
0.0
  9
$PLIMMAX
 10
12.0
 20
9.0
  9
$UNITMODE
 70
     0
  9
$VISRETAIN
 70
     0
  9
$PLINEGEN
 70
     0
  9
$PSLTSCALE
 70
     0
  9
$TREEDEPTH
 70
  3020
  9
$ATTDIA
 70
     0
  9
$ATTREQ
 70
     1
  9
$BLIPMODE
 70
     1
  9
$COORDS
 70
     1
  9
$DRAGMODE
 70
     2
  9
$OSMODE
 70
     0
  9
$HANDLING
 70
     0
  9
$HANDSEED
  5
FCC3
  0
ENDSEC
  0
SECTION
  2
TABLES
  0
TABLE
  2
LTYPE
 70
     3
  0
LTYPE
  2
CONTINUOUS
 70
     0
  3
実線
 72
    65
 73
     0
 40
0.0
  0
LTYPE
  2
DASHDOT
 70
     0
  3
____ _ ____ _ ____ _ ____ _ ____ _ ____ _ ____
 72
    65
 73
     4
 40
5.5
 49
4.0
 49
-0.6
 49
0.3
 49
-0.6
  0
LTYPE
  2
DASHED
 70
     0
  3
-- -- -- -- -- -- -- -- -- -- -- -- -- -- --
 72
    65
 73
     2
 40
0.75
 49
0.5
 49
-0.25
  0
ENDTAB
  0
TABLE
  2
LAYER
 70
    12
  0
LAYER
  2
0
 70
     0
 62
     7
  6
CONTINUOUS
  0
LAYER
  2
BASIS
 70
     0
 62
     6
  6
DASHDOT
  0
LAYER
  2
OUTLINE
 70
     0
 62
     3
  6
CONTINUOUS
  0
LAYER
  2
DETAIL
 70
     0
 62
     5
  6
CONTINUOUS
  0
LAYER
  2
SIZE
 70
     0
 62
    30
  6
CONTINUOUS
  0
LAYER
  2
ARRANGE
 70
     0
 62
     1
  6
CONTINUOUS
  0
LAYER
  2
DEFPOINTS
 70
     0
 62
     7
  6
CONTINUOUS
  0
LAYER
  2
ETC
 70
     0
 62
    61
  6
CONTINUOUS
  0
LAYER
  2
FIX
 70
     0
 62
    11
  6
CONTINUOUS
  0
LAYER
  2
NOTE
 70
     0
 62
     4
  6
CONTINUOUS
  0
LAYER
  2
SERVICESPACE
 70
    64
 62
     2
  6
DASHDOT
  0
LAYER
  2
SYMBOLLINE
 70
    64
 62
    15
  6
CONTINUOUS
  0
ENDTAB
  0
TABLE
  2
STYLE
 70
     1
  0
STYLE
  2
STANDARD
 70
     0
 40
64.0
 41
0.9
 50
0.0
 71
     0
 42
64.0
  3
SIMPLEX.shx
  4
BIGFONT.shx
  0
ENDTAB
  0
TABLE
  2
APPID
 70
    19
  0
APPID
  2
ACAD
 70
     0
  0
APPID
  2
AUTOCAD_POSTSCRIPT_FIGURE
 70
     0
  0
APPID
  2
ACAD_EXEMPT_FROM_CAD_STANDARDS
 70
     0
  0
APPID
  2
ACAD_PSEXT
 70
     0
  0
APPID
  2
ACAUTHENVIRON
 70
     0
  0
APPID
  2
GENIUS_GENOENT_13
 70
     0
  0
APPID
  2
GENIUS_GENCFG_13
 70
     0
  0
APPID
  2
GENIUS_GENCFG0_13
 70
     0
  0
APPID
  2
GENIUS_GENCFG1_13
 70
     0
  0
APPID
  2
GENIUS_GENCFG2_13
 70
     0
  0
APPID
  2
GENIUS_GENCFG3_13
 70
     0
  0
APPID
  2
GENIUS_GENCFG4_13
 70
     0
  0
APPID
  2
GENIUS_GEVCFG0_13
 70
     0
  0
APPID
  2
CONTENTBLOCKICON
 70
     0
  0
APPID
  2
CONTENTBLOCKDESCRIPTION
 70
     0
  0
APPID
  2
ACAD_NAV_VCDISPLAY
 70
     0
  0
APPID
  2
ACAD_MLEADERVER
 70
     0
  0
APPID
  2
ACDBDYNAMICBLOCKTRUENAME
 70
     0
  0
APPID
  2
ACDBDYNAMICBLOCKGUID
 70
     0
  0
ENDTAB
  0
TABLE
  2
DIMSTYLE
 70
     1
  0
DIMSTYLE
  2
STANDARD
 70
     0
  3

  4

  5
_ORIGIN
  6

  7

 40
1.0
 41
12.0
 42
20.0
 43
200.0
 44
20.0
 45
0.0
 46
0.0
 47
0.0
 48
0.0
140
64.0
141
0.09
142
0.0
143
25.399999999999999
144
1.0
145
0.0
146
1.0
147
25.0
 71
     0
 72
     0
 73
     0
 74
     0
 75
     0
 76
     0
 77
     1
 78
     8
170
     0
171
     2
172
     1
173
     0
174
     1
175
     0
176
     7
177
     7
178
     7
  0
ENDTAB
  0
TABLE
  2
VIEW
 70
     1
  0
VIEW
  2
ALL
 70
     0
 40
4282.6198079999986
 10
0.0
 20
41.309904000000003
 41
5940.0
 11
0.0
 21
0.0
 31
1.0
 12
0.0
 22
0.0
 32
0.0
 42
50.0
 43
0.0
 44
0.0
 50
0.0
 71
     0
  0
ENDTAB
  0
TABLE
  2
UCS
 70
     0
  0
ENDTAB
  0
TABLE
  2
VPORT
 70
     1
  0
VPORT
  2
*ACTIVE
 70
     0
 10
0.0
 20
0.0
 11
1.0
 21
1.0
 12
373.65190025145512
 22
153.16773456657299
 13
0.0
 23
0.0
 14
1.0
 24
1.0
 15
0.0
 25
0.0
 16
0.0
 26
0.0
 36
1.0
 17
0.0
 27
0.0
 37
0.0
 40
1632.645897213217
 41
1.781285231116122
 42
50.0
 43
0.0
 44
0.0
 50
0.0
 51
0.0
 71
     0
 72
  1000
 73
     1
 74
     3
 75
     0
 76
     0
 77
     0
 78
     0
  0
ENDTAB
  0
ENDSEC
  0
SECTION
  2
BLOCKS
  0
BLOCK
  8
0
  2
_ORIGIN
 70
     0
 10
0.0
 20
0.0
 30
0.0
  3
_ORIGIN
  1
_ORIGIN
  0
CIRCLE
  8
0
  6
CONTINUOUS
 62
     7
 10
0.0
 20
0.0
 30
0.0
 40
0.5
  0
LINE
  8
0
  6
CONTINUOUS
 62
     7
 10
0.0
 20
0.0
 30
0.0
 11
-1.0
 21
0.0
 31
0.0
  0
ENDBLK
  8
0
  0
ENDSEC
  0
SECTION
  2
ENTITIES
  0
LINE
  8
DETAIL
  6
CONTINUOUS
 62
     5
 10
507.99999999999591
 20
-291.49987104399821
 30
0.0
 11
507.99999999999591
 21
-149.50012895599869
 31
0.0
  0
LINE
  8
DETAIL
  6
CONTINUOUS
 62
     5
 10
500.00000000000318
 20
-291.50009999999838
 30
0.0
 11
500.00000000000318
 21
-149.49989999999889
 31
0.0
  0
LINE
  8
DETAIL
  6
CONTINUOUS
 62
     5
 10
456.09999999999582
 20
-129.99999999999639
 30
0.0
 11
456.09999999999582
 21
-84.999999999999091
 31
0.0
  0
LINE
  8
DETAIL
  6
CONTINUOUS
 62
     5
 10
445.60000000000309
 20
-300.49999999999909
 30
0.0
 11
445.60000000000309
 21
-140.49999999999821
 31
0.0
  0
LINE
  8
DETAIL
  6
CONTINUOUS
 62
     5
 10
444.10000000000309
 20
-91.999999999995907
 30
0.0
 11
444.10000000000309
 21
-84.999999999999091
 31
0.0
  0
LINE
  8
DETAIL
  6
CONTINUOUS
 62
     5
 10
442.60000000000309
 20
-330.04999999999518
 30
0.0
 11
442.60000000000309
 21
-329.549999999997
 31
0.0
  0
LINE
  8
DETAIL
  6
CONTINUOUS
 62
     5
 10
442.60000000000309
 20
-1.1499999999969079
 30
0.0
 11
442.60000000000309
 21
-0.6499999999987267
 31
0.0
  0
LINE
  8
DETAIL
  6
CONTINUOUS
 62
     5
 10
438.20000000000158
 20
-310.44999999733142
 30
0.0
 11
438.20000000000158
 21
-134.9999999999977
 31
0.0
  0
LINE
  8
DETAIL
  6
CONTINUOUS
 62
     5
 10
438.10000000000309
 20
-109.29999999999841
 30
0.0
 11
438.10000000000309
 21
-113.9999999999964
 31
0.0
  0
LINE
  8
DETAIL
  6
CONTINUOUS
 62
     5
 10
437.60000000000309
 20
-329.04999999999927
 30
0.0
 11
437.60000000000309
 21
-107.9999999999955
 31
0.0
  0
LINE
  8
DETAIL
  6
CONTINUOUS
 62
     5
 10
437.60000000000309
 20
-84.999999999999091
 30
0.0
 11
437.60000000000309
 21
-1.649999999995089
 31
0.0
  0
LINE
  8
DETAIL
  6
CONTINUOUS
 62
     5
 10
437.10000000000309
 20
-1.649999999995089
 30
0.0
 11
437.10000000000309
 21
-2.6499999999978172
 31
0.0
  0
LINE
  8
DETAIL
  6
CONTINUOUS
 62
     5
 10
437.10000000000309
 20
-329.04999999999927
 30
0.0
 11
437.10000000000309
 21
-328.04999999999609
 31
0.0
  0
LINE
  8
DETAIL
  6
CONTINUOUS
 62
     5
 10
435.60000000000309
 20
-330.04999999999518
 30
0.0
 11
435.60000000000309
 21
-328.04999999999609
 31
0.0
  0
LINE
  8
DETAIL
  6
CONTINUOUS
 62
     5
 10
435.60000000000309
 20
-2.6499999999978172
 30
0.0
 11
435.60000000000309
 21
-0.6499999999987267
 31
0.0
  0
LINE
  8
DETAIL
  6
CONTINUOUS
 62
     5
 10
435.49999999999733
 20
-0.6499999999987267
 30
0.0
 11
435.49999999999733
 21
0.0
 31
0.0
  0
LINE
  8
DETAIL
  6
CONTINUOUS
 62
     5
 10
435.09999999999582
 20
-330.04999999999518
 30
0.0
 11
435.09999999999582
 21
-330.99999999999409
 31
0.0
  0
LINE
  8
DETAIL
  6
CONTINUOUS
 62
     5
 10
431.10000000000309
 20
-81.199999999995725
 30
0.0
 11
431.10000000000309
 21
-88.199999999996635
 31
0.0
  0
LINE
  8
DETAIL
  6
CONTINUOUS
 62
     5
 10
437.06006823866937
 20
-0.9564221293276205
 30
0.0
 11
436.91189937333269
 21
-2.6499999999978172
 31
0.0
  0
LINE
  8
DETAIL
  6
CONTINUOUS
 62
     5
 10
436.56197088933999
 20
-0.9128442573282882
 30
0.0
 11
436.40998945467157
 21
-2.6499999999978172
 31
0.0
  0
LINE
  8
DETAIL
  6
CONTINUOUS
 62
     5
 10
412.60000000000309
 20
-102.9999999999982
 30
0.0
 11
412.60000000000309
 21
-81.199999999995725
 31
0.0
  0
LINE
  8
DETAIL
  6
CONTINUOUS
 62
     5
 10
406.30000000000018
 20
-175.49999999999909
 30
0.0
 11
406.30000000000018
 21
-265.49999999999682
 31
0.0
  0
LINE
  8
DETAIL
  6
CONTINUOUS
 62
     5
 10
436.91189937333269
 20
-328.04999999999609
 30
0.0
 11
437.03610918133649
 21
-329.46972459466218
 31
0.0
  0
LINE
  8
DETAIL
  6
CONTINUOUS
 62
     5
 10
436.10884350399738
 20
-328.04999999999609
 30
0.0
 11
436.23915342266719
 21
-329.53944918932888
 31
0.0
  0
LINE
  8
DETAIL
  6
CONTINUOUS
 62
     5
 10
406.30000000000018
 20
-265.49999999999682
 30
0.0
 11
365.30000000000018
 21
-306.49999999999591
 31
0.0
  0
LINE
  8
DETAIL
  6
CONTINUOUS
 62
     5
 10
365.30000000000018
 20
-134.49999999999679
 30
0.0
 11
406.30000000000018
 21
-175.49999999999909
 31
0.0
  0
LINE
  8
DETAIL
  6
CONTINUOUS
 62
     5
 10
234.30000000000021
 20
-265.49999999999682
 30
0.0
 11
234.30000000000021
 21
-175.49999999999909
 31
0.0
  0
LINE
  8
DETAIL
  6
CONTINUOUS
 62
     5
 10
431.32999999998577
 20
-330.99999999999409
 30
0.0
 11
429.07999999998452
 21
-328.74999999997948
 31
0.0
  0
LINE
  8
DETAIL
  6
CONTINUOUS
 62
     5
 10
-445.59999999999582
 20
-300.49999999999858
 30
0.0
 11
-499.99999999999551
 21
-291.49999999999591
 31
0.0
  0
LINE
  8
DETAIL
  6
CONTINUOUS
 62
     5
 10
445.60000000000309
 20
-300.49999999999909
 30
0.0
 11
500.00000000000318
 21
-291.50009999999838
 31
0.0
  0
LINE
  8
DETAIL
  6
CONTINUOUS
 62
     5
 10
431.39999999999191
 20
0.0
 30
0.0
 11
429.74999999999
 21
-1.6500000000096411
 31
0.0
  0
LINE
  8
DETAIL
  6
CONTINUOUS
 62
     5
 10
-443.24999999999733
 20
-330.99999999999409
 30
0.0
 11
-437.83306493866712
 21
-330.99999999999409
 31
0.0
  0
LINE
  8
DETAIL
  6
CONTINUOUS
 62
     5
 10
443.24999999999733
 20
-330.99999999999409
 30
0.0
 11
437.83306493866712
 21
-330.99999999999409
 31
0.0
  0
LINE
  8
DETAIL
  6
CONTINUOUS
 62
     5
 10
435.09999999999582
 20
-330.99999999999409
 30
0.0
 11
-435.09999999999582
 21
-330.99999999999409
 31
0.0
  0
LINE
  8
DETAIL
  6
CONTINUOUS
 62
     5
 10
-443.24999999999733
 20
-330.19999999999658
 30
0.0
 11
-437.83306493866712
 21
-330.19999999999658
 31
0.0
  0
LINE
  8
DETAIL
  6
CONTINUOUS
 62
     5
 10
443.24999999999733
 20
-330.19999999999658
 30
0.0
 11
437.83306493866712
 21
-330.19999999999658
 31
0.0
  0
LINE
  8
DETAIL
  6
CONTINUOUS
 62
     5
 10
430.37999999999238
 20
-330.04999999999518
 30
0.0
 11
435.60000000000309
 21
-330.04999999999518
 31
0.0
  0
LINE
  8
DETAIL
  6
CONTINUOUS
 62
     5
 10
438.10000000000309
 20
-330.04999999999518
 30
0.0
 11
442.60000000000309
 21
-330.04999999999518
 31
0.0
  0
LINE
  8
DETAIL
  6
CONTINUOUS
 62
     5
 10
-430.37999999999278
 20
-330.04999999999518
 30
0.0
 11
-435.60000000000309
 21
-330.04999999999518
 31
0.0
  0
LINE
  8
DETAIL
  6
CONTINUOUS
 62
     5
 10
-438.09999999999582
 20
-330.04999999999518
 30
0.0
 11
-442.59999999999582
 21
-330.04999999999518
 31
0.0
  0
LINE
  8
DETAIL
  6
CONTINUOUS
 62
     5
 10
-438.09999999999582
 20
-329.549999999997
 30
0.0
 11
-443.17499999999291
 21
-329.54999999999973
 31
0.0
  0
LINE
  8
DETAIL
  6
CONTINUOUS
 62
     5
 10
437.60000000000309
 20
-328.04999999999609
 30
0.0
 11
435.60000000000309
 21
-328.04999999999609
 31
0.0
  0
LINE
  8
DETAIL
  6
CONTINUOUS
 62
     5
 10
-435.60000000000309
 20
-328.04999999999609
 30
0.0
 11
-437.59999999999582
 21
-328.04999999999609
 31
0.0
  0
LINE
  8
DETAIL
  6
CONTINUOUS
 62
     5
 10
-438.19999999999442
 20
-310.54999999999791
 30
0.0
 11
-437.59999999999582
 21
-310.54999999999791
 31
0.0
  0
LINE
  8
DETAIL
  6
CONTINUOUS
 62
     5
 10
438.20000000000158
 20
-310.449999999998
 30
0.0
 11
437.60000000000309
 21
-310.449999999998
 31
0.0
  0
LINE
  8
DETAIL
  6
CONTINUOUS
 62
     5
 10
365.30000000000018
 20
-306.49999999999591
 30
0.0
 11
275.30000000000018
 21
-306.49999999999591
 31
0.0
  0
LINE
  8
DETAIL
  6
CONTINUOUS
 62
     5
 10
234.30000000000021
 20
-175.49999999999909
 30
0.0
 11
275.30000000000018
 21
-134.49999999999679
 31
0.0
  0
LINE
  8
DETAIL
  6
CONTINUOUS
 62
     5
 10
438.80000000000751
 20
-300.49999999999909
 30
0.0
 11
445.60000000000309
 21
-300.49999999999909
 31
0.0
  0
LINE
  8
DETAIL
  6
CONTINUOUS
 62
     5
 10
-438.79999999999291
 20
-300.49999999999773
 30
0.0
 11
-445.59999999999582
 21
-300.49999999999858
 31
0.0
  0
LINE
  8
DETAIL
  6
CONTINUOUS
 62
     5
 10
500.00000000000318
 20
-291.50009999999838
 30
0.0
 11
507.99999999999591
 21
-291.50009999999838
 31
0.0
  0
LINE
  8
DETAIL
  6
CONTINUOUS
 62
     5
 10
-499.99999999999551
 20
-291.49999999999591
 30
0.0
 11
-507.99999999999551
 21
-291.49999999999591
 31
0.0
  0
LINE
  8
DETAIL
  6
CONTINUOUS
 62
     5
 10
275.30000000000018
 20
-306.49999999999591
 30
0.0
 11
234.30000000000021
 21
-265.49999999999682
 31
0.0
  0
LINE
  8
BASIS
  6
DASHDOT
 62
     6
 10
0.0
 20
66.446724353338595
 30
0.0
 11
0.0
 21
-397.86666666666451
 31
0.0
  0
LINE
  8
BASIS
  6
DASHDOT
 62
     6
 10
-574.66666666665969
 20
-165.4999999999973
 30
0.0
 11
574.66666666666742
 21
-165.4999999999973
 31
0.0
  0
LINE
  8
DETAIL
  6
CONTINUOUS
 62
     5
 10
500.00000000000318
 20
-149.49989999999889
 30
0.0
 11
507.99999999999591
 21
-149.49989999999889
 31
0.0
  0
LINE
  8
DETAIL
  6
CONTINUOUS
 62
     5
 10
-499.99999999999551
 20
-149.49979999999641
 30
0.0
 11
-507.99999999999551
 21
-149.49979999999641
 31
0.0
  0
LINE
  8
DETAIL
  6
CONTINUOUS
 62
     5
 10
437.60000000000309
 20
-134.9999999999973
 30
0.0
 11
451.10000000000309
 21
-134.9999999999973
 31
0.0
  0
LINE
  8
DETAIL
  6
CONTINUOUS
 62
     5
 10
-437.59999999999582
 20
-134.9999999999973
 30
0.0
 11
-451.09999999999582
 21
-134.9999999999973
 31
0.0
  0
LINE
  8
DETAIL
  6
CONTINUOUS
 62
     5
 10
275.30000000000018
 20
-134.49999999999679
 30
0.0
 11
365.30000000000018
 21
-134.49999999999679
 31
0.0
  0
LINE
  8
DETAIL
  6
CONTINUOUS
 62
     5
 10
437.6264151093319
 20
-113.9999999999964
 30
0.0
 11
441.00000000000449
 21
-113.9999999999964
 31
0.0
  0
LINE
  8
DETAIL
  6
CONTINUOUS
 62
     5
 10
-437.6264151093319
 20
-113.9999999999964
 30
0.0
 11
-440.99999999999733
 21
-113.9999999999964
 31
0.0
  0
LINE
  8
DETAIL
  6
CONTINUOUS
 62
     5
 10
437.60000000000309
 20
-109.29999999999841
 30
0.0
 11
438.10000000000309
 21
-109.29999999999841
 31
0.0
  0
LINE
  8
DETAIL
  6
CONTINUOUS
 62
     5
 10
417.59999999999582
 20
-107.9999999999955
 30
0.0
 11
441.00000000000449
 21
-107.9999999999955
 31
0.0
  0
LINE
  8
DETAIL
  6
CONTINUOUS
 62
     5
 10
-417.59999999999582
 20
-107.9999999999955
 30
0.0
 11
-440.99999999999733
 21
-107.9999999999955
 31
0.0
  0
LINE
  8
DETAIL
  6
CONTINUOUS
 62
     5
 10
-426.59999999999582
 20
-102.9999999999982
 30
0.0
 11
-424.59999999999582
 21
-102.9999999999982
 31
0.0
  0
LINE
  8
DETAIL
  6
CONTINUOUS
 62
     5
 10
426.59999999999582
 20
-102.9999999999982
 30
0.0
 11
424.60000000000309
 21
-102.9999999999982
 31
0.0
  0
LINE
  8
DETAIL
  6
CONTINUOUS
 62
     5
 10
424.60000000000309
 20
-96.999999999997272
 30
0.0
 11
426.59999999999582
 21
-96.999999999997272
 31
0.0
  0
LINE
  8
DETAIL
  6
CONTINUOUS
 62
     5
 10
-424.59999999999582
 20
-96.999999999997272
 30
0.0
 11
-426.59999999999582
 21
-96.999999999997272
 31
0.0
  0
LINE
  8
DETAIL
  6
CONTINUOUS
 62
     5
 10
-453.10000000000309
 20
-94.999999999998181
 30
0.0
 11
-447.09999999999582
 21
-94.999999999998181
 31
0.0
  0
LINE
  8
DETAIL
  6
CONTINUOUS
 62
     5
 10
453.10000000000309
 20
-94.999999999998181
 30
0.0
 11
447.09999999999582
 21
-94.999999999998181
 31
0.0
  0
LINE
  8
DETAIL
  6
CONTINUOUS
 62
     5
 10
445.60000000000309
 20
-140.49999999999821
 30
0.0
 11
500.00000000000318
 21
-149.49989999999889
 31
0.0
  0
LINE
  8
DETAIL
  6
CONTINUOUS
 62
     5
 10
444.10000000000309
 20
-88.199999999996635
 30
0.0
 11
412.60000000000309
 21
-88.199999999996635
 31
0.0
  0
LINE
  8
DETAIL
  6
CONTINUOUS
 62
     5
 10
-412.60000000000309
 20
-88.199999999996635
 30
0.0
 11
-444.10000000000309
 21
-88.199999999996635
 31
0.0
  0
LINE
  8
DETAIL
  6
CONTINUOUS
 62
     5
 10
431.10000000000309
 20
-84.999999999999091
 30
0.0
 11
456.09999999999582
 21
-84.999999999999091
 31
0.0
  0
LINE
  8
DETAIL
  6
CONTINUOUS
 62
     5
 10
-431.09999999999582
 20
-84.999999999999091
 30
0.0
 11
-456.09999999999582
 21
-84.999999999999091
 31
0.0
  0
LINE
  8
DETAIL
  6
CONTINUOUS
 62
     5
 10
415.60000000000309
 20
-78.199999999997544
 30
0.0
 11
428.09999999999582
 21
-78.199999999997544
 31
0.0
  0
LINE
  8
DETAIL
  6
CONTINUOUS
 62
     5
 10
-415.59999999999582
 20
-78.199999999997544
 30
0.0
 11
-428.09999999999582
 21
-78.199999999997544
 31
0.0
  0
LINE
  8
DETAIL
  6
CONTINUOUS
 62
     5
 10
-445.59999999999582
 20
-140.4999999999973
 30
0.0
 11
-499.99999999999551
 21
-149.49979999999641
 31
0.0
  0
LINE
  8
DETAIL
  6
CONTINUOUS
 62
     5
 10
437.60000000000309
 20
-2.6499999999978172
 30
0.0
 11
435.60000000000309
 21
-2.6499999999978172
 31
0.0
  0
LINE
  8
DETAIL
  6
CONTINUOUS
 62
     5
 10
-435.60000000000309
 20
-2.6499999999978172
 30
0.0
 11
-437.59999999999582
 21
-2.6499999999978172
 31
0.0
  0
LINE
  8
DETAIL
  6
CONTINUOUS
 62
     5
 10
-438.09999999999582
 20
-1.1499999999969079
 30
0.0
 11
-443.17500000000018
 21
-1.1499999999969079
 31
0.0
  0
LINE
  8
DETAIL
  6
CONTINUOUS
 62
     5
 10
442.60000000000309
 20
-0.6499999999987267
 30
0.0
 11
438.10000000000309
 21
-0.6499999999987267
 31
0.0
  0
LINE
  8
DETAIL
  6
CONTINUOUS
 62
     5
 10
435.60000000000309
 20
-0.6499999999987267
 30
0.0
 11
430.74999999999591
 21
-0.6499999999987267
 31
0.0
  0
LINE
  8
DETAIL
  6
CONTINUOUS
 62
     5
 10
-430.74999999998909
 20
-0.6499999999987267
 30
0.0
 11
-435.60000000000309
 21
-0.6499999999987267
 31
0.0
  0
LINE
  8
DETAIL
  6
CONTINUOUS
 62
     5
 10
-438.09999999999582
 20
-0.6499999999987267
 30
0.0
 11
-442.59999999999582
 21
-0.6499999999987267
 31
0.0
  0
LINE
  8
DETAIL
  6
CONTINUOUS
 62
     5
 10
443.17500000000018
 20
-0.4999999999990905
 30
0.0
 11
437.5581655866672
 21
-0.4999999999972715
 31
0.0
  0
LINE
  8
DETAIL
  6
CONTINUOUS
 62
     5
 10
-437.5581655866672
 20
-0.4999999999972715
 30
0.0
 11
-443.17500000000018
 21
-0.4999999999990905
 31
0.0
  0
LINE
  8
DETAIL
  6
CONTINUOUS
 62
     5
 10
443.17499999999291
 20
0.0000000000045475
 30
0.0
 11
437.5581655866672
 21
0.0
 31
0.0
  0
LINE
  8
DETAIL
  6
CONTINUOUS
 62
     5
 10
435.49999999999733
 20
0.0
 30
0.0
 11
-435.49999999999733
 21
0.0
 31
0.0
  0
LINE
  8
DETAIL
  6
CONTINUOUS
 62
     5
 10
-437.5581655866672
 20
0.0
 30
0.0
 11
-443.17499999998557
 21
0.0000000000045475
 31
0.0
  0
LINE
  8
DETAIL
  6
CONTINUOUS
 62
     5
 10
-431.39999999998548
 20
0.0
 30
0.0
 11
-429.74999999998272
 21
-1.6500000000096411
 31
0.0
  0
LINE
  8
DETAIL
  6
CONTINUOUS
 62
     5
 10
-431.32999999999271
 20
-330.99999999999409
 30
0.0
 11
-429.07999999997719
 21
-328.74999999997948
 31
0.0
  0
LINE
  8
DETAIL
  6
CONTINUOUS
 62
     5
 10
-436.23915342266719
 20
-329.53944918932888
 30
0.0
 11
-436.1088435026586
 21
-328.04999999999609
 31
0.0
  0
LINE
  8
DETAIL
  6
CONTINUOUS
 62
     5
 10
-437.03610917999782
 20
-329.46972459466218
 30
0.0
 11
-436.91189937333269
 21
-328.04999999999609
 31
0.0
  0
LINE
  8
DETAIL
  6
CONTINUOUS
 62
     5
 10
-412.60000000000309
 20
-102.9999999999982
 30
0.0
 11
-412.60000000000309
 21
-81.199999999995725
 31
0.0
  0
LINE
  8
DETAIL
  6
CONTINUOUS
 62
     5
 10
-431.09999999999582
 20
-81.199999999995725
 30
0.0
 11
-431.09999999999582
 21
-88.199999999996635
 31
0.0
  0
LINE
  8
DETAIL
  6
CONTINUOUS
 62
     5
 10
-436.40998945466441
 20
-2.6499999999978172
 30
0.0
 11
-436.56197088933283
 21
-0.9128442573282882
 31
0.0
  0
LINE
  8
DETAIL
  6
CONTINUOUS
 62
     5
 10
-436.91189937333269
 20
-2.6499999999978172
 30
0.0
 11
-437.06006823733787
 21
-0.9564221293276205
 31
0.0
  0
LINE
  8
DETAIL
  6
CONTINUOUS
 62
     5
 10
-435.09999999999582
 20
-330.04999999999518
 30
0.0
 11
-435.09999999999582
 21
-330.99999999999409
 31
0.0
  0
LINE
  8
DETAIL
  6
CONTINUOUS
 62
     5
 10
-435.49999999999733
 20
0.0
 30
0.0
 11
-435.49999999999733
 21
-0.6499999999987267
 31
0.0
  0
LINE
  8
DETAIL
  6
CONTINUOUS
 62
     5
 10
-435.60000000000309
 20
-330.04999999999518
 30
0.0
 11
-435.60000000000309
 21
-328.04999999999609
 31
0.0
  0
LINE
  8
DETAIL
  6
CONTINUOUS
 62
     5
 10
-435.60000000000309
 20
-2.6499999999978172
 30
0.0
 11
-435.60000000000309
 21
-0.6499999999987267
 31
0.0
  0
LINE
  8
DETAIL
  6
CONTINUOUS
 62
     5
 10
-437.09999999999582
 20
-1.649999999995089
 30
0.0
 11
-437.09999999999582
 21
-2.6499999999978172
 31
0.0
  0
LINE
  8
DETAIL
  6
CONTINUOUS
 62
     5
 10
-437.09999999999582
 20
-329.04999999999927
 30
0.0
 11
-437.09999999999582
 21
-328.04999999999609
 31
0.0
  0
LINE
  8
DETAIL
  6
CONTINUOUS
 62
     5
 10
-437.59999999999582
 20
-329.04999999999927
 30
0.0
 11
-437.59999999999582
 21
-107.9999999999955
 31
0.0
  0
LINE
  8
DETAIL
  6
CONTINUOUS
 62
     5
 10
-437.59999999999582
 20
-84.999999999999091
 30
0.0
 11
-437.59999999999582
 21
-1.649999999995089
 31
0.0
  0
LINE
  8
DETAIL
  6
CONTINUOUS
 62
     5
 10
-438.19999999999442
 20
-134.9999999999973
 30
0.0
 11
-438.19999999999442
 21
-310.54999999733133
 31
0.0
  0
LINE
  8
DETAIL
  6
CONTINUOUS
 62
     5
 10
-442.59999999999582
 20
-0.6499999999987267
 30
0.0
 11
-442.59999999999582
 21
-1.1499999999969079
 31
0.0
  0
LINE
  8
DETAIL
  6
CONTINUOUS
 62
     5
 10
-442.59999999999582
 20
-329.549999999997
 30
0.0
 11
-442.59999999999582
 21
-330.04999999999518
 31
0.0
  0
LINE
  8
DETAIL
  6
CONTINUOUS
 62
     5
 10
-444.10000000000309
 20
-91.999999999995907
 30
0.0
 11
-444.10000000000309
 21
-84.999999999999091
 31
0.0
  0
LINE
  8
DETAIL
  6
CONTINUOUS
 62
     5
 10
-445.59999999999582
 20
-300.49999999999858
 30
0.0
 11
-445.59999999999582
 21
-140.4999999999973
 31
0.0
  0
LINE
  8
DETAIL
  6
CONTINUOUS
 62
     5
 10
-456.09999999999582
 20
-129.99999999999639
 30
0.0
 11
-456.09999999999582
 21
-84.999999999999091
 31
0.0
  0
LINE
  8
DETAIL
  6
CONTINUOUS
 62
     5
 10
-499.99999999999551
 20
-291.49999999999591
 30
0.0
 11
-499.99999999999551
 21
-149.49979999999641
 31
0.0
  0
LINE
  8
DETAIL
  6
CONTINUOUS
 62
     5
 10
-507.99999999999551
 20
-291.49977104399568
 30
0.0
 11
-507.99999999999551
 21
-149.50002895599621
 31
0.0
  0
CIRCLE
  8
DETAIL
  6
CONTINUOUS
 62
     5
 10
381.11118318266841
 20
-281.31118318266408
 30
0.0
 40
4.6999999999999869
  0
CIRCLE
  8
DETAIL
  6
CONTINUOUS
 62
     5
 10
259.48881681866351
 20
-281.31118318266408
 30
0.0
 40
4.6999999999999869
  0
ARC
  8
DETAIL
  6
CONTINUOUS
 62
     5
 10
437.83306493866712
 20
-329.39999999999549
 30
0.0
 40
1.5999999999999961
 50
184.99999999999969
 51
270.0
  0
ARC
  8
DETAIL
  6
CONTINUOUS
 62
     5
 10
438.10000000000309
 20
-329.04999999999927
 30
0.0
 40
0.9999999999999976
 50
180.0
 51
270.0
  0
ARC
  8
DETAIL
  6
CONTINUOUS
 62
     5
 10
437.83306493866712
 20
-329.39999999999549
 30
0.0
 40
0.7999999999999981
 50
184.9999999998951
 51
270.0
  0
ARC
  8
DETAIL
  6
CONTINUOUS
 62
     5
 10
438.80000000000751
 20
-301.09999999999809
 30
0.0
 40
0.5999999999999987
 50
90.000000000000014
 51
180.0
  0
ARC
  8
DETAIL
  6
CONTINUOUS
 62
     5
 10
438.10000000000309
 20
-329.04999999999927
 30
0.0
 40
0.4999999999999988
 50
180.0
 51
270.0
  0
ARC
  8
DETAIL
  6
CONTINUOUS
 62
     5
 10
433.57749999999669
 20
-113.9999999999964
 30
0.0
 40
6.522499999999984
 50
0.000000000000007
 51
46.102601832916797
  0
ARC
  8
DETAIL
  6
CONTINUOUS
 62
     5
 10
417.59999999999582
 20
-102.9999999999982
 30
0.0
 40
4.9999999999999876
 50
180.0
 51
270.0
  0
ARC
  8
DETAIL
  6
CONTINUOUS
 62
     5
 10
451.10000000000309
 20
-129.99999999999639
 30
0.0
 40
4.9999999999999876
 50
270.0
 51
0.000000000000007
  0
CIRCLE
  8
DETAIL
  6
CONTINUOUS
 62
     5
 10
381.11118318266841
 20
-159.68881681866381
 30
0.0
 40
4.6999999999999869
  0
CIRCLE
  8
DETAIL
  6
CONTINUOUS
 62
     5
 10
259.48881681866351
 20
-159.68881681866381
 30
0.0
 40
4.6999999999999869
  0
ARC
  8
DETAIL
  6
CONTINUOUS
 62
     5
 10
441.00000000000449
 20
-110.9999999999977
 30
0.0
 40
2.999999999999992
 50
270.0
 51
90.000000000000014
  0
ARC
  8
DETAIL
  6
CONTINUOUS
 62
     5
 10
424.60000000000309
 20
-99.999999999995907
 30
0.0
 40
2.999999999999992
 50
90.000000000000014
 51
270.0
  0
ARC
  8
DETAIL
  6
CONTINUOUS
 62
     5
 10
415.60000000000309
 20
-81.199999999995725
 30
0.0
 40
2.999999999999992
 50
90.000000000000014
 51
180.0
  0
ARC
  8
DETAIL
  6
CONTINUOUS
 62
     5
 10
428.09999999999582
 20
-81.199999999995725
 30
0.0
 40
2.999999999999992
 50
0.000000000000007
 51
90.000000000000014
  0
ARC
  8
DETAIL
  6
CONTINUOUS
 62
     5
 10
426.59999999999582
 20
-99.999999999995907
 30
0.0
 40
2.999999999999992
 50
270.0
 51
90.000000000000014
  0
ARC
  8
DETAIL
  6
CONTINUOUS
 62
     5
 10
447.09999999999582
 20
-91.999999999995907
 30
0.0
 40
2.999999999999992
 50
180.0
 51
270.0
  0
ARC
  8
DETAIL
  6
CONTINUOUS
 62
     5
 10
453.10000000000309
 20
-91.999999999995907
 30
0.0
 40
2.999999999999992
 50
270.0
 51
0.000000000000007
  0
CIRCLE
  8
DETAIL
  6
CONTINUOUS
 62
     5
 10
425.60000000000309
 20
-99.999999999995907
 30
0.0
 40
2.4999999999999938
  0
ARC
  8
DETAIL
  6
CONTINUOUS
 62
     5
 10
437.5581655866672
 20
-0.9999999999954525
 30
0.0
 40
0.9999999999999976
 50
90.000000000000014
 51
175.00000000000031
  0
ARC
  8
DETAIL
  6
CONTINUOUS
 62
     5
 10
438.10000000000309
 20
-1.649999999995089
 30
0.0
 40
0.9999999999999976
 50
90.000000000000014
 51
180.0
  0
ARC
  8
DETAIL
  6
CONTINUOUS
 62
     5
 10
438.10000000000309
 20
-1.649999999995089
 30
0.0
 40
0.4999999999999988
 50
90.000000000000014
 51
180.0
  0
ARC
  8
DETAIL
  6
CONTINUOUS
 62
     5
 10
437.5581655866672
 20
-0.9999999999954525
 30
0.0
 40
0.4999999999999988
 50
90.000000000000014
 51
175.0000000001049
  0
ARC
  8
DETAIL
  6
CONTINUOUS
 62
     5
 10
-437.83306493866712
 20
-329.39999999999549
 30
0.0
 40
1.5999999999999961
 50
270.0
 51
355.00000000000028
  0
ARC
  8
DETAIL
  6
CONTINUOUS
 62
     5
 10
-438.09999999999582
 20
-329.04999999999927
 30
0.0
 40
0.9999999999999976
 50
270.0
 51
0.000000000000007
  0
ARC
  8
DETAIL
  6
CONTINUOUS
 62
     5
 10
-437.83306493866712
 20
-329.39999999999549
 30
0.0
 40
0.7999999999999981
 50
270.00000000010431
 51
355.00000000010488
  0
ARC
  8
DETAIL
  6
CONTINUOUS
 62
     5
 10
-438.09999999999582
 20
-329.04999999999927
 30
0.0
 40
0.4999999999999988
 50
270.0
 51
0.000000000000007
  0
ARC
  8
DETAIL
  6
CONTINUOUS
 62
     5
 10
-451.09999999999582
 20
-129.99999999999639
 30
0.0
 40
4.9999999999999876
 50
180.0
 51
270.0
  0
ARC
  8
DETAIL
  6
CONTINUOUS
 62
     5
 10
-417.59999999999582
 20
-102.9999999999982
 30
0.0
 40
4.9999999999999876
 50
270.0
 51
0.000000000000007
  0
ARC
  8
DETAIL
  6
CONTINUOUS
 62
     5
 10
-440.99999999999733
 20
-110.9999999999977
 30
0.0
 40
2.999999999999992
 50
90.000000000000014
 51
270.0
  0
ARC
  8
DETAIL
  6
CONTINUOUS
 62
     5
 10
-424.59999999999582
 20
-99.999999999995907
 30
0.0
 40
2.999999999999992
 50
270.0
 51
90.000000000000014
  0
ARC
  8
DETAIL
  6
CONTINUOUS
 62
     5
 10
-415.59999999999582
 20
-81.199999999995725
 30
0.0
 40
2.999999999999992
 50
0.000000000000007
 51
90.000000000000014
  0
ARC
  8
DETAIL
  6
CONTINUOUS
 62
     5
 10
-428.09999999999582
 20
-81.199999999995725
 30
0.0
 40
2.999999999999992
 50
90.000000000000014
 51
180.0
  0
ARC
  8
DETAIL
  6
CONTINUOUS
 62
     5
 10
-426.59999999999582
 20
-99.999999999995907
 30
0.0
 40
2.999999999999992
 50
90.000000000000014
 51
270.0
  0
ARC
  8
DETAIL
  6
CONTINUOUS
 62
     5
 10
-447.09999999999582
 20
-91.999999999995907
 30
0.0
 40
2.999999999999992
 50
270.0
 51
0.000000000000007
  0
ARC
  8
DETAIL
  6
CONTINUOUS
 62
     5
 10
-453.10000000000309
 20
-91.999999999995907
 30
0.0
 40
2.999999999999992
 50
180.0
 51
270.0
  0
CIRCLE
  8
DETAIL
  6
CONTINUOUS
 62
     5
 10
-425.59999999999582
 20
-99.999999999995907
 30
0.0
 40
2.4999999999999938
  0
ARC
  8
DETAIL
  6
CONTINUOUS
 62
     5
 10
-437.5581655866672
 20
-0.9999999999954525
 30
0.0
 40
0.9999999999999976
 50
4.9999999999997469
 51
90.000000000000014
  0
ARC
  8
DETAIL
  6
CONTINUOUS
 62
     5
 10
-438.09999999999582
 20
-1.649999999995089
 30
0.0
 40
0.9999999999999976
 50
0.000000000000007
 51
90.000000000000014
  0
ARC
  8
DETAIL
  6
CONTINUOUS
 62
     5
 10
-438.09999999999582
 20
-1.649999999995089
 30
0.0
 40
0.4999999999999988
 50
0.000000000000007
 51
90.000000000000014
  0
ARC
  8
DETAIL
  6
CONTINUOUS
 62
     5
 10
-437.5581655866672
 20
-0.9999999999954525
 30
0.0
 40
0.4999999999999988
 50
4.9999999998950679
 51
90.000000000000014
  0
LINE
  8
DETAIL
  6
CONTINUOUS
 62
     5
 10
440.07078204132722
 20
-113.5639411839952
 30
0.0
 11
440.07227752125112
 21
-113.57594969131276
 31
0.0
  0
LINE
  8
DETAIL
  6
CONTINUOUS
 62
     5
 10
440.07227752125112
 20
-113.57594969131276
 30
0.0
 11
440.07377351472701
 21
-113.58799708652934
 31
0.0
  0
LINE
  8
DETAIL
  6
CONTINUOUS
 62
     5
 10
440.07377351472701
 20
-113.58799708652934
 30
0.0
 11
440.0752705343013
 21
-113.60012225848992
 31
0.0
  0
LINE
  8
DETAIL
  6
CONTINUOUS
 62
     5
 10
440.0752705343013
 20
-113.60012225848992
 30
0.0
 11
440.07676498852493
 21
-113.61205298781734
 31
0.0
  0
LINE
  8
DETAIL
  6
CONTINUOUS
 62
     5
 10
440.07676498852493
 20
-113.61205298781734
 30
0.0
 11
440.07826072538109
 21
-113.62408093882894
 31
0.0
  0
LINE
  8
DETAIL
  6
CONTINUOUS
 62
     5
 10
440.07826072538109
 20
-113.62408093882894
 30
0.0
 11
440.07978294066294
 21
-113.63812610999706
 31
0.0
  0
LINE
  8
DETAIL
  6
CONTINUOUS
 62
     5
 10
440.07978294066294
 20
-113.63812610999706
 30
0.0
 11
440.08131839488817
 21
-113.65317989088639
 31
0.0
  0
LINE
  8
DETAIL
  6
CONTINUOUS
 62
     5
 10
440.08131839488817
 20
-113.65317989088639
 30
0.0
 11
440.08285384888921
 21
-113.66823367177453
 31
0.0
  0
LINE
  8
DETAIL
  6
CONTINUOUS
 62
     5
 10
440.08285384888921
 20
-113.66823367177453
 30
0.0
 11
440.08438930355106
 21
-113.68328745221871
 31
0.0
  0
LINE
  8
DETAIL
  6
CONTINUOUS
 62
     5
 10
440.08438930355106
 20
-113.68328745221871
 30
0.0
 11
440.08592475844097
 21
-113.69834123288648
 31
0.0
  0
LINE
  8
DETAIL
  6
CONTINUOUS
 62
     5
 10
440.08592475844097
 20
-113.69834123288648
 30
0.0
 11
440.08726862765985
 21
-113.71239549938498
 31
0.0
  0
LINE
  8
DETAIL
  6
CONTINUOUS
 62
     5
 10
440.08726862765985
 20
-113.71239549938498
 30
0.0
 11
440.08822932632728
 21
-113.72445073688552
 31
0.0
  0
LINE
  8
DETAIL
  6
CONTINUOUS
 62
     5
 10
440.08822932632728
 20
-113.72445073688552
 30
0.0
 11
440.08917410877172
 21
-113.7363739914973
 31
0.0
  0
LINE
  8
DETAIL
  6
CONTINUOUS
 62
     5
 10
440.08917410877172
 20
-113.7363739914973
 30
0.0
 11
440.09015072388343
 21
-113.7485612111081
 31
0.0
  0
LINE
  8
DETAIL
  6
CONTINUOUS
 62
     5
 10
440.09015072388343
 20
-113.7485612111081
 30
0.0
 11
440.09111142266437
 21
-113.76061644855157
 31
0.0
  0
LINE
  8
DETAIL
  6
CONTINUOUS
 62
     5
 10
440.09111142266437
 20
-113.76061644855157
 30
0.0
 11
440.09207212132827
 21
-113.7726716859958
 31
0.0
  0
LINE
  8
DETAIL
  6
CONTINUOUS
 62
     5
 10
440.09207212132827
 20
-113.7726716859958
 30
0.0
 11
440.09293810599053
 21
-113.78775214194026
 31
0.0
  0
LINE
  8
DETAIL
  6
CONTINUOUS
 62
     5
 10
440.09293810599053
 20
-113.78775214194026
 30
0.0
 11
440.09380409110565
 21
-113.80283259855258
 31
0.0
  0
LINE
  8
DETAIL
  6
CONTINUOUS
 62
     5
 10
440.09380409110565
 20
-113.80283259855258
 30
0.0
 11
440.09465817405248
 21
-113.8177807292746
 31
0.0
  0
LINE
  8
DETAIL
  6
CONTINUOUS
 62
     5
 10
440.09465817405248
 20
-113.8177807292746
 30
0.0
 11
440.09553606132943
 21
-113.83299351166329
 31
0.0
  0
LINE
  8
DETAIL
  6
CONTINUOUS
 62
     5
 10
440.09553606132943
 20
-113.83299351166329
 30
0.0
 11
440.09640204627277
 21
-113.84807396777539
 31
0.0
  0
LINE
  8
DETAIL
  6
CONTINUOUS
 62
     5
 10
440.09640204627277
 20
-113.84807396777539
 30
0.0
 11
440.09697384999498
 21
-113.86114787044086
 31
0.0
  0
LINE
  8
DETAIL
  6
CONTINUOUS
 62
     5
 10
440.09697384999498
 20
-113.86114787044086
 30
0.0
 11
440.09739856266214
 21
-113.87321849755223
 31
0.0
  0
LINE
  8
DETAIL
  6
CONTINUOUS
 62
     5
 10
440.09739856266214
 20
-113.87321849755223
 30
0.0
 11
440.09782327532804
 21
-113.88528912399687
 31
0.0
  0
LINE
  8
DETAIL
  6
CONTINUOUS
 62
     5
 10
440.09782327532804
 20
-113.88528912399687
 30
0.0
 11
440.09824798821586
 21
-113.8973597502201
 31
0.0
  0
LINE
  8
DETAIL
  6
CONTINUOUS
 62
     5
 10
440.09824798821586
 20
-113.8973597502201
 30
0.0
 11
440.09867270088301
 21
-113.90943037644165
 31
0.0
  0
LINE
  8
DETAIL
  6
CONTINUOUS
 62
     5
 10
440.09867270088301
 20
-113.90943037644165
 30
0.0
 11
440.09902110277295
 21
-113.92263511955179
 31
0.0
  0
LINE
  8
DETAIL
  6
CONTINUOUS
 62
     5
 10
440.09902110277295
 20
-113.92263511955179
 30
0.0
 11
440.09921688240058
 21
-113.9381080955517
 31
0.0
  0
LINE
  8
DETAIL
  6
CONTINUOUS
 62
     5
 10
440.09921688240058
 20
-113.9381080955517
 30
0.0
 11
440.09940531424382
 21
-113.95369038577471
 31
0.0
  0
LINE
  8
DETAIL
  6
CONTINUOUS
 62
     5
 10
440.09940531424382
 20
-113.95369038577471
 30
0.0
 11
440.09960844113505
 21
-113.9690540466639
 31
0.0
  0
LINE
  8
DETAIL
  6
CONTINUOUS
 62
     5
 10
440.09960844113505
 20
-113.9690540466639
 30
0.0
 11
440.09980568989386
 21
-113.98450515949628
 31
0.0
  0
LINE
  8
DETAIL
  6
CONTINUOUS
 62
     5
 10
440.09980568989386
 20
-113.98450515949628
 30
0.0
 11
440.09999999999582
 21
-113.99999999733021
 31
0.0
  0
LINE
  8
DETAIL
  6
CONTINUOUS
 62
     5
 10
439.69963249199373
 20
-112.4090097426638
 30
0.0
 11
439.7179601190287
 21
-112.44681715448144
 31
0.0
  0
LINE
  8
DETAIL
  6
CONTINUOUS
 62
     5
 10
439.7179601190287
 20
-112.44681715448144
 30
0.0
 11
439.73626148620332
 21
-112.48463052583746
 31
0.0
  0
LINE
  8
DETAIL
  6
CONTINUOUS
 62
     5
 10
439.73626148620332
 20
-112.48463052583746
 30
0.0
 11
439.75466264155034
 21
-112.52242125024407
 31
0.0
  0
LINE
  8
DETAIL
  6
CONTINUOUS
 62
     5
 10
439.75466264155034
 20
-112.52242125024407
 30
0.0
 11
439.77326193695853
 21
-112.56016700684251
 31
0.0
  0
LINE
  8
DETAIL
  6
CONTINUOUS
 62
     5
 10
439.77326193695853
 20
-112.56016700684251
 30
0.0
 11
439.79099167378007
 21
-112.59811007116275
 31
0.0
  0
LINE
  8
DETAIL
  6
CONTINUOUS
 62
     5
 10
439.79099167378007
 20
-112.59811007116275
 30
0.0
 11
439.80736066695971
 21
-112.63636104390795
 31
0.0
  0
LINE
  8
DETAIL
  6
CONTINUOUS
 62
     5
 10
439.80736066695971
 20
-112.63636104390795
 30
0.0
 11
439.82343436640537
 21
-112.67467945347745
 31
0.0
  0
LINE
  8
DETAIL
  6
CONTINUOUS
 62
     5
 10
439.82343436640537
 20
-112.67467945347745
 30
0.0
 11
439.83959708135882
 21
-112.71298088125559
 31
0.0
  0
LINE
  8
DETAIL
  6
CONTINUOUS
 62
     5
 10
439.83959708135882
 20
-112.71298088125559
 30
0.0
 11
439.85569746519548
 21
-112.75129130014014
 31
0.0
  0
LINE
  8
DETAIL
  6
CONTINUOUS
 62
     5
 10
439.85569746519548
 20
-112.75129130014014
 30
0.0
 11
439.87107184321417
 21
-112.78974409657405
 31
0.0
  0
LINE
  8
DETAIL
  6
CONTINUOUS
 62
     5
 10
439.87107184321417
 20
-112.78974409657405
 30
0.0
 11
439.88487338360926
 21
-112.82849804212752
 31
0.0
  0
LINE
  8
DETAIL
  6
CONTINUOUS
 62
     5
 10
439.88487338360926
 20
-112.82849804212752
 30
0.0
 11
439.89871358519957
 21
-112.86720694665746
 31
0.0
  0
LINE
  8
DETAIL
  6
CONTINUOUS
 62
     5
 10
439.89871358519957
 20
-112.86720694665746
 30
0.0
 11
439.91257226349086
 21
-112.90605481652995
 31
0.0
  0
LINE
  8
DETAIL
  6
CONTINUOUS
 62
     5
 10
439.91257226349086
 20
-112.90605481652995
 30
0.0
 11
439.92653042211492
 21
-112.94450324668902
 31
0.0
  0
LINE
  8
DETAIL
  6
CONTINUOUS
 62
     5
 10
439.92653042211492
 20
-112.94450324668902
 30
0.0
 11
439.93965205682662
 21
-112.98507753649935
 31
0.0
  0
LINE
  8
DETAIL
  6
CONTINUOUS
 62
     5
 10
439.93965205682662
 20
-112.98507753649935
 30
0.0
 11
439.95193094967925
 21
-113.02778626886555
 31
0.0
  0
LINE
  8
DETAIL
  6
CONTINUOUS
 62
     5
 10
439.95193094967925
 20
-113.02778626886555
 30
0.0
 11
439.96434010837697
 21
-113.07005307196077
 31
0.0
  0
LINE
  8
DETAIL
  6
CONTINUOUS
 62
     5
 10
439.96434010837697
 20
-113.07005307196077
 30
0.0
 11
439.97672992105061
 21
-113.11251104288382
 31
0.0
  0
LINE
  8
DETAIL
  6
CONTINUOUS
 62
     5
 10
439.97672992105061
 20
-113.11251104288382
 30
0.0
 11
439.98914784999829
 21
-113.15493852715946
 31
0.0
  0
LINE
  8
DETAIL
  6
CONTINUOUS
 62
     5
 10
439.98914784999829
 20
-113.15493852715946
 30
0.0
 11
439.99926066947791
 21
-113.1953492405413
 31
0.0
  0
LINE
  8
DETAIL
  6
CONTINUOUS
 62
     5
 10
439.99926066947791
 20
-113.1953492405413
 30
0.0
 11
440.00830643667967
 21
-113.23483504660202
 31
0.0
  0
LINE
  8
DETAIL
  6
CONTINUOUS
 62
     5
 10
440.00830643667967
 20
-113.23483504660202
 30
0.0
 11
440.01732072051243
 21
-113.27425439453238
 31
0.0
  0
LINE
  8
DETAIL
  6
CONTINUOUS
 62
     5
 10
440.01732072051243
 20
-113.27425439453238
 30
0.0
 11
440.02638513713424
 21
-113.31364548566083
 31
0.0
  0
LINE
  8
DETAIL
  6
CONTINUOUS
 62
     5
 10
440.02638513713424
 20
-113.31364548566083
 30
0.0
 11
440.03519043574079
 21
-113.35341165735898
 31
0.0
  0
LINE
  8
DETAIL
  6
CONTINUOUS
 62
     5
 10
440.03519043574079
 20
-113.35341165735898
 30
0.0
 11
440.04278239254438
 21
-113.39485416340939
 31
0.0
  0
LINE
  8
DETAIL
  6
CONTINUOUS
 62
     5
 10
440.04278239254438
 20
-113.39485416340939
 30
0.0
 11
440.04965747637311
 21
-113.43730097856138
 31
0.0
  0
LINE
  8
DETAIL
  6
CONTINUOUS
 62
     5
 10
440.04965747637311
 20
-113.43730097856138
 30
0.0
 11
440.05672983292965
 21
-113.4794711301151
 31
0.0
  0
LINE
  8
DETAIL
  6
CONTINUOUS
 62
     5
 10
440.05672983292965
 20
-113.4794711301151
 30
0.0
 11
440.06377464142616
 21
-113.52167991648885
 31
0.0
  0
LINE
  8
DETAIL
  6
CONTINUOUS
 62
     5
 10
440.06377464142616
 20
-113.52167991648885
 30
0.0
 11
440.07078203998839
 21
-113.563941169331
 31
0.0
  0
CIRCLE
  8
DETAIL
  6
DASHED
 62
     5
 10
320.30000000000018
 20
-220.36363982921691
 30
0.0
 40
75.982616649522399
  0
LINE
  8
BASIS
  6
DASHDOT
 62
     6
 10
320.30000000000018
 20
-117.8545221289842
 30
0.0
 11
320.30000000000018
 21
-314.16987263514193
 31
0.0
  0
LINE
  8
BASIS
  6
DASHDOT
 62
     6
 10
213.01395962053081
 20
-220.49999999999861
 30
0.0
 11
534.23353918345265
 21
-220.49999999999861
 31
0.0
  0
ARC
  8
DETAIL
  6
CONTINUOUS
 62
     5
 10
-438.79999999985739
 20
-301.1000000000181
 30
0.0
 40
0.5999999999999987
 50
0.000000000000007
 51
90.000000000000014
  0
LINE
  8
DETAIL
  6
CONTINUOUS
 62
     5
 10
-438.79999999999291
 20
-140.49999999999449
 30
0.0
 11
-445.59999999997399
 21
-140.49999999999321
 31
0.0
  0
ARC
  8
DETAIL
  6
CONTINUOUS
 62
     5
 10
-438.79999999999291
 20
-139.89999999999461
 30
0.0
 40
0.5999999999999987
 50
270.0
 51
0.000000000000007
  0
LINE
  8
DETAIL
  6
CONTINUOUS
 62
     5
 10
438.77578769379221
 20
-140.50251746657389
 30
0.0
 11
445.71186240667612
 21
-140.51864373444371
 31
0.0
  0
LINE
  8
DETAIL
  6
CONTINUOUS
 62
     5
 10
439.60000000000309
 20
-1.6500000000096411
 30
0.0
 11
443.17499999999291
 21
-1.6500000000096411
 31
0.0
  0
LINE
  8
DETAIL
  6
CONTINUOUS
 62
     5
 10
439.60000000000309
 20
-1.1499999999969079
 30
0.0
 11
439.60000000000309
 21
-1.6500000000096411
 31
0.0
  0
ARC
  8
DETAIL
  6
CONTINUOUS
 62
     5
 10
443.17500000000018
 20
-0.8249999999979991
 30
0.0
 40
0.3249999999990287
 50
270.0
 51
90.000000000000014
  0
ARC
  8
DETAIL
  6
CONTINUOUS
 62
     5
 10
443.17499999999291
 20
-0.8250000000025466
 30
0.0
 40
0.8250000000070016
 50
270.0
 51
90.000000000000014
  0
LINE
  8
DETAIL
  6
CONTINUOUS
 62
     5
 10
443.17500000000018
 20
-1.1499999999969079
 30
0.0
 11
438.10000000000309
 21
-1.1499999999969079
 31
0.0
  0
LINE
  8
DETAIL
  6
CONTINUOUS
 62
     5
 10
-439.59999999999582
 20
-1.6500000000096411
 30
0.0
 11
-443.17499999998557
 21
-1.6500000000096411
 31
0.0
  0
LINE
  8
DETAIL
  6
CONTINUOUS
 62
     5
 10
-439.59999999999582
 20
-1.1499999999969079
 30
0.0
 11
-439.59999999999582
 21
-1.6500000000096411
 31
0.0
  0
ARC
  8
DETAIL
  6
CONTINUOUS
 62
     5
 10
-443.17500000000018
 20
-0.8249999999979991
 30
0.0
 40
0.3249999999990287
 50
90.000000000000014
 51
270.0
  0
ARC
  8
DETAIL
  6
CONTINUOUS
 62
     5
 10
-443.17499999998557
 20
-0.8250000000025466
 30
0.0
 40
0.8250000000070016
 50
90.000000000000014
 51
270.0
  0
LINE
  8
DETAIL
  6
CONTINUOUS
 62
     5
 10
439.59999999999582
 20
-328.74999999997948
 30
0.0
 11
443.17499999998557
 21
-328.74999999997948
 31
0.0
  0
ARC
  8
DETAIL
  6
CONTINUOUS
 62
     5
 10
443.17499999998557
 20
-329.87499999998948
 30
0.0
 40
1.1250000000097859
 50
270.0
 51
90.000000000000014
  0
ARC
  8
DETAIL
  6
CONTINUOUS
 62
     5
 10
443.17500000000018
 20
-329.87499999999949
 30
0.0
 40
0.3249999999997037
 50
270.0
 51
90.000000000000014
  0
LINE
  8
DETAIL
  6
CONTINUOUS
 62
     5
 10
439.59999999999582
 20
-329.54999999999973
 30
0.0
 11
439.59999999999582
 21
-328.74999999997948
 31
0.0
  0
LINE
  8
DETAIL
  6
CONTINUOUS
 62
     5
 10
438.10000000000309
 20
-329.549999999997
 30
0.0
 11
443.17500000000018
 21
-329.54999999999973
 31
0.0
  0
LINE
  8
DETAIL
  6
CONTINUOUS
 62
     5
 10
-439.59999999999582
 20
-328.74999999997948
 30
0.0
 11
-443.17499999998557
 21
-328.74999999997948
 31
0.0
  0
ARC
  8
DETAIL
  6
CONTINUOUS
 62
     5
 10
-443.17499999998557
 20
-329.87499999998948
 30
0.0
 40
1.1250000000097859
 50
90.000000000000014
 51
270.0
  0
ARC
  8
DETAIL
  6
CONTINUOUS
 62
     5
 10
-443.17499999999291
 20
-329.87499999999949
 30
0.0
 40
0.3249999999997037
 50
90.000000000000014
 51
270.0
  0
LINE
  8
DETAIL
  6
CONTINUOUS
 62
     5
 10
-439.59999999999582
 20
-329.54999999999973
 30
0.0
 11
-439.59999999999582
 21
-328.74999999997948
 31
0.0
  0
LINE
  8
DETAIL
  6
CONTINUOUS
 62
     5
 10
-429.07999999997719
 20
-328.74999999997948
 30
0.0
 11
429.07999999998452
 21
-328.74999999997948
 31
0.0
  0
LINE
  8
DETAIL
  6
CONTINUOUS
 62
     5
 10
429.74999999999
 20
-1.6500000000096411
 30
0.0
 11
-429.74999999998272
 21
-1.6500000000096411
 31
0.0
  0
LINE
  8
BASIS
  6
DASHDOT
 62
     6
 10
-537.3266239699833
 20
-220.50001143641521
 30
0.0
 11
-411.35535224393698
 21
-220.50001143641521
 31
0.0
  0
LINE
  8
SIZE
  6
CONTINUOUS
 62
    30
 10
444.0
 20
19.17499999999745
 30
0.0
 11
444.0
 21
292.43365340598478
 31
0.0
  0
LINE
  8
SIZE
  6
CONTINUOUS
 62
    30
 10
-443.99999999999272
 20
19.17499999999745
 30
0.0
 11
-443.99999999999272
 21
292.43365340598478
 31
0.0
  0
LINE
  8
SIZE
  6
CONTINUOUS
 62
    30
 10
432.0
 20
272.43365340598478
 30
0.0
 11
-431.99999999999272
 21
272.43365340598478
 31
0.0
  0
CIRCLE
  8
SIZE
  6
CONTINUOUS
 62
    30
 10
444.0
 20
272.43365340598478
 30
0.0
 40
6.0
  0
LINE
  8
SIZE
  6
CONTINUOUS
 62
    30
 10
444.0
 20
272.43365340598478
 30
0.0
 11
432.0
 21
272.43365340598478
 31
0.0
  0
CIRCLE
  8
SIZE
  6
CONTINUOUS
 62
    30
 10
-443.99999999999272
 20
272.43365340598478
 30
0.0
 40
6.0
  0
LINE
  8
SIZE
  6
CONTINUOUS
 62
    30
 10
-443.99999999999272
 20
272.43365340598478
 30
0.0
 11
-431.99999999999272
 21
272.43365340598478
 31
0.0
  0
TEXT
  8
SIZE
  6
CONTINUOUS
 62
    30
 10
-80.351999999996366
 20
297.43365340598478
 30
0.0
 40
64.0
  1
888
 50
0.0
 41
0.9
 51
0.0
  7
STANDARD
 71
     0
 72
     1
 11
0.000000000003638
 21
297.43365340598478
 31
0.0
210
0.0
220
0.0
230
1.0
  0
POINT
  8
DEFPOINTS
  6
CONTINUOUS
 62
    30
 10
444.0
 20
-0.8250000000025466
 30
0.0
  0
POINT
  8
DEFPOINTS
  6
CONTINUOUS
 62
    30
 10
-443.99999999999272
 20
-0.8250000000025466
 30
0.0
  0
POINT
  8
DEFPOINTS
  6
CONTINUOUS
 62
    30
 10
-443.99999999999272
 20
272.43365340598478
 30
0.0
  0
LINE
  8
SIZE
  6
CONTINUOUS
 62
    30
 10
507.99999999999591
 20
-129.50012895599869
 30
0.0
 11
507.99999999999591
 21
292.43365340598478
 31
0.0
  0
LINE
  8
SIZE
  6
CONTINUOUS
 62
    30
 10
444.0
 20
19.17499999999745
 30
0.0
 11
444.0
 21
292.43365340598478
 31
0.0
  0
LINE
  8
SIZE
  6
CONTINUOUS
 62
    30
 10
519.99999999999591
 20
272.43365340598478
 30
0.0
 11
531.99999999999591
 21
272.43365340598478
 31
0.0
  0
LINE
  8
SIZE
  6
CONTINUOUS
 62
    30
 10
432.0
 20
272.43365340598478
 30
0.0
 11
420.0
 21
272.43365340598478
 31
0.0
  0
LINE
  8
SIZE
  6
CONTINUOUS
 62
    30
 10
507.99999999999591
 20
272.43365340598478
 30
0.0
 11
444.0
 21
272.43365340598478
 31
0.0
  0
CIRCLE
  8
SIZE
  6
CONTINUOUS
 62
    30
 10
507.99999999999591
 20
272.43365340598478
 30
0.0
 40
6.0
  0
LINE
  8
SIZE
  6
CONTINUOUS
 62
    30
 10
507.99999999999591
 20
272.43365340598478
 30
0.0
 11
519.99999999999591
 21
272.43365340598478
 31
0.0
  0
CIRCLE
  8
SIZE
  6
CONTINUOUS
 62
    30
 10
444.0
 20
272.43365340598478
 30
0.0
 40
6.0
  0
LINE
  8
SIZE
  6
CONTINUOUS
 62
    30
 10
444.0
 20
272.43365340598478
 30
0.0
 11
432.0
 21
272.43365340598478
 31
0.0
  0
TEXT
  8
SIZE
  6
CONTINUOUS
 62
    30
 10
421.85599999999801
 20
297.43365340598478
 30
0.0
 40
64.0
  1
64
 50
0.0
 41
0.9
 51
0.0
  7
STANDARD
 71
     0
 72
     1
 11
475.99999999999801
 21
297.43365340598478
 31
0.0
210
0.0
220
0.0
230
1.0
  0
POINT
  8
DEFPOINTS
  6
CONTINUOUS
 62
    30
 10
507.99999999999591
 20
-149.50012895599869
 30
0.0
  0
POINT
  8
DEFPOINTS
  6
CONTINUOUS
 62
    30
 10
444.0
 20
-0.8250000000025466
 30
0.0
  0
POINT
  8
DEFPOINTS
  6
CONTINUOUS
 62
    30
 10
444.0
 20
272.43365340598478
 30
0.0
  0
LINE
  8
SIZE
  6
CONTINUOUS
 62
    30
 10
-507.99999999999551
 20
-129.49979999999641
 30
0.0
 11
-507.99999999999551
 21
292.43365340598478
 31
0.0
  0
LINE
  8
SIZE
  6
CONTINUOUS
 62
    30
 10
-443.99999999999272
 20
19.17499999999745
 30
0.0
 11
-443.99999999999272
 21
292.43365340598478
 31
0.0
  0
LINE
  8
SIZE
  6
CONTINUOUS
 62
    30
 10
-519.99999999999545
 20
272.43365340598478
 30
0.0
 11
-531.99999999999545
 21
272.43365340598478
 31
0.0
  0
LINE
  8
SIZE
  6
CONTINUOUS
 62
    30
 10
-431.99999999999272
 20
272.43365340598478
 30
0.0
 11
-419.99999999999272
 21
272.43365340598478
 31
0.0
  0
LINE
  8
SIZE
  6
CONTINUOUS
 62
    30
 10
-507.99999999999551
 20
272.43365340598478
 30
0.0
 11
-443.99999999999272
 21
272.43365340598478
 31
0.0
  0
CIRCLE
  8
SIZE
  6
CONTINUOUS
 62
    30
 10
-507.99999999999551
 20
272.43365340598478
 30
0.0
 40
6.0
  0
LINE
  8
SIZE
  6
CONTINUOUS
 62
    30
 10
-507.99999999999551
 20
272.43365340598478
 30
0.0
 11
-519.99999999999545
 21
272.43365340598478
 31
0.0
  0
CIRCLE
  8
SIZE
  6
CONTINUOUS
 62
    30
 10
-443.99999999999272
 20
272.43365340598478
 30
0.0
 40
6.0
  0
LINE
  8
SIZE
  6
CONTINUOUS
 62
    30
 10
-443.99999999999272
 20
272.43365340598478
 30
0.0
 11
-431.99999999999272
 21
272.43365340598478
 31
0.0
  0
TEXT
  8
SIZE
  6
CONTINUOUS
 62
    30
 10
-530.14399999999409
 20
297.43365340598478
 30
0.0
 40
64.0
  1
64
 50
0.0
 41
0.9
 51
0.0
  7
STANDARD
 71
     0
 72
     1
 11
-475.99999999999409
 21
297.43365340598478
 31
0.0
210
0.0
220
0.0
230
1.0
  0
POINT
  8
DEFPOINTS
  6
CONTINUOUS
 62
    30
 10
-507.99999999999551
 20
-149.49979999999641
 30
0.0
  0
POINT
  8
DEFPOINTS
  6
CONTINUOUS
 62
    30
 10
-443.99999999999272
 20
-0.8250000000025466
 30
0.0
  0
POINT
  8
DEFPOINTS
  6
CONTINUOUS
 62
    30
 10
-443.99999999999272
 20
272.43365340598478
 30
0.0
  0
LINE
  8
SIZE
  6
CONTINUOUS
 62
    30
 10
444.29999999999558
 20
-349.87499999998948
 30
0.0
 11
444.29999999999558
 21
-566.40738240206974
 31
0.0
  0
LINE
  8
SIZE
  6
CONTINUOUS
 62
    30
 10
320.30000000000018
 20
-334.16987263514193
 30
0.0
 11
320.30000000000018
 21
-566.40738240206974
 31
0.0
  0
LINE
  8
SIZE
  6
CONTINUOUS
 62
    30
 10
332.30000000000018
 20
-546.40738240206974
 30
0.0
 11
432.29999999999558
 21
-546.40738240206974
 31
0.0
  0
LINE
  8
SIZE
  6
CONTINUOUS
 62
    30
 10
444.29999999999558
 20
-546.40738240206974
 30
0.0
 11
646.18571428570999
 21
-546.40738240206974
 31
0.0
  0
CIRCLE
  8
SIZE
  6
CONTINUOUS
 62
    30
 10
320.30000000000018
 20
-546.40738240206974
 30
0.0
 40
6.0
  0
LINE
  8
SIZE
  6
CONTINUOUS
 62
    30
 10
320.30000000000018
 20
-546.40738240206974
 30
0.0
 11
332.30000000000018
 21
-546.40738240206974
 31
0.0
  0
CIRCLE
  8
SIZE
  6
CONTINUOUS
 62
    30
 10
444.29999999999558
 20
-546.40738240206974
 30
0.0
 40
6.0
  0
LINE
  8
SIZE
  6
CONTINUOUS
 62
    30
 10
444.29999999999558
 20
-546.40738240206974
 30
0.0
 11
432.29999999999558
 21
-546.40738240206974
 31
0.0
  0
TEXT
  8
SIZE
  6
CONTINUOUS
 62
    30
 10
476.07485714285281
 20
-521.40738240206974
 30
0.0
 40
64.0
  1
124
 50
0.0
 41
0.9
 51
0.0
  7
STANDARD
 71
     0
 72
     1
 11
551.24285714285281
 21
-521.40738240206974
 31
0.0
210
0.0
220
0.0
230
1.0
  0
POINT
  8
DEFPOINTS
  6
CONTINUOUS
 62
    30
 10
444.29999999999558
 20
-329.87499999998948
 30
0.0
  0
POINT
  8
DEFPOINTS
  6
CONTINUOUS
 62
    30
 10
320.30000000000018
 20
-314.16987263514193
 30
0.0
  0
POINT
  8
DEFPOINTS
  6
CONTINUOUS
 62
    30
 10
320.30000000000018
 20
-546.40738240206974
 30
0.0
  0
LINE
  8
SIZE
  6
CONTINUOUS
 62
    30
 10
554.23353918345288
 20
-220.49999999999869
 30
0.0
 11
822.83882348684551
 21
-220.49999999999869
 31
0.0
  0
LINE
  8
SIZE
  6
CONTINUOUS
 62
    30
 10
594.66666666666765
 20
-165.4999999999973
 30
0.0
 11
822.83882348684551
 21
-165.4999999999973
 31
0.0
  0
LINE
  8
SIZE
  6
CONTINUOUS
 62
    30
 10
802.83882348684551
 20
-153.4999999999973
 30
0.0
 11
802.83882348684551
 21
-141.4999999999973
 31
0.0
  0
LINE
  8
SIZE
  6
CONTINUOUS
 62
    30
 10
802.83882348684551
 20
-232.49999999999869
 30
0.0
 11
802.83882348684563
 21
-468.24286753621908
 31
0.0
  0
LINE
  8
SIZE
  6
CONTINUOUS
 62
    30
 10
802.83882348684551
 20
-165.4999999999973
 30
0.0
 11
802.83882348684551
 21
-220.49999999999869
 31
0.0
  0
CIRCLE
  8
SIZE
  6
CONTINUOUS
 62
    30
 10
802.83882348684551
 20
-165.4999999999973
 30
0.0
 40
6.0
  0
LINE
  8
SIZE
  6
CONTINUOUS
 62
    30
 10
802.83882348684551
 20
-165.4999999999973
 30
0.0
 11
802.83882348684551
 21
-153.4999999999973
 31
0.0
  0
CIRCLE
  8
SIZE
  6
CONTINUOUS
 62
    30
 10
802.83882348684551
 20
-220.49999999999869
 30
0.0
 40
6.0
  0
LINE
  8
SIZE
  6
CONTINUOUS
 62
    30
 10
802.83882348684551
 20
-220.49999999999869
 30
0.0
 11
802.83882348684551
 21
-232.49999999999869
 31
0.0
  0
TEXT
  8
SIZE
  6
CONTINUOUS
 62
    30
 10
777.83882348684529
 20
-450.1822961076478
 30
0.0
 40
64.0
  1
55
 50
90.0
 41
0.9
 51
0.0
  7
STANDARD
 71
     0
 72
     1
 11
777.83882348684529
 21
-396.61429610764782
 31
0.0
210
0.0
220
0.0
230
1.0
  0
POINT
  8
DEFPOINTS
  6
CONTINUOUS
 62
    30
 10
534.23353918345288
 20
-220.49999999999869
 30
0.0
  0
POINT
  8
DEFPOINTS
  6
CONTINUOUS
 62
    30
 10
574.66666666666765
 20
-165.4999999999973
 30
0.0
  0
POINT
  8
DEFPOINTS
  6
CONTINUOUS
 62
    30
 10
802.83882348684551
 20
-165.4999999999973
 30
0.0
  0
LINE
  8
SIZE
  6
CONTINUOUS
 62
    30
 10
-527.99999999999568
 20
-291.49999999999602
 30
0.0
 11
-870.53209821911162
 21
-291.49999999999608
 31
0.0
  0
LINE
  8
SIZE
  6
CONTINUOUS
 62
    30
 10
-527.99999999999579
 20
-149.50002895599621
 30
0.0
 11
-870.53209821911173
 21
-149.5000289559963
 31
0.0
  0
LINE
  8
SIZE
  6
CONTINUOUS
 62
    30
 10
-850.53209821911162
 20
-279.49999999999608
 30
0.0
 11
-850.53209821911173
 21
-161.5000289559963
 31
0.0
  0
LINE
  8
SIZE
  6
CONTINUOUS
 62
    30
 10
-850.53209821911173
 20
-149.5000289559963
 30
0.0
 11
-850.53209821911173
 21
101.7571139011466
 31
0.0
  0
CIRCLE
  8
SIZE
  6
CONTINUOUS
 62
    30
 10
-850.53209821911162
 20
-291.49999999999608
 30
0.0
 40
6.0
  0
LINE
  8
SIZE
  6
CONTINUOUS
 62
    30
 10
-850.53209821911162
 20
-291.49999999999608
 30
0.0
 11
-850.53209821911162
 21
-279.49999999999608
 31
0.0
  0
CIRCLE
  8
SIZE
  6
CONTINUOUS
 62
    30
 10
-850.53209821911173
 20
-149.5000289559963
 30
0.0
 40
6.0
  0
LINE
  8
SIZE
  6
CONTINUOUS
 62
    30
 10
-850.53209821911173
 20
-149.5000289559963
 30
0.0
 11
-850.53209821911173
 21
-161.5000289559963
 31
0.0
  0
TEXT
  8
SIZE
  6
CONTINUOUS
 62
    30
 10
-875.5320982191115
 20
-127.59945752742465
 30
0.0
 40
64.0
  1
φ142
 50
90.0
 41
0.9
 51
0.0
  7
STANDARD
 71
     0
 72
     1
 11
-875.5320982191115
 21
-17.871457527424585
 31
0.0
210
0.0
220
0.0
230
1.0
  0
POINT
  8
DEFPOINTS
  6
CONTINUOUS
 62
    30
 10
-507.99999999999568
 20
-291.49999999999602
 30
0.0
  0
POINT
  8
DEFPOINTS
  6
CONTINUOUS
 62
    30
 10
-507.99999999999568
 20
-149.50002895599621
 30
0.0
  0
POINT
  8
DEFPOINTS
  6
CONTINUOUS
 62
    30
 10
-850.53209821911173
 20
-149.5000289559963
 30
0.0
  0
LINE
  8
SIZE
  6
CONTINUOUS
 62
    30
 10
-465.59999999999599
 20
-300.49999999999869
 30
0.0
 11
-1005.73618742677
 21
-300.49999999999881
 31
0.0
  0
LINE
  8
SIZE
  6
CONTINUOUS
 62
    30
 10
-465.59999999999599
 20
-140.49999999999741
 30
0.0
 11
-1005.73618742677
 21
-140.49999999999741
 31
0.0
  0
LINE
  8
SIZE
  6
CONTINUOUS
 62
    30
 10
-985.73618742677002
 20
-288.49999999999881
 30
0.0
 11
-985.73618742677013
 21
-152.49999999999741
 31
0.0
  0
LINE
  8
SIZE
  6
CONTINUOUS
 62
    30
 10
-985.73618742677013
 20
-140.49999999999741
 30
0.0
 11
-985.73618742677013
 21
110.7571428571455
 31
0.0
  0
CIRCLE
  8
SIZE
  6
CONTINUOUS
 62
    30
 10
-985.73618742677002
 20
-300.49999999999881
 30
0.0
 40
6.0
  0
LINE
  8
SIZE
  6
CONTINUOUS
 62
    30
 10
-985.73618742677002
 20
-300.49999999999881
 30
0.0
 11
-985.73618742677002
 21
-288.49999999999881
 31
0.0
  0
CIRCLE
  8
SIZE
  6
CONTINUOUS
 62
    30
 10
-985.73618742677013
 20
-140.49999999999741
 30
0.0
 40
6.0
  0
LINE
  8
SIZE
  6
CONTINUOUS
 62
    30
 10
-985.73618742677013
 20
-140.49999999999741
 30
0.0
 11
-985.73618742677013
 21
-152.49999999999741
 31
0.0
  0
TEXT
  8
SIZE
  6
CONTINUOUS
 62
    30
 10
-1010.7361874267699
 20
-118.59942857142575
 30
0.0
 40
64.0
  1
φ160
 50
90.0
 41
0.9
 51
0.0
  7
STANDARD
 71
     0
 72
     1
 11
-1010.7361874267699
 21
-8.8714285714256871
 31
0.0
210
0.0
220
0.0
230
1.0
  0
POINT
  8
DEFPOINTS
  6
CONTINUOUS
 62
    30
 10
-445.59999999999599
 20
-300.49999999999869
 30
0.0
  0
POINT
  8
DEFPOINTS
  6
CONTINUOUS
 62
    30
 10
-445.59999999999599
 20
-140.4999999999973
 30
0.0
  0
POINT
  8
DEFPOINTS
  6
CONTINUOUS
 62
    30
 10
-985.73618742677013
 20
-140.49999999999741
 30
0.0
  0
LINE
  8
SIZE
  6
CONTINUOUS
 62
    30
 10
463.17499999999308
 20
0.0000000000045507
 30
0.0
 11
944.38660482938815
 21
0.0000000000046281
 31
0.0
  0
LINE
  8
SIZE
  6
CONTINUOUS
 62
    30
 10
463.2499999999975
 20
-330.9999999999942
 30
0.0
 11
944.38660482938826
 21
-330.99999999999409
 31
0.0
  0
LINE
  8
SIZE
  6
CONTINUOUS
 62
    30
 10
924.38660482938815
 20
-11.99999999999538
 30
0.0
 11
924.38660482938826
 21
-318.99999999999409
 31
0.0
  0
CIRCLE
  8
SIZE
  6
CONTINUOUS
 62
    30
 10
924.38660482938815
 20
0.0000000000046249
 30
0.0
 40
6.0
  0
LINE
  8
SIZE
  6
CONTINUOUS
 62
    30
 10
924.38660482938815
 20
0.0000000000046249
 30
0.0
 11
924.38660482938815
 21
-11.999999999995374
 31
0.0
  0
CIRCLE
  8
SIZE
  6
CONTINUOUS
 62
    30
 10
924.38660482938826
 20
-330.99999999999409
 30
0.0
 40
6.0
  0
LINE
  8
SIZE
  6
CONTINUOUS
 62
    30
 10
924.38660482938826
 20
-330.99999999999409
 30
0.0
 11
924.38660482938826
 21
-318.99999999999409
 31
0.0
  0
TEXT
  8
SIZE
  6
CONTINUOUS
 62
    30
 10
899.38660482938792
 20
-240.09199999999498
 30
0.0
 40
64.0
  1
331
 50
90.0
 41
0.9
 51
0.0
  7
STANDARD
 71
     0
 72
     1
 11
899.38660482938792
 21
-165.499999999995
 31
0.0
210
0.0
220
0.0
230
1.0
  0
POINT
  8
DEFPOINTS
  6
CONTINUOUS
 62
    30
 10
443.17499999999308
 20
0.0000000000045475
 30
0.0
  0
POINT
  8
DEFPOINTS
  6
CONTINUOUS
 62
    30
 10
443.2499999999975
 20
-330.9999999999942
 30
0.0
  0
POINT
  8
DEFPOINTS
  6
CONTINUOUS
 62
    30
 10
924.38660482938826
 20
-330.99999999999409
 30
0.0
  0
LINE
  8
SIZE
  6
CONTINUOUS
 62
    30
 10
463.17499999999308
 20
0.0000000000045507
 30
0.0
 11
822.83882348684551
 21
0.0000000000046085
 31
0.0
  0
LINE
  8
SIZE
  6
CONTINUOUS
 62
    30
 10
508.43427874224773
 20
-84.899999999999665
 30
0.0
 11
822.83882348684551
 21
-84.899999999999608
 31
0.0
  0
LINE
  8
SIZE
  6
CONTINUOUS
 62
    30
 10
802.83882348684551
 20
-72.899999999999608
 30
0.0
 11
802.83882348684551
 21
-11.999999999995399
 31
0.0
  0
LINE
  8
SIZE
  6
CONTINUOUS
 62
    30
 10
802.83882348684551
 20
0.0000000000046053
 30
0.0
 11
802.83882348684551
 21
155.25714285714781
 31
0.0
  0
CIRCLE
  8
SIZE
  6
CONTINUOUS
 62
    30
 10
802.83882348684551
 20
-84.899999999999608
 30
0.0
 40
6.0
  0
LINE
  8
SIZE
  6
CONTINUOUS
 62
    30
 10
802.83882348684551
 20
-84.899999999999608
 30
0.0
 11
802.83882348684551
 21
-72.899999999999608
 31
0.0
  0
CIRCLE
  8
SIZE
  6
CONTINUOUS
 62
    30
 10
802.83882348684551
 20
0.0000000000046053
 30
0.0
 40
6.0
  0
LINE
  8
SIZE
  6
CONTINUOUS
 62
    30
 10
802.83882348684551
 20
0.0000000000046053
 30
0.0
 11
802.83882348684551
 21
-11.999999999995394
 31
0.0
  0
TEXT
  8
SIZE
  6
CONTINUOUS
 62
    30
 10
777.83882348684529
 20
30.060571428576154
 30
0.0
 40
64.0
  1
85
 50
90.0
 41
0.9
 51
0.0
  7
STANDARD
 71
     0
 72
     1
 11
777.83882348684529
 21
83.628571428576137
 31
0.0
210
0.0
220
0.0
230
1.0
  0
POINT
  8
DEFPOINTS
  6
CONTINUOUS
 62
    30
 10
443.17499999999308
 20
0.0000000000045475
 30
0.0
  0
POINT
  8
DEFPOINTS
  6
CONTINUOUS
 62
    30
 10
488.43427874224773
 20
-84.899999999999665
 30
0.0
  0
POINT
  8
DEFPOINTS
  6
CONTINUOUS
 62
    30
 10
802.83882348684551
 20
-84.899999999999608
 30
0.0
  0
LINE
  8
SIZE
  6
CONTINUOUS
 62
    30
 10
-508.43427874224858
 20
-84.950000000007122
 30
0.0
 11
-731.18911818708887
 21
-84.950000000007151
 31
0.0
  0
LINE
  8
SIZE
  6
CONTINUOUS
 62
    30
 10
-463.1749999999854
 20
0.0000000000045443
 30
0.0
 11
-731.18911818708887
 21
0.0000000000045012
 31
0.0
  0
LINE
  8
SIZE
  6
CONTINUOUS
 62
    30
 10
-711.18911818708887
 20
-72.950000000007151
 30
0.0
 11
-711.18911818708887
 21
-11.9999999999955
 31
0.0
  0
LINE
  8
SIZE
  6
CONTINUOUS
 62
    30
 10
-711.18911818708887
 20
0.0000000000045044
 30
0.0
 11
-711.18911818708887
 21
155.25714285714739
 31
0.0
  0
CIRCLE
  8
SIZE
  6
CONTINUOUS
 62
    30
 10
-711.18911818708887
 20
-84.950000000007151
 30
0.0
 40
6.0
  0
LINE
  8
SIZE
  6
CONTINUOUS
 62
    30
 10
-711.18911818708887
 20
-84.950000000007151
 30
0.0
 11
-711.18911818708887
 21
-72.950000000007151
 31
0.0
  0
CIRCLE
  8
SIZE
  6
CONTINUOUS
 62
    30
 10
-711.18911818708887
 20
0.0000000000045044
 30
0.0
 40
6.0
  0
LINE
  8
SIZE
  6
CONTINUOUS
 62
    30
 10
-711.18911818708887
 20
0.0000000000045044
 30
0.0
 11
-711.18911818708887
 21
-11.999999999995495
 31
0.0
  0
TEXT
  8
SIZE
  6
CONTINUOUS
 62
    30
 10
-736.18911818708875
 20
30.060571428576154
 30
0.0
 40
64.0
  1
85
 50
90.0
 41
0.9
 51
0.0
  7
STANDARD
 71
     0
 72
     1
 11
-736.18911818708875
 21
83.628571428576137
 31
0.0
210
0.0
220
0.0
230
1.0
  0
POINT
  8
DEFPOINTS
  6
CONTINUOUS
 62
    30
 10
-488.43427874224858
 20
-84.950000000007122
 30
0.0
  0
POINT
  8
DEFPOINTS
  6
CONTINUOUS
 62
    30
 10
-443.1749999999854
 20
0.0000000000045475
 30
0.0
  0
POINT
  8
DEFPOINTS
  6
CONTINUOUS
 62
    30
 10
-711.18911818708887
 20
0.0000000000045044
 30
0.0
  0
POINT
  8
ARRANGE
  6
CONTINUOUS
 62
     1
 10
0.0
 20
0.0
 30
0.0
 50
180.0
  0
CIRCLE
  8
ARRANGE
  6
CONTINUOUS
 62
     1
 10
0.0
 20
0.0
 30
0.0
 40
40.0
  0
LINE
  8
OUTLINE
  6
CONTINUOUS
 62
     3
 10
438.80000000000751
 20
-300.49999999999909
 30
0.0
 11
445.60000000000309
 21
-300.49999999999909
 31
0.0
  0
LINE
  8
OUTLINE
  6
CONTINUOUS
 62
     3
 10
445.60000000000309
 20
-300.49999999999909
 30
0.0
 11
500.10000000000309
 21
-291.50010000000202
 31
0.0
  0
LINE
  8
OUTLINE
  6
CONTINUOUS
 62
     3
 10
500.10000000000309
 20
-291.50010000000202
 30
0.0
 11
507.99999999999591
 21
-291.50009999999838
 31
0.0
  0
LINE
  8
OUTLINE
  6
CONTINUOUS
 62
     3
 10
507.99999999999591
 20
-291.50009999999838
 30
0.0
 11
507.99999999999591
 21
-149.50012895599869
 31
0.0
  0
LINE
  8
OUTLINE
  6
CONTINUOUS
 62
     3
 10
507.99999999999591
 20
-149.50012895599869
 30
0.0
 11
500.00000000000318
 21
-149.49989999999889
 31
0.0
  0
LINE
  8
OUTLINE
  6
CONTINUOUS
 62
     3
 10
500.00000000000318
 20
-149.49989999999889
 30
0.0
 11
445.71186240667612
 21
-140.51864373444371
 31
0.0
  0
LINE
  8
OUTLINE
  6
CONTINUOUS
 62
     3
 10
445.71186240667612
 20
-140.51864373444371
 30
0.0
 11
438.80000000000791
 21
-140.5030061954308
 31
0.0
  0
ARC
  8
OUTLINE
  6
CONTINUOUS
 62
     3
 10
438.80000000000712
 20
-139.90300619543166
 30
0.0
 40
0.5999999999991346
 50
180.0
 51
270.0
  0
LINE
  8
OUTLINE
  6
CONTINUOUS
 62
     3
 10
438.200000000008
 20
-139.90300619543089
 30
0.0
 11
438.20000000000158
 21
-134.9999999999977
 31
0.0
  0
LINE
  8
OUTLINE
  6
CONTINUOUS
 62
     3
 10
438.20000000000158
 20
-134.9999999999977
 30
0.0
 11
451.10000000000309
 21
-134.9999999999973
 31
0.0
  0
ARC
  8
OUTLINE
  6
CONTINUOUS
 62
     3
 10
451.10000000000775
 20
-130.00000000000924
 30
0.0
 40
4.9999999999880638
 50
270.0
 51
0.0
  0
LINE
  8
OUTLINE
  6
CONTINUOUS
 62
     3
 10
456.09999999999582
 20
-129.99999999999639
 30
0.0
 11
456.10000000000628
 21
-84.999999999999091
 31
0.0
  0
LINE
  8
OUTLINE
  6
CONTINUOUS
 62
     3
 10
456.10000000000628
 20
-84.999999999999091
 30
0.0
 11
437.60000000000258
 21
-84.999999999999091
 31
0.0
  0
LINE
  8
OUTLINE
  6
CONTINUOUS
 62
     3
 10
437.60000000000258
 20
-84.999999999999091
 30
0.0
 11
437.60000000000309
 21
-1.649999999995089
 31
0.0
  0
ARC
  8
OUTLINE
  6
CONTINUOUS
 62
     3
 10
438.10000000000088
 20
-1.6499999999942114
 30
0.0
 40
0.4999999999977585
 50
90.0
 51
180.0
  0
LINE
  8
OUTLINE
  6
CONTINUOUS
 62
     3
 10
438.10000000000491
 20
-1.149999999996453
 30
0.0
 11
439.60000000000309
 21
-1.1499999999969079
 31
0.0
  0
LINE
  8
OUTLINE
  6
CONTINUOUS
 62
     3
 10
439.60000000000309
 20
-1.1499999999969079
 30
0.0
 11
439.60000000000309
 21
-1.6500000000096411
 31
0.0
  0
LINE
  8
OUTLINE
  6
CONTINUOUS
 62
     3
 10
439.60000000000309
 20
-1.6500000000096411
 30
0.0
 11
443.17499999999291
 21
-1.6500000000096411
 31
0.0
  0
ARC
  8
OUTLINE
  6
CONTINUOUS
 62
     3
 10
443.17499999999291
 20
-0.8250000000025468
 30
0.0
 40
0.8250000000070943
 50
270.0
 51
90.0
  0
LINE
  8
OUTLINE
  6
CONTINUOUS
 62
     3
 10
443.17499999999291
 20
0.0000000000045475
 30
0.0
 11
437.5581655866672
 21
0.0
 31
0.0
  0
ARC
  8
OUTLINE
  6
CONTINUOUS
 62
     3
 10
437.55816558609041
 20
-0.9999999985289245
 30
0.0
 40
0.9999999985289245
 50
90.0
 51
175.00000008160237
  0
LINE
  8
OUTLINE
  6
CONTINUOUS
 62
     3
 10
436.56197088933999
 20
-0.9128442573282882
 30
0.0
 11
436.40998945467157
 21
-2.6499999999978172
 31
0.0
  0
LINE
  8
OUTLINE
  6
CONTINUOUS
 62
     3
 10
436.40998945467157
 20
-2.6499999999978172
 30
0.0
 11
435.60000000000309
 21
-2.6499999999978172
 31
0.0
  0
LINE
  8
OUTLINE
  6
CONTINUOUS
 62
     3
 10
435.60000000000309
 20
-2.6499999999978172
 30
0.0
 11
435.60000000000309
 21
-0.6499999999987267
 31
0.0
  0
LINE
  8
OUTLINE
  6
CONTINUOUS
 62
     3
 10
435.60000000000309
 20
-0.6499999999987267
 30
0.0
 11
435.49999999999733
 21
-0.6499999999987267
 31
0.0
  0
LINE
  8
OUTLINE
  6
CONTINUOUS
 62
     3
 10
435.49999999999733
 20
-0.6499999999987267
 30
0.0
 11
435.49999999999733
 21
0.0
 31
0.0
  0
LINE
  8
OUTLINE
  6
CONTINUOUS
 62
     3
 10
435.49999999999733
 20
0.0
 30
0.0
 11
-435.49999999999733
 21
0.0
 31
0.0
  0
LINE
  8
OUTLINE
  6
CONTINUOUS
 62
     3
 10
-435.49999999999733
 20
0.0
 30
0.0
 11
-435.50000000000449
 21
-0.6499999999987267
 31
0.0
  0
LINE
  8
OUTLINE
  6
CONTINUOUS
 62
     3
 10
-435.50000000000449
 20
-0.6499999999987267
 30
0.0
 11
-435.60000000000309
 21
-0.6499999999987267
 31
0.0
  0
LINE
  8
OUTLINE
  6
CONTINUOUS
 62
     3
 10
-435.60000000000309
 20
-0.6499999999987267
 30
0.0
 11
-435.60000000000309
 21
-2.6499999999978172
 31
0.0
  0
LINE
  8
OUTLINE
  6
CONTINUOUS
 62
     3
 10
-435.60000000000309
 20
-2.6499999999978172
 30
0.0
 11
-436.40998945466441
 21
-2.6499999999978172
 31
0.0
  0
LINE
  8
OUTLINE
  6
CONTINUOUS
 62
     3
 10
-436.40998945466441
 20
-2.6499999999978172
 30
0.0
 11
-436.56197088933283
 21
-0.9128442573282882
 31
0.0
  0
ARC
  8
OUTLINE
  6
CONTINUOUS
 62
     3
 10
-437.55816558609553
 20
-0.9999999985423774
 30
0.0
 40
0.9999999985423775
 50
4.9999999191041411
 51
90.0
  0
LINE
  8
OUTLINE
  6
CONTINUOUS
 62
     3
 10
-437.5581655866672
 20
0.0
 30
0.0
 11
-443.24999999999733
 21
-0.0000000000004547
 31
0.0
  0
ARC
  8
OUTLINE
  6
CONTINUOUS
 62
     3
 10
-443.17321428570614
 20
-0.8232142857190815
 30
0.0
 40
0.8267876427054525
 50
95.328873196756035
 51
269.87625120902931
  0
LINE
  8
OUTLINE
  6
CONTINUOUS
 62
     3
 10
-443.17499999998557
 20
-1.6500000000096411
 30
0.0
 11
-439.59999999999951
 21
-1.6500000000096411
 31
0.0
  0
LINE
  8
OUTLINE
  6
CONTINUOUS
 62
     3
 10
-439.59999999999951
 20
-1.6500000000096411
 30
0.0
 11
-439.59999999999951
 21
-1.1499999999969079
 31
0.0
  0
LINE
  8
OUTLINE
  6
CONTINUOUS
 62
     3
 10
-439.59999999999951
 20
-1.1499999999969079
 30
0.0
 11
-438.09999999999582
 21
-1.1499999999969079
 31
0.0
  0
ARC
  8
OUTLINE
  6
CONTINUOUS
 62
     3
 10
-438.09999999999258
 20
-1.6499999999936958
 30
0.0
 40
0.499999999996788
 50
0.0
 51
90.0
  0
LINE
  8
OUTLINE
  6
CONTINUOUS
 62
     3
 10
-437.59999999999582
 20
-1.649999999995089
 30
0.0
 11
-437.59999999999218
 21
-84.999999999999091
 31
0.0
  0
LINE
  8
OUTLINE
  6
CONTINUOUS
 62
     3
 10
-437.59999999999218
 20
-84.999999999999091
 30
0.0
 11
-456.09999999999582
 21
-84.999999999999091
 31
0.0
  0
LINE
  8
OUTLINE
  6
CONTINUOUS
 62
     3
 10
-456.09999999999582
 20
-84.999999999999091
 30
0.0
 11
-456.09999999999582
 21
-129.99999999999639
 31
0.0
  0
ARC
  8
OUTLINE
  6
CONTINUOUS
 62
     3
 10
-451.09999999999667
 20
-129.99999999999727
 30
0.0
 40
4.999999999999126
 50
180.0
 51
270.0
  0
LINE
  8
OUTLINE
  6
CONTINUOUS
 62
     3
 10
-451.09999999999582
 20
-134.99999999999639
 30
0.0
 11
-438.19999999999442
 21
-134.9999999999973
 31
0.0
  0
LINE
  8
OUTLINE
  6
CONTINUOUS
 62
     3
 10
-438.19999999999442
 20
-134.9999999999973
 30
0.0
 11
-438.19999999999482
 21
-139.89999999999461
 31
0.0
  0
ARC
  8
OUTLINE
  6
CONTINUOUS
 62
     3
 10
-438.79999999999086
 20
-139.89999999999847
 30
0.0
 40
0.5999999999960292
 50
270.0
 51
0.0
  0
LINE
  8
OUTLINE
  6
CONTINUOUS
 62
     3
 10
-438.79999999999291
 20
-140.49999999999449
 30
0.0
 11
-445.59999999997399
 21
-140.49999999999321
 31
0.0
  0
LINE
  8
OUTLINE
  6
CONTINUOUS
 62
     3
 10
-445.59999999997399
 20
-140.49999999999321
 30
0.0
 11
-499.99999999999551
 21
-149.4997710440002
 31
0.0
  0
LINE
  8
OUTLINE
  6
CONTINUOUS
 62
     3
 10
-499.99999999999551
 20
-149.4997710440002
 30
0.0
 11
-507.99999999999551
 21
-149.49999999999909
 31
0.0
  0
LINE
  8
OUTLINE
  6
CONTINUOUS
 62
     3
 10
-507.99999999999551
 20
-149.49999999999909
 30
0.0
 11
-507.99999999999551
 21
-291.49977104399568
 31
0.0
  0
LINE
  8
OUTLINE
  6
CONTINUOUS
 62
     3
 10
-507.99999999999551
 20
-291.49977104399568
 30
0.0
 11
-499.99999999999551
 21
-291.49977104399568
 31
0.0
  0
LINE
  8
OUTLINE
  6
CONTINUOUS
 62
     3
 10
-499.99999999999551
 20
-291.49977104399568
 30
0.0
 11
-445.59999999998132
 21
-300.50000000125277
 31
0.0
  0
LINE
  8
OUTLINE
  6
CONTINUOUS
 62
     3
 10
-445.59999999998132
 20
-300.50000000125277
 30
0.0
 11
-438.79999999999291
 21
-300.49999999999773
 31
0.0
  0
ARC
  8
OUTLINE
  6
CONTINUOUS
 62
     3
 10
-438.80140768029077
 20
-301.10140771058462
 30
0.0
 40
0.6014093580226348
 50
0.135335992993646
 51
89.865891322540449
  0
LINE
  8
OUTLINE
  6
CONTINUOUS
 62
     3
 10
-438.19999999999533
 20
-301.09998714771473
 30
0.0
 11
-438.19999999999442
 21
-310.54999999733133
 31
0.0
  0
LINE
  8
OUTLINE
  6
CONTINUOUS
 62
     3
 10
-438.19999999999442
 20
-310.54999999733133
 30
0.0
 11
-437.59999999999582
 21
-310.54999999999791
 31
0.0
  0
LINE
  8
OUTLINE
  6
CONTINUOUS
 62
     3
 10
-437.59999999999582
 20
-310.54999999999791
 30
0.0
 11
-437.59999999999582
 21
-329.04999999999927
 31
0.0
  0
ARC
  8
OUTLINE
  6
CONTINUOUS
 62
     3
 10
-438.09999999999582
 20
-329.04999999999927
 30
0.0
 40
0.4999999999999902
 50
270.0
 51
0.0
  0
LINE
  8
OUTLINE
  6
CONTINUOUS
 62
     3
 10
-438.09999999999582
 20
-329.54999999999927
 30
0.0
 11
-439.59999999999582
 21
-329.54999999999791
 31
0.0
  0
LINE
  8
OUTLINE
  6
CONTINUOUS
 62
     3
 10
-439.59999999999582
 20
-329.54999999999791
 30
0.0
 11
-439.59999999999582
 21
-328.74999999997948
 31
0.0
  0
LINE
  8
OUTLINE
  6
CONTINUOUS
 62
     3
 10
-439.59999999999582
 20
-328.74999999997948
 30
0.0
 11
-443.17499999998557
 21
-328.74999999997948
 31
0.0
  0
ARC
  8
OUTLINE
  6
CONTINUOUS
 62
     3
 10
-443.17499999998557
 20
-329.87499999998948
 30
0.0
 40
1.1250000000100044
 50
90.0
 51
270.0
  0
LINE
  8
OUTLINE
  6
CONTINUOUS
 62
     3
 10
-443.17499999998557
 20
-330.99999999999949
 30
0.0
 11
-437.83306493866712
 21
-330.99999999999409
 31
0.0
  0
ARC
  8
OUTLINE
  6
CONTINUOUS
 62
     3
 10
-437.83306493866451
 20
-329.39999999999685
 30
0.0
 40
1.5999999999972183
 50
270.0
 51
355.00000000004161
  0
LINE
  8
OUTLINE
  6
CONTINUOUS
 62
     3
 10
-436.2391534217204
 20
-329.5394491883917
 30
0.0
 11
-436.1088435026586
 21
-328.04999999999609
 31
0.0
  0
LINE
  8
OUTLINE
  6
CONTINUOUS
 62
     3
 10
-436.1088435026586
 20
-328.04999999999609
 30
0.0
 11
-435.60000000000309
 21
-328.04999999999609
 31
0.0
  0
LINE
  8
OUTLINE
  6
CONTINUOUS
 62
     3
 10
-435.60000000000309
 20
-328.04999999999609
 30
0.0
 11
-435.60000000000309
 21
-330.04999999999518
 31
0.0
  0
LINE
  8
OUTLINE
  6
CONTINUOUS
 62
     3
 10
-435.60000000000309
 20
-330.04999999999518
 30
0.0
 11
-435.09999999999582
 21
-330.04999999999518
 31
0.0
  0
LINE
  8
OUTLINE
  6
CONTINUOUS
 62
     3
 10
-435.09999999999582
 20
-330.04999999999518
 30
0.0
 11
-435.09999999999582
 21
-330.99999999999409
 31
0.0
  0
LINE
  8
OUTLINE
  6
CONTINUOUS
 62
     3
 10
-435.09999999999582
 20
-330.99999999999409
 30
0.0
 11
435.09999999999582
 21
-330.99999999999409
 31
0.0
  0
LINE
  8
OUTLINE
  6
CONTINUOUS
 62
     3
 10
435.09999999999582
 20
-330.99999999999409
 30
0.0
 11
435.09999999999582
 21
-330.04999999999518
 31
0.0
  0
LINE
  8
OUTLINE
  6
CONTINUOUS
 62
     3
 10
435.09999999999582
 20
-330.04999999999518
 30
0.0
 11
435.60000000000309
 21
-330.04999999999382
 31
0.0
  0
LINE
  8
OUTLINE
  6
CONTINUOUS
 62
     3
 10
435.60000000000309
 20
-330.04999999999382
 30
0.0
 11
435.60000000000309
 21
-328.04999999999609
 31
0.0
  0
LINE
  8
OUTLINE
  6
CONTINUOUS
 62
     3
 10
435.60000000000309
 20
-328.04999999999609
 30
0.0
 11
436.10884350399738
 21
-328.04999999999609
 31
0.0
  0
LINE
  8
OUTLINE
  6
CONTINUOUS
 62
     3
 10
436.10884350399738
 20
-328.04999999999609
 30
0.0
 11
436.23915342266719
 21
-329.53944918932888
 31
0.0
  0
ARC
  8
OUTLINE
  6
CONTINUOUS
 62
     3
 10
437.83306493802684
 20
-329.40000000163656
 30
0.0
 40
1.599999998357525
 50
184.99999997984173
 51
270.0
  0
LINE
  8
OUTLINE
  6
CONTINUOUS
 62
     3
 10
437.83306493866712
 20
-330.99999999999409
 30
0.0
 11
443.17499999998557
 21
-330.99999999999449
 31
0.0
  0
ARC
  8
OUTLINE
  6
CONTINUOUS
 62
     3
 10
443.17499999998557
 20
-329.87499999998698
 30
0.0
 40
1.1250000000075033
 50
270.0
 51
90.0
  0
LINE
  8
OUTLINE
  6
CONTINUOUS
 62
     3
 10
443.17499999998557
 20
-328.74999999997948
 30
0.0
 11
439.59999999999582
 21
-328.74999999997948
 31
0.0
  0
LINE
  8
OUTLINE
  6
CONTINUOUS
 62
     3
 10
439.59999999999582
 20
-328.74999999997948
 30
0.0
 11
439.59999999999758
 21
-329.54999999999649
 31
0.0
  0
LINE
  8
OUTLINE
  6
CONTINUOUS
 62
     3
 10
439.59999999999758
 20
-329.54999999999649
 30
0.0
 11
438.09999999999951
 21
-329.549999999997
 31
0.0
  0
ARC
  8
OUTLINE
  6
CONTINUOUS
 62
     3
 10
438.09999999999928
 20
-329.04999999999723
 30
0.0
 40
0.4999999999997962
 50
180.0
 51
270.0
  0
LINE
  8
OUTLINE
  6
CONTINUOUS
 62
     3
 10
437.59999999999951
 20
-329.049999999997
 30
0.0
 11
437.60000000000309
 21
-310.45000000199889
 31
0.0
  0
LINE
  8
OUTLINE
  6
CONTINUOUS
 62
     3
 10
437.60000000000309
 20
-310.45000000199889
 30
0.0
 11
438.20000000000158
 21
-310.44999999799711
 31
0.0
  0
LINE
  8
OUTLINE
  6
CONTINUOUS
 62
     3
 10
438.20000000000158
 20
-310.44999999799711
 30
0.0
 11
438.20000000000158
 21
-301.10000000000127
 31
0.0
  0
ARC
  8
OUTLINE
  6
CONTINUOUS
 62
     3
 10
438.80000000001479
 20
-301.1000000000123
 30
0.0
 40
0.6000000000132048
 50
90.0
 51
180.0
  0
ARC
  8
DETAIL
  6
CONTINUOUS
 62
     5
 10
438.80000000000791
 20
-139.90300619543089
 30
0.0
 40
0.5999999999999987
 50
180.0
 51
270.0
  0
LINE
  8
BASIS
  6
DASHDOT
 62
     6
 10
-488.43427874224841
 20
-84.950000000007094
 30
0.0
 11
-386.56572125775529
 21
-84.950000000006185
 31
0.0
  0
LINE
  8
BASIS
  6
DASHDOT
 62
     6
 10
-437.49999999999818
 20
-34.015721257751473
 30
0.0
 11
-437.49999999999818
 21
-135.88427874224911
 31
0.0
  0
LINE
  8
BASIS
  6
DASHDOT
 62
     6
 10
386.56572125775438
 20
-85.0
 30
0.0
 11
488.43427874224739
 21
-84.899999999999636
 31
0.0
  0
LINE
  8
BASIS
  6
DASHDOT
 62
     6
 10
437.50000000000091
 20
-34.022102026291577
 30
0.0
 11
437.50000000000182
 21
-135.89065951078831
 31
0.0
  0
LINE
  8
SIZE
  6
CONTINUOUS
 62
    30
 10
437.60000000000309
 20
-23.32499999999709
 30
0.0
 11
437.60000000000309
 21
177.46541400781101
 31
0.0
  0
LINE
  8
SIZE
  6
CONTINUOUS
 62
    30
 10
-437.49999999999818
 20
-14.015721257751469
 30
0.0
 11
-437.49999999999818
 21
177.46541400781101
 31
0.0
  0
LINE
  8
SIZE
  6
CONTINUOUS
 62
    30
 10
425.60000000000309
 20
157.46541400781101
 30
0.0
 11
-425.49999999999818
 21
157.46541400781101
 31
0.0
  0
CIRCLE
  8
SIZE
  6
CONTINUOUS
 62
    30
 10
437.60000000000309
 20
157.46541400781101
 30
0.0
 40
6.0
  0
LINE
  8
SIZE
  6
CONTINUOUS
 62
    30
 10
437.60000000000309
 20
157.46541400781101
 30
0.0
 11
425.60000000000309
 21
157.46541400781101
 31
0.0
  0
CIRCLE
  8
SIZE
  6
CONTINUOUS
 62
    30
 10
-437.49999999999818
 20
157.46541400781101
 30
0.0
 40
6.0
  0
LINE
  8
SIZE
  6
CONTINUOUS
 62
    30
 10
-437.49999999999818
 20
157.46541400781101
 30
0.0
 11
-425.49999999999818
 21
157.46541400781101
 31
0.0
  0
TEXT
  8
SIZE
  6
CONTINUOUS
 62
    30
 10
-80.301999999997548
 20
182.46541400781101
 30
0.0
 40
64.0
  1
875
 50
0.0
 41
0.9
 51
0.0
  7
STANDARD
 71
     0
 72
     1
 11
0.0500000000024556
 21
182.46541400781101
 31
0.0
210
0.0
220
0.0
230
1.0
  0
POINT
  8
DEFPOINTS
  6
CONTINUOUS
 62
    30
 10
437.60000000000309
 20
-43.32499999999709
 30
0.0
  0
POINT
  8
DEFPOINTS
  6
CONTINUOUS
 62
    30
 10
-437.49999999999818
 20
-34.015721257751473
 30
0.0
  0
POINT
  8
DEFPOINTS
  6
CONTINUOUS
 62
    30
 10
-437.49999999999818
 20
157.46541400781101
 30
0.0
  0
CIRCLE
  8
FIX
  6
CONTINUOUS
 62
    11
 10
-437.50000000000182
 20
-84.950000000006185
 30
0.0
 40
6.5
  0
CIRCLE
  8
FIX
  6
CONTINUOUS
 62
    11
 10
437.50000000000091
 20
-84.95638076853993
 30
0.0
 40
6.5
  0
TEXT
  8
ETC
  6
CONTINUOUS
 62
    61
 10
962.68867391614276
 20
808.78892540943116
 30
0.0
 40
64.065641025638456
  1
LGH-35RVX3-E_4
 41
0.9
  0
TEXT
  8
ETC
  6
CONTINUOUS
 62
    61
 10
958.4983865889626
 20
690.71263558946112
 30
0.0
 40
64.065641025638456
  1
LOSSNAY
 41
0.9
  0
TEXT
  8
ETC
  6
CONTINUOUS
 62
    61
 10
1009.251786271618
 20
582.45294088489493
 30
0.0
 40
40.041025641024042
  1
LGH-35RVX3-E
 50
0.0
 41
0.9
 51
0.0
  7
STANDARD
 71
     0
 11
0.0
 21
0.0
 31
0.0
210
0.0
220
0.0
230
1.0
  0
TEXT
  8
NOTE
  6
CONTINUOUS
 62
     4
 10
-647.91455675152417
 20
-252.8916524210799
 30
0.0
 40
64.065641025638456
  1
RA
 41
0.9
  0
TEXT
  8
NOTE
  6
CONTINUOUS
 62
     4
 10
543.57908422405592
 20
-252.8916524210799
 30
0.0
 40
64.065641025638456
  1
EA
 41
0.9
  0
TEXT
  8
NOTE
  6
CONTINUOUS
 62
     4
 10
579.00887788309365
 20
364.55919312464681
 30
0.0
 40
69.0
  1
Ceiling suspension fixture
 50
0.0
 41
0.9
 51
0.0
  7
STANDARD
 71
     0
 11
0.0
 21
0.0
 31
0.0
210
0.0
220
0.0
230
1.0
  0
TEXT
  8
NOTE
  6
CONTINUOUS
 62
     4
 10
579.00887788309365
 20
250.70919312464682
 30
0.0
 40
69.0
  1
(4-13X20 oval)
 50
0.0
 41
0.9
 51
0.0
  7
STANDARD
 71
     0
 11
0.0
 21
0.0
 31
0.0
210
0.0
220
0.0
230
1.0
  0
LINE
  8
NOTE
  6
CONTINUOUS
 62
     4
 10
569.00887788309365
 20
213.41633598178939
 30
0.0
 11
1785.5231635973789
 21
213.41633598178939
 31
0.0
  0
LINE
  8
NOTE
  6
CONTINUOUS
 62
     4
 10
459.38655508970123
 20
-56.072149971264508
 30
0.0
 11
437.50000489138392
 21
-84.950004695586358
 31
0.0
  0
LINE
  8
NOTE
  6
CONTINUOUS
 62
     4
 10
437.50000489138392
 20
-84.950004695586358
 30
0.0
 11
442.01533182417484
 21
-48.997766993984072
 31
0.0
  0
LINE
  8
NOTE
  6
CONTINUOUS
 62
     4
 10
437.50000489138392
 20
-84.950004695586358
 30
0.0
 11
463.90188202249215
 21
-20.119912269662223
 31
0.0
  0
LINE
  8
NOTE
  6
CONTINUOUS
 62
     4
 10
463.90188202249198
 20
-20.119912269662191
 30
0.0
 11
559.00887788309365
 21
213.41633598178939
 31
0.0
  0
LINE
  8
NOTE
  6
CONTINUOUS
 62
     4
 10
559.00887788309365
 20
213.41633598178939
 30
0.0
 11
569.00887788309365
 21
213.41633598178939
 31
0.0
  0
ENDSEC
  0
EOF
