  0
SECTION
  2
HEADER
  9
$ACADVER
  1
AC1009
  9
$DWGCODEPAGE
  3
dos932
  9
$INSBASE
 10
0.0
 20
0.0
 30
0.0
  9
$EXTMIN
 10
-1259.403975877683
 20
-974.44151723110372
 30
-0.0000000349181948
  9
$EXTMAX
 10
1765.1596193611149
 20
1349.029549920268
 30
0.0000000814935746
  9
$LIMMIN
 10
-2970.0
 20
-2100.0
  9
$LIMMAX
 10
2970.0
 20
2100.0
  9
$ORTHOMODE
 70
     1
  9
$REGENMODE
 70
     1
  9
$FILLMODE
 70
     1
  9
$QTEXTMODE
 70
     0
  9
$MIRRTEXT
 70
     0
  9
$LTSCALE
 40
20.0
  9
$ATTMODE
 70
     1
  9
$TEXTSIZE
 40
64.0
  9
$TRACEWID
 40
0.05
  9
$TEXTSTYLE
  7
STANDARD
  9
$CLAYER
  8
SIZE
  9
$CELTYPE
  6
CONTINUOUS
  9
$CECOLOR
 62
     7
  9
$DIMSCALE
 40
1.0
  9
$DIMASZ
 40
12.0
  9
$DIMEXO
 40
20.0
  9
$DIMDLI
 40
200.0
  9
$DIMRND
 40
0.0
  9
$DIMDLE
 40
0.0
  9
$DIMEXE
 40
20.0
  9
$DIMTP
 40
0.0
  9
$DIMTM
 40
0.0
  9
$DIMTXT
 40
64.0
  9
$DIMCEN
 40
0.09
  9
$DIMTSZ
 40
0.0
  9
$DIMTOL
 70
     0
  9
$DIMLIM
 70
     0
  9
$DIMTIH
 70
     0
  9
$DIMTOH
 70
     0
  9
$DIMSE1
 70
     0
  9
$DIMSE2
 70
     0
  9
$DIMTAD
 70
     1
  9
$DIMZIN
 70
     8
  9
$DIMBLK
  1

  9
$DIMASO
 70
     1
  9
$DIMSHO
 70
     0
  9
$DIMPOST
  1

  9
$DIMAPOST
  1

  9
$DIMALT
 70
     0
  9
$DIMALTD
 70
     2
  9
$DIMALTF
 40
25.399999999999999
  9
$DIMLFAC
 40
1.0
  9
$DIMTOFL
 70
     1
  9
$DIMTVP
 40
0.0
  9
$DIMTIX
 70
     1
  9
$DIMSOXD
 70
     0
  9
$DIMSAH
 70
     0
  9
$DIMBLK1
  1

  9
$DIMBLK2
  1

  9
$DIMSTYLE
  2
STANDARD
  9
$DIMCLRD
 70
     7
  9
$DIMCLRE
 70
     7
  9
$DIMCLRT
 70
     7
  9
$DIMTFAC
 40
1.0
  9
$DIMGAP
 40
25.0
  9
$LUNITS
 70
     2
  9
$LUPREC
 70
     4
  9
$SKETCHINC
 40
0.1
  9
$FILLETRAD
 40
3.0
  9
$AUNITS
 70
     1
  9
$AUPREC
 70
     3
  9
$MENU
  1
ACAD
  9
$ELEVATION
 40
0.0
  9
$PELEVATION
 40
0.0
  9
$THICKNESS
 40
0.0
  9
$LIMCHECK
 70
     0
  9
$CHAMFERA
 40
0.0
  9
$CHAMFERB
 40
0.0
  9
$SKPOLY
 70
     0
  9
$TDCREATE
 40
2453019.62301037
  9
$TDUPDATE
 40
2460045.428235706
  9
$TDINDWG
 40
1.7135576505
  9
$TDUSRTIMER
 40
1.7135576505
  9
$USRTIMER
 70
     1
  9
$ANGBASE
 50
0.0
  9
$ANGDIR
 70
     0
  9
$PDMODE
 70
     3
  9
$PDSIZE
 40
-2.0
  9
$PLINEWID
 40
0.0
  9
$SPLFRAME
 70
     0
  9
$SPLINETYPE
 70
     6
  9
$SPLINESEGS
 70
     8
  9
$SURFTAB1
 70
     6
  9
$SURFTAB2
 70
     6
  9
$SURFTYPE
 70
     6
  9
$SURFU
 70
     6
  9
$SURFV
 70
     6
  9
$UCSNAME
  2

  9
$UCSORG
 10
0.0
 20
0.0
 30
0.0
  9
$UCSXDIR
 10
1.0
 20
0.0
 30
0.0
  9
$UCSYDIR
 10
0.0
 20
1.0
 30
0.0
  9
$PUCSNAME
  2

  9
$PUCSORG
 10
0.0
 20
0.0
 30
0.0
  9
$PUCSXDIR
 10
1.0
 20
0.0
 30
0.0
  9
$PUCSYDIR
 10
0.0
 20
1.0
 30
0.0
  9
$USERI1
 70
     0
  9
$USERI2
 70
     0
  9
$USERI3
 70
     0
  9
$USERI4
 70
     0
  9
$USERI5
 70
     0
  9
$USERR1
 40
20.0
  9
$USERR2
 40
0.0
  9
$USERR3
 40
0.0
  9
$USERR4
 40
0.0
  9
$USERR5
 40
0.0
  9
$WORLDVIEW
 70
     1
  9
$SHADEDGE
 70
     3
  9
$SHADEDIF
 70
    70
  9
$TILEMODE
 70
     1
  9
$MAXACTVP
 70
    48
  9
$PINSBASE
 10
0.0
 20
0.0
 30
0.0
  9
$PLIMCHECK
 70
     0
  9
$PEXTMIN
 10
-100000000000000000000.0
 20
-100000000000000000000.0
 30
-100000000000000000000.0
  9
$PEXTMAX
 10
100000000000000000000.0
 20
100000000000000000000.0
 30
100000000000000000000.0
  9
$PLIMMIN
 10
0.0
 20
0.0
  9
$PLIMMAX
 10
12.0
 20
9.0
  9
$UNITMODE
 70
     0
  9
$VISRETAIN
 70
     0
  9
$PLINEGEN
 70
     0
  9
$PSLTSCALE
 70
     0
  9
$TREEDEPTH
 70
  3020
  9
$ATTDIA
 70
     0
  9
$ATTREQ
 70
     1
  9
$BLIPMODE
 70
     1
  9
$COORDS
 70
     1
  9
$DRAGMODE
 70
     2
  9
$OSMODE
 70
     0
  9
$HANDLING
 70
     0
  9
$HANDSEED
  5
F1BF
  0
ENDSEC
  0
SECTION
  2
TABLES
  0
TABLE
  2
LTYPE
 70
     3
  0
LTYPE
  2
CONTINUOUS
 70
     0
  3
実線
 72
    65
 73
     0
 40
0.0
  0
LTYPE
  2
DASHDOT
 70
     0
  3
____ _ ____ _ ____ _ ____ _ ____ _ ____ _ ____
 72
    65
 73
     4
 40
5.5
 49
4.0
 49
-0.6
 49
0.3
 49
-0.6
  0
LTYPE
  2
DASHED
 70
     0
  3
-- -- -- -- -- -- -- -- -- -- -- -- -- -- --
 72
    65
 73
     2
 40
0.75
 49
0.5
 49
-0.25
  0
ENDTAB
  0
TABLE
  2
LAYER
 70
    12
  0
LAYER
  2
0
 70
     0
 62
     7
  6
CONTINUOUS
  0
LAYER
  2
BASIS
 70
     0
 62
     6
  6
DASHDOT
  0
LAYER
  2
OUTLINE
 70
     0
 62
     3
  6
CONTINUOUS
  0
LAYER
  2
DETAIL
 70
     0
 62
     5
  6
CONTINUOUS
  0
LAYER
  2
SIZE
 70
     0
 62
    30
  6
CONTINUOUS
  0
LAYER
  2
ARRANGE
 70
     0
 62
     1
  6
CONTINUOUS
  0
LAYER
  2
DEFPOINTS
 70
     0
 62
     7
  6
CONTINUOUS
  0
LAYER
  2
ETC
 70
     0
 62
    61
  6
CONTINUOUS
  0
LAYER
  2
FIX
 70
     0
 62
    11
  6
CONTINUOUS
  0
LAYER
  2
NOTE
 70
     0
 62
     4
  6
CONTINUOUS
  0
LAYER
  2
SERVICESPACE
 70
     0
 62
     2
  6
DASHDOT
  0
LAYER
  2
SYMBOLLINE
 70
    64
 62
    15
  6
CONTINUOUS
  0
ENDTAB
  0
TABLE
  2
STYLE
 70
     1
  0
STYLE
  2
STANDARD
 70
     0
 40
64.0
 41
0.9
 50
0.0
 71
     0
 42
64.0
  3
SIMPLEX.shx
  4
BIGFONT.shx
  0
ENDTAB
  0
TABLE
  2
APPID
 70
    19
  0
APPID
  2
ACAD
 70
     0
  0
APPID
  2
AUTOCAD_POSTSCRIPT_FIGURE
 70
     0
  0
APPID
  2
ACAD_EXEMPT_FROM_CAD_STANDARDS
 70
     0
  0
APPID
  2
ACAD_PSEXT
 70
     0
  0
APPID
  2
ACAUTHENVIRON
 70
     0
  0
APPID
  2
GENIUS_GENOENT_13
 70
     0
  0
APPID
  2
GENIUS_GENCFG_13
 70
     0
  0
APPID
  2
GENIUS_GENCFG0_13
 70
     0
  0
APPID
  2
GENIUS_GENCFG1_13
 70
     0
  0
APPID
  2
GENIUS_GENCFG2_13
 70
     0
  0
APPID
  2
GENIUS_GENCFG3_13
 70
     0
  0
APPID
  2
GENIUS_GENCFG4_13
 70
     0
  0
APPID
  2
GENIUS_GEVCFG0_13
 70
     0
  0
APPID
  2
CONTENTBLOCKICON
 70
     0
  0
APPID
  2
CONTENTBLOCKDESCRIPTION
 70
     0
  0
APPID
  2
ACAD_NAV_VCDISPLAY
 70
     0
  0
APPID
  2
ACAD_MLEADERVER
 70
     0
  0
APPID
  2
ACDBDYNAMICBLOCKTRUENAME
 70
     0
  0
APPID
  2
ACDBDYNAMICBLOCKGUID
 70
     0
  0
ENDTAB
  0
TABLE
  2
DIMSTYLE
 70
     1
  0
DIMSTYLE
  2
STANDARD
 70
     0
  3

  4

  5
_ORIGIN
  6

  7

 40
1.0
 41
12.0
 42
20.0
 43
200.0
 44
20.0
 45
0.0
 46
0.0
 47
0.0
 48
0.0
140
64.0
141
0.09
142
0.0
143
25.399999999999999
144
1.0
145
0.0
146
1.0
147
25.0
 71
     0
 72
     0
 73
     0
 74
     0
 75
     0
 76
     0
 77
     1
 78
     8
170
     0
171
     2
172
     1
173
     0
174
     1
175
     0
176
     7
177
     7
178
     7
  0
ENDTAB
  0
TABLE
  2
VIEW
 70
     1
  0
VIEW
  2
ALL
 70
     0
 40
4282.6198079999986
 10
0.0
 20
41.309904000000003
 41
5940.0
 11
0.0
 21
0.0
 31
1.0
 12
0.0
 22
0.0
 32
0.0
 42
50.0
 43
0.0
 44
0.0
 50
0.0
 71
     0
  0
ENDTAB
  0
TABLE
  2
UCS
 70
     0
  0
ENDTAB
  0
TABLE
  2
VPORT
 70
     1
  0
VPORT
  2
*ACTIVE
 70
     0
 10
0.0
 20
0.0
 11
1.0
 21
1.0
 12
252.87782174171571
 22
187.29401634458179
 13
0.0
 23
0.0
 14
1.0
 24
1.0
 15
0.0
 25
0.0
 16
0.0
 26
0.0
 36
1.0
 17
0.0
 27
0.0
 37
0.0
 40
2339.170195983475
 41
1.781285231116122
 42
50.0
 43
0.0
 44
0.0
 50
0.0
 51
0.0
 71
     0
 72
  1000
 73
     1
 74
     3
 75
     0
 76
     0
 77
     0
 78
     0
  0
ENDTAB
  0
ENDSEC
  0
SECTION
  2
BLOCKS
  0
BLOCK
  8
0
  2
_ORIGIN
 70
     0
 10
0.0
 20
0.0
 30
0.0
  3
_ORIGIN
  1
_ORIGIN
  0
CIRCLE
  8
0
  6
CONTINUOUS
 62
     7
 10
0.0
 20
0.0
 30
0.0
 40
0.5
  0
LINE
  8
0
  6
CONTINUOUS
 62
     7
 10
0.0
 20
0.0
 30
0.0
 11
-1.0
 21
0.0
 31
0.0
  0
ENDBLK
  8
0
  0
ENDSEC
  0
SECTION
  2
ENTITIES
  0
LINE
  8
DETAIL
  6
CONTINUOUS
 62
     5
 10
437.00000000000051
 20
430.49000000000211
 30
0.0
 11
431.99000000000069
 21
435.49999999999733
 31
0.0
  0
LINE
  8
DETAIL
  6
CONTINUOUS
 62
     5
 10
423.48999999999842
 20
443.99999999999733
 30
0.0
 11
428.5
 21
438.99000000000251
 31
0.0
  0
LINE
  8
DETAIL
  6
CONTINUOUS
 62
     5
 10
-423.49000000000387
 20
443.99999999999733
 30
0.0
 11
-428.49999999999773
 21
438.99000000000251
 31
0.0
  0
LINE
  8
DETAIL
  6
CONTINUOUS
 62
     5
 10
-436.99999999999591
 20
430.49000000000979
 30
0.0
 11
-431.98999999999518
 21
435.49999999999733
 31
0.0
  0
LINE
  8
DETAIL
  6
CONTINUOUS
 62
     5
 10
396.0
 20
507.99999999999551
 30
0.0
 11
254.0000000000023
 21
507.99999999999591
 31
0.0
  0
LINE
  8
DETAIL
  6
CONTINUOUS
 62
     5
 10
-253.99999999999949
 20
507.99999999999591
 30
0.0
 11
-395.99999999999642
 21
507.99999999999591
 31
0.0
  0
LINE
  8
DETAIL
  6
CONTINUOUS
 62
     5
 10
396.0
 20
500.00000000000267
 30
0.0
 11
254.0000000000023
 21
500.00000000000318
 31
0.0
  0
LINE
  8
DETAIL
  6
CONTINUOUS
 62
     5
 10
-253.99999999999949
 20
500.00000000000318
 30
0.0
 11
-395.99999999999642
 21
500.00000000000318
 31
0.0
  0
LINE
  8
DETAIL
  6
CONTINUOUS
 62
     5
 10
-546.79999999999472
 20
-200.09999999999849
 30
0.0
 11
-546.79999999999472
 21
-211.5
 31
0.0
  0
LINE
  8
DETAIL
  6
CONTINUOUS
 62
     5
 10
-546.20000000000073
 20
-211.5
 30
0.0
 11
-546.20000000000073
 21
-369.29999999999558
 31
0.0
  0
LINE
  8
DETAIL
  6
CONTINUOUS
 62
     5
 10
-545.59999999999764
 20
-371.69999999999709
 30
0.0
 11
-545.59999999999764
 21
-369.29999999999558
 31
0.0
  0
LINE
  8
DETAIL
  6
CONTINUOUS
 62
     5
 10
-480.49999999999591
 20
456.00000000000318
 30
0.0
 11
-430.59999999999758
 21
456.00000000000318
 31
0.0
  0
LINE
  8
DETAIL
  6
CONTINUOUS
 62
     5
 10
-245.00000000000139
 20
445.60000000000309
 30
0.0
 11
-404.99999999999818
 21
445.60000000000309
 31
0.0
  0
LINE
  8
DETAIL
  6
CONTINUOUS
 62
     5
 10
-480.49999999999591
 20
444.00000000000318
 30
0.0
 11
-460.499999999995
 21
444.00000000000318
 31
0.0
  0
LINE
  8
DETAIL
  6
CONTINUOUS
 62
     5
 10
460.5
 20
444.00000000000267
 30
0.0
 11
480.50000000000182
 21
444.00000000000267
 31
0.0
  0
LINE
  8
DETAIL
  6
CONTINUOUS
 62
     5
 10
-423.49000000000387
 20
443.99999999999733
 30
0.0
 11
423.48999999999251
 21
443.99999999999733
 31
0.0
  0
LINE
  8
DETAIL
  6
CONTINUOUS
 62
     5
 10
-429.59999999999809
 20
437.60000000000309
 30
0.0
 11
-428.49999999999773
 21
437.60000000001043
 31
0.0
  0
LINE
  8
DETAIL
  6
CONTINUOUS
 62
     5
 10
428.5
 20
437.60000000000309
 30
0.0
 11
429.59999999999582
 21
437.60000000000309
 31
0.0
  0
LINE
  8
DETAIL
  6
CONTINUOUS
 62
     5
 10
-429.59999999999809
 20
437.10000000000309
 30
0.0
 11
429.59999999999582
 21
437.10000000000309
 31
0.0
  0
LINE
  8
DETAIL
  6
CONTINUOUS
 62
     5
 10
431.99000000000069
 20
435.49999999999733
 30
0.0
 11
428.5
 21
435.49999999999733
 31
0.0
  0
LINE
  8
DETAIL
  6
CONTINUOUS
 62
     5
 10
-428.49999999999773
 20
435.49999999999733
 30
0.0
 11
-431.98999999999518
 21
435.49999999999733
 31
0.0
  0
LINE
  8
DETAIL
  6
CONTINUOUS
 62
     5
 10
-460.499999999995
 20
431.00000000000318
 30
0.0
 11
-480.49999999999591
 21
431.00000000000318
 31
0.0
  0
LINE
  8
DETAIL
  6
CONTINUOUS
 62
     5
 10
460.5
 20
431.00000000000267
 30
0.0
 11
480.50000000000182
 21
431.00000000000267
 31
0.0
  0
LINE
  8
DETAIL
  6
CONTINUOUS
 62
     5
 10
-395.99999999999642
 20
-499.99999999999551
 30
0.0
 11
-404.99999999999818
 21
-445.59999999999582
 31
0.0
  0
LINE
  8
DETAIL
  6
CONTINUOUS
 62
     5
 10
-500.59999999999758
 20
-373.92449979999952
 30
0.0
 11
-500.59999999999758
 21
-373.80000000000291
 31
0.0
  0
LINE
  8
DETAIL
  6
CONTINUOUS
 62
     5
 10
-496.30000000000109
 20
-380.69999999999709
 30
0.0
 11
-496.30000000000109
 21
-384.29999999999558
 31
0.0
  0
LINE
  8
DETAIL
  6
CONTINUOUS
 62
     5
 10
-495.09999999999951
 20
-383.34999999999133
 30
0.0
 11
-495.09999999999951
 21
-381.64999999999418
 31
0.0
  0
LINE
  8
DETAIL
  6
CONTINUOUS
 62
     5
 10
-494.59999999999758
 20
-401.899431002661
 30
0.0
 11
-494.59999999999758
 21
-381.89999999999418
 31
0.0
  0
LINE
  8
DETAIL
  6
CONTINUOUS
 62
     5
 10
-494.29999999999842
 20
-376.39999999999418
 30
0.0
 11
-494.29999999999842
 21
-380.69999999999709
 31
0.0
  0
LINE
  8
DETAIL
  6
CONTINUOUS
 62
     5
 10
-493.09999999999673
 20
-381.64999999999418
 30
0.0
 11
-493.09999999999673
 21
-377.65000000000151
 31
0.0
  0
LINE
  8
DETAIL
  6
CONTINUOUS
 62
     5
 10
-488.09999999999491
 20
-377.65000000000151
 30
0.0
 11
-488.09999999999491
 21
-381.64999999999418
 31
0.0
  0
LINE
  8
DETAIL
  6
CONTINUOUS
 62
     5
 10
-486.89999999999782
 20
-380.44999999999709
 30
0.0
 11
-486.89999999999782
 21
-376.84999999999133
 31
0.0
  0
LINE
  8
DETAIL
  6
CONTINUOUS
 62
     5
 10
-486.59999999999758
 20
-401.899431002661
 30
0.0
 11
-486.59999999999758
 21
-381.89999999999418
 31
0.0
  0
LINE
  8
DETAIL
  6
CONTINUOUS
 62
     5
 10
-486.09999999999951
 20
-381.64999999999418
 30
0.0
 11
-486.09999999999951
 21
-383.34999999999133
 31
0.0
  0
LINE
  8
DETAIL
  6
CONTINUOUS
 62
     5
 10
-484.89999999999782
 20
-384.29999999999558
 30
0.0
 11
-484.89999999999782
 21
-380.44999999999709
 31
0.0
  0
LINE
  8
DETAIL
  6
CONTINUOUS
 62
     5
 10
-480.49999999999591
 20
444.00000000000318
 30
0.0
 11
-480.49999999999591
 21
456.00000000000318
 31
0.0
  0
LINE
  8
DETAIL
  6
CONTINUOUS
 62
     5
 10
-480.49999999999591
 20
431.00000000000318
 30
0.0
 11
-480.49999999999591
 21
412.50000000000318
 31
0.0
  0
LINE
  8
DETAIL
  6
CONTINUOUS
 62
     5
 10
-480.59999999999582
 20
-373.80000000000291
 30
0.0
 11
-480.59999999999582
 21
-373.92449979999952
 31
0.0
  0
LINE
  8
DETAIL
  6
CONTINUOUS
 62
     5
 10
-480.49999999999642
 20
-412.50000000000358
 30
0.0
 11
-480.49999999999642
 21
-430.99999999999642
 31
0.0
  0
LINE
  8
DETAIL
  6
CONTINUOUS
 62
     5
 10
-480.49999999999642
 20
-444.00000000000358
 30
0.0
 11
-480.49999999999642
 21
-455.99999999999642
 31
0.0
  0
LINE
  8
DETAIL
  6
CONTINUOUS
 62
     5
 10
-477.29999999999927
 20
412.50000000000318
 30
0.0
 11
-477.29999999999927
 21
431.00000000000318
 31
0.0
  0
LINE
  8
DETAIL
  6
CONTINUOUS
 62
     5
 10
-477.29999999999927
 20
-412.50000000000358
 30
0.0
 11
-477.29999999999927
 21
-430.99999999999642
 31
0.0
  0
LINE
  8
DETAIL
  6
CONTINUOUS
 62
     5
 10
-475.70000000000073
 20
162.20000000000161
 30
0.0
 11
-475.70000000000073
 21
169.20000000000161
 31
0.0
  0
LINE
  8
DETAIL
  6
CONTINUOUS
 62
     5
 10
-468.69999999999618
 20
172.20000000000161
 30
0.0
 11
-468.69999999999618
 21
159.20000000000161
 31
0.0
  0
LINE
  8
DETAIL
  6
CONTINUOUS
 62
     5
 10
-467.69999999999942
 20
172.20000000000161
 30
0.0
 11
-467.69999999999942
 21
159.20000000000161
 31
0.0
  0
LINE
  8
DETAIL
  6
CONTINUOUS
 62
     5
 10
-466.19999999999942
 20
163.10000000000309
 30
0.0
 11
-466.19999999999942
 21
168.30000000000021
 31
0.0
  0
LINE
  8
DETAIL
  6
CONTINUOUS
 62
     5
 10
-462.69999999999942
 20
173.20000000000161
 30
0.0
 11
-462.69999999999942
 21
174.20000000000161
 31
0.0
  0
LINE
  8
DETAIL
  6
CONTINUOUS
 62
     5
 10
-458.19999999999942
 20
176.20000000000161
 30
0.0
 11
-458.16126842132923
 21
176.64270396800291
 31
0.0
  0
LINE
  8
DETAIL
  6
CONTINUOUS
 62
     5
 10
-395.99999999999642
 20
500.00000000000318
 30
0.0
 11
-404.99999999999818
 21
445.60000000000309
 31
0.0
  0
LINE
  8
DETAIL
  6
CONTINUOUS
 62
     5
 10
-457.85577561333048
 20
158.6231873106708
 30
0.0
 11
-466.33701255466173
 21
138.6426451946727
 31
0.0
  0
LINE
  8
DETAIL
  6
CONTINUOUS
 62
     5
 10
-455.83066493599608
 20
157.76357882800681
 30
0.0
 11
-464.31190187733
 21
137.7830367120014
 31
0.0
  0
LINE
  8
DETAIL
  6
CONTINUOUS
 62
     5
 10
-436.99999999999642
 20
412.50000000000318
 30
0.0
 11
-480.49999999999591
 21
412.50000000000318
 31
0.0
  0
LINE
  8
DETAIL
  6
CONTINUOUS
 62
     5
 10
437.00000000000051
 20
412.50000000000267
 30
0.0
 11
480.50000000000182
 21
412.50000000000267
 31
0.0
  0
LINE
  8
DETAIL
  6
CONTINUOUS
 62
     5
 10
-450.19999999999942
 20
176.20000000000161
 30
0.0
 11
-450.32293299333293
 21
177.60513054133929
 31
0.0
  0
LINE
  8
DETAIL
  6
CONTINUOUS
 62
     5
 10
-456.79999999999927
 20
172.20000000000161
 30
0.0
 11
-456.79999999999927
 21
171.70000000000161
 31
0.0
  0
LINE
  8
DETAIL
  6
CONTINUOUS
 62
     5
 10
-456.69999999999749
 20
175.400000000006
 30
0.0
 11
-456.69999999999749
 21
176.20000000000161
 31
0.0
  0
LINE
  8
DETAIL
  6
CONTINUOUS
 62
     5
 10
-455.69999999999891
 20
171.70000000000161
 30
0.0
 11
-455.69999999999891
 21
168.20000000000161
 31
0.0
  0
LINE
  8
DETAIL
  6
CONTINUOUS
 62
     5
 10
-452.69999999999942
 20
171.70000000000161
 30
0.0
 11
-452.69999999999942
 21
168.20000000000161
 31
0.0
  0
LINE
  8
DETAIL
  6
CONTINUOUS
 62
     5
 10
-451.69999999999658
 20
175.400000000006
 30
0.0
 11
-451.69999999999658
 21
176.20000000000161
 31
0.0
  0
LINE
  8
DETAIL
  6
CONTINUOUS
 62
     5
 10
-451.59999999999491
 20
172.20000000000161
 30
0.0
 11
-451.59999999999491
 21
171.70000000000161
 31
0.0
  0
LINE
  8
DETAIL
  6
CONTINUOUS
 62
     5
 10
-444.69999999999618
 20
174.20000000000161
 30
0.0
 11
-444.69999999999618
 21
-174.20000000000161
 31
0.0
  0
LINE
  8
DETAIL
  6
CONTINUOUS
 62
     5
 10
-444.59999999999951
 20
-175.3999999999987
 30
0.0
 11
-444.59999999999951
 21
-174.80000000000021
 31
0.0
  0
LINE
  8
DETAIL
  6
CONTINUOUS
 62
     5
 10
-444.59999999999951
 20
175.400000000006
 30
0.0
 11
-444.59999999999951
 21
174.80000000000021
 31
0.0
  0
LINE
  8
DETAIL
  6
CONTINUOUS
 62
     5
 10
-443.19999999999749
 20
175.400000000006
 30
0.0
 11
-443.19999999999749
 21
176.20000000000161
 31
0.0
  0
LINE
  8
DETAIL
  6
CONTINUOUS
 62
     5
 10
-442.9190558399996
 20
-174.80000000000021
 30
0.0
 11
-442.9190558399996
 21
-174.20000000000161
 31
0.0
  0
LINE
  8
DETAIL
  6
CONTINUOUS
 62
     5
 10
-442.91905583999909
 20
174.80000000000021
 30
0.0
 11
-442.91905583999909
 21
174.20000000000161
 31
0.0
  0
LINE
  8
DETAIL
  6
CONTINUOUS
 62
     5
 10
-437.29999999999927
 20
179.2041456506677
 30
0.0
 11
-437.29999999999927
 21
175.400000000006
 31
0.0
  0
LINE
  8
DETAIL
  6
CONTINUOUS
 62
     5
 10
-437.29999999999927
 20
174.80000000000021
 30
0.0
 11
-437.29999999999927
 21
174.20000000000161
 31
0.0
  0
LINE
  8
DETAIL
  6
CONTINUOUS
 62
     5
 10
-437.29999999999927
 20
-174.20000000000161
 30
0.0
 11
-437.29999999999927
 21
-174.80000000000021
 31
0.0
  0
LINE
  8
DETAIL
  6
CONTINUOUS
 62
     5
 10
-437.29999999999927
 20
-175.3999999999987
 30
0.0
 11
-437.29999999999927
 21
-177.80000000000021
 31
0.0
  0
LINE
  8
DETAIL
  6
CONTINUOUS
 62
     5
 10
-436.99999999999642
 20
-430.48999999999518
 30
0.0
 11
-436.99999999999642
 21
430.49000000001712
 31
0.0
  0
LINE
  8
DETAIL
  6
CONTINUOUS
 62
     5
 10
-430.59999999999758
 20
-455.99999999999642
 30
0.0
 11
-430.59999999999758
 21
-435.49999999999642
 31
0.0
  0
LINE
  8
DETAIL
  6
CONTINUOUS
 62
     5
 10
-430.59999999999758
 20
456.00000000000318
 30
0.0
 11
-430.59999999999758
 21
435.49999999999733
 31
0.0
  0
LINE
  8
DETAIL
  6
CONTINUOUS
 62
     5
 10
-430.09999999999633
 20
436.59999999999582
 30
0.0
 11
-430.09999999999673
 21
-436.59999999999582
 31
0.0
  0
LINE
  8
DETAIL
  6
CONTINUOUS
 62
     5
 10
-428.49999999999818
 20
-438.98999999999518
 30
0.0
 11
-428.49999999999818
 21
-435.49999999999733
 31
0.0
  0
LINE
  8
DETAIL
  6
CONTINUOUS
 62
     5
 10
-428.49999999999773
 20
438.99000000000251
 30
0.0
 11
-428.49999999999773
 21
435.49999999999733
 31
0.0
  0
LINE
  8
DETAIL
  6
CONTINUOUS
 62
     5
 10
-404.99999999999818
 20
-445.59999999999582
 30
0.0
 11
-405.0
 21
-443.99999999999733
 31
0.0
  0
LINE
  8
DETAIL
  6
CONTINUOUS
 62
     5
 10
-404.99999999999818
 20
445.60000000000309
 30
0.0
 11
-404.99999999999818
 21
443.99999999999733
 31
0.0
  0
LINE
  8
DETAIL
  6
CONTINUOUS
 62
     5
 10
-395.99999999999642
 20
-507.99999999999551
 30
0.0
 11
-395.99999999999642
 21
-499.99999999999551
 31
0.0
  0
LINE
  8
DETAIL
  6
CONTINUOUS
 62
     5
 10
-395.99999999999642
 20
507.99999999999591
 30
0.0
 11
-395.99999999999642
 21
500.00000000000318
 31
0.0
  0
LINE
  8
DETAIL
  6
CONTINUOUS
 62
     5
 10
-254.0
 20
-507.99999999999551
 30
0.0
 11
-254.0
 21
-499.99999999999551
 31
0.0
  0
LINE
  8
DETAIL
  6
CONTINUOUS
 62
     5
 10
-253.99999999999949
 20
507.99999999999591
 30
0.0
 11
-253.99999999999949
 21
500.00000000000318
 31
0.0
  0
LINE
  8
DETAIL
  6
CONTINUOUS
 62
     5
 10
-245.00000000000179
 20
-445.59999999999582
 30
0.0
 11
-245.00000000000179
 21
-443.99999999999733
 31
0.0
  0
LINE
  8
DETAIL
  6
CONTINUOUS
 62
     5
 10
-245.00000000000139
 20
445.60000000000309
 30
0.0
 11
-245.00000000000139
 21
443.99999999999733
 31
0.0
  0
LINE
  8
DETAIL
  6
CONTINUOUS
 62
     5
 10
-436.99999999999642
 20
181.45750263466931
 30
0.0
 11
-464.38957005199649
 21
178.09448630267161
 31
0.0
  0
LINE
  8
DETAIL
  6
CONTINUOUS
 62
     5
 10
-436.99999999999642
 20
179.24098101867
 30
0.0
 11
-464.1214574960004
 21
175.91088476933959
 31
0.0
  0
LINE
  8
DETAIL
  6
CONTINUOUS
 62
     5
 10
-457.02995115199752
 20
179.10000000000309
 30
0.0
 11
-456.20031816666409
 21
179.10000000000309
 31
0.0
  0
LINE
  8
DETAIL
  6
CONTINUOUS
 62
     5
 10
-458.1986221866664
 20
176.20000000000161
 30
0.0
 11
-450.20137781333227
 21
176.20000000000161
 31
0.0
  0
LINE
  8
DETAIL
  6
CONTINUOUS
 62
     5
 10
-436.99999999999642
 20
175.400000000006
 30
0.0
 11
-464.60000000000082
 21
175.400000000006
 31
0.0
  0
LINE
  8
DETAIL
  6
CONTINUOUS
 62
     5
 10
-436.99999999999642
 20
174.80000000000021
 30
0.0
 11
-444.59999999999951
 21
174.80000000000021
 31
0.0
  0
LINE
  8
DETAIL
  6
CONTINUOUS
 62
     5
 10
-442.91905583999909
 20
174.30000000000021
 30
0.0
 11
-440.69999999999749
 21
174.30000000000021
 31
0.0
  0
LINE
  8
DETAIL
  6
CONTINUOUS
 62
     5
 10
-465.51863906799781
 20
174.20000000000161
 30
0.0
 11
-436.99999999999642
 21
174.20000000000161
 31
0.0
  0
LINE
  8
DETAIL
  6
CONTINUOUS
 62
     5
 10
-465.08378487866412
 20
173.20000000000161
 30
0.0
 11
-444.69999999999618
 21
173.20000000000161
 31
0.0
  0
LINE
  8
DETAIL
  6
CONTINUOUS
 62
     5
 10
-472.70000000000073
 20
172.20000000000161
 30
0.0
 11
-467.69999999999942
 21
172.20000000000161
 31
0.0
  0
LINE
  8
DETAIL
  6
CONTINUOUS
 62
     5
 10
-456.79999999999927
 20
171.70000000000161
 30
0.0
 11
-451.59999999999491
 21
171.70000000000161
 31
0.0
  0
LINE
  8
DETAIL
  6
CONTINUOUS
 62
     5
 10
-466.69999999999618
 20
168.30000000000021
 30
0.0
 11
-466.19999999999942
 21
168.30000000000021
 31
0.0
  0
LINE
  8
DETAIL
  6
CONTINUOUS
 62
     5
 10
-452.69999999999942
 20
168.20000000000161
 30
0.0
 11
-455.69999999999891
 21
168.20000000000161
 31
0.0
  0
LINE
  8
DETAIL
  6
CONTINUOUS
 62
     5
 10
-466.19999999999942
 20
167.20000000000161
 30
0.0
 11
-463.31715902533102
 21
167.20000000000161
 31
0.0
  0
LINE
  8
DETAIL
  6
CONTINUOUS
 62
     5
 10
-466.19999999999942
 20
164.20000000000161
 30
0.0
 11
-461.05649687466303
 21
164.20000000000161
 31
0.0
  0
LINE
  8
DETAIL
  6
CONTINUOUS
 62
     5
 10
-466.69999999999618
 20
163.10000000000309
 30
0.0
 11
-466.19999999999942
 21
163.10000000000309
 31
0.0
  0
LINE
  8
DETAIL
  6
CONTINUOUS
 62
     5
 10
-472.70000000000073
 20
159.20000000000161
 30
0.0
 11
-467.69999999999942
 21
159.20000000000161
 31
0.0
  0
LINE
  8
DETAIL
  6
CONTINUOUS
 62
     5
 10
-449.56966294266482
 20
-174.20000000000161
 30
0.0
 11
-445.87920730666519
 21
-170.63616841866039
 31
0.0
  0
LINE
  8
DETAIL
  6
CONTINUOUS
 62
     5
 10
-449.43359004399917
 20
-175.7367922399981
 30
0.0
 11
-449.08483147066732
 21
-175.3999999999987
 31
0.0
  0
LINE
  8
DETAIL
  6
CONTINUOUS
 62
     5
 10
-447.84219509466669
 20
-174.20000000000161
 30
0.0
 11
-445.04561726266638
 21
-171.49937617999689
 31
0.0
  0
LINE
  8
DETAIL
  6
CONTINUOUS
 62
     5
 10
-253.99999999999949
 20
500.00000000000318
 30
0.0
 11
-245.00000000000139
 21
445.60000000000309
 31
0.0
  0
LINE
  8
DETAIL
  6
CONTINUOUS
 62
     5
 10
-254.0
 20
-499.99999999999551
 30
0.0
 11
-245.00000000000179
 21
-445.59999999999582
 31
0.0
  0
LINE
  8
BASIS
  6
DASHDOT
 62
     6
 10
-596.55666666619072
 20
0.0
 30
0.0
 11
547.26666666666824
 21
0.0
 31
0.0
  0
LINE
  8
BASIS
  6
DASHDOT
 62
     6
 10
0.0
 20
-519.8385315349924
 30
0.0
 11
0.0
 21
508.79122194427651
 31
0.0
  0
LINE
  8
DETAIL
  6
CONTINUOUS
 62
     5
 10
-486.89999999999782
 20
-376.84999999999133
 30
0.0
 11
-481.73256777199731
 21
-373.93819295066351
 31
0.0
  0
LINE
  8
DETAIL
  6
CONTINUOUS
 62
     5
 10
-464.60000000000127
 20
-174.20000000000161
 30
0.0
 11
-436.99999999999642
 21
-174.20000000000161
 31
0.0
  0
LINE
  8
DETAIL
  6
CONTINUOUS
 62
     5
 10
-444.59999999999951
 20
-174.80000000000021
 30
0.0
 11
-436.99999999999642
 21
-174.80000000000021
 31
0.0
  0
LINE
  8
DETAIL
  6
CONTINUOUS
 62
     5
 10
-464.60000000000127
 20
-175.3999999999987
 30
0.0
 11
-436.99999999999642
 21
-175.3999999999987
 31
0.0
  0
LINE
  8
DETAIL
  6
CONTINUOUS
 62
     5
 10
-436.99999999999642
 20
-177.80000000000021
 30
0.0
 11
-448.59999999999582
 21
-177.80000000000021
 31
0.0
  0
LINE
  8
DETAIL
  6
CONTINUOUS
 62
     5
 10
-436.99999999999642
 20
-178.9999999999973
 30
0.0
 11
-448.59999999999582
 21
-178.9999999999973
 31
0.0
  0
LINE
  8
DETAIL
  6
CONTINUOUS
 62
     5
 10
-545.59999999999764
 20
-198.89999999999421
 30
0.0
 11
-436.99999999999642
 21
-198.89999999999421
 31
0.0
  0
LINE
  8
DETAIL
  6
CONTINUOUS
 62
     5
 10
-546.20000000000073
 20
-211.5
 30
0.0
 11
-546.79999999999472
 21
-211.5
 31
0.0
  0
LINE
  8
DETAIL
  6
CONTINUOUS
 62
     5
 10
-465.20428336266468
 20
173.35990688933541
 30
0.0
 11
-456.29376843999938
 21
161.53525420400271
 31
0.0
  0
LINE
  8
DETAIL
  6
CONTINUOUS
 62
     5
 10
-466.96128148533029
 20
172.03591383866751
 30
0.0
 11
-458.05076656266692
 21
160.21126115333479
 31
0.0
  0
LINE
  8
DETAIL
  6
CONTINUOUS
 62
     5
 10
254.00000000000179
 20
-499.99999999999551
 30
0.0
 11
244.99999999999909
 21
-445.59999999999582
 31
0.0
  0
LINE
  8
DETAIL
  6
CONTINUOUS
 62
     5
 10
254.0000000000023
 20
500.00000000000318
 30
0.0
 11
244.99999999999909
 21
445.60000000000309
 31
0.0
  0
LINE
  8
DETAIL
  6
CONTINUOUS
 62
     5
 10
244.99999999999909
 20
-445.59999999999582
 30
0.0
 11
244.99999999999909
 21
-443.99999999999733
 31
0.0
  0
LINE
  8
DETAIL
  6
CONTINUOUS
 62
     5
 10
254.00000000000179
 20
-507.99999999999551
 30
0.0
 11
254.00000000000179
 21
-499.99999999999551
 31
0.0
  0
LINE
  8
DETAIL
  6
CONTINUOUS
 62
     5
 10
254.0000000000023
 20
507.99999999999591
 30
0.0
 11
254.0000000000023
 21
500.00000000000318
 31
0.0
  0
LINE
  8
DETAIL
  6
CONTINUOUS
 62
     5
 10
-546.20000000000073
 20
-369.29999999999558
 30
0.0
 11
-545.59999999999764
 21
-369.29999999999558
 31
0.0
  0
LINE
  8
DETAIL
  6
CONTINUOUS
 62
     5
 10
-543.99999999999454
 20
-373.29999999999558
 30
0.0
 11
-436.99999999999642
 21
-373.29999999999558
 31
0.0
  0
LINE
  8
DETAIL
  6
CONTINUOUS
 62
     5
 10
-536.79999999999745
 20
-376.29999999999558
 30
0.0
 11
-510.79999999999927
 21
-376.29999999999558
 31
0.0
  0
LINE
  8
DETAIL
  6
CONTINUOUS
 62
     5
 10
-493.09999999999673
 20
-377.65000000000151
 30
0.0
 11
-488.09999999999491
 21
-377.65000000000151
 31
0.0
  0
LINE
  8
DETAIL
  6
CONTINUOUS
 62
     5
 10
-484.89999999999782
 20
-380.44999999999709
 30
0.0
 11
-486.89999999999782
 21
-380.44999999999709
 31
0.0
  0
LINE
  8
DETAIL
  6
CONTINUOUS
 62
     5
 10
-494.29999999999842
 20
-380.69999999999709
 30
0.0
 11
-496.30000000000109
 21
-380.69999999999709
 31
0.0
  0
LINE
  8
DETAIL
  6
CONTINUOUS
 62
     5
 10
-495.09999999999951
 20
-381.64999999999418
 30
0.0
 11
-493.09999999999673
 21
-381.64999999999418
 31
0.0
  0
LINE
  8
DETAIL
  6
CONTINUOUS
 62
     5
 10
-488.09999999999491
 20
-381.64999999999418
 30
0.0
 11
-486.09999999999951
 21
-381.64999999999418
 31
0.0
  0
LINE
  8
DETAIL
  6
CONTINUOUS
 62
     5
 10
-486.59999999999758
 20
-381.89999999999418
 30
0.0
 11
-494.59999999999758
 21
-381.89999999999418
 31
0.0
  0
LINE
  8
DETAIL
  6
CONTINUOUS
 62
     5
 10
-486.09999999999951
 20
-383.34999999999133
 30
0.0
 11
-486.59999999999758
 21
-383.34999999999133
 31
0.0
  0
LINE
  8
DETAIL
  6
CONTINUOUS
 62
     5
 10
-494.59999999999758
 20
-383.34999999999133
 30
0.0
 11
-495.09999999999951
 21
-383.34999999999133
 31
0.0
  0
LINE
  8
DETAIL
  6
CONTINUOUS
 62
     5
 10
-484.89999999999782
 20
-384.29999999999558
 30
0.0
 11
-486.59999999999758
 21
-384.29999999999558
 31
0.0
  0
LINE
  8
DETAIL
  6
CONTINUOUS
 62
     5
 10
-494.59999999999758
 20
-384.29999999999558
 30
0.0
 11
-496.30000000000109
 21
-384.29999999999558
 31
0.0
  0
LINE
  8
DETAIL
  6
CONTINUOUS
 62
     5
 10
-486.59999999999758
 20
-401.89999999999418
 30
0.0
 11
-494.59999999999758
 21
-401.89999999999418
 31
0.0
  0
LINE
  8
DETAIL
  6
CONTINUOUS
 62
     5
 10
-436.99999999999642
 20
-412.50000000000358
 30
0.0
 11
-480.49999999999642
 21
-412.50000000000358
 31
0.0
  0
LINE
  8
DETAIL
  6
CONTINUOUS
 62
     5
 10
437.0
 20
-412.50000000000358
 30
0.0
 11
480.50000000000182
 21
-412.50000000000358
 31
0.0
  0
LINE
  8
DETAIL
  6
CONTINUOUS
 62
     5
 10
-460.49999999999551
 20
-430.99999999999642
 30
0.0
 11
-480.49999999999642
 21
-430.99999999999642
 31
0.0
  0
LINE
  8
DETAIL
  6
CONTINUOUS
 62
     5
 10
460.5
 20
-430.99999999999642
 30
0.0
 11
480.50000000000182
 21
-430.99999999999642
 31
0.0
  0
LINE
  8
DETAIL
  6
CONTINUOUS
 62
     5
 10
431.99000000000018
 20
-435.49999999999733
 30
0.0
 11
428.49999999999909
 21
-435.49999999999733
 31
0.0
  0
LINE
  8
DETAIL
  6
CONTINUOUS
 62
     5
 10
-431.98999999999518
 20
-435.49999999999733
 30
0.0
 11
-428.49999999999818
 21
-435.49999999999733
 31
0.0
  0
LINE
  8
DETAIL
  6
CONTINUOUS
 62
     5
 10
429.59999999999491
 20
-437.09999999999582
 30
0.0
 11
-429.59999999999849
 21
-437.09999999999582
 31
0.0
  0
LINE
  8
DETAIL
  6
CONTINUOUS
 62
     5
 10
429.59999999999491
 20
-437.59999999999582
 30
0.0
 11
428.49999999999949
 21
-437.59999999999582
 31
0.0
  0
LINE
  8
DETAIL
  6
CONTINUOUS
 62
     5
 10
-428.49999999999818
 20
-437.59999999999582
 30
0.0
 11
-429.59999999999849
 21
-437.59999999999582
 31
0.0
  0
LINE
  8
DETAIL
  6
CONTINUOUS
 62
     5
 10
-445.87920730666519
 20
-170.63616841866039
 30
0.0
 11
-445.04561726266638
 21
-171.49937617999689
 31
0.0
  0
LINE
  8
DETAIL
  6
CONTINUOUS
 62
     5
 10
-447.56330656399768
 20
-173.93068047599539
 30
0.0
 11
-448.39689660800008
 21
-173.06747271599761
 31
0.0
  0
LINE
  8
DETAIL
  6
CONTINUOUS
 62
     5
 10
395.99999999999949
 20
-507.99999999999551
 30
0.0
 11
395.99999999999949
 21
-499.99999999999551
 31
0.0
  0
LINE
  8
DETAIL
  6
CONTINUOUS
 62
     5
 10
396.0
 20
507.99999999999551
 30
0.0
 11
396.0
 21
500.00000000000267
 31
0.0
  0
LINE
  8
DETAIL
  6
CONTINUOUS
 62
     5
 10
404.99999999999909
 20
-445.59999999999582
 30
0.0
 11
404.99999999999909
 21
-443.99999999999733
 31
0.0
  0
LINE
  8
DETAIL
  6
CONTINUOUS
 62
     5
 10
-423.48999999997699
 20
-443.99999999999733
 30
0.0
 11
423.48999999999751
 21
-443.99999999999
 31
0.0
  0
LINE
  8
DETAIL
  6
CONTINUOUS
 62
     5
 10
-480.49999999999642
 20
-444.00000000000358
 30
0.0
 11
-460.49999999999551
 21
-444.00000000000358
 31
0.0
  0
LINE
  8
DETAIL
  6
CONTINUOUS
 62
     5
 10
460.49999999999949
 20
-444.00000000000358
 30
0.0
 11
480.50000000000182
 21
-444.00000000000358
 31
0.0
  0
LINE
  8
DETAIL
  6
CONTINUOUS
 62
     5
 10
404.99999999999909
 20
-445.59999999999582
 30
0.0
 11
244.99999999999909
 21
-445.59999999999582
 31
0.0
  0
LINE
  8
DETAIL
  6
CONTINUOUS
 62
     5
 10
-245.00000000000179
 20
-445.59999999999582
 30
0.0
 11
-404.99999999999818
 21
-445.59999999999582
 31
0.0
  0
LINE
  8
DETAIL
  6
CONTINUOUS
 62
     5
 10
-480.49999999999642
 20
-455.99999999999642
 30
0.0
 11
-430.59999999999758
 21
-455.99999999999642
 31
0.0
  0
LINE
  8
DETAIL
  6
CONTINUOUS
 62
     5
 10
428.49999999999909
 20
-438.98999999999518
 30
0.0
 11
428.49999999999909
 21
-435.49999999999733
 31
0.0
  0
LINE
  8
DETAIL
  6
CONTINUOUS
 62
     5
 10
428.5
 20
438.99000000000251
 30
0.0
 11
428.5
 21
435.49999999999733
 31
0.0
  0
LINE
  8
DETAIL
  6
CONTINUOUS
 62
     5
 10
430.10000000000173
 20
436.59999999999582
 30
0.0
 11
430.10000000000082
 21
-436.59999999999582
 31
0.0
  0
LINE
  8
DETAIL
  6
CONTINUOUS
 62
     5
 10
430.60000000000218
 20
-455.99999999999642
 30
0.0
 11
430.60000000000258
 21
-435.49999999999733
 31
0.0
  0
LINE
  8
DETAIL
  6
CONTINUOUS
 62
     5
 10
430.60000000000309
 20
456.00000000000267
 30
0.0
 11
430.60000000000309
 21
435.49999999999733
 31
0.0
  0
LINE
  8
DETAIL
  6
CONTINUOUS
 62
     5
 10
437.0
 20
-430.49000000000251
 30
0.0
 11
437.00000000000051
 21
430.49000000000927
 31
0.0
  0
LINE
  8
DETAIL
  6
CONTINUOUS
 62
     5
 10
395.99999999999949
 20
-499.99999999999551
 30
0.0
 11
254.00000000000179
 21
-499.99999999999551
 31
0.0
  0
LINE
  8
DETAIL
  6
CONTINUOUS
 62
     5
 10
-254.0
 20
-499.99999999999551
 30
0.0
 11
-395.99999999999642
 21
-499.99999999999551
 31
0.0
  0
LINE
  8
DETAIL
  6
CONTINUOUS
 62
     5
 10
395.99999999999949
 20
-507.99999999999551
 30
0.0
 11
254.00000000000179
 21
-507.99999999999551
 31
0.0
  0
LINE
  8
DETAIL
  6
CONTINUOUS
 62
     5
 10
-254.0
 20
-507.99999999999551
 30
0.0
 11
-395.99999999999642
 21
-507.99999999999551
 31
0.0
  0
LINE
  8
DETAIL
  6
CONTINUOUS
 62
     5
 10
396.0
 20
500.00000000000267
 30
0.0
 11
405.0
 21
445.60000000000309
 31
0.0
  0
LINE
  8
DETAIL
  6
CONTINUOUS
 62
     5
 10
477.299999999997
 20
412.50000000000267
 30
0.0
 11
477.299999999997
 21
431.00000000000267
 31
0.0
  0
LINE
  8
DETAIL
  6
CONTINUOUS
 62
     5
 10
477.299999999997
 20
-412.50000000000358
 30
0.0
 11
477.29999999999649
 21
-430.99999999999642
 31
0.0
  0
LINE
  8
DETAIL
  6
CONTINUOUS
 62
     5
 10
480.50000000000182
 20
444.00000000000267
 30
0.0
 11
480.50000000000182
 21
456.00000000000267
 31
0.0
  0
LINE
  8
DETAIL
  6
CONTINUOUS
 62
     5
 10
480.50000000000182
 20
431.00000000000267
 30
0.0
 11
480.50000000000182
 21
412.50000000000267
 31
0.0
  0
LINE
  8
DETAIL
  6
CONTINUOUS
 62
     5
 10
480.50000000000182
 20
-412.50000000000358
 30
0.0
 11
480.50000000000182
 21
-430.99999999999642
 31
0.0
  0
LINE
  8
DETAIL
  6
CONTINUOUS
 62
     5
 10
480.50000000000182
 20
-444.00000000000358
 30
0.0
 11
480.50000000000142
 21
-455.99999999999642
 31
0.0
  0
LINE
  8
DETAIL
  6
CONTINUOUS
 62
     5
 10
395.99999999999949
 20
-499.99999999999551
 30
0.0
 11
404.99999999999909
 21
-445.59999999999582
 31
0.0
  0
LINE
  8
DETAIL
  6
CONTINUOUS
 62
     5
 10
-499.43356526933349
 20
-373.8739599466644
 30
0.0
 11
-494.29999999999842
 21
-376.39999999999418
 31
0.0
  0
LINE
  8
DETAIL
  6
CONTINUOUS
 62
     5
 10
-423.48999999998432
 20
-443.99999999999
 30
0.0
 11
-428.49999999999818
 21
-438.98999999999518
 31
0.0
  0
LINE
  8
DETAIL
  6
CONTINUOUS
 62
     5
 10
-436.99999999999642
 20
-430.48999999999518
 30
0.0
 11
-431.98999999999518
 21
-435.49999999999733
 31
0.0
  0
LINE
  8
DETAIL
  6
CONTINUOUS
 62
     5
 10
437.0
 20
-430.48999999999518
 30
0.0
 11
431.99000000000018
 21
-435.49999999999733
 31
0.0
  0
LINE
  8
DETAIL
  6
CONTINUOUS
 62
     5
 10
423.48999999999802
 20
-443.99999999999733
 30
0.0
 11
428.49999999999909
 21
-438.98999999999518
 31
0.0
  0
ARC
  8
DETAIL
  6
CONTINUOUS
 62
     5
 10
-460.499999999995
 20
437.50000000000318
 30
0.0
 40
6.4999999999999849
 50
270.0
 51
90.0
  0
ARC
  8
DETAIL
  6
CONTINUOUS
 62
     5
 10
-427.400000000001
 20
443.99999999999733
 30
0.0
 40
6.3999999999999826
 50
239.9927485905915
 51
260.103146561892
  0
ARC
  8
DETAIL
  6
CONTINUOUS
 62
     5
 10
-427.400000000001
 20
443.99999999999733
 30
0.0
 40
3.1999999999999909
 50
180.44621106478991
 51
284.76827019946211
  0
ARC
  8
DETAIL
  6
CONTINUOUS
 62
     5
 10
-429.93222323332981
 20
441.33678917067027
 30
0.0
 40
2.663158247999994
 50
103.6448867340205
 51
104.5191714469139
  0
ARC
  8
DETAIL
  6
CONTINUOUS
 62
     5
 10
-429.59999999999809
 20
436.59999999999582
 30
0.0
 40
0.9999999999999976
 50
90.0
 51
180.0
  0
ARC
  8
DETAIL
  6
CONTINUOUS
 62
     5
 10
-429.59999999999809
 20
436.59999999999582
 30
0.0
 40
0.4999999999999988
 50
90.0
 51
180.0
  0
ARC
  8
DETAIL
  6
CONTINUOUS
 62
     5
 10
-459.3285833786631
 20
159.2483571160019
 30
0.0
 40
3.7999999999999901
 50
336.99999999999568
 51
36.999999999982869
  0
ARC
  8
DETAIL
  6
CONTINUOUS
 62
     5
 10
-463.92646654666402
 20
174.32281092666841
 30
0.0
 40
3.7999999999999901
 50
96.99999999997975
 51
216.99999999998289
  0
ARC
  8
DETAIL
  6
CONTINUOUS
 62
     5
 10
-472.70000000000073
 20
162.20000000000161
 30
0.0
 40
2.999999999999992
 50
180.0
 51
270.0
  0
ARC
  8
DETAIL
  6
CONTINUOUS
 62
     5
 10
-472.70000000000073
 20
169.20000000000161
 30
0.0
 40
2.999999999999992
 50
90.0
 51
180.0
  0
ARC
  8
DETAIL
  6
CONTINUOUS
 62
     5
 10
-443.19999999999749
 20
173.6052631573375
 30
0.0
 40
2.5947368426666602
 50
15.530332036905101
 51
27.475020287715299
  0
ARC
  8
DETAIL
  6
CONTINUOUS
 62
     5
 10
-443.19999999999749
 20
173.6052631573375
 30
0.0
 40
2.5947368426666602
 50
43.835513774704033
 51
90.0
  0
ARC
  8
DETAIL
  6
CONTINUOUS
 62
     5
 10
-466.69999999999618
 20
172.20000000000161
 30
0.0
 40
1.9999999999999949
 50
120.1043102346668
 51
180.0
  0
ARC
  8
DETAIL
  6
CONTINUOUS
 62
     5
 10
-459.3285833786631
 20
159.2483571160019
 30
0.0
 40
1.5999999999999961
 50
336.99999999999568
 51
36.999999999982869
  0
ARC
  8
DETAIL
  6
CONTINUOUS
 62
     5
 10
-463.92646654666402
 20
174.32281092666841
 30
0.0
 40
1.5999999999999961
 50
96.99999999997975
 51
216.99999999998289
  0
ARC
  8
DETAIL
  6
CONTINUOUS
 62
     5
 10
-465.32445721599743
 20
138.21284095333701
 30
0.0
 40
1.099999999999997
 50
156.99999999999571
 51
336.99999999999568
  0
ARC
  8
DETAIL
  6
CONTINUOUS
 62
     5
 10
-457.02995170133232
 20
178.10000000000309
 30
0.0
 40
0.9999999999999976
 50
90.0
 51
123.6765088706528
  0
ARC
  8
DETAIL
  6
CONTINUOUS
 62
     5
 10
-450.59999999999633
 20
172.20000000000161
 30
0.0
 40
0.9999999999999976
 50
90.0
 51
180.0
  0
ARC
  8
DETAIL
  6
CONTINUOUS
 62
     5
 10
-457.79999999999751
 20
172.20000000000161
 30
0.0
 40
0.9999999999999976
 50
0.0
 51
90.0
  0
ARC
  8
DETAIL
  6
CONTINUOUS
 62
     5
 10
-466.69999999999618
 20
172.20000000000161
 30
0.0
 40
0.9999999999999976
 50
137.3782928301649
 51
180.0
  0
ARC
  8
DETAIL
  6
CONTINUOUS
 62
     5
 10
-466.69999999999618
 20
162.10000000000309
 30
0.0
 40
0.9999999999999976
 50
90.0
 51
171.00000000008799
  0
ARC
  8
DETAIL
  6
CONTINUOUS
 62
     5
 10
-466.69999999999618
 20
169.30000000000021
 30
0.0
 40
0.9999999999999976
 50
188.99999999991201
 51
270.0
  0
ARC
  8
DETAIL
  6
CONTINUOUS
 62
     5
 10
-464.60000000000082
 20
174.80000000000021
 30
0.0
 40
0.5999999999999987
 50
90.0
 51
270.0
  0
ARC
  8
DETAIL
  6
CONTINUOUS
 62
     5
 10
-440.59999999999758
 20
174.30000000000021
 30
0.0
 40
0.0999999999999998
 50
180.0
 51
270.0
  0
ARC
  8
DETAIL
  6
CONTINUOUS
 62
     5
 10
460.5
 20
437.50000000000267
 30
0.0
 40
6.4999999999999849
 50
90.0
 51
270.0
  0
ARC
  8
DETAIL
  6
CONTINUOUS
 62
     5
 10
427.39999999999873
 20
443.99999999999733
 30
0.0
 40
6.3999999999999826
 50
279.89685343816097
 51
300.00725140940852
  0
ARC
  8
DETAIL
  6
CONTINUOUS
 62
     5
 10
427.39999999999873
 20
443.99999999999733
 30
0.0
 40
3.1999999999999909
 50
255.23172980067221
 51
359.55378893520998
  0
ARC
  8
DETAIL
  6
CONTINUOUS
 62
     5
 10
429.93140076133159
 20
441.33349353600079
 30
0.0
 40
2.6665549613333268
 50
75.492718824404406
 51
76.329647926477193
  0
ARC
  8
DETAIL
  6
CONTINUOUS
 62
     5
 10
429.59999999999582
 20
436.59999999999582
 30
0.0
 40
0.9999999999999976
 50
0.0
 51
90.0
  0
ARC
  8
DETAIL
  6
CONTINUOUS
 62
     5
 10
429.59999999999582
 20
436.59999999999582
 30
0.0
 40
0.4999999999999988
 50
0.0
 51
90.0
  0
ARC
  8
DETAIL
  6
CONTINUOUS
 62
     5
 10
-448.59999999999582
 20
-176.59999999999579
 30
0.0
 40
2.399999999999995
 50
149.94463625951809
 51
270.0
  0
ARC
  8
DETAIL
  6
CONTINUOUS
 62
     5
 10
-448.59999999999582
 20
-176.59999999999579
 30
0.0
 40
1.1999999999999971
 50
133.9999999999564
 51
270.0
  0
ARC
  8
DETAIL
  6
CONTINUOUS
 62
     5
 10
-545.59999999999764
 20
-200.09999999999849
 30
0.0
 40
1.1999999999999971
 50
90.0
 51
180.0
  0
ARC
  8
DETAIL
  6
CONTINUOUS
 62
     5
 10
-464.60000000000127
 20
-174.80000000000021
 30
0.0
 40
0.5999999999999987
 50
90.0
 51
270.0
  0
ARC
  8
DETAIL
  6
CONTINUOUS
 62
     5
 10
-460.49999999999551
 20
-437.49999999999642
 30
0.0
 40
6.4999999999999849
 50
270.0
 51
90.0
  0
ARC
  8
DETAIL
  6
CONTINUOUS
 62
     5
 10
-427.40000000000151
 20
-443.99999999999733
 30
0.0
 40
6.3999999999999826
 50
99.896853442683891
 51
120.0072514094085
  0
ARC
  8
DETAIL
  6
CONTINUOUS
 62
     5
 10
-427.40000000000151
 20
-443.99999999999733
 30
0.0
 40
3.1999999999999909
 50
75.231730258364507
 51
179.55378893531429
  0
ARC
  8
DETAIL
  6
CONTINUOUS
 62
     5
 10
-510.79999999999927
 20
-373.29999999999558
 30
0.0
 40
2.999999999999992
 50
270.0
 51
0.0
  0
ARC
  8
DETAIL
  6
CONTINUOUS
 62
     5
 10
-516.80000000000109
 20
-373.29999999999558
 30
0.0
 40
2.999999999999992
 50
270.0
 51
0.0
  0
ARC
  8
DETAIL
  6
CONTINUOUS
 62
     5
 10
-536.79999999999745
 20
-373.29999999999558
 30
0.0
 40
2.999999999999992
 50
180.0
 51
270.0
  0
ARC
  8
DETAIL
  6
CONTINUOUS
 62
     5
 10
-543.99999999999454
 20
-371.69999999999709
 30
0.0
 40
1.5999999999999961
 50
180.0
 51
270.0
  0
ARC
  8
DETAIL
  6
CONTINUOUS
 62
     5
 10
-480.59999999999582
 20
-373.29999999999558
 30
0.0
 40
1.2999999999999969
 50
209.4009141972021
 51
231.3178125465781
  0
ARC
  8
DETAIL
  6
CONTINUOUS
 62
     5
 10
-500.59999999999758
 20
-373.29999999999558
 30
0.0
 40
1.2999999999999969
 50
308.68218745352152
 51
333.79988515868718
  0
ARC
  8
DETAIL
  6
CONTINUOUS
 62
     5
 10
-429.59999999999849
 20
-436.59999999999582
 30
0.0
 40
0.9999999999999976
 50
180.0
 51
270.0
  0
ARC
  8
DETAIL
  6
CONTINUOUS
 62
     5
 10
-500.09999999999582
 20
-373.80000000000291
 30
0.0
 40
0.4999999999999988
 50
90.0
 51
180.0
  0
ARC
  8
DETAIL
  6
CONTINUOUS
 62
     5
 10
-481.09999999999758
 20
-373.80000000000291
 30
0.0
 40
0.4999999999999988
 50
0.0
 51
90.0
  0
ARC
  8
DETAIL
  6
CONTINUOUS
 62
     5
 10
-481.09999999999758
 20
-373.92449979999952
 30
0.0
 40
0.4999999999999988
 50
231.31781254647851
 51
0.0
  0
ARC
  8
DETAIL
  6
CONTINUOUS
 62
     5
 10
-500.09999999999582
 20
-373.92449979999952
 30
0.0
 40
0.4999999999999988
 50
180.0
 51
308.68218745352152
  0
ARC
  8
DETAIL
  6
CONTINUOUS
 62
     5
 10
-429.59999999999849
 20
-436.59999999999582
 30
0.0
 40
0.4999999999999988
 50
180.0
 51
270.0
  0
ARC
  8
DETAIL
  6
CONTINUOUS
 62
     5
 10
460.5
 20
-437.49999999999642
 30
0.0
 40
6.4999999999999849
 50
90.0
 51
270.0
  0
ARC
  8
DETAIL
  6
CONTINUOUS
 62
     5
 10
427.39999999999827
 20
-443.99999999999733
 30
0.0
 40
6.3999999999999826
 50
59.992748590591539
 51
80.103146561839011
  0
ARC
  8
DETAIL
  6
CONTINUOUS
 62
     5
 10
427.39999999999827
 20
-443.99999999999733
 30
0.0
 40
3.1999999999999909
 50
0.4462110646857207
 51
104.7682701993278
  0
ARC
  8
DETAIL
  6
CONTINUOUS
 62
     5
 10
429.59999999999491
 20
-436.59999999999582
 30
0.0
 40
0.9999999999999976
 50
270.0
 51
0.0
  0
ARC
  8
DETAIL
  6
CONTINUOUS
 62
     5
 10
429.59999999999491
 20
-436.59999999999582
 30
0.0
 40
0.4999999999999988
 50
270.0
 51
0.0
  0
LINE
  8
DETAIL
  6
CONTINUOUS
 62
     5
 10
-444.59999999999951
 20
-175.3999999999987
 30
0.0
 11
-444.75595152418714
 21
-175.34894848648639
 31
0.0
  0
LINE
  8
DETAIL
  6
CONTINUOUS
 62
     5
 10
-444.75595152418714
 20
-175.34894848648639
 30
0.0
 11
-444.87335222613262
 21
-175.21508616524386
 31
0.0
  0
LINE
  8
DETAIL
  6
CONTINUOUS
 62
     5
 10
-444.87335222613262
 20
-175.21508616524386
 30
0.0
 11
-444.94910843044084
 21
-175.02735136521284
 31
0.0
  0
LINE
  8
DETAIL
  6
CONTINUOUS
 62
     5
 10
-444.94910843044084
 20
-175.02735136521284
 30
0.0
 11
-444.98012723167426
 21
-174.81468107636627
 31
0.0
  0
LINE
  8
DETAIL
  6
CONTINUOUS
 62
     5
 10
-444.98012723167426
 20
-174.81468107636627
 30
0.0
 11
-444.96430326530464
 21
-174.6042949397887
 31
0.0
  0
LINE
  8
DETAIL
  6
CONTINUOUS
 62
     5
 10
-444.96430326530464
 20
-174.6042949397887
 30
0.0
 11
-444.90245477447411
 21
-174.41832839768389
 31
0.0
  0
LINE
  8
DETAIL
  6
CONTINUOUS
 62
     5
 10
-444.90245477447411
 20
-174.41832839768389
 30
0.0
 11
-444.79593846932431
 21
-174.27798048983036
 31
0.0
  0
LINE
  8
DETAIL
  6
CONTINUOUS
 62
     5
 10
-444.79593846932431
 20
-174.27798048983036
 30
0.0
 11
-444.64611105999671
 21
-174.2044502560066
 31
0.0
  0
LINE
  8
DETAIL
  6
CONTINUOUS
 62
     5
 10
-444.59999999999951
 20
175.400000000006
 30
0.0
 11
-444.75595152418691
 21
175.34894848659891
 31
0.0
  0
LINE
  8
DETAIL
  6
CONTINUOUS
 62
     5
 10
-444.75595152418691
 20
175.34894848659891
 30
0.0
 11
-444.87335222613228
 21
175.21508616558629
 31
0.0
  0
LINE
  8
DETAIL
  6
CONTINUOUS
 62
     5
 10
-444.87335222613228
 20
175.21508616558629
 30
0.0
 11
-444.94910843044045
 21
175.02735136578121
 31
0.0
  0
LINE
  8
DETAIL
  6
CONTINUOUS
 62
     5
 10
-444.94910843044045
 20
175.02735136578121
 30
0.0
 11
-444.98012723167392
 21
174.81468107702796
 31
0.0
  0
LINE
  8
DETAIL
  6
CONTINUOUS
 62
     5
 10
-444.98012723167392
 20
174.81468107702796
 30
0.0
 11
-444.96430326530418
 21
174.60429494033741
 31
0.0
  0
LINE
  8
DETAIL
  6
CONTINUOUS
 62
     5
 10
-444.96430326530418
 20
174.60429494033741
 30
0.0
 11
-444.90245477447365
 21
174.41832839800276
 31
0.0
  0
LINE
  8
DETAIL
  6
CONTINUOUS
 62
     5
 10
-444.90245477447365
 20
174.41832839800276
 30
0.0
 11
-444.79593846932403
 21
174.2779804899217
 31
0.0
  0
LINE
  8
DETAIL
  6
CONTINUOUS
 62
     5
 10
-444.79593846932403
 20
174.2779804899217
 30
0.0
 11
-444.64611105999671
 21
174.20445025599199
 31
0.0
  0
LINE
  8
DETAIL
  6
CONTINUOUS
 62
     5
 10
-546.20000000000164
 20
-299.67659812798962
 30
0.0
 11
-546.17896584844254
 21
-299.70275899618713
 31
0.0
  0
LINE
  8
DETAIL
  6
CONTINUOUS
 62
     5
 10
-546.17896584844254
 20
-299.70275899618713
 30
0.0
 11
-546.13322182478782
 21
-299.71204865810654
 31
0.0
  0
LINE
  8
DETAIL
  6
CONTINUOUS
 62
     5
 10
-546.13322182478782
 20
-299.71204865810654
 30
0.0
 11
-546.08650959719193
 21
-299.71539464752567
 31
0.0
  0
LINE
  8
DETAIL
  6
CONTINUOUS
 62
     5
 10
-546.08650959719193
 20
-299.71539464752567
 30
0.0
 11
-546.04516021864413
 21
-299.71637424432163
 31
0.0
  0
LINE
  8
DETAIL
  6
CONTINUOUS
 62
     5
 10
-546.04516021864413
 20
-299.71637424432163
 30
0.0
 11
-546.00752491831713
 21
-299.7151958795065
 31
0.0
  0
LINE
  8
DETAIL
  6
CONTINUOUS
 62
     5
 10
-546.00752491831713
 20
-299.7151958795065
 30
0.0
 11
-545.97191334754473
 21
-299.71205043114168
 31
0.0
  0
LINE
  8
DETAIL
  6
CONTINUOUS
 62
     5
 10
-545.97191334754473
 20
-299.71205043114168
 30
0.0
 11
-545.9366351576607
 21
-299.70712877728846
 31
0.0
  0
LINE
  8
DETAIL
  6
CONTINUOUS
 62
     5
 10
-545.9366351576607
 20
-299.70712877728846
 30
0.0
 11
-545.89999999999873
 21
-299.70062179600791
 31
0.0
  0
LINE
  8
DETAIL
  6
CONTINUOUS
 62
     5
 10
-545.89999999999873
 20
-306.29937820399209
 30
0.0
 11
-545.9366351576607
 21
-306.29287122271467
 31
0.0
  0
LINE
  8
DETAIL
  6
CONTINUOUS
 62
     5
 10
-545.9366351576607
 20
-306.29287122271467
 30
0.0
 11
-545.97191334754473
 21
-306.28794956886333
 31
0.0
  0
LINE
  8
DETAIL
  6
CONTINUOUS
 62
     5
 10
-545.97191334754473
 20
-306.28794956886333
 30
0.0
 11
-546.00752491831713
 21
-306.28480412049936
 31
0.0
  0
LINE
  8
DETAIL
  6
CONTINUOUS
 62
     5
 10
-546.00752491831713
 20
-306.28480412049936
 30
0.0
 11
-546.04516021864413
 21
-306.28362575568417
 31
0.0
  0
LINE
  8
DETAIL
  6
CONTINUOUS
 62
     5
 10
-546.04516021864413
 20
-306.28362575568417
 30
0.0
 11
-546.08650959719193
 21
-306.2846053524791
 31
0.0
  0
LINE
  8
DETAIL
  6
CONTINUOUS
 62
     5
 10
-546.08650959719193
 20
-306.2846053524791
 30
0.0
 11
-546.13322182478782
 21
-306.28795134189653
 31
0.0
  0
LINE
  8
DETAIL
  6
CONTINUOUS
 62
     5
 10
-546.13322182478782
 20
-306.28795134189653
 30
0.0
 11
-546.17896584844254
 21
-306.29724100381151
 31
0.0
  0
LINE
  8
DETAIL
  6
CONTINUOUS
 62
     5
 10
-546.17896584844254
 20
-306.29724100381151
 30
0.0
 11
-546.20000000000164
 21
-306.32340187199588
 31
0.0
  0
LINE
  8
DETAIL
  6
CONTINUOUS
 62
     5
 10
404.99999999999858
 20
445.60000000000309
 30
0.0
 11
245.00000000000051
 21
445.60000000000309
 31
0.0
  0
LINE
  8
DETAIL
  6
CONTINUOUS
 62
     5
 10
245.00000000000051
 20
445.60000000000309
 30
0.0
 11
245.00000000000051
 21
443.99999999999733
 31
0.0
  0
LINE
  8
DETAIL
  6
CONTINUOUS
 62
     5
 10
404.99999999999858
 20
445.60000000000309
 30
0.0
 11
404.99999999999858
 21
443.99999999999733
 31
0.0
  0
LINE
  8
DETAIL
  6
CONTINUOUS
 62
     5
 10
430.60000000000309
 20
456.00000000000267
 30
0.0
 11
480.50000000000182
 21
456.00000000000267
 31
0.0
  0
LINE
  8
DETAIL
  6
CONTINUOUS
 62
     5
 10
430.60000000000218
 20
-455.99999999999642
 30
0.0
 11
480.50000000000142
 21
-455.99999999999642
 31
0.0
  0
LINE
  8
BASIS
  6
DASHDOT
 62
     6
 10
325.00000000000182
 20
406.07911292904191
 30
0.0
 11
325.00000000000182
 21
525.80031860967847
 31
0.0
  0
LINE
  8
BASIS
  6
DASHDOT
 62
     6
 10
-324.99999999999773
 20
406.07911292904191
 30
0.0
 11
-324.99999999999773
 21
525.80031860967892
 31
0.0
  0
LINE
  8
SERVICESPACE
  6
DASHDOT
 62
     2
 10
-1137.000029352459
 20
443.99999999999773
 30
0.0
 11
-1137.0000293524599
 21
-443.99999999999682
 31
0.0
  0
LINE
  8
SERVICESPACE
  6
DASHDOT
 62
     2
 10
-423.48999999997699
 20
-443.99999999999733
 30
0.0
 11
-1137.0000293524599
 21
-443.99999999999591
 31
0.0
  0
LINE
  8
SERVICESPACE
  6
DASHDOT
 62
     2
 10
-587.00003165146973
 20
225.25004575110961
 30
0.0
 11
-587.00003165146973
 21
-225.24702651579449
 31
0.0
  0
LINE
  8
SERVICESPACE
  6
DASHDOT
 62
     2
 10
-423.49000000000387
 20
443.99999999999733
 30
0.0
 11
-1137.000029352459
 21
443.99999999999818
 31
0.0
  0
LINE
  8
BASIS
  6
DASHDOT
 62
     6
 10
460.49999999999318
 20
-488.43427874224648
 30
0.0
 11
460.49999999999358
 21
-386.56572125775352
 31
0.0
  0
LINE
  8
BASIS
  6
DASHDOT
 62
     6
 10
511.43427874224841
 20
-437.49999999999642
 30
0.0
 11
409.56572125775068
 21
-437.49999999999642
 31
0.0
  0
LINE
  8
BASIS
  6
DASHDOT
 62
     6
 10
460.44999999999982
 20
386.56572125775619
 30
0.0
 11
460.55000000000018
 21
488.43427874224932
 31
0.0
  0
LINE
  8
BASIS
  6
DASHDOT
 62
     6
 10
511.4278979737087
 20
437.50000000000267
 30
0.0
 11
409.55934048921108
 21
437.50000000000318
 31
0.0
  0
LINE
  8
BASIS
  6
DASHDOT
 62
     6
 10
-460.5
 20
386.56572125775301
 30
0.0
 11
-460.5
 21
488.43427874224608
 31
0.0
  0
LINE
  8
BASIS
  6
DASHDOT
 62
     6
 10
-409.5657212577471
 20
437.50000000000318
 30
0.0
 11
-511.4342787422429
 21
437.50000000000318
 31
0.0
  0
LINE
  8
BASIS
  6
DASHDOT
 62
     6
 10
-460.50000000000091
 20
-488.43427874224648
 30
0.0
 11
-460.50000000000091
 21
-386.56572125775352
 31
0.0
  0
LINE
  8
BASIS
  6
DASHDOT
 62
     6
 10
-409.5657212577471
 20
-437.49999999999642
 30
0.0
 11
-511.43427874224381
 21
-437.49999999999591
 31
0.0
  0
LINE
  8
BASIS
  6
DASHDOT
 62
     6
 10
-514.56652364125421
 20
320.0
 30
0.0
 11
-420.3333639255452
 21
320.0
 31
0.0
  0
LINE
  8
DETAIL
  6
DASHED
 62
     5
 10
-489.98787740090847
 20
393.27959022080182
 30
0.0
 11
-489.98787740090847
 21
254.7185685113582
 31
0.0
  0
LINE
  8
DETAIL
  6
DASHED
 62
     5
 10
-499.9855901179526
 20
392.38343435065332
 30
0.0
 11
-499.9855901179526
 21
255.61472438151401
 31
0.0
  0
LINE
  8
DETAIL
  6
DASHED
 62
     5
 10
-497.38618481152213
 20
394.98283965708828
 30
0.0
 11
-489.98787740090847
 21
394.98283965708828
 31
0.0
  0
ARC
  8
DETAIL
  6
DASHED
 62
     5
 10
-493.05928912063649
 20
395.58270242009888
 30
0.0
 40
0.5998627630222526
 50
270.0
 51
275.9019798794028
  0
ARC
  8
DETAIL
  6
DASHED
 62
     5
 10
-497.38618481152213
 20
392.38343435065332
 30
0.0
 40
2.5994053064314429
 50
90.0
 51
180.0
  0
ARC
  8
DETAIL
  6
DASHED
 62
     5
 10
-440.09619148952328
 20
401.98123855901213
 30
0.0
 40
1.99954254340919
 50
90.0
 51
95.901979879402802
  0
ARC
  8
DETAIL
  6
DASHED
 62
     5
 10
-439.98765037641402
 20
401.98123855901213
 30
0.0
 40
1.99954254340919
 50
90.0
 51
96.214271505662438
  0
LINE
  8
DETAIL
  6
DASHED
 62
     5
 10
-439.98765037641402
 20
403.98078110242199
 30
0.0
 11
-489.98787740090847
 21
394.98283965708828
 31
0.0
  0
LINE
  8
DETAIL
  6
DASHED
 62
     5
 10
-497.38618481152213
 20
253.01531907507891
 30
0.0
 11
-489.98787740090847
 21
253.01531907507891
 31
0.0
  0
ARC
  8
DETAIL
  6
DASHED
 62
     5
 10
-493.05928912063649
 20
252.41545631205369
 30
0.0
 40
0.5998627630218956
 50
84.098020120570951
 51
90.0
  0
ARC
  8
DETAIL
  6
DASHED
 62
     5
 10
-497.38618481152213
 20
255.61472438151401
 30
0.0
 40
2.5994053064308109
 50
180.0
 51
270.0
  0
ARC
  8
DETAIL
  6
DASHED
 62
     5
 10
-440.09619148952328
 20
246.01692017314781
 30
0.0
 40
1.999542543407099
 50
264.09802012057088
 51
270.0
  0
ARC
  8
DETAIL
  6
DASHED
 62
     5
 10
-439.98765037641402
 20
246.01692017314781
 30
0.0
 40
1.999542543407888
 50
263.78572849431129
 51
270.0
  0
LINE
  8
DETAIL
  6
DASHED
 62
     5
 10
-439.98765037641402
 20
244.01737762973789
 30
0.0
 11
-489.98787740090847
 21
253.01531907507891
 31
0.0
  0
LINE
  8
DETAIL
  6
DASHED
 62
     5
 10
-439.98765037641402
 20
244.01737762973789
 30
0.0
 11
-437.0000000005889
 21
244.01737762973789
 31
0.0
  0
LINE
  8
DETAIL
  6
DASHED
 62
     5
 10
-439.98765037641402
 20
403.98078110242199
 30
0.0
 11
-437.0000000005889
 21
403.98078110242199
 31
0.0
  0
LINE
  8
BASIS
  6
DASHDOT
 62
     6
 10
514.56652364125648
 20
320.0
 30
0.0
 11
420.33336392554571
 21
320.0
 31
0.0
  0
LINE
  8
DETAIL
  6
DASHED
 62
     5
 10
489.98787740090938
 20
393.27959022080182
 30
0.0
 11
489.98787740090938
 21
254.7185685113582
 31
0.0
  0
LINE
  8
DETAIL
  6
DASHED
 62
     5
 10
499.98559011795442
 20
392.38343435065281
 30
0.0
 11
499.98559011795442
 21
255.61472438151401
 31
0.0
  0
LINE
  8
DETAIL
  6
DASHED
 62
     5
 10
497.38618481152338
 20
394.98283965708788
 30
0.0
 11
489.98787740090938
 21
394.98283965708828
 31
0.0
  0
ARC
  8
DETAIL
  6
DASHED
 62
     5
 10
493.05928912063752
 20
395.58270242009849
 30
0.0
 40
0.5998627630222526
 50
264.0980201205972
 51
270.0
  0
ARC
  8
DETAIL
  6
DASHED
 62
     5
 10
497.38618481152338
 20
392.38343435065281
 30
0.0
 40
2.5994053064314429
 50
0.0
 51
90.0
  0
ARC
  8
DETAIL
  6
DASHED
 62
     5
 10
440.09619148952561
 20
401.98123855901213
 30
0.0
 40
1.99954254340919
 50
84.098020120597198
 51
90.0
  0
ARC
  8
DETAIL
  6
DASHED
 62
     5
 10
439.98765037641618
 20
401.98123855901213
 30
0.0
 40
1.99954254340919
 50
83.785728494337576
 51
90.0
  0
LINE
  8
DETAIL
  6
DASHED
 62
     5
 10
439.98765037641618
 20
403.98078110242199
 30
0.0
 11
489.98787740090938
 21
394.98283965708828
 31
0.0
  0
LINE
  8
DETAIL
  6
DASHED
 62
     5
 10
497.38618481152338
 20
253.01531907507891
 30
0.0
 11
489.98787740090938
 21
253.01531907507891
 31
0.0
  0
ARC
  8
DETAIL
  6
DASHED
 62
     5
 10
493.05928912063752
 20
252.41545631205369
 30
0.0
 40
0.5998627630218956
 50
90.0
 51
95.901979879402802
  0
ARC
  8
DETAIL
  6
DASHED
 62
     5
 10
497.38618481152338
 20
255.61472438151401
 30
0.0
 40
2.5994053064308109
 50
270.0
 51
0.0
  0
ARC
  8
DETAIL
  6
DASHED
 62
     5
 10
440.09619148952561
 20
246.01692017314781
 30
0.0
 40
1.999542543407099
 50
270.0
 51
275.90197987945533
  0
ARC
  8
DETAIL
  6
DASHED
 62
     5
 10
439.98765037641618
 20
246.01692017314781
 30
0.0
 40
1.999542543407888
 50
270.0
 51
276.2142715056624
  0
LINE
  8
DETAIL
  6
DASHED
 62
     5
 10
439.98765037641618
 20
244.01737762973789
 30
0.0
 11
489.98787740090938
 21
253.01531907507891
 31
0.0
  0
LINE
  8
DETAIL
  6
DASHED
 62
     5
 10
439.98765037641618
 20
244.01737762973789
 30
0.0
 11
437.00000000058941
 21
244.01737762973789
 31
0.0
  0
LINE
  8
DETAIL
  6
DASHED
 62
     5
 10
439.98765037641618
 20
403.98078110242199
 30
0.0
 11
437.00000000058941
 21
403.98078110242199
 31
0.0
  0
LINE
  8
SIZE
  6
CONTINUOUS
 62
    30
 10
-324.99999999999773
 20
545.80031860967892
 30
0.0
 11
-324.99999999999773
 21
826.2447526473843
 31
0.0
  0
LINE
  8
SIZE
  6
CONTINUOUS
 62
    30
 10
325.00000000000182
 20
545.80031860967847
 30
0.0
 11
325.00000000000182
 21
826.2447526473843
 31
0.0
  0
LINE
  8
SIZE
  6
CONTINUOUS
 62
    30
 10
-312.99999999999773
 20
806.2447526473843
 30
0.0
 11
313.00000000000182
 21
806.2447526473843
 31
0.0
  0
CIRCLE
  8
SIZE
  6
CONTINUOUS
 62
    30
 10
-324.99999999999773
 20
806.2447526473843
 30
0.0
 40
6.0
  0
LINE
  8
SIZE
  6
CONTINUOUS
 62
    30
 10
-324.99999999999773
 20
806.2447526473843
 30
0.0
 11
-312.99999999999773
 21
806.2447526473843
 31
0.0
  0
CIRCLE
  8
SIZE
  6
CONTINUOUS
 62
    30
 10
325.00000000000182
 20
806.2447526473843
 30
0.0
 40
6.0
  0
LINE
  8
SIZE
  6
CONTINUOUS
 62
    30
 10
325.00000000000182
 20
806.2447526473843
 30
0.0
 11
313.00000000000182
 21
806.2447526473843
 31
0.0
  0
TEXT
  8
SIZE
  6
CONTINUOUS
 62
    30
 10
-80.927999999997951
 20
831.2447526473843
 30
0.0
 40
64.0
  1
650
 50
0.0
 41
0.9
 51
0.0
  7
STANDARD
 71
     0
 72
     1
 11
0.0000000000020464
 21
831.2447526473843
 31
0.0
210
0.0
220
0.0
230
1.0
  0
POINT
  8
DEFPOINTS
  6
CONTINUOUS
 62
    30
 10
-324.99999999999773
 20
525.80031860967892
 30
0.0
  0
POINT
  8
DEFPOINTS
  6
CONTINUOUS
 62
    30
 10
325.00000000000182
 20
525.80031860967847
 30
0.0
  0
POINT
  8
DEFPOINTS
  6
CONTINUOUS
 62
    30
 10
325.00000000000182
 20
806.2447526473843
 30
0.0
  0
LINE
  8
SIZE
  6
CONTINUOUS
 62
    30
 10
-436.99999999999642
 20
450.49000000001712
 30
0.0
 11
-436.99999999999631
 21
981.57401358853349
 31
0.0
  0
LINE
  8
SIZE
  6
CONTINUOUS
 62
    30
 10
437.00000000000051
 20
450.49000000000927
 30
0.0
 11
437.00000000000051
 21
981.57401358853349
 31
0.0
  0
LINE
  8
SIZE
  6
CONTINUOUS
 62
    30
 10
-424.99999999999631
 20
961.57401358853349
 30
0.0
 11
425.00000000000051
 21
961.57401358853349
 31
0.0
  0
CIRCLE
  8
SIZE
  6
CONTINUOUS
 62
    30
 10
-436.99999999999631
 20
961.57401358853349
 30
0.0
 40
6.0
  0
LINE
  8
SIZE
  6
CONTINUOUS
 62
    30
 10
-436.99999999999631
 20
961.57401358853349
 30
0.0
 11
-424.99999999999631
 21
961.57401358853349
 31
0.0
  0
CIRCLE
  8
SIZE
  6
CONTINUOUS
 62
    30
 10
437.00000000000051
 20
961.57401358853349
 30
0.0
 40
6.0
  0
LINE
  8
SIZE
  6
CONTINUOUS
 62
    30
 10
437.00000000000051
 20
961.57401358853349
 30
0.0
 11
425.00000000000051
 21
961.57401358853349
 31
0.0
  0
TEXT
  8
SIZE
  6
CONTINUOUS
 62
    30
 10
-80.927999999997894
 20
986.57401358853303
 30
0.0
 40
64.0
  1
874
 50
0.0
 41
0.9
 51
0.0
  7
STANDARD
 71
     0
 72
     1
 11
0.0000000000021032
 21
986.57401358853303
 31
0.0
210
0.0
220
0.0
230
1.0
  0
POINT
  8
DEFPOINTS
  6
CONTINUOUS
 62
    30
 10
-436.99999999999642
 20
430.49000000001712
 30
0.0
  0
POINT
  8
DEFPOINTS
  6
CONTINUOUS
 62
    30
 10
437.00000000000051
 20
430.49000000000927
 30
0.0
  0
POINT
  8
DEFPOINTS
  6
CONTINUOUS
 62
    30
 10
437.00000000000051
 20
961.57401358853349
 30
0.0
  0
LINE
  8
SIZE
  6
CONTINUOUS
 62
    30
 10
443.48999999999268
 20
443.9999999999975
 30
0.0
 11
922.11282084438449
 21
443.99999999999761
 31
0.0
  0
LINE
  8
SIZE
  6
CONTINUOUS
 62
    30
 10
443.48999999999768
 20
-443.99999999999022
 30
0.0
 11
922.11282084438471
 21
-443.99999999999022
 31
0.0
  0
LINE
  8
SIZE
  6
CONTINUOUS
 62
    30
 10
902.11282084438449
 20
431.99999999999761
 30
0.0
 11
902.11282084438471
 21
-431.99999999999022
 31
0.0
  0
CIRCLE
  8
SIZE
  6
CONTINUOUS
 62
    30
 10
902.11282084438449
 20
443.99999999999761
 30
0.0
 40
6.0
  0
LINE
  8
SIZE
  6
CONTINUOUS
 62
    30
 10
902.11282084438449
 20
443.99999999999761
 30
0.0
 11
902.11282084438449
 21
431.99999999999761
 31
0.0
  0
CIRCLE
  8
SIZE
  6
CONTINUOUS
 62
    30
 10
902.11282084438471
 20
-443.99999999999022
 30
0.0
 40
6.0
  0
LINE
  8
SIZE
  6
CONTINUOUS
 62
    30
 10
902.11282084438471
 20
-443.99999999999022
 30
0.0
 11
902.11282084438471
 21
-431.99999999999022
 31
0.0
  0
TEXT
  8
SIZE
  6
CONTINUOUS
 62
    30
 10
877.11282084438437
 20
-80.351999999996551
 30
0.0
 40
64.0
  1
888
 50
90.0
 41
0.9
 51
0.0
  7
STANDARD
 71
     0
 72
     1
 11
877.11282084438437
 21
0.0000000000034172
 31
0.0
210
0.0
220
0.0
230
1.0
  0
POINT
  8
DEFPOINTS
  6
CONTINUOUS
 62
    30
 10
423.48999999999268
 20
443.9999999999975
 30
0.0
  0
POINT
  8
DEFPOINTS
  6
CONTINUOUS
 62
    30
 10
423.48999999999768
 20
-443.99999999999022
 30
0.0
  0
POINT
  8
DEFPOINTS
  6
CONTINUOUS
 62
    30
 10
902.11282084438471
 20
-443.99999999999022
 30
0.0
  0
LINE
  8
SIZE
  6
CONTINUOUS
 62
    30
 10
416.00000000000023
 20
507.99999999999568
 30
0.0
 11
922.1128208443771
 21
507.99999999999568
 31
0.0
  0
LINE
  8
SIZE
  6
CONTINUOUS
 62
    30
 10
443.48999999999268
 20
443.9999999999975
 30
0.0
 11
922.1128208443771
 21
443.99999999999761
 31
0.0
  0
LINE
  8
SIZE
  6
CONTINUOUS
 62
    30
 10
902.1128208443771
 20
431.99999999999761
 30
0.0
 11
902.1128208443771
 21
419.99999999999761
 31
0.0
  0
LINE
  8
SIZE
  6
CONTINUOUS
 62
    30
 10
902.1128208443771
 20
519.99999999999579
 30
0.0
 11
902.1128208443771
 21
677.99999999999579
 31
0.0
  0
LINE
  8
SIZE
  6
CONTINUOUS
 62
    30
 10
902.1128208443771
 20
443.99999999999761
 30
0.0
 11
902.1128208443771
 21
507.99999999999568
 31
0.0
  0
CIRCLE
  8
SIZE
  6
CONTINUOUS
 62
    30
 10
902.1128208443771
 20
443.99999999999761
 30
0.0
 40
6.0
  0
LINE
  8
SIZE
  6
CONTINUOUS
 62
    30
 10
902.1128208443771
 20
443.99999999999761
 30
0.0
 11
902.1128208443771
 21
431.99999999999761
 31
0.0
  0
CIRCLE
  8
SIZE
  6
CONTINUOUS
 62
    30
 10
902.1128208443771
 20
507.99999999999568
 30
0.0
 40
6.0
  0
LINE
  8
SIZE
  6
CONTINUOUS
 62
    30
 10
902.1128208443771
 20
507.99999999999568
 30
0.0
 11
902.1128208443771
 21
519.99999999999568
 31
0.0
  0
TEXT
  8
SIZE
  6
CONTINUOUS
 62
    30
 10
877.11282084437698
 20
550.85599999999545
 30
0.0
 40
64.0
  1
64
 50
90.0
 41
0.9
 51
0.0
  7
STANDARD
 71
     0
 72
     1
 11
877.11282084437698
 21
604.99999999999545
 31
0.0
210
0.0
220
0.0
230
1.0
  0
POINT
  8
DEFPOINTS
  6
CONTINUOUS
 62
    30
 10
396.00000000000023
 20
507.99999999999568
 30
0.0
  0
POINT
  8
DEFPOINTS
  6
CONTINUOUS
 62
    30
 10
423.48999999999268
 20
443.9999999999975
 30
0.0
  0
POINT
  8
DEFPOINTS
  6
CONTINUOUS
 62
    30
 10
902.1128208443771
 20
443.99999999999761
 30
0.0
  0
LINE
  8
SIZE
  6
CONTINUOUS
 62
    30
 10
443.48999999999768
 20
-443.99999999999022
 30
0.0
 11
922.11282084437732
 21
-443.99999999999022
 31
0.0
  0
LINE
  8
SIZE
  6
CONTINUOUS
 62
    30
 10
415.99999999999977
 20
-507.99999999999568
 30
0.0
 11
922.11282084437732
 21
-507.99999999999562
 31
0.0
  0
LINE
  8
SIZE
  6
CONTINUOUS
 62
    30
 10
902.11282084437732
 20
-431.99999999999022
 30
0.0
 11
902.11282084437732
 21
-419.99999999999022
 31
0.0
  0
LINE
  8
SIZE
  6
CONTINUOUS
 62
    30
 10
902.11282084437732
 20
-519.99999999999557
 30
0.0
 11
902.11282084437732
 21
-677.9999999999967
 31
0.0
  0
LINE
  8
SIZE
  6
CONTINUOUS
 62
    30
 10
902.11282084437732
 20
-443.99999999999022
 30
0.0
 11
902.11282084437732
 21
-507.99999999999562
 31
0.0
  0
CIRCLE
  8
SIZE
  6
CONTINUOUS
 62
    30
 10
902.11282084437732
 20
-443.99999999999022
 30
0.0
 40
6.0
  0
LINE
  8
SIZE
  6
CONTINUOUS
 62
    30
 10
902.11282084437732
 20
-443.99999999999022
 30
0.0
 11
902.11282084437732
 21
-431.99999999999022
 31
0.0
  0
CIRCLE
  8
SIZE
  6
CONTINUOUS
 62
    30
 10
902.11282084437732
 20
-507.99999999999562
 30
0.0
 40
6.0
  0
LINE
  8
SIZE
  6
CONTINUOUS
 62
    30
 10
902.11282084437732
 20
-507.99999999999562
 30
0.0
 11
902.11282084437732
 21
-519.99999999999568
 31
0.0
  0
TEXT
  8
SIZE
  6
CONTINUOUS
 62
    30
 10
877.11282084437698
 20
-659.14399999999682
 30
0.0
 40
64.0
  1
64
 50
90.0
 41
0.9
 51
0.0
  7
STANDARD
 71
     0
 72
     1
 11
877.11282084437698
 21
-604.99999999999682
 31
0.0
210
0.0
220
0.0
230
1.0
  0
POINT
  8
DEFPOINTS
  6
CONTINUOUS
 62
    30
 10
423.48999999999768
 20
-443.99999999999022
 30
0.0
  0
POINT
  8
DEFPOINTS
  6
CONTINUOUS
 62
    30
 10
395.99999999999977
 20
-507.99999999999568
 30
0.0
  0
POINT
  8
DEFPOINTS
  6
CONTINUOUS
 62
    30
 10
902.11282084437732
 20
-507.99999999999562
 30
0.0
  0
LINE
  8
BASIS
  6
DASHDOT
 62
     6
 10
-324.99999999999818
 20
-537.3266239699833
 30
0.0
 11
-324.99999999999818
 21
-411.35535224393698
 31
0.0
  0
LINE
  8
BASIS
  6
DASHDOT
 62
     6
 10
325.00000000000051
 20
-537.3266239699833
 30
0.0
 11
325.00000000000091
 21
-411.35535224393698
 31
0.0
  0
LINE
  8
SIZE
  6
CONTINUOUS
 62
    30
 10
443.48999999999268
 20
443.9999999999975
 30
0.0
 11
678.35403577516536
 21
443.99999999999761
 31
0.0
  0
LINE
  8
SIZE
  6
CONTINUOUS
 62
    30
 10
534.56652364125671
 20
320.00000000000011
 30
0.0
 11
678.35403577516536
 21
320.00000000000023
 31
0.0
  0
LINE
  8
SIZE
  6
CONTINUOUS
 62
    30
 10
658.35403577516536
 20
332.00000000000023
 30
0.0
 11
658.35403577516536
 21
431.99999999999761
 31
0.0
  0
LINE
  8
SIZE
  6
CONTINUOUS
 62
    30
 10
658.35403577516536
 20
443.99999999999761
 30
0.0
 11
658.35403577516536
 21
691.05714970682982
 31
0.0
  0
CIRCLE
  8
SIZE
  6
CONTINUOUS
 62
    30
 10
658.35403577516536
 20
320.00000000000023
 30
0.0
 40
6.0
  0
LINE
  8
SIZE
  6
CONTINUOUS
 62
    30
 10
658.35403577516536
 20
320.00000000000023
 30
0.0
 11
658.35403577516536
 21
332.00000000000023
 31
0.0
  0
CIRCLE
  8
SIZE
  6
CONTINUOUS
 62
    30
 10
658.35403577516536
 20
443.99999999999761
 30
0.0
 40
6.0
  0
LINE
  8
SIZE
  6
CONTINUOUS
 62
    30
 10
658.35403577516536
 20
443.99999999999761
 30
0.0
 11
658.35403577516536
 21
431.99999999999761
 31
0.0
  0
TEXT
  8
SIZE
  6
CONTINUOUS
 62
    30
 10
633.35403577516536
 20
520.94629256397241
 30
0.0
 40
64.0
  1
124
 50
90.0
 41
0.9
 51
0.0
  7
STANDARD
 71
     0
 72
     1
 11
633.35403577516536
 21
596.11429256397241
 31
0.0
210
0.0
220
0.0
230
1.0
  0
POINT
  8
DEFPOINTS
  6
CONTINUOUS
 62
    30
 10
423.48999999999268
 20
443.9999999999975
 30
0.0
  0
POINT
  8
DEFPOINTS
  6
CONTINUOUS
 62
    30
 10
514.56652364125671
 20
320.00000000000011
 30
0.0
  0
POINT
  8
DEFPOINTS
  6
CONTINUOUS
 62
    30
 10
658.35403577516536
 20
320.00000000000023
 30
0.0
  0
LINE
  8
SIZE
  6
CONTINUOUS
 62
    30
 10
-534.56652364125443
 20
320.00000000000011
 30
0.0
 11
-661.86014897492646
 21
320.00000000000011
 31
0.0
  0
LINE
  8
SIZE
  6
CONTINUOUS
 62
    30
 10
-443.4900000000041
 20
443.9999999999975
 30
0.0
 11
-661.86014897492646
 21
443.99999999999739
 31
0.0
  0
LINE
  8
SIZE
  6
CONTINUOUS
 62
    30
 10
-641.86014897492646
 20
332.00000000000011
 30
0.0
 11
-641.86014897492646
 21
431.99999999999739
 31
0.0
  0
LINE
  8
SIZE
  6
CONTINUOUS
 62
    30
 10
-641.86014897492646
 20
443.99999999999739
 30
0.0
 11
-641.86014897492646
 21
645.88571428571186
 31
0.0
  0
CIRCLE
  8
SIZE
  6
CONTINUOUS
 62
    30
 10
-641.86014897492646
 20
320.00000000000011
 30
0.0
 40
6.0
  0
LINE
  8
SIZE
  6
CONTINUOUS
 62
    30
 10
-641.86014897492646
 20
320.00000000000011
 30
0.0
 11
-641.86014897492646
 21
332.00000000000011
 31
0.0
  0
CIRCLE
  8
SIZE
  6
CONTINUOUS
 62
    30
 10
-641.86014897492646
 20
443.99999999999739
 30
0.0
 40
6.0
  0
LINE
  8
SIZE
  6
CONTINUOUS
 62
    30
 10
-641.86014897492646
 20
443.99999999999739
 30
0.0
 11
-641.86014897492646
 21
431.99999999999739
 31
0.0
  0
TEXT
  8
SIZE
  6
CONTINUOUS
 62
    30
 10
-666.86014897492623
 20
475.77485714285467
 30
0.0
 40
64.0
  1
124
 50
90.0
 41
0.9
 51
0.0
  7
STANDARD
 71
     0
 72
     1
 11
-666.86014897492623
 21
550.94285714285468
 31
0.0
210
0.0
220
0.0
230
1.0
  0
POINT
  8
DEFPOINTS
  6
CONTINUOUS
 62
    30
 10
-514.56652364125443
 20
320.00000000000011
 30
0.0
  0
POINT
  8
DEFPOINTS
  6
CONTINUOUS
 62
    30
 10
-423.4900000000041
 20
443.9999999999975
 30
0.0
  0
POINT
  8
DEFPOINTS
  6
CONTINUOUS
 62
    30
 10
-641.86014897492646
 20
443.99999999999739
 30
0.0
  0
LINE
  8
SIZE
  6
CONTINUOUS
 62
    30
 10
531.42789797370892
 20
437.50000000000301
 30
0.0
 11
802.23000896419239
 21
437.50000000000301
 31
0.0
  0
LINE
  8
SIZE
  6
CONTINUOUS
 62
    30
 10
531.43427874224858
 20
-437.49999999999659
 30
0.0
 11
802.23000896419262
 21
-437.49999999999648
 31
0.0
  0
LINE
  8
SIZE
  6
CONTINUOUS
 62
    30
 10
782.23000896419239
 20
425.50000000000301
 30
0.0
 11
782.23000896419262
 21
-425.49999999999648
 31
0.0
  0
CIRCLE
  8
SIZE
  6
CONTINUOUS
 62
    30
 10
782.23000896419239
 20
437.50000000000301
 30
0.0
 40
6.0
  0
LINE
  8
SIZE
  6
CONTINUOUS
 62
    30
 10
782.23000896419239
 20
437.50000000000301
 30
0.0
 11
782.23000896419239
 21
425.50000000000301
 31
0.0
  0
CIRCLE
  8
SIZE
  6
CONTINUOUS
 62
    30
 10
782.23000896419262
 20
-437.49999999999648
 30
0.0
 40
6.0
  0
LINE
  8
SIZE
  6
CONTINUOUS
 62
    30
 10
782.23000896419262
 20
-437.49999999999648
 30
0.0
 11
782.23000896419262
 21
-425.49999999999648
 31
0.0
  0
TEXT
  8
SIZE
  6
CONTINUOUS
 62
    30
 10
757.23000896419228
 20
-80.351999999996949
 30
0.0
 40
64.0
  1
875
 50
90.0
 41
0.9
 51
0.0
  7
STANDARD
 71
     0
 72
     1
 11
757.23000896419228
 21
0.0000000000030266
 31
0.0
210
0.0
220
0.0
230
1.0
  0
POINT
  8
DEFPOINTS
  6
CONTINUOUS
 62
    30
 10
511.42789797370892
 20
437.50000000000301
 30
0.0
  0
POINT
  8
DEFPOINTS
  6
CONTINUOUS
 62
    30
 10
511.43427874224858
 20
-437.49999999999659
 30
0.0
  0
POINT
  8
DEFPOINTS
  6
CONTINUOUS
 62
    30
 10
782.23000896419262
 20
-437.49999999999648
 30
0.0
  0
LINE
  8
SIZE
  6
CONTINUOUS
 62
    30
 10
254.00000000000179
 20
-527.99999999999545
 30
0.0
 11
254.00000000000179
 21
-676.55472257172823
 31
0.0
  0
LINE
  8
SIZE
  6
CONTINUOUS
 62
    30
 10
395.99999999999949
 20
-527.99999999999545
 30
0.0
 11
395.99999999999949
 21
-676.55472257172823
 31
0.0
  0
LINE
  8
SIZE
  6
CONTINUOUS
 62
    30
 10
266.00000000000182
 20
-656.55472257172823
 30
0.0
 11
383.99999999999949
 21
-656.55472257172823
 31
0.0
  0
LINE
  8
SIZE
  6
CONTINUOUS
 62
    30
 10
395.99999999999949
 20
-656.55472257172823
 30
0.0
 11
698.57763770249221
 21
-656.55472257172823
 31
0.0
  0
CIRCLE
  8
SIZE
  6
CONTINUOUS
 62
    30
 10
254.00000000000179
 20
-656.55472257172823
 30
0.0
 40
6.0
  0
LINE
  8
SIZE
  6
CONTINUOUS
 62
    30
 10
254.00000000000179
 20
-656.55472257172823
 30
0.0
 11
266.00000000000182
 21
-656.55472257172823
 31
0.0
  0
CIRCLE
  8
SIZE
  6
CONTINUOUS
 62
    30
 10
395.99999999999949
 20
-656.55472257172823
 30
0.0
 40
6.0
  0
LINE
  8
SIZE
  6
CONTINUOUS
 62
    30
 10
395.99999999999949
 20
-656.55472257172823
 30
0.0
 11
383.99999999999949
 21
-656.55472257172823
 31
0.0
  0
TEXT
  8
SIZE
  6
CONTINUOUS
 62
    30
 10
469.22106627392083
 20
-631.55472257172823
 30
0.0
 40
64.0
  1
φ142
 50
0.0
 41
0.9
 51
0.0
  7
STANDARD
 71
     0
 72
     1
 11
578.94906627392083
 21
-631.55472257172823
 31
0.0
210
0.0
220
0.0
230
1.0
  0
POINT
  8
DEFPOINTS
  6
CONTINUOUS
 62
    30
 10
254.00000000000179
 20
-507.99999999999551
 30
0.0
  0
POINT
  8
DEFPOINTS
  6
CONTINUOUS
 62
    30
 10
395.99999999999949
 20
-507.99999999999551
 30
0.0
  0
POINT
  8
DEFPOINTS
  6
CONTINUOUS
 62
    30
 10
395.99999999999949
 20
-656.55472257172823
 30
0.0
  0
LINE
  8
SIZE
  6
CONTINUOUS
 62
    30
 10
404.99999999999909
 20
-465.59999999999582
 30
0.0
 11
404.99999999999909
 21
-812.68613350812029
 31
0.0
  0
LINE
  8
SIZE
  6
CONTINUOUS
 62
    30
 10
244.99999999999909
 20
-465.59999999999582
 30
0.0
 11
244.99999999999909
 21
-812.68613350812029
 31
0.0
  0
LINE
  8
SIZE
  6
CONTINUOUS
 62
    30
 10
256.99999999999909
 20
-792.68613350812029
 30
0.0
 11
392.99999999999909
 21
-792.68613350812029
 31
0.0
  0
LINE
  8
SIZE
  6
CONTINUOUS
 62
    30
 10
404.99999999999909
 20
-792.68613350812029
 30
0.0
 11
703.37007453230763
 21
-792.68613350812029
 31
0.0
  0
CIRCLE
  8
SIZE
  6
CONTINUOUS
 62
    30
 10
244.99999999999909
 20
-792.68613350812029
 30
0.0
 40
6.0
  0
LINE
  8
SIZE
  6
CONTINUOUS
 62
    30
 10
244.99999999999909
 20
-792.68613350812029
 30
0.0
 11
256.99999999999909
 21
-792.68613350812029
 31
0.0
  0
CIRCLE
  8
SIZE
  6
CONTINUOUS
 62
    30
 10
404.99999999999909
 20
-792.68613350812029
 30
0.0
 40
6.0
  0
LINE
  8
SIZE
  6
CONTINUOUS
 62
    30
 10
404.99999999999909
 20
-792.68613350812029
 30
0.0
 11
392.99999999999909
 21
-792.68613350812029
 31
0.0
  0
TEXT
  8
SIZE
  6
CONTINUOUS
 62
    30
 10
474.01350310373624
 20
-767.68613350812029
 30
0.0
 40
64.0
  1
φ160
 50
0.0
 41
0.9
 51
0.0
  7
STANDARD
 71
     0
 72
     1
 11
583.74150310373625
 21
-767.68613350812029
 31
0.0
210
0.0
220
0.0
230
1.0
  0
POINT
  8
DEFPOINTS
  6
CONTINUOUS
 62
    30
 10
404.99999999999909
 20
-445.59999999999582
 30
0.0
  0
POINT
  8
DEFPOINTS
  6
CONTINUOUS
 62
    30
 10
244.99999999999909
 20
-445.59999999999582
 30
0.0
  0
POINT
  8
DEFPOINTS
  6
CONTINUOUS
 62
    30
 10
244.99999999999909
 20
-792.68613350812029
 30
0.0
  0
LINE
  8
SIZE
  6
CONTINUOUS
 62
    30
 10
-460.50000000000091
 20
-508.43427874224648
 30
0.0
 11
-460.50000000000102
 21
-974.36382682216572
 31
0.0
  0
LINE
  8
SIZE
  6
CONTINUOUS
 62
    30
 10
460.49999999999318
 20
-508.43427874224648
 30
0.0
 11
460.49999999999312
 21
-974.36382682216572
 31
0.0
  0
LINE
  8
SIZE
  6
CONTINUOUS
 62
    30
 10
-448.50000000000102
 20
-954.36382682216572
 30
0.0
 11
448.49999999999312
 21
-954.36382682216572
 31
0.0
  0
CIRCLE
  8
SIZE
  6
CONTINUOUS
 62
    30
 10
-460.50000000000102
 20
-954.36382682216572
 30
0.0
 40
6.0
  0
LINE
  8
SIZE
  6
CONTINUOUS
 62
    30
 10
-460.50000000000102
 20
-954.36382682216572
 30
0.0
 11
-448.50000000000102
 21
-954.36382682216572
 31
0.0
  0
CIRCLE
  8
SIZE
  6
CONTINUOUS
 62
    30
 10
460.49999999999312
 20
-954.36382682216572
 30
0.0
 40
6.0
  0
LINE
  8
SIZE
  6
CONTINUOUS
 62
    30
 10
460.49999999999312
 20
-954.36382682216572
 30
0.0
 11
448.49999999999312
 21
-954.36382682216572
 31
0.0
  0
TEXT
  8
SIZE
  6
CONTINUOUS
 62
    30
 10
-74.592000000003921
 20
-929.36382682216572
 30
0.0
 40
64.0
  1
921
 50
0.0
 41
0.9
 51
0.0
  7
STANDARD
 71
     0
 72
     1
 11
-0.0000000000039222
 21
-929.36382682216572
 31
0.0
210
0.0
220
0.0
230
1.0
  0
POINT
  8
DEFPOINTS
  6
CONTINUOUS
 62
    30
 10
-460.50000000000091
 20
-488.43427874224648
 30
0.0
  0
POINT
  8
DEFPOINTS
  6
CONTINUOUS
 62
    30
 10
460.49999999999318
 20
-488.43427874224648
 30
0.0
  0
POINT
  8
DEFPOINTS
  6
CONTINUOUS
 62
    30
 10
460.49999999999312
 20
-954.36382682216572
 30
0.0
  0
LINE
  8
SIZE
  6
CONTINUOUS
 62
    30
 10
-460.50000000000091
 20
-508.43427874224648
 30
0.0
 11
-460.50000000000102
 21
-974.36382682216299
 31
0.0
  0
LINE
  8
SIZE
  6
CONTINUOUS
 62
    30
 10
-480.49999999999642
 20
-475.99999999999642
 30
0.0
 11
-480.49999999999642
 21
-974.36382682216299
 31
0.0
  0
LINE
  8
SIZE
  6
CONTINUOUS
 62
    30
 10
-448.50000000000102
 20
-954.36382682216299
 30
0.0
 11
-436.50000000000102
 21
-954.36382682216299
 31
0.0
  0
LINE
  8
SIZE
  6
CONTINUOUS
 62
    30
 10
-492.49999999999642
 20
-954.36382682216299
 30
0.0
 11
-647.75714285714048
 21
-954.36382682216299
 31
0.0
  0
LINE
  8
SIZE
  6
CONTINUOUS
 62
    30
 10
-460.50000000000102
 20
-954.36382682216299
 30
0.0
 11
-480.49999999999642
 21
-954.36382682216299
 31
0.0
  0
CIRCLE
  8
SIZE
  6
CONTINUOUS
 62
    30
 10
-460.50000000000102
 20
-954.36382682216299
 30
0.0
 40
6.0
  0
LINE
  8
SIZE
  6
CONTINUOUS
 62
    30
 10
-460.50000000000102
 20
-954.36382682216299
 30
0.0
 11
-448.50000000000102
 21
-954.36382682216299
 31
0.0
  0
CIRCLE
  8
SIZE
  6
CONTINUOUS
 62
    30
 10
-480.49999999999642
 20
-954.36382682216299
 30
0.0
 40
6.0
  0
LINE
  8
SIZE
  6
CONTINUOUS
 62
    30
 10
-480.49999999999642
 20
-954.36382682216299
 30
0.0
 11
-492.49999999999642
 21
-954.36382682216299
 31
0.0
  0
TEXT
  8
SIZE
  6
CONTINUOUS
 62
    30
 10
-630.27257142856911
 20
-929.36382682216299
 30
0.0
 40
64.0
  1
20
 50
0.0
 41
0.9
 51
0.0
  7
STANDARD
 71
     0
 72
     1
 11
-576.1285714285691
 21
-929.36382682216299
 31
0.0
210
0.0
220
0.0
230
1.0
  0
POINT
  8
DEFPOINTS
  6
CONTINUOUS
 62
    30
 10
-460.50000000000091
 20
-488.43427874224648
 30
0.0
  0
POINT
  8
DEFPOINTS
  6
CONTINUOUS
 62
    30
 10
-480.49999999999642
 20
-455.99999999999642
 30
0.0
  0
POINT
  8
DEFPOINTS
  6
CONTINUOUS
 62
    30
 10
-480.49999999999642
 20
-954.36382682216299
 30
0.0
  0
LINE
  8
SIZE
  6
CONTINUOUS
 62
    30
 10
-545.59999999999491
 20
-391.69999999999709
 30
0.0
 11
-545.59999999999491
 21
-812.68613350812029
 31
0.0
  0
LINE
  8
SIZE
  6
CONTINUOUS
 62
    30
 10
-430.59999999999758
 20
-475.99999999999642
 30
0.0
 11
-430.59999999999758
 21
-812.68613350812029
 31
0.0
  0
LINE
  8
SIZE
  6
CONTINUOUS
 62
    30
 10
-442.59999999999758
 20
-792.68613350812029
 30
0.0
 11
-533.59999999999491
 21
-792.68613350812029
 31
0.0
  0
LINE
  8
SIZE
  6
CONTINUOUS
 62
    30
 10
-545.59999999999491
 20
-792.68613350812029
 30
0.0
 11
-733.97142857142478
 21
-792.68613350812029
 31
0.0
  0
CIRCLE
  8
SIZE
  6
CONTINUOUS
 62
    30
 10
-430.59999999999758
 20
-792.68613350812029
 30
0.0
 40
6.0
  0
LINE
  8
SIZE
  6
CONTINUOUS
 62
    30
 10
-430.59999999999758
 20
-792.68613350812029
 30
0.0
 11
-442.59999999999758
 21
-792.68613350812029
 31
0.0
  0
CIRCLE
  8
SIZE
  6
CONTINUOUS
 62
    30
 10
-545.59999999999491
 20
-792.68613350812029
 30
0.0
 40
6.0
  0
LINE
  8
SIZE
  6
CONTINUOUS
 62
    30
 10
-545.59999999999491
 20
-792.68613350812029
 30
0.0
 11
-533.59999999999491
 21
-792.68613350812029
 31
0.0
  0
TEXT
  8
SIZE
  6
CONTINUOUS
 62
    30
 10
-714.71771428571049
 20
-767.68613350812029
 30
0.0
 40
64.0
  1
115
 50
0.0
 41
0.9
 51
0.0
  7
STANDARD
 71
     0
 72
     1
 11
-645.88571428571049
 21
-767.68613350812029
 31
0.0
210
0.0
220
0.0
230
1.0
  0
POINT
  8
DEFPOINTS
  6
CONTINUOUS
 62
    30
 10
-545.59999999999491
 20
-371.69999999999709
 30
0.0
  0
POINT
  8
DEFPOINTS
  6
CONTINUOUS
 62
    30
 10
-430.59999999999758
 20
-455.99999999999642
 30
0.0
  0
POINT
  8
DEFPOINTS
  6
CONTINUOUS
 62
    30
 10
-430.59999999999758
 20
-792.68613350812029
 30
0.0
  0
LINE
  8
SIZE
  6
CONTINUOUS
 62
    30
 10
-436.99999999999642
 20
450.49000000001712
 30
0.0
 11
-436.99999999999631
 21
981.57401358853031
 31
0.0
  0
LINE
  8
SIZE
  6
CONTINUOUS
 62
    30
 10
-1137.000029352459
 20
463.99999999999818
 30
0.0
 11
-1137.000029352459
 21
981.57401358853031
 31
0.0
  0
LINE
  8
SIZE
  6
CONTINUOUS
 62
    30
 10
-448.99999999999631
 20
961.57401358853031
 30
0.0
 11
-1125.000029352459
 21
961.57401358853031
 31
0.0
  0
CIRCLE
  8
SIZE
  6
CONTINUOUS
 62
    30
 10
-436.99999999999631
 20
961.57401358853031
 30
0.0
 40
6.0
  0
LINE
  8
SIZE
  6
CONTINUOUS
 62
    30
 10
-436.99999999999631
 20
961.57401358853031
 30
0.0
 11
-448.99999999999631
 21
961.57401358853031
 31
0.0
  0
CIRCLE
  8
SIZE
  6
CONTINUOUS
 62
    30
 10
-1137.000029352459
 20
961.57401358853031
 30
0.0
 40
6.0
  0
LINE
  8
SIZE
  6
CONTINUOUS
 62
    30
 10
-1137.000029352459
 20
961.57401358853031
 30
0.0
 11
-1125.000029352459
 21
961.57401358853031
 31
0.0
  0
TEXT
  8
SIZE
  6
CONTINUOUS
 62
    30
 10
-1108.4080146762278
 20
986.57401358852985
 30
0.0
 40
64.0
  1
more than 600
 50
0.0
 41
0.9
 51
0.0
  7
STANDARD
 71
     0
 72
     1
 11
-787.00001467622792
 21
986.57401358852985
 31
0.0
210
0.0
220
0.0
230
1.0
  0
POINT
  8
DEFPOINTS
  6
CONTINUOUS
 62
    30
 10
-436.99999999999642
 20
430.49000000001712
 30
0.0
  0
POINT
  8
DEFPOINTS
  6
CONTINUOUS
 62
    30
 10
-1137.000029352459
 20
443.99999999999818
 30
0.0
  0
POINT
  8
DEFPOINTS
  6
CONTINUOUS
 62
    30
 10
-1137.000029352459
 20
961.57401358853031
 30
0.0
  0
LINE
  8
SIZE
  6
CONTINUOUS
 62
    30
 10
-587.00003165146973
 20
245.25004575110961
 30
0.0
 11
-587.00003165146973
 21
837.8942886468908
 31
0.0
  0
LINE
  8
SIZE
  6
CONTINUOUS
 62
    30
 10
-436.99999999999642
 20
450.49000000001712
 30
0.0
 11
-436.99999999999642
 21
837.8942886468908
 31
0.0
  0
LINE
  8
SIZE
  6
CONTINUOUS
 62
    30
 10
-448.99999999999642
 20
817.8942886468908
 30
0.0
 11
-575.00003165146973
 21
817.8942886468908
 31
0.0
  0
LINE
  8
SIZE
  6
CONTINUOUS
 62
    30
 10
-587.00003165146973
 20
817.8942886468908
 30
0.0
 11
-1110.348603080042
 21
817.8942886468908
 31
0.0
  0
CIRCLE
  8
SIZE
  6
CONTINUOUS
 62
    30
 10
-436.99999999999642
 20
817.8942886468908
 30
0.0
 40
6.0
  0
LINE
  8
SIZE
  6
CONTINUOUS
 62
    30
 10
-436.99999999999642
 20
817.8942886468908
 30
0.0
 11
-448.99999999999642
 21
817.8942886468908
 31
0.0
  0
CIRCLE
  8
SIZE
  6
CONTINUOUS
 62
    30
 10
-587.00003165146973
 20
817.8942886468908
 30
0.0
 40
6.0
  0
LINE
  8
SIZE
  6
CONTINUOUS
 62
    30
 10
-587.00003165146973
 20
817.8942886468908
 30
0.0
 11
-575.00003165146973
 21
817.8942886468908
 31
0.0
  0
TEXT
  8
SIZE
  6
CONTINUOUS
 62
    30
 10
-1090.5463173657565
 20
842.8942886468908
 30
0.0
 40
64.0
  1
150 to 250
 50
0.0
 41
0.9
 51
0.0
  7
STANDARD
 71
     0
 72
     1
 11
-854.67431736575656
 21
842.8942886468908
 31
0.0
210
0.0
220
0.0
230
1.0
  0
POINT
  8
DEFPOINTS
  6
CONTINUOUS
 62
    30
 10
-587.00003165146973
 20
225.25004575110961
 30
0.0
  0
POINT
  8
DEFPOINTS
  6
CONTINUOUS
 62
    30
 10
-436.99999999999642
 20
430.49000000001712
 30
0.0
  0
POINT
  8
DEFPOINTS
  6
CONTINUOUS
 62
    30
 10
-436.99999999999642
 20
817.8942886468908
 30
0.0
  0
LINE
  8
SERVICESPACE
  6
DASHDOT
 62
     2
 10
-587.00003165146973
 20
225.25004575110961
 30
0.0
 11
-587.00003165146973
 21
-224.74995424889039
 31
0.0
  0
LINE
  8
SERVICESPACE
  6
DASHDOT
 62
     2
 10
-587.00003165146973
 20
-224.74995424889039
 30
0.0
 11
-1037.00003165147
 21
-224.74995424888951
 31
0.0
  0
LINE
  8
SERVICESPACE
  6
DASHDOT
 62
     2
 10
-1037.00003165147
 20
-224.74995424888951
 30
0.0
 11
-1037.00003165147
 21
225.25004575111049
 31
0.0
  0
LINE
  8
SERVICESPACE
  6
DASHDOT
 62
     2
 10
-1037.00003165147
 20
225.25004575111049
 30
0.0
 11
-587.00003165146973
 21
225.25004575110961
 31
0.0
  0
POINT
  8
ARRANGE
  6
CONTINUOUS
 62
     1
 10
0.0
 20
0.0
 30
0.0
 50
270.0
  0
CIRCLE
  8
ARRANGE
  6
CONTINUOUS
 62
     1
 10
0.0
 20
0.0
 30
0.0
 40
40.0
  0
CIRCLE
  8
FIX
  6
CONTINUOUS
 62
    11
 10
-460.50000000000091
 20
-437.49999999999642
 30
0.0
 40
6.5
  0
CIRCLE
  8
FIX
  6
CONTINUOUS
 62
    11
 10
460.49999999999358
 20
-437.5
 30
0.0
 40
6.5
  0
CIRCLE
  8
FIX
  6
CONTINUOUS
 62
    11
 10
460.49361923145989
 20
437.50000000000267
 30
0.0
 40
6.5
  0
CIRCLE
  8
FIX
  6
CONTINUOUS
 62
    11
 10
-460.5
 20
437.50000000000318
 30
0.0
 40
6.5
  0
LINE
  8
OUTLINE
  6
CONTINUOUS
 62
     3
 10
437.0
 20
-412.50000000000358
 30
0.0
 11
480.50000000000182
 21
-412.49999999999341
 31
0.0
  0
LINE
  8
OUTLINE
  6
CONTINUOUS
 62
     3
 10
480.50000000000182
 20
-412.49999999999341
 30
0.0
 11
480.50000000000182
 21
-430.99999999999642
 31
0.0
  0
LINE
  8
OUTLINE
  6
CONTINUOUS
 62
     3
 10
480.50000000000182
 20
-430.99999999999642
 30
0.0
 11
460.49999999999318
 21
-431.00000000000358
 31
0.0
  0
ARC
  8
OUTLINE
  6
CONTINUOUS
 62
     3
 10
460.49999999999318
 20
-437.50000000000358
 30
0.0
 40
6.5
 50
90.0
 51
270.0
  0
LINE
  8
OUTLINE
  6
CONTINUOUS
 62
     3
 10
460.49999999999318
 20
-444.00000000000358
 30
0.0
 11
480.50000000000182
 21
-444.00000000000358
 31
0.0
  0
LINE
  8
OUTLINE
  6
CONTINUOUS
 62
     3
 10
480.50000000000182
 20
-444.00000000000358
 30
0.0
 11
480.50000000000142
 21
-455.99999999999642
 31
0.0
  0
LINE
  8
OUTLINE
  6
CONTINUOUS
 62
     3
 10
480.50000000000142
 20
-455.99999999999642
 30
0.0
 11
430.60000000000218
 21
-455.99999999999642
 31
0.0
  0
LINE
  8
OUTLINE
  6
CONTINUOUS
 62
     3
 10
430.60000000000218
 20
-455.99999999999642
 30
0.0
 11
430.59990295946091
 21
-443.97507912474998
 31
0.0
  0
ARC
  8
OUTLINE
  6
CONTINUOUS
 62
     3
 10
427.39999999999782
 20
-443.99999999999784
 30
0.0
 40
3.2000000000005864
 50
0.4462110646949213
 51
104.76826974239822
  0
LINE
  8
OUTLINE
  6
CONTINUOUS
 62
     3
 10
426.58428705776618
 20
-440.90571294222838
 30
0.0
 11
423.48999999999751
 21
-443.99999999999
 31
0.0
  0
LINE
  8
OUTLINE
  6
CONTINUOUS
 62
     3
 10
423.48999999999751
 20
-443.99999999999
 30
0.0
 11
404.99999999999449
 21
-443.999999999995
 31
0.0
  0
LINE
  8
OUTLINE
  6
CONTINUOUS
 62
     3
 10
404.99999999999449
 20
-443.999999999995
 30
0.0
 11
404.99999999999449
 21
-445.49999999999551
 31
0.0
  0
LINE
  8
OUTLINE
  6
CONTINUOUS
 62
     3
 10
404.99999999999449
 20
-445.49999999999551
 30
0.0
 11
395.99999999999449
 21
-499.99999999999551
 31
0.0
  0
LINE
  8
OUTLINE
  6
CONTINUOUS
 62
     3
 10
395.99999999999449
 20
-499.99999999999551
 30
0.0
 11
395.99999999999449
 21
-507.99999999999551
 31
0.0
  0
LINE
  8
OUTLINE
  6
CONTINUOUS
 62
     3
 10
395.99999999999449
 20
-507.99999999999551
 30
0.0
 11
254.00000000000179
 21
-507.99999999999551
 31
0.0
  0
LINE
  8
OUTLINE
  6
CONTINUOUS
 62
     3
 10
254.00000000000179
 20
-507.99999999999551
 30
0.0
 11
254.00000000000179
 21
-499.99999999999551
 31
0.0
  0
LINE
  8
OUTLINE
  6
CONTINUOUS
 62
     3
 10
254.00000000000179
 20
-499.99999999999551
 30
0.0
 11
245.00000000000179
 21
-445.49999999999551
 31
0.0
  0
LINE
  8
OUTLINE
  6
CONTINUOUS
 62
     3
 10
245.00000000000179
 20
-445.49999999999551
 30
0.0
 11
245.00000000000179
 21
-443.99999999998909
 31
0.0
  0
LINE
  8
OUTLINE
  6
CONTINUOUS
 62
     3
 10
245.00000000000179
 20
-443.99999999998909
 30
0.0
 11
-244.99999999999051
 21
-444.000000000005
 31
0.0
  0
LINE
  8
OUTLINE
  6
CONTINUOUS
 62
     3
 10
-244.99999999999051
 20
-444.000000000005
 30
0.0
 11
-244.99999999999051
 21
-445.49999999998857
 31
0.0
  0
LINE
  8
OUTLINE
  6
CONTINUOUS
 62
     3
 10
-244.99999999999051
 20
-445.49999999998857
 30
0.0
 11
-253.99999999999409
 21
-499.99999999998857
 31
0.0
  0
LINE
  8
OUTLINE
  6
CONTINUOUS
 62
     3
 10
-253.99999999999409
 20
-499.99999999998857
 30
0.0
 11
-253.99999999999409
 21
-507.99999999998857
 31
0.0
  0
LINE
  8
OUTLINE
  6
CONTINUOUS
 62
     3
 10
-253.99999999999409
 20
-507.99999999998857
 30
0.0
 11
-395.99999999998948
 21
-507.99999999998857
 31
0.0
  0
LINE
  8
OUTLINE
  6
CONTINUOUS
 62
     3
 10
-395.99999999998948
 20
-507.99999999998857
 30
0.0
 11
-395.99999999998948
 21
-499.99999999998857
 31
0.0
  0
LINE
  8
OUTLINE
  6
CONTINUOUS
 62
     3
 10
-395.99999999998948
 20
-499.99999999998857
 30
0.0
 11
-404.99999999999409
 21
-445.49999999998857
 31
0.0
  0
LINE
  8
OUTLINE
  6
CONTINUOUS
 62
     3
 10
-404.99999999999409
 20
-445.49999999998857
 30
0.0
 11
-404.99999999999409
 21
-444.00000000000358
 31
0.0
  0
LINE
  8
OUTLINE
  6
CONTINUOUS
 62
     3
 10
-404.99999999999409
 20
-444.00000000000358
 30
0.0
 11
-423.48999999997699
 21
-443.99999999999733
 31
0.0
  0
LINE
  8
OUTLINE
  6
CONTINUOUS
 62
     3
 10
-423.48999999997699
 20
-443.99999999999733
 30
0.0
 11
-426.58428705781131
 21
-440.90571294221752
 31
0.0
  0
ARC
  8
OUTLINE
  6
CONTINUOUS
 62
     3
 10
-427.40000000000128
 20
-443.99999999999767
 30
0.0
 40
3.2000000000003088
 50
75.231730258371954
 51
179.55378893530815
  0
LINE
  8
OUTLINE
  6
CONTINUOUS
 62
     3
 10
-430.59990295946409
 20
-443.97507912474998
 30
0.0
 11
-430.59999999999758
 21
-455.99999999999642
 31
0.0
  0
LINE
  8
OUTLINE
  6
CONTINUOUS
 62
     3
 10
-430.59999999999758
 20
-455.99999999999642
 30
0.0
 11
-480.49999999999642
 21
-455.99999999999642
 31
0.0
  0
LINE
  8
OUTLINE
  6
CONTINUOUS
 62
     3
 10
-480.49999999999642
 20
-455.99999999999642
 30
0.0
 11
-480.49999999999733
 21
-443.99999999999733
 31
0.0
  0
LINE
  8
OUTLINE
  6
CONTINUOUS
 62
     3
 10
-480.49999999999733
 20
-443.99999999999733
 30
0.0
 11
-460.49999999999551
 21
-443.99999999999642
 31
0.0
  0
ARC
  8
OUTLINE
  6
CONTINUOUS
 62
     3
 10
-460.49999999999551
 20
-437.49999999999642
 30
0.0
 40
6.5
 50
270.0
 51
90.0
  0
LINE
  8
OUTLINE
  6
CONTINUOUS
 62
     3
 10
-460.49999999999551
 20
-430.99999999999642
 30
0.0
 11
-480.49999999999733
 21
-430.99999999999551
 31
0.0
  0
LINE
  8
OUTLINE
  6
CONTINUOUS
 62
     3
 10
-480.49999999999733
 20
-430.99999999999551
 30
0.0
 11
-480.49999999999642
 21
-412.50000000000358
 31
0.0
  0
LINE
  8
OUTLINE
  6
CONTINUOUS
 62
     3
 10
-480.49999999999642
 20
-412.50000000000358
 30
0.0
 11
-436.99999999999642
 21
-412.50000000000358
 31
0.0
  0
LINE
  8
OUTLINE
  6
CONTINUOUS
 62
     3
 10
-436.99999999999642
 20
-412.50000000000358
 30
0.0
 11
-436.99999999999642
 21
-373.29999999999558
 31
0.0
  0
LINE
  8
OUTLINE
  6
CONTINUOUS
 62
     3
 10
-436.99999999999642
 20
-373.29999999999558
 30
0.0
 11
-481.08999999998008
 21
-373.30010001000528
 31
0.0
  0
ARC
  8
OUTLINE
  6
CONTINUOUS
 62
     3
 10
-481.08999999998008
 20
-373.80010001000528
 30
0.0
 40
0.4999999999999902
 50
0.0
 51
90.0
  0
LINE
  8
OUTLINE
  6
CONTINUOUS
 62
     3
 10
-480.58999999998008
 20
-373.80010001000528
 30
0.0
 11
-480.58999999998008
 21
-373.92459981001463
 31
0.0
  0
ARC
  8
OUTLINE
  6
CONTINUOUS
 62
     3
 10
-481.08999999998042
 20
-373.92459980985467
 30
0.0
 40
0.5000000000003642
 50
231.31781256420868
 51
0.0
  0
ARC
  8
OUTLINE
  6
CONTINUOUS
 62
     3
 10
-480.58999999998326
 20
-373.30010001001301
 30
0.0
 40
1.3000000000000065
 50
209.40091418835516
 51
231.31781255346539
  0
LINE
  8
OUTLINE
  6
CONTINUOUS
 62
     3
 10
-481.72256777183429
 20
-373.93829296058863
 30
0.0
 11
-486.90000000000049
 21
-376.84943100266128
 31
0.0
  0
LINE
  8
OUTLINE
  6
CONTINUOUS
 62
     3
 10
-486.90000000000049
 20
-376.84943100266128
 30
0.0
 11
-486.90000000000049
 21
-380.44943100265618
 31
0.0
  0
LINE
  8
OUTLINE
  6
CONTINUOUS
 62
     3
 10
-486.90000000000049
 20
-380.44943100265618
 30
0.0
 11
-484.89999999999873
 21
-380.44943100265618
 31
0.0
  0
LINE
  8
OUTLINE
  6
CONTINUOUS
 62
     3
 10
-484.89999999999873
 20
-380.44943100265618
 30
0.0
 11
-484.89999999999873
 21
-384.29943100265842
 31
0.0
  0
LINE
  8
OUTLINE
  6
CONTINUOUS
 62
     3
 10
-484.89999999999873
 20
-384.29943100265842
 30
0.0
 11
-486.59999999999758
 21
-384.29943100265842
 31
0.0
  0
LINE
  8
OUTLINE
  6
CONTINUOUS
 62
     3
 10
-486.59999999999758
 20
-384.29943100265842
 30
0.0
 11
-486.59999999999758
 21
-401.899431002661
 31
0.0
  0
LINE
  8
OUTLINE
  6
CONTINUOUS
 62
     3
 10
-486.59999999999758
 20
-401.899431002661
 30
0.0
 11
-494.59999999999758
 21
-401.899431002661
 31
0.0
  0
LINE
  8
OUTLINE
  6
CONTINUOUS
 62
     3
 10
-494.59999999999758
 20
-401.899431002661
 30
0.0
 11
-494.59999999999758
 21
-384.29943100265842
 31
0.0
  0
LINE
  8
OUTLINE
  6
CONTINUOUS
 62
     3
 10
-494.59999999999758
 20
-384.29943100265842
 30
0.0
 11
-496.29999999999649
 21
-384.29943100265842
 31
0.0
  0
LINE
  8
OUTLINE
  6
CONTINUOUS
 62
     3
 10
-496.29999999999649
 20
-384.29943100265842
 30
0.0
 11
-496.29999999999649
 21
-380.69943100265618
 31
0.0
  0
LINE
  8
OUTLINE
  6
CONTINUOUS
 62
     3
 10
-496.29999999999649
 20
-380.69943100265618
 30
0.0
 11
-494.300000000002
 21
-380.69943100265618
 31
0.0
  0
LINE
  8
OUTLINE
  6
CONTINUOUS
 62
     3
 10
-494.300000000002
 20
-380.69943100265618
 30
0.0
 11
-494.300000000002
 21
-376.39943100265742
 31
0.0
  0
LINE
  8
OUTLINE
  6
CONTINUOUS
 62
     3
 10
-494.300000000002
 20
-376.39943100265742
 30
0.0
 11
-499.43356526977283
 21
-373.87339094910521
 31
0.0
  0
ARC
  8
OUTLINE
  6
CONTINUOUS
 62
     3
 10
-500.6000000000173
 20
-373.29943100269622
 30
0.0
 40
1.3000000000008953
 50
308.68274796746846
 51
333.79988516732271
  0
ARC
  8
OUTLINE
  6
CONTINUOUS
 62
     3
 10
-500.1000000000007
 20
-373.92393080265185
 30
0.0
 40
0.4999999999996934
 50
180.0
 51
308.68364479664331
  0
LINE
  8
OUTLINE
  6
CONTINUOUS
 62
     3
 10
-500.60000000000042
 20
-373.92393080265168
 30
0.0
 11
-500.60000000000042
 21
-373.79943100265149
 31
0.0
  0
ARC
  8
OUTLINE
  6
CONTINUOUS
 62
     3
 10
-500.10000000000042
 20
-373.79943100265149
 30
0.0
 40
0.4999999999999902
 50
90.0
 51
180.0
  0
LINE
  8
OUTLINE
  6
CONTINUOUS
 62
     3
 10
-500.10000000000042
 20
-373.29943100265149
 30
0.0
 11
-507.80000000001559
 21
-373.29999999999882
 31
0.0
  0
ARC
  8
OUTLINE
  6
CONTINUOUS
 62
     3
 10
-510.80000000001553
 20
-373.29999999999887
 30
0.0
 40
2.9999999999999418
 50
270.0
 51
0.0
  0
LINE
  8
OUTLINE
  6
CONTINUOUS
 62
     3
 10
-510.80000000001559
 20
-376.29999999999882
 30
0.0
 11
-536.80000000001746
 21
-376.29999999999882
 31
0.0
  0
ARC
  8
OUTLINE
  6
CONTINUOUS
 62
     3
 10
-536.80000000001712
 20
-373.29999999999848
 30
0.0
 40
3.00000000000033
 50
180.0
 51
270.0
  0
LINE
  8
OUTLINE
  6
CONTINUOUS
 62
     3
 10
-539.80000000001746
 20
-373.29999999999882
 30
0.0
 11
-544.00000000000182
 21
-373.29999999999433
 31
0.0
  0
ARC
  8
OUTLINE
  6
CONTINUOUS
 62
     3
 10
-544.00000000000205
 20
-371.69999999999425
 30
0.0
 40
1.6000000000000858
 50
180.0
 51
270.0
  0
LINE
  8
OUTLINE
  6
CONTINUOUS
 62
     3
 10
-545.60000000000218
 20
-371.69999999999442
 30
0.0
 11
-545.60000000000582
 21
-369.29999999999558
 31
0.0
  0
LINE
  8
OUTLINE
  6
CONTINUOUS
 62
     3
 10
-545.60000000000582
 20
-369.29999999999558
 30
0.0
 11
-546.20000000000073
 21
-369.29999999999558
 31
0.0
  0
LINE
  8
OUTLINE
  6
CONTINUOUS
 62
     3
 10
-546.20000000000073
 20
-369.29999999999558
 30
0.0
 11
-546.20000000000073
 21
-211.5
 31
0.0
  0
LINE
  8
OUTLINE
  6
CONTINUOUS
 62
     3
 10
-546.20000000000073
 20
-211.5
 30
0.0
 11
-546.80000000000291
 21
-211.5
 31
0.0
  0
LINE
  8
OUTLINE
  6
CONTINUOUS
 62
     3
 10
-546.80000000000291
 20
-211.5
 30
0.0
 11
-546.80000000000473
 21
-200.10000000000261
 31
0.0
  0
ARC
  8
OUTLINE
  6
CONTINUOUS
 62
     3
 10
-545.60000000000491
 20
-200.10000000000261
 30
0.0
 40
1.1999999999998212
 50
90.0
 51
180.0
  0
LINE
  8
OUTLINE
  6
CONTINUOUS
 62
     3
 10
-545.60000000000491
 20
-198.90000000000279
 30
0.0
 11
-436.99999999999642
 21
-198.89999999999421
 31
0.0
  0
LINE
  8
OUTLINE
  6
CONTINUOUS
 62
     3
 10
-436.99999999999642
 20
-198.89999999999421
 30
0.0
 11
-436.99999999999642
 21
-178.9999999999973
 31
0.0
  0
LINE
  8
OUTLINE
  6
CONTINUOUS
 62
     3
 10
-436.99999999999642
 20
-178.9999999999973
 30
0.0
 11
-448.59999999999582
 21
-178.9999999999973
 31
0.0
  0
ARC
  8
OUTLINE
  6
CONTINUOUS
 62
     3
 10
-448.59999999999405
 20
-176.59999999999584
 30
0.0
 40
2.4000000000014468
 50
149.94463625953767
 51
270.0
  0
LINE
  8
OUTLINE
  6
CONTINUOUS
 62
     3
 10
-450.67730046346418
 20
-175.39799218618029
 30
0.0
 11
-464.60000000000127
 21
-175.3999999999987
 31
0.0
  0
ARC
  8
OUTLINE
  6
CONTINUOUS
 62
     3
 10
-464.60000000000127
 20
-174.80000000000015
 30
0.0
 40
0.5999999999985448
 50
90.0
 51
270.0
  0
LINE
  8
OUTLINE
  6
CONTINUOUS
 62
     3
 10
-464.60000000000127
 20
-174.20000000000161
 30
0.0
 11
-449.56966294266482
 21
-174.20000000000161
 31
0.0
  0
LINE
  8
OUTLINE
  6
CONTINUOUS
 62
     3
 10
-449.56966294266482
 20
-174.20000000000161
 30
0.0
 11
-445.87920730666519
 21
-170.63616841866039
 31
0.0
  0
LINE
  8
OUTLINE
  6
CONTINUOUS
 62
     3
 10
-445.87920730666519
 20
-170.63616841866039
 30
0.0
 11
-445.04561726266638
 21
-171.49937617999689
 31
0.0
  0
LINE
  8
OUTLINE
  6
CONTINUOUS
 62
     3
 10
-445.04561726266638
 20
-171.49937617999689
 30
0.0
 11
-447.84219509466669
 21
-174.20000000000161
 31
0.0
  0
LINE
  8
OUTLINE
  6
CONTINUOUS
 62
     3
 10
-447.84219509466669
 20
-174.20000000000161
 30
0.0
 11
-444.69999999999618
 21
-174.20000000000161
 31
0.0
  0
LINE
  8
OUTLINE
  6
CONTINUOUS
 62
     3
 10
-444.69999999999618
 20
-174.20000000000161
 30
0.0
 11
-444.69999999999891
 21
173.199999999998
 31
0.0
  0
LINE
  8
OUTLINE
  6
CONTINUOUS
 62
     3
 10
-444.69999999999891
 20
173.199999999998
 30
0.0
 11
-450.60000000000218
 21
173.19999999999891
 31
0.0
  0
ARC
  8
OUTLINE
  6
CONTINUOUS
 62
     3
 10
-450.60000000000178
 20
172.19999999999902
 30
0.0
 40
0.9999999999998778
 50
90.0
 51
209.99999999997897
  0
LINE
  8
OUTLINE
  6
CONTINUOUS
 62
     3
 10
-451.46602540378632
 20
171.69999999999939
 30
0.0
 11
-452.70000000000249
 21
171.69999999999939
 31
0.0
  0
LINE
  8
OUTLINE
  6
CONTINUOUS
 62
     3
 10
-452.70000000000249
 20
171.69999999999939
 30
0.0
 11
-452.70000000000249
 21
168.200000000003
 31
0.0
  0
LINE
  8
OUTLINE
  6
CONTINUOUS
 62
     3
 10
-452.70000000000249
 20
168.200000000003
 30
0.0
 11
-455.70000000000073
 21
168.200000000003
 31
0.0
  0
LINE
  8
OUTLINE
  6
CONTINUOUS
 62
     3
 10
-455.70000000000073
 20
168.200000000003
 30
0.0
 11
-455.70000000000073
 21
171.69999999999939
 31
0.0
  0
LINE
  8
OUTLINE
  6
CONTINUOUS
 62
     3
 10
-455.70000000000073
 20
171.69999999999939
 30
0.0
 11
-456.93397459621701
 21
171.69999999999939
 31
0.0
  0
ARC
  8
OUTLINE
  6
CONTINUOUS
 62
     3
 10
-457.80000000000143
 20
172.19999999999908
 30
0.0
 40
0.9999999999998285
 50
330.00000000001501
 51
90.0
  0
LINE
  8
OUTLINE
  6
CONTINUOUS
 62
     3
 10
-457.80000000000109
 20
173.19999999999891
 30
0.0
 11
-465.08378487855998
 21
173.20000000000161
 31
0.0
  0
LINE
  8
OUTLINE
  6
CONTINUOUS
 62
     3
 10
-465.08378487855998
 20
173.20000000000161
 30
0.0
 11
-456.29376844048238
 21
161.53525420397841
 31
0.0
  0
ARC
  8
OUTLINE
  6
CONTINUOUS
 62
     3
 10
-459.28693402743068
 20
159.25347101382368
 30
0.0
 40
3.7637182091336743
 50
336.68059969580349
 51
37.319400291605177
  0
LINE
  8
OUTLINE
  6
CONTINUOUS
 62
     3
 10
-455.83066493599608
 20
157.76357882800681
 30
0.0
 11
-464.31190187732358
 21
137.7830367120209
 31
0.0
  0
ARC
  8
OUTLINE
  6
CONTINUOUS
 62
     3
 10
-465.32445721605427
 20
138.21284095335884
 30
0.0
 40
1.0999999999382084
 50
156.9999999986469
 51
336.9999999986494
  0
LINE
  8
OUTLINE
  6
CONTINUOUS
 62
     3
 10
-466.33701255478491
 20
138.6426451946968
 30
0.0
 11
-457.85577561333048
 21
158.6231873106708
 31
0.0
  0
ARC
  8
OUTLINE
  6
CONTINUOUS
 62
     3
 10
-459.32858337767954
 20
159.24835711639932
 30
0.0
 40
1.5999999989754734
 50
336.99999997875943
 51
37.000000009805206
  0
LINE
  8
OUTLINE
  6
CONTINUOUS
 62
     3
 10
-458.05076656258689
 20
160.21126115304469
 30
0.0
 11
-461.05649687556797
 21
164.20000000000161
 31
0.0
  0
LINE
  8
OUTLINE
  6
CONTINUOUS
 62
     3
 10
-461.05649687556797
 20
164.20000000000161
 30
0.0
 11
-466.20000000000249
 21
164.19999999999979
 31
0.0
  0
LINE
  8
OUTLINE
  6
CONTINUOUS
 62
     3
 10
-466.20000000000249
 20
164.19999999999979
 30
0.0
 11
-466.20000000000249
 21
162.96602540378171
 31
0.0
  0
ARC
  8
OUTLINE
  6
CONTINUOUS
 62
     3
 10
-466.69999999999953
 20
162.09999999999627
 30
0.0
 40
0.9999999999993883
 50
60.000000000175419
 51
180.0
  0
LINE
  8
OUTLINE
  6
CONTINUOUS
 62
     3
 10
-467.69999999999891
 20
162.09999999999579
 30
0.0
 11
-467.70000000000249
 21
159.20000000000479
 31
0.0
  0
LINE
  8
OUTLINE
  6
CONTINUOUS
 62
     3
 10
-467.70000000000249
 20
159.20000000000479
 30
0.0
 11
-472.70000000000073
 21
159.20000000000161
 31
0.0
  0
ARC
  8
OUTLINE
  6
CONTINUOUS
 62
     3
 10
-472.70000000000078
 20
162.20000000000155
 30
0.0
 40
2.9999999999999418
 50
180.0
 51
270.0
  0
LINE
  8
OUTLINE
  6
CONTINUOUS
 62
     3
 10
-475.70000000000073
 20
162.20000000000161
 30
0.0
 11
-475.70000000000073
 21
169.20000000000249
 31
0.0
  0
ARC
  8
OUTLINE
  6
CONTINUOUS
 62
     3
 10
-472.70000000000061
 20
169.20000000000201
 30
0.0
 40
3.0000000000000866
 50
90.0
 51
180.0
  0
LINE
  8
OUTLINE
  6
CONTINUOUS
 62
     3
 10
-472.70000000000073
 20
172.20000000000209
 30
0.0
 11
-468.69999999999891
 21
172.19999999999939
 31
0.0
  0
ARC
  8
OUTLINE
  6
CONTINUOUS
 62
     3
 10
-466.7000000000171
 20
172.20000000001065
 30
0.0
 40
1.9999999999818037
 50
120.19745066639047
 51
180.0
  0
ARC
  8
OUTLINE
  6
CONTINUOUS
 62
     3
 10
-463.8911514254844
 20
174.31751875627793
 30
0.0
 40
3.834585947873371
 50
103.54998164616831
 51
185.82125691649833
  0
LINE
  8
OUTLINE
  6
CONTINUOUS
 62
     3
 10
-464.78957005066331
 20
178.04537247732969
 30
0.0
 11
-457.58445498300222
 21
178.93218153705951
 31
0.0
  0
ARC
  8
OUTLINE
  6
CONTINUOUS
 62
     3
 10
-457.02995170133221
 20
178.10000000000198
 30
0.0
 40
1.0000000000011038
 50
90.0
 51
123.67650887061848
  0
LINE
  8
OUTLINE
  6
CONTINUOUS
 62
     3
 10
-457.02995170133232
 20
179.10000000000309
 30
0.0
 11
-456.20031816666409
 21
179.10000000000309
 31
0.0
  0
LINE
  8
OUTLINE
  6
CONTINUOUS
 62
     3
 10
-456.20031816666409
 20
179.10000000000309
 30
0.0
 11
-452.52814495199891
 21
179.55088617466839
 31
0.0
  0
LINE
  8
OUTLINE
  6
CONTINUOUS
 62
     3
 10
-452.52814495199891
 20
179.55088617466839
 30
0.0
 11
-436.99999999999642
 21
181.45750263466931
 31
0.0
  0
LINE
  8
OUTLINE
  6
CONTINUOUS
 62
     3
 10
-436.99999999999642
 20
181.45750263466931
 30
0.0
 11
-436.99999999999642
 21
412.50000000000318
 31
0.0
  0
LINE
  8
OUTLINE
  6
CONTINUOUS
 62
     3
 10
-436.99999999999642
 20
412.50000000000318
 30
0.0
 11
-480.49999999999591
 21
412.50000000001359
 31
0.0
  0
LINE
  8
OUTLINE
  6
CONTINUOUS
 62
     3
 10
-480.49999999999591
 20
412.50000000001359
 30
0.0
 11
-480.49999999999591
 21
431.00000000000267
 31
0.0
  0
LINE
  8
OUTLINE
  6
CONTINUOUS
 62
     3
 10
-480.49999999999591
 20
431.00000000000267
 30
0.0
 11
-460.49999999999682
 21
431.00000000000449
 31
0.0
  0
ARC
  8
OUTLINE
  6
CONTINUOUS
 62
     3
 10
-460.49999999999682
 20
437.50000000000449
 30
0.0
 40
6.5
 50
270.0
 51
90.0
  0
LINE
  8
OUTLINE
  6
CONTINUOUS
 62
     3
 10
-460.49999999999682
 20
444.00000000000449
 30
0.0
 11
-480.49999999999591
 21
444.00000000000318
 31
0.0
  0
LINE
  8
OUTLINE
  6
CONTINUOUS
 62
     3
 10
-480.49999999999591
 20
444.00000000000318
 30
0.0
 11
-480.49999999999591
 21
456.00000000000318
 31
0.0
  0
LINE
  8
OUTLINE
  6
CONTINUOUS
 62
     3
 10
-480.49999999999591
 20
456.00000000000318
 30
0.0
 11
-430.59999999999758
 21
456.00000000000318
 31
0.0
  0
LINE
  8
OUTLINE
  6
CONTINUOUS
 62
     3
 10
-430.59999999999758
 20
456.00000000000318
 30
0.0
 11
-430.59990295946358
 21
443.97507912474413
 31
0.0
  0
ARC
  8
OUTLINE
  6
CONTINUOUS
 62
     3
 10
-427.40000000000151
 20
443.9999999999967
 30
0.0
 40
3.1999999999995929
 50
180.4462110647795
 51
284.76826974234291
  0
LINE
  8
OUTLINE
  6
CONTINUOUS
 62
     3
 10
-426.58428705777311
 20
440.90571294222741
 30
0.0
 11
-423.49000000000387
 21
443.99999999999733
 31
0.0
  0
LINE
  8
OUTLINE
  6
CONTINUOUS
 62
     3
 10
-423.49000000000387
 20
443.99999999999733
 30
0.0
 11
-404.99999999999773
 21
443.99999999999909
 31
0.0
  0
LINE
  8
OUTLINE
  6
CONTINUOUS
 62
     3
 10
-404.99999999999773
 20
443.99999999999909
 30
0.0
 11
-404.99999999999949
 21
445.49999999999909
 31
0.0
  0
LINE
  8
OUTLINE
  6
CONTINUOUS
 62
     3
 10
-404.99999999999949
 20
445.49999999999909
 30
0.0
 11
-395.999999999995
 21
499.99999999999909
 31
0.0
  0
LINE
  8
OUTLINE
  6
CONTINUOUS
 62
     3
 10
-395.999999999995
 20
499.99999999999909
 30
0.0
 11
-395.999999999995
 21
507.99999999999909
 31
0.0
  0
LINE
  8
OUTLINE
  6
CONTINUOUS
 62
     3
 10
-395.999999999995
 20
507.99999999999909
 30
0.0
 11
-253.99999999999949
 21
507.99999999999909
 31
0.0
  0
LINE
  8
OUTLINE
  6
CONTINUOUS
 62
     3
 10
-253.99999999999949
 20
507.99999999999909
 30
0.0
 11
-253.99999999999949
 21
499.99999999999909
 31
0.0
  0
LINE
  8
OUTLINE
  6
CONTINUOUS
 62
     3
 10
-253.99999999999949
 20
499.99999999999909
 30
0.0
 11
-244.99999999999591
 21
445.49999999999909
 31
0.0
  0
LINE
  8
OUTLINE
  6
CONTINUOUS
 62
     3
 10
-244.99999999999591
 20
445.49999999999909
 30
0.0
 11
-244.99999999999591
 21
443.99999999999909
 31
0.0
  0
LINE
  8
OUTLINE
  6
CONTINUOUS
 62
     3
 10
-244.99999999999591
 20
443.99999999999909
 30
0.0
 11
244.99999999999639
 21
443.999999999995
 31
0.0
  0
LINE
  8
OUTLINE
  6
CONTINUOUS
 62
     3
 10
244.99999999999639
 20
443.999999999995
 30
0.0
 11
244.99999999999639
 21
445.49999999999233
 31
0.0
  0
LINE
  8
OUTLINE
  6
CONTINUOUS
 62
     3
 10
244.99999999999639
 20
445.49999999999233
 30
0.0
 11
253.99999999999639
 21
499.99999999999233
 31
0.0
  0
LINE
  8
OUTLINE
  6
CONTINUOUS
 62
     3
 10
253.99999999999639
 20
499.99999999999233
 30
0.0
 11
253.99999999999639
 21
507.99999999999233
 31
0.0
  0
LINE
  8
OUTLINE
  6
CONTINUOUS
 62
     3
 10
253.99999999999639
 20
507.99999999999233
 30
0.0
 11
395.99999999999091
 21
507.99999999999233
 31
0.0
  0
LINE
  8
OUTLINE
  6
CONTINUOUS
 62
     3
 10
395.99999999999091
 20
507.99999999999233
 30
0.0
 11
395.99999999999091
 21
499.99999999999233
 31
0.0
  0
LINE
  8
OUTLINE
  6
CONTINUOUS
 62
     3
 10
395.99999999999091
 20
499.99999999999233
 30
0.0
 11
404.99999999999642
 21
445.49999999999233
 31
0.0
  0
LINE
  8
OUTLINE
  6
CONTINUOUS
 62
     3
 10
404.99999999999642
 20
445.49999999999233
 30
0.0
 11
404.99999999998909
 21
443.99999999999233
 31
0.0
  0
LINE
  8
OUTLINE
  6
CONTINUOUS
 62
     3
 10
404.99999999998909
 20
443.99999999999233
 30
0.0
 11
423.48999999999251
 21
443.99999999999733
 31
0.0
  0
LINE
  8
OUTLINE
  6
CONTINUOUS
 62
     3
 10
423.48999999999251
 20
443.99999999999733
 30
0.0
 11
426.58428703309028
 21
440.90571294873371
 31
0.0
  0
ARC
  8
OUTLINE
  6
CONTINUOUS
 62
     3
 10
427.39999999999873
 20
443.99999999999756
 30
0.0
 40
3.2000000000002382
 50
255.23172980066875
 51
359.55378893520538
  0
LINE
  8
OUTLINE
  6
CONTINUOUS
 62
     3
 10
430.59990295946142
 20
443.97507912474413
 30
0.0
 11
430.60000000000309
 21
456.00000000000267
 31
0.0
  0
LINE
  8
OUTLINE
  6
CONTINUOUS
 62
     3
 10
430.60000000000309
 20
456.00000000000267
 30
0.0
 11
480.50000000000591
 21
455.99999999999181
 31
0.0
  0
LINE
  8
OUTLINE
  6
CONTINUOUS
 62
     3
 10
480.50000000000591
 20
455.99999999999181
 30
0.0
 11
480.50000000000591
 21
443.99999999998909
 31
0.0
  0
LINE
  8
OUTLINE
  6
CONTINUOUS
 62
     3
 10
480.50000000000591
 20
443.99999999998909
 30
0.0
 11
460.50000000000767
 21
443.99999999999051
 31
0.0
  0
ARC
  8
OUTLINE
  6
CONTINUOUS
 62
     3
 10
460.50000000000767
 20
437.49999999999051
 30
0.0
 40
6.5
 50
90.0
 51
270.0
  0
LINE
  8
OUTLINE
  6
CONTINUOUS
 62
     3
 10
460.50000000000767
 20
430.99999999999051
 30
0.0
 11
480.50000000000591
 21
430.99999999998857
 31
0.0
  0
LINE
  8
OUTLINE
  6
CONTINUOUS
 62
     3
 10
480.50000000000591
 20
430.99999999998857
 30
0.0
 11
480.50000000000591
 21
412.49999999999949
 31
0.0
  0
LINE
  8
OUTLINE
  6
CONTINUOUS
 62
     3
 10
480.50000000000591
 20
412.49999999999949
 30
0.0
 11
437.00000000000051
 21
412.50000000000267
 31
0.0
  0
LINE
  8
OUTLINE
  6
CONTINUOUS
 62
     3
 10
437.00000000000051
 20
412.50000000000267
 30
0.0
 11
437.0
 21
-412.50000000000358
 31
0.0
  0
TEXT
  8
ETC
  6
CONTINUOUS
 62
    61
 10
892.13943481658589
 20
1284.925186911893
 30
0.0
 40
64.065641025638456
  1
LGH-35RVX3-E_6
 41
0.9
  0
TEXT
  8
ETC
  6
CONTINUOUS
 62
    61
 10
887.94914748940573
 20
1166.8488970919229
 30
0.0
 40
64.065641025638456
  1
LOSSNAY
 41
0.9
  0
TEXT
  8
ETC
  6
CONTINUOUS
 62
    61
 10
938.7025471720608
 20
1058.5892023873569
 30
0.0
 40
40.041025641024042
  1
LGH-35RVX3-E
 50
0.0
 41
0.9
 51
0.0
  7
STANDARD
 71
     0
 11
0.0
 21
0.0
 31
0.0
210
0.0
220
0.0
230
1.0
  0
TEXT
  8
NOTE
  6
CONTINUOUS
 62
     4
 10
-376.65535241332049
 20
-605.89483126698792
 30
0.0
 40
64.065641025638456
  1
SA
 41
0.9
  0
TEXT
  8
NOTE
  6
CONTINUOUS
 62
     4
 10
273.83623544243892
 20
-605.89483126698792
 30
0.0
 40
64.065641025638456
  1
RA
 41
0.9
  0
TEXT
  8
NOTE
  6
CONTINUOUS
 62
     4
 10
-376.65535241332049
 20
541.82919024134958
 30
0.0
 40
64.065641025638456
  1
OA
 41
0.9
  0
TEXT
  8
NOTE
  6
CONTINUOUS
 62
     4
 10
278.01024471776691
 20
541.82919024134935
 30
0.0
 40
64.065641025638456
  1
EA
 41
0.9
  0
TEXT
  8
NOTE
  6
CONTINUOUS
 62
     4
 10
-1028.1030124270142
 20
126.10628809722891
 30
0.0
 40
64.0
  1
Inspection
 50
0.0
 41
0.9
 51
0.0
  7
STANDARD
 71
     0
 72
     1
 11
-810.08701242701409
 21
126.10628809722891
 31
0.0
210
0.0
220
0.0
230
1.0
  0
TEXT
  8
NOTE
  6
CONTINUOUS
 62
     4
 10
-975.68701242701411
 20
20.506288097228918
 30
0.0
 40
64.0
  1
opening
 50
0.0
 41
0.9
 51
0.0
  7
STANDARD
 71
     0
 72
     1
 11
-810.08701242701409
 21
20.506288097228918
 31
0.0
210
0.0
220
0.0
230
1.0
  0
TEXT
  8
NOTE
  6
CONTINUOUS
 62
     4
 10
-1000.4550124270141
 20
-85.093711902771076
 30
0.0
 40
64.0
  1
450X450
 50
0.0
 41
0.9
 51
0.0
  7
STANDARD
 71
     0
 72
     1
 11
-810.08701242701409
 21
-85.093711902771076
 31
0.0
210
0.0
220
0.0
230
1.0
  0
TEXT
  8
NOTE
  6
CONTINUOUS
 62
     4
 10
-979.43101242701414
 20
-190.69371190277107
 30
0.0
 40
64.0
  1
or more
 50
0.0
 41
0.9
 51
0.0
  7
STANDARD
 71
     0
 72
     1
 11
-810.08701242701409
 21
-190.69371190277107
 31
0.0
210
0.0
220
0.0
230
1.0
  0
TEXT
  8
NOTE
  6
CONTINUOUS
 62
     4
 10
-1246.5541472796058
 20
-519.10777452298817
 30
0.0
 40
69.0
  1
Power supply
 50
0.0
 41
0.9
 51
0.0
  7
STANDARD
 71
     0
 72
     2
 11
-642.32114727960561
 21
-519.10777452298817
 31
0.0
210
0.0
220
0.0
230
1.0
  0
TEXT
  8
NOTE
  6
CONTINUOUS
 62
     4
 10
-1274.4991472796057
 20
-632.95777452298819
 30
0.0
 40
69.0
  1
cable opening
 50
0.0
 41
0.9
 51
0.0
  7
STANDARD
 71
     0
 72
     2
 11
-642.32114727960561
 21
-632.95777452298819
 31
0.0
210
0.0
220
0.0
230
1.0
  0
LINE
  8
NOTE
  6
CONTINUOUS
 62
     4
 10
-632.32114727960561
 20
-657.10777452298817
 30
0.0
 11
-1284.0211472796061
 21
-657.10777452298817
 31
0.0
  0
LINE
  8
NOTE
  6
CONTINUOUS
 62
     4
 10
-544.23663731939473
 20
-406.22148773270851
 30
0.0
 11
-523.80000000001655
 21
-376.29999999999882
 31
0.0
  0
LINE
  8
NOTE
  6
CONTINUOUS
 62
     4
 10
-523.80000000001655
 20
-376.29999999999882
 30
0.0
 11
-526.53784877265377
 21
-412.43109128106408
 31
0.0
  0
LINE
  8
NOTE
  6
CONTINUOUS
 62
     4
 10
-523.80000000001655
 20
-376.29999999999882
 30
0.0
 11
-546.97448609203195
 21
-442.35257901377378
 31
0.0
  0
LINE
  8
NOTE
  6
CONTINUOUS
 62
     4
 10
-546.97448609203195
 20
-442.35257901377378
 30
0.0
 11
-622.32114727960561
 21
-657.10777452298817
 31
0.0
  0
LINE
  8
NOTE
  6
CONTINUOUS
 62
     4
 10
-622.32114727960561
 20
-657.10777452298817
 30
0.0
 11
-632.32114727960561
 21
-657.10777452298817
 31
0.0
  0
TEXT
  8
NOTE
  6
CONTINUOUS
 62
     4
 10
602.00887788309183
 20
887.00919312465589
 30
0.0
 40
69.0
  1
Ceiling suspension fixture
 50
0.0
 41
0.9
 51
0.0
  7
STANDARD
 71
     0
 11
0.0
 21
0.0
 31
0.0
210
0.0
220
0.0
230
1.0
  0
TEXT
  8
NOTE
  6
CONTINUOUS
 62
     4
 10
602.00887788309183
 20
773.15919312465587
 30
0.0
 40
69.0
  1
(4-13X20 oval)
 50
0.0
 41
0.9
 51
0.0
  7
STANDARD
 71
     0
 11
0.0
 21
0.0
 31
0.0
210
0.0
220
0.0
230
1.0
  0
LINE
  8
NOTE
  6
CONTINUOUS
 62
     4
 10
592.00887788309183
 20
735.86633598179856
 30
0.0
 11
1808.5231635973771
 21
735.86633598179856
 31
0.0
  0
LINE
  8
NOTE
  6
CONTINUOUS
 62
     4
 10
482.38655508969941
 20
466.3778500287446
 30
0.0
 11
460.5000048913821
 21
437.49999530442278
 31
0.0
  0
LINE
  8
NOTE
  6
CONTINUOUS
 62
     4
 10
460.5000048913821
 20
437.49999530442278
 30
0.0
 11
465.01533182417302
 21
473.45223300602504
 31
0.0
  0
LINE
  8
NOTE
  6
CONTINUOUS
 62
     4
 10
460.5000048913821
 20
437.49999530442278
 30
0.0
 11
486.90188202249033
 21
502.33008773034692
 31
0.0
  0
LINE
  8
NOTE
  6
CONTINUOUS
 62
     4
 10
486.90188202249021
 20
502.33008773034692
 30
0.0
 11
582.00887788309183
 21
735.86633598179856
 31
0.0
  0
LINE
  8
NOTE
  6
CONTINUOUS
 62
     4
 10
582.00887788309183
 20
735.86633598179856
 30
0.0
 11
592.00887788309183
 21
735.86633598179856
 31
0.0
  0
ENDSEC
  0
EOF
