  0
SECTION
  2
HEADER
  9
$ACADVER
  1
AC1009
  9
$DWGCODEPAGE
  3
dos932
  9
$INSBASE
 10
0.0
 20
0.0
 30
0.0
  9
$EXTMIN
 10
-900.93382165177536
 20
-566.52830874841675
 30
-0.0015258207003583
  9
$EXTMAX
 10
1819.541943643173
 20
772.88819182767475
 30
0.0000000349246037
  9
$LIMMIN
 10
-2970.0
 20
-2100.0
  9
$LIMMAX
 10
2970.0
 20
2100.0
  9
$ORTHOMODE
 70
     1
  9
$REGENMODE
 70
     1
  9
$FILLMODE
 70
     1
  9
$QTEXTMODE
 70
     0
  9
$MIRRTEXT
 70
     0
  9
$LTSCALE
 40
20.0
  9
$ATTMODE
 70
     1
  9
$TEXTSIZE
 40
64.0
  9
$TRACEWID
 40
0.05
  9
$TEXTSTYLE
  7
STANDARD
  9
$CLAYER
  8
SIZE
  9
$CELTYPE
  6
CONTINUOUS
  9
$CECOLOR
 62
     7
  9
$DIMSCALE
 40
1.0
  9
$DIMASZ
 40
12.0
  9
$DIMEXO
 40
20.0
  9
$DIMDLI
 40
200.0
  9
$DIMRND
 40
0.0
  9
$DIMDLE
 40
0.0
  9
$DIMEXE
 40
20.0
  9
$DIMTP
 40
0.0
  9
$DIMTM
 40
0.0
  9
$DIMTXT
 40
64.0
  9
$DIMCEN
 40
0.09
  9
$DIMTSZ
 40
0.0
  9
$DIMTOL
 70
     0
  9
$DIMLIM
 70
     0
  9
$DIMTIH
 70
     0
  9
$DIMTOH
 70
     0
  9
$DIMSE1
 70
     0
  9
$DIMSE2
 70
     0
  9
$DIMTAD
 70
     1
  9
$DIMZIN
 70
     8
  9
$DIMBLK
  1

  9
$DIMASO
 70
     1
  9
$DIMSHO
 70
     0
  9
$DIMPOST
  1

  9
$DIMAPOST
  1

  9
$DIMALT
 70
     0
  9
$DIMALTD
 70
     2
  9
$DIMALTF
 40
25.399999999999999
  9
$DIMLFAC
 40
1.0
  9
$DIMTOFL
 70
     1
  9
$DIMTVP
 40
0.0
  9
$DIMTIX
 70
     1
  9
$DIMSOXD
 70
     0
  9
$DIMSAH
 70
     0
  9
$DIMBLK1
  1

  9
$DIMBLK2
  1

  9
$DIMSTYLE
  2
STANDARD
  9
$DIMCLRD
 70
     7
  9
$DIMCLRE
 70
     7
  9
$DIMCLRT
 70
     7
  9
$DIMTFAC
 40
1.0
  9
$DIMGAP
 40
25.0
  9
$LUNITS
 70
     2
  9
$LUPREC
 70
     4
  9
$SKETCHINC
 40
0.1
  9
$FILLETRAD
 40
3.0
  9
$AUNITS
 70
     1
  9
$AUPREC
 70
     3
  9
$MENU
  1
ACAD
  9
$ELEVATION
 40
0.0
  9
$PELEVATION
 40
0.0
  9
$THICKNESS
 40
0.0
  9
$LIMCHECK
 70
     0
  9
$CHAMFERA
 40
0.0
  9
$CHAMFERB
 40
0.0
  9
$SKPOLY
 70
     0
  9
$TDCREATE
 40
2453019.62301037
  9
$TDUPDATE
 40
2460045.428194109
  9
$TDINDWG
 40
1.7151085764
  9
$TDUSRTIMER
 40
1.7151085764
  9
$USRTIMER
 70
     1
  9
$ANGBASE
 50
0.0
  9
$ANGDIR
 70
     0
  9
$PDMODE
 70
     3
  9
$PDSIZE
 40
-2.0
  9
$PLINEWID
 40
0.0
  9
$SPLFRAME
 70
     0
  9
$SPLINETYPE
 70
     6
  9
$SPLINESEGS
 70
     8
  9
$SURFTAB1
 70
     6
  9
$SURFTAB2
 70
     6
  9
$SURFTYPE
 70
     6
  9
$SURFU
 70
     6
  9
$SURFV
 70
     6
  9
$UCSNAME
  2

  9
$UCSORG
 10
0.0
 20
0.0
 30
0.0
  9
$UCSXDIR
 10
1.0
 20
0.0
 30
0.0
  9
$UCSYDIR
 10
0.0
 20
1.0
 30
0.0
  9
$PUCSNAME
  2

  9
$PUCSORG
 10
0.0
 20
0.0
 30
0.0
  9
$PUCSXDIR
 10
1.0
 20
0.0
 30
0.0
  9
$PUCSYDIR
 10
0.0
 20
1.0
 30
0.0
  9
$USERI1
 70
     0
  9
$USERI2
 70
     0
  9
$USERI3
 70
     0
  9
$USERI4
 70
     0
  9
$USERI5
 70
     0
  9
$USERR1
 40
20.0
  9
$USERR2
 40
0.0
  9
$USERR3
 40
0.0
  9
$USERR4
 40
0.0
  9
$USERR5
 40
0.0
  9
$WORLDVIEW
 70
     1
  9
$SHADEDGE
 70
     3
  9
$SHADEDIF
 70
    70
  9
$TILEMODE
 70
     1
  9
$MAXACTVP
 70
    48
  9
$PINSBASE
 10
0.0
 20
0.0
 30
0.0
  9
$PLIMCHECK
 70
     0
  9
$PEXTMIN
 10
-100000000000000000000.0
 20
-100000000000000000000.0
 30
-100000000000000000000.0
  9
$PEXTMAX
 10
100000000000000000000.0
 20
100000000000000000000.0
 30
100000000000000000000.0
  9
$PLIMMIN
 10
0.0
 20
0.0
  9
$PLIMMAX
 10
12.0
 20
9.0
  9
$UNITMODE
 70
     0
  9
$VISRETAIN
 70
     0
  9
$PLINEGEN
 70
     0
  9
$PSLTSCALE
 70
     0
  9
$TREEDEPTH
 70
  3020
  9
$ATTDIA
 70
     0
  9
$ATTREQ
 70
     1
  9
$BLIPMODE
 70
     1
  9
$COORDS
 70
     1
  9
$DRAGMODE
 70
     2
  9
$OSMODE
 70
     0
  9
$HANDLING
 70
     0
  9
$HANDSEED
  5
FBDB
  0
ENDSEC
  0
SECTION
  2
TABLES
  0
TABLE
  2
LTYPE
 70
     3
  0
LTYPE
  2
CONTINUOUS
 70
     0
  3
実線
 72
    65
 73
     0
 40
0.0
  0
LTYPE
  2
DASHDOT
 70
     0
  3
____ _ ____ _ ____ _ ____ _ ____ _ ____ _ ____
 72
    65
 73
     4
 40
5.5
 49
4.0
 49
-0.6
 49
0.3
 49
-0.6
  0
LTYPE
  2
DASHED
 70
     0
  3
-- -- -- -- -- -- -- -- -- -- -- -- -- -- --
 72
    65
 73
     2
 40
0.75
 49
0.5
 49
-0.25
  0
ENDTAB
  0
TABLE
  2
LAYER
 70
    12
  0
LAYER
  2
0
 70
     0
 62
     7
  6
CONTINUOUS
  0
LAYER
  2
BASIS
 70
     0
 62
     6
  6
DASHDOT
  0
LAYER
  2
OUTLINE
 70
     0
 62
     3
  6
CONTINUOUS
  0
LAYER
  2
DETAIL
 70
     0
 62
     5
  6
CONTINUOUS
  0
LAYER
  2
SIZE
 70
     0
 62
    30
  6
CONTINUOUS
  0
LAYER
  2
ARRANGE
 70
     0
 62
     1
  6
CONTINUOUS
  0
LAYER
  2
DEFPOINTS
 70
     0
 62
     7
  6
CONTINUOUS
  0
LAYER
  2
ETC
 70
     0
 62
    61
  6
CONTINUOUS
  0
LAYER
  2
FIX
 70
     0
 62
    11
  6
CONTINUOUS
  0
LAYER
  2
NOTE
 70
     0
 62
     4
  6
CONTINUOUS
  0
LAYER
  2
SERVICESPACE
 70
    64
 62
     2
  6
DASHDOT
  0
LAYER
  2
SYMBOLLINE
 70
    64
 62
    15
  6
CONTINUOUS
  0
ENDTAB
  0
TABLE
  2
STYLE
 70
     1
  0
STYLE
  2
STANDARD
 70
     0
 40
64.0
 41
0.9
 50
0.0
 71
     0
 42
64.0
  3
SIMPLEX.shx
  4
BIGFONT.shx
  0
ENDTAB
  0
TABLE
  2
APPID
 70
    19
  0
APPID
  2
ACAD
 70
     0
  0
APPID
  2
AUTOCAD_POSTSCRIPT_FIGURE
 70
     0
  0
APPID
  2
ACAD_EXEMPT_FROM_CAD_STANDARDS
 70
     0
  0
APPID
  2
ACAD_PSEXT
 70
     0
  0
APPID
  2
ACAUTHENVIRON
 70
     0
  0
APPID
  2
GENIUS_GENOENT_13
 70
     0
  0
APPID
  2
GENIUS_GENCFG_13
 70
     0
  0
APPID
  2
GENIUS_GENCFG0_13
 70
     0
  0
APPID
  2
GENIUS_GENCFG1_13
 70
     0
  0
APPID
  2
GENIUS_GENCFG2_13
 70
     0
  0
APPID
  2
GENIUS_GENCFG3_13
 70
     0
  0
APPID
  2
GENIUS_GENCFG4_13
 70
     0
  0
APPID
  2
GENIUS_GEVCFG0_13
 70
     0
  0
APPID
  2
CONTENTBLOCKICON
 70
     0
  0
APPID
  2
CONTENTBLOCKDESCRIPTION
 70
     0
  0
APPID
  2
ACAD_NAV_VCDISPLAY
 70
     0
  0
APPID
  2
ACAD_MLEADERVER
 70
     0
  0
APPID
  2
ACDBDYNAMICBLOCKTRUENAME
 70
     0
  0
APPID
  2
ACDBDYNAMICBLOCKGUID
 70
     0
  0
ENDTAB
  0
TABLE
  2
DIMSTYLE
 70
     1
  0
DIMSTYLE
  2
STANDARD
 70
     0
  3

  4

  5
_ORIGIN
  6

  7

 40
1.0
 41
12.0
 42
20.0
 43
200.0
 44
20.0
 45
0.0
 46
0.0
 47
0.0
 48
0.0
140
64.0
141
0.09
142
0.0
143
25.399999999999999
144
1.0
145
0.0
146
1.0
147
25.0
 71
     0
 72
     0
 73
     0
 74
     0
 75
     0
 76
     0
 77
     1
 78
     8
170
     0
171
     2
172
     1
173
     0
174
     1
175
     0
176
     7
177
     7
178
     7
  0
ENDTAB
  0
TABLE
  2
VIEW
 70
     1
  0
VIEW
  2
ALL
 70
     0
 40
4282.6198079999986
 10
0.0
 20
41.309904000000003
 41
5940.0
 11
0.0
 21
0.0
 31
1.0
 12
0.0
 22
0.0
 32
0.0
 42
50.0
 43
0.0
 44
0.0
 50
0.0
 71
     0
  0
ENDTAB
  0
TABLE
  2
UCS
 70
     0
  0
ENDTAB
  0
TABLE
  2
VPORT
 70
     1
  0
VPORT
  2
*ACTIVE
 70
     0
 10
0.0
 20
0.0
 11
1.0
 21
1.0
 12
459.30406099569882
 22
103.179941539629
 13
0.0
 23
0.0
 14
1.0
 24
1.0
 15
0.0
 25
0.0
 16
0.0
 26
0.0
 36
1.0
 17
0.0
 27
0.0
 37
0.0
 40
1533.047601978913
 41
1.781285231116122
 42
50.0
 43
0.0
 44
0.0
 50
0.0
 51
0.0
 71
     0
 72
  1000
 73
     1
 74
     3
 75
     0
 76
     0
 77
     0
 78
     0
  0
ENDTAB
  0
ENDSEC
  0
SECTION
  2
BLOCKS
  0
BLOCK
  8
0
  2
_ORIGIN
 70
     0
 10
0.0
 20
0.0
 30
0.0
  3
_ORIGIN
  1
_ORIGIN
  0
CIRCLE
  8
0
  6
CONTINUOUS
 62
     7
 10
0.0
 20
0.0
 30
0.0
 40
0.5
  0
LINE
  8
0
  6
CONTINUOUS
 62
     7
 10
0.0
 20
0.0
 30
0.0
 11
-1.0
 21
0.0
 31
0.0
  0
ENDBLK
  8
0
  0
ENDSEC
  0
SECTION
  2
ENTITIES
  0
LINE
  8
DETAIL
  6
CONTINUOUS
 62
     5
 10
-507.99999999999591
 20
-291.49987104399821
 30
0.0
 11
-507.99999999999591
 21
-149.50012895599869
 31
0.0
  0
LINE
  8
DETAIL
  6
CONTINUOUS
 62
     5
 10
-500.00000000000318
 20
-291.50009999999838
 30
0.0
 11
-500.00000000000318
 21
-149.49989999999889
 31
0.0
  0
LINE
  8
DETAIL
  6
CONTINUOUS
 62
     5
 10
-456.09999999999582
 20
-129.99999999999639
 30
0.0
 11
-456.09999999999582
 21
-84.999999999999091
 31
0.0
  0
LINE
  8
DETAIL
  6
CONTINUOUS
 62
     5
 10
-445.60000000000309
 20
-300.49999999999909
 30
0.0
 11
-445.60000000000309
 21
-140.49999999999821
 31
0.0
  0
LINE
  8
DETAIL
  6
CONTINUOUS
 62
     5
 10
-444.10000000000309
 20
-91.999999999995907
 30
0.0
 11
-444.10000000000309
 21
-84.999999999999091
 31
0.0
  0
LINE
  8
DETAIL
  6
CONTINUOUS
 62
     5
 10
-442.60000000000309
 20
-330.04999999999518
 30
0.0
 11
-442.60000000000309
 21
-329.549999999997
 31
0.0
  0
LINE
  8
DETAIL
  6
CONTINUOUS
 62
     5
 10
-442.60000000000309
 20
-1.1499999999969079
 30
0.0
 11
-442.60000000000309
 21
-0.6499999999987267
 31
0.0
  0
LINE
  8
DETAIL
  6
CONTINUOUS
 62
     5
 10
-438.20000000000158
 20
-310.44999999733142
 30
0.0
 11
-438.20000000000158
 21
-134.9999999999977
 31
0.0
  0
LINE
  8
DETAIL
  6
CONTINUOUS
 62
     5
 10
-438.10000000000309
 20
-109.29999999999841
 30
0.0
 11
-438.10000000000309
 21
-113.9999999999964
 31
0.0
  0
LINE
  8
DETAIL
  6
CONTINUOUS
 62
     5
 10
-437.60000000000309
 20
-329.04999999999927
 30
0.0
 11
-437.60000000000309
 21
-107.9999999999955
 31
0.0
  0
LINE
  8
DETAIL
  6
CONTINUOUS
 62
     5
 10
-437.60000000000309
 20
-84.999999999999091
 30
0.0
 11
-437.60000000000309
 21
-1.649999999995089
 31
0.0
  0
LINE
  8
DETAIL
  6
CONTINUOUS
 62
     5
 10
-437.10000000000309
 20
-1.649999999995089
 30
0.0
 11
-437.10000000000309
 21
-2.6499999999978172
 31
0.0
  0
LINE
  8
DETAIL
  6
CONTINUOUS
 62
     5
 10
-437.10000000000309
 20
-329.04999999999927
 30
0.0
 11
-437.10000000000309
 21
-328.04999999999609
 31
0.0
  0
LINE
  8
DETAIL
  6
CONTINUOUS
 62
     5
 10
-435.60000000000309
 20
-330.04999999999518
 30
0.0
 11
-435.60000000000309
 21
-328.04999999999609
 31
0.0
  0
LINE
  8
DETAIL
  6
CONTINUOUS
 62
     5
 10
-435.60000000000309
 20
-2.6499999999978172
 30
0.0
 11
-435.60000000000309
 21
-0.6499999999987267
 31
0.0
  0
LINE
  8
DETAIL
  6
CONTINUOUS
 62
     5
 10
-435.49999999999733
 20
-0.6499999999987267
 30
0.0
 11
-435.49999999999733
 21
0.0
 31
0.0
  0
LINE
  8
DETAIL
  6
CONTINUOUS
 62
     5
 10
-435.09999999999582
 20
-330.04999999999518
 30
0.0
 11
-435.09999999999582
 21
-330.99999999999409
 31
0.0
  0
LINE
  8
DETAIL
  6
CONTINUOUS
 62
     5
 10
-431.10000000000309
 20
-81.199999999995725
 30
0.0
 11
-431.10000000000309
 21
-88.199999999996635
 31
0.0
  0
LINE
  8
DETAIL
  6
CONTINUOUS
 62
     5
 10
-437.06006823866937
 20
-0.9564221293276205
 30
0.0
 11
-436.91189937333269
 21
-2.6499999999978172
 31
0.0
  0
LINE
  8
DETAIL
  6
CONTINUOUS
 62
     5
 10
-436.56197088933999
 20
-0.9128442573282882
 30
0.0
 11
-436.40998945467157
 21
-2.6499999999978172
 31
0.0
  0
LINE
  8
DETAIL
  6
CONTINUOUS
 62
     5
 10
-412.60000000000309
 20
-102.9999999999982
 30
0.0
 11
-412.60000000000309
 21
-81.199999999995725
 31
0.0
  0
LINE
  8
DETAIL
  6
CONTINUOUS
 62
     5
 10
-406.30000000000018
 20
-175.49999999999909
 30
0.0
 11
-406.30000000000018
 21
-265.49999999999682
 31
0.0
  0
LINE
  8
DETAIL
  6
CONTINUOUS
 62
     5
 10
-436.91189937333269
 20
-328.04999999999609
 30
0.0
 11
-437.03610918133649
 21
-329.46972459466218
 31
0.0
  0
LINE
  8
DETAIL
  6
CONTINUOUS
 62
     5
 10
-436.10884350399738
 20
-328.04999999999609
 30
0.0
 11
-436.23915342266719
 21
-329.53944918932888
 31
0.0
  0
LINE
  8
DETAIL
  6
CONTINUOUS
 62
     5
 10
-406.30000000000018
 20
-265.49999999999682
 30
0.0
 11
-365.30000000000018
 21
-306.49999999999591
 31
0.0
  0
LINE
  8
DETAIL
  6
CONTINUOUS
 62
     5
 10
-365.30000000000018
 20
-134.49999999999679
 30
0.0
 11
-406.30000000000018
 21
-175.49999999999909
 31
0.0
  0
LINE
  8
DETAIL
  6
CONTINUOUS
 62
     5
 10
-234.30000000000021
 20
-265.49999999999682
 30
0.0
 11
-234.30000000000021
 21
-175.49999999999909
 31
0.0
  0
LINE
  8
DETAIL
  6
CONTINUOUS
 62
     5
 10
-186.13397459600401
 20
-172.99999999999551
 30
0.0
 11
-186.13397459600401
 21
-185.39999999999779
 31
0.0
  0
LINE
  8
DETAIL
  6
CONTINUOUS
 62
     5
 10
-186.13397459600401
 20
-157.999999999995
 30
0.0
 11
-186.13397459600401
 21
-145.5999999999967
 31
0.0
  0
LINE
  8
DETAIL
  6
CONTINUOUS
 62
     5
 10
-182.77696574000311
 20
-172.99999999999551
 30
0.0
 11
-182.77696574000311
 21
-185.39999999999779
 31
0.0
  0
LINE
  8
DETAIL
  6
CONTINUOUS
 62
     5
 10
-182.77696574000311
 20
-157.999999999995
 30
0.0
 11
-182.77696574000311
 21
-145.5999999999967
 31
0.0
  0
LINE
  8
DETAIL
  6
CONTINUOUS
 62
     5
 10
-179.22303425999871
 20
-172.99999999999551
 30
0.0
 11
-179.22303425999871
 21
-185.39999999999779
 31
0.0
  0
LINE
  8
DETAIL
  6
CONTINUOUS
 62
     5
 10
-179.22303425999871
 20
-157.999999999995
 30
0.0
 11
-179.22303425999871
 21
-145.5999999999967
 31
0.0
  0
LINE
  8
DETAIL
  6
CONTINUOUS
 62
     5
 10
-179.10000000000309
 20
-200.62995170266231
 30
0.0
 11
-179.10000000000309
 21
-194.97004829866179
 31
0.0
  0
LINE
  8
DETAIL
  6
CONTINUOUS
 62
     5
 10
-176.20000000000161
 20
-201.79999999999751
 30
0.0
 11
-176.20000000000161
 21
-193.7999999999943
 31
0.0
  0
LINE
  8
DETAIL
  6
CONTINUOUS
 62
     5
 10
-175.86602540399781
 20
-172.99999999999551
 30
0.0
 11
-175.86602540399781
 21
-185.39999999999779
 31
0.0
  0
LINE
  8
DETAIL
  6
CONTINUOUS
 62
     5
 10
-175.86602540399781
 20
-157.999999999995
 30
0.0
 11
-175.86602540399781
 21
-145.5999999999967
 31
0.0
  0
LINE
  8
DETAIL
  6
CONTINUOUS
 62
     5
 10
-175.400000000006
 20
-5.4499999999984539
 30
0.0
 11
-175.400000000006
 21
-140.6999993719937
 31
0.0
  0
LINE
  8
DETAIL
  6
CONTINUOUS
 62
     5
 10
-175.400000000006
 20
-142.89999937199539
 30
0.0
 11
-175.400000000006
 21
-188.0999993719943
 31
0.0
  0
LINE
  8
DETAIL
  6
CONTINUOUS
 62
     5
 10
-175.400000000006
 20
-190.29999937199551
 30
0.0
 11
-175.400000000006
 21
-325.54999999999927
 31
0.0
  0
LINE
  8
DETAIL
  6
CONTINUOUS
 62
     5
 10
-174.20000000000161
 20
-4.2499999999972724
 30
0.0
 11
-174.20000000000161
 21
-140.6999993719937
 31
0.0
  0
LINE
  8
DETAIL
  6
CONTINUOUS
 62
     5
 10
-174.20000000000161
 20
-142.89999937199539
 30
0.0
 11
-174.20000000000161
 21
-188.0999993719943
 31
0.0
  0
LINE
  8
DETAIL
  6
CONTINUOUS
 62
     5
 10
-174.20000000000161
 20
-326.74999999999733
 30
0.0
 11
-174.20000000000161
 21
-190.29999937199551
 31
0.0
  0
LINE
  8
DETAIL
  6
CONTINUOUS
 62
     5
 10
-431.32999999998577
 20
-330.99999999999409
 30
0.0
 11
-429.07999999998452
 21
-328.74999999997948
 31
0.0
  0
LINE
  8
DETAIL
  6
CONTINUOUS
 62
     5
 10
445.59999999999582
 20
-300.49999999999858
 30
0.0
 11
499.99999999999551
 21
-291.49999999999591
 31
0.0
  0
LINE
  8
DETAIL
  6
CONTINUOUS
 62
     5
 10
-445.60000000000309
 20
-300.49999999999909
 30
0.0
 11
-500.00000000000318
 21
-291.50009999999838
 31
0.0
  0
LINE
  8
DETAIL
  6
CONTINUOUS
 62
     5
 10
-431.39999999999191
 20
0.0
 30
0.0
 11
-429.74999999999
 21
-1.6500000000096411
 31
0.0
  0
LINE
  8
DETAIL
  6
CONTINUOUS
 62
     5
 10
-173.19999999999439
 20
-177.79999999999839
 30
0.0
 11
-173.19999999999439
 21
-188.0999993719943
 31
0.0
  0
LINE
  8
DETAIL
  6
CONTINUOUS
 62
     5
 10
-173.19999999999439
 20
-190.29999937199551
 30
0.0
 11
-173.19999999999439
 21
-191.79999999999879
 31
0.0
  0
LINE
  8
DETAIL
  6
CONTINUOUS
 62
     5
 10
-173.19999999999439
 20
-217.79999999999751
 30
0.0
 11
-173.19999999999439
 21
-209.59999999999579
 31
0.0
  0
LINE
  8
DETAIL
  6
CONTINUOUS
 62
     5
 10
-172.20000000000161
 20
-209.59999999999579
 30
0.0
 11
-172.20000000000161
 21
-211.59999999999491
 31
0.0
  0
LINE
  8
DETAIL
  6
CONTINUOUS
 62
     5
 10
-172.20000000000161
 20
-191.79999999999879
 30
0.0
 11
-172.20000000000161
 21
-180.799999999997
 31
0.0
  0
LINE
  8
DETAIL
  6
CONTINUOUS
 62
     5
 10
-166.20000000000161
 20
-211.59999999999491
 30
0.0
 11
-166.20000000000161
 21
-214.79999999999521
 31
0.0
  0
LINE
  8
DETAIL
  6
CONTINUOUS
 62
     5
 10
-159.20000000000161
 20
-180.799999999997
 30
0.0
 11
-159.20000000000161
 21
-211.59999999999491
 31
0.0
  0
LINE
  8
DETAIL
  6
CONTINUOUS
 62
     5
 10
-139.31284095333561
 20
-145.69999937199509
 30
0.0
 11
-139.31284095333561
 21
-185.29998889332731
 31
0.0
  0
LINE
  8
DETAIL
  6
CONTINUOUS
 62
     5
 10
443.24999999999733
 20
-330.99999999999409
 30
0.0
 11
437.83306493866712
 21
-330.99999999999409
 31
0.0
  0
LINE
  8
DETAIL
  6
CONTINUOUS
 62
     5
 10
-443.24999999999733
 20
-330.99999999999409
 30
0.0
 11
-437.83306493866712
 21
-330.99999999999409
 31
0.0
  0
LINE
  8
DETAIL
  6
CONTINUOUS
 62
     5
 10
-435.09999999999582
 20
-330.99999999999409
 30
0.0
 11
435.09999999999582
 21
-330.99999999999409
 31
0.0
  0
LINE
  8
DETAIL
  6
CONTINUOUS
 62
     5
 10
443.24999999999733
 20
-330.19999999999658
 30
0.0
 11
437.83306493866712
 21
-330.19999999999658
 31
0.0
  0
LINE
  8
DETAIL
  6
CONTINUOUS
 62
     5
 10
-443.24999999999733
 20
-330.19999999999658
 30
0.0
 11
-437.83306493866712
 21
-330.19999999999658
 31
0.0
  0
LINE
  8
DETAIL
  6
CONTINUOUS
 62
     5
 10
-430.37999999999238
 20
-330.04999999999518
 30
0.0
 11
-435.60000000000309
 21
-330.04999999999518
 31
0.0
  0
LINE
  8
DETAIL
  6
CONTINUOUS
 62
     5
 10
-438.10000000000309
 20
-330.04999999999518
 30
0.0
 11
-442.60000000000309
 21
-330.04999999999518
 31
0.0
  0
LINE
  8
DETAIL
  6
CONTINUOUS
 62
     5
 10
430.37999999999278
 20
-330.04999999999518
 30
0.0
 11
435.60000000000309
 21
-330.04999999999518
 31
0.0
  0
LINE
  8
DETAIL
  6
CONTINUOUS
 62
     5
 10
438.09999999999582
 20
-330.04999999999518
 30
0.0
 11
442.59999999999582
 21
-330.04999999999518
 31
0.0
  0
LINE
  8
DETAIL
  6
CONTINUOUS
 62
     5
 10
438.09999999999582
 20
-329.549999999997
 30
0.0
 11
443.17499999999291
 21
-329.54999999999973
 31
0.0
  0
LINE
  8
DETAIL
  6
CONTINUOUS
 62
     5
 10
-437.60000000000309
 20
-328.04999999999609
 30
0.0
 11
-435.60000000000309
 21
-328.04999999999609
 31
0.0
  0
LINE
  8
DETAIL
  6
CONTINUOUS
 62
     5
 10
435.60000000000309
 20
-328.04999999999609
 30
0.0
 11
437.59999999999582
 21
-328.04999999999609
 31
0.0
  0
LINE
  8
DETAIL
  6
CONTINUOUS
 62
     5
 10
174.20000000000161
 20
-326.74999999999733
 30
0.0
 11
-174.20000000000161
 21
-326.74999999999733
 31
0.0
  0
LINE
  8
DETAIL
  6
CONTINUOUS
 62
     5
 10
175.3999999999987
 20
-325.54999999999927
 30
0.0
 11
-175.400000000006
 21
-325.54999999999927
 31
0.0
  0
LINE
  8
DETAIL
  6
CONTINUOUS
 62
     5
 10
200.09999999999849
 20
-316.09999999999758
 30
0.0
 11
211.5
 21
-316.09999999999758
 31
0.0
  0
LINE
  8
DETAIL
  6
CONTINUOUS
 62
     5
 10
200.09999999999849
 20
-315.49999999999449
 30
0.0
 11
369.29999999999558
 21
-315.49999999999449
 31
0.0
  0
LINE
  8
DETAIL
  6
CONTINUOUS
 62
     5
 10
197.79999999999291
 20
-314.89999999999958
 30
0.0
 11
208.5
 21
-314.89999999999958
 31
0.0
  0
LINE
  8
DETAIL
  6
CONTINUOUS
 62
     5
 10
371.69999999999709
 20
-314.14999999999549
 30
0.0
 11
369.29999999999558
 21
-314.14999999999549
 31
0.0
  0
LINE
  8
DETAIL
  6
CONTINUOUS
 62
     5
 10
373.30000000000291
 20
-312.54999999999649
 30
0.0
 11
388.29999999999558
 21
-312.549999999997
 31
0.0
  0
LINE
  8
DETAIL
  6
CONTINUOUS
 62
     5
 10
438.19999999999442
 20
-310.54999999999791
 30
0.0
 11
437.59999999999582
 21
-310.54999999999791
 31
0.0
  0
LINE
  8
DETAIL
  6
CONTINUOUS
 62
     5
 10
-438.20000000000158
 20
-310.449999999998
 30
0.0
 11
-437.60000000000309
 21
-310.449999999998
 31
0.0
  0
LINE
  8
DETAIL
  6
CONTINUOUS
 62
     5
 10
-365.30000000000018
 20
-306.49999999999591
 30
0.0
 11
-275.30000000000018
 21
-306.49999999999591
 31
0.0
  0
LINE
  8
DETAIL
  6
CONTINUOUS
 62
     5
 10
-234.30000000000021
 20
-175.49999999999909
 30
0.0
 11
-275.30000000000018
 21
-134.49999999999679
 31
0.0
  0
LINE
  8
DETAIL
  6
CONTINUOUS
 62
     5
 10
-137.11284095333849
 20
-145.69999937199509
 30
0.0
 11
-137.11284095333849
 21
-185.29998889332731
 31
0.0
  0
LINE
  8
DETAIL
  6
CONTINUOUS
 62
     5
 10
-438.80000000000751
 20
-300.49999999999909
 30
0.0
 11
-445.60000000000309
 21
-300.49999999999909
 31
0.0
  0
LINE
  8
DETAIL
  6
CONTINUOUS
 62
     5
 10
438.79999999999291
 20
-300.49999999999773
 30
0.0
 11
445.59999999999582
 21
-300.49999999999858
 31
0.0
  0
LINE
  8
DETAIL
  6
CONTINUOUS
 62
     5
 10
-500.00000000000318
 20
-291.50009999999838
 30
0.0
 11
-507.99999999999591
 21
-291.50009999999838
 31
0.0
  0
LINE
  8
DETAIL
  6
CONTINUOUS
 62
     5
 10
499.99999999999551
 20
-291.49999999999591
 30
0.0
 11
507.99999999999551
 21
-291.49999999999591
 31
0.0
  0
LINE
  8
DETAIL
  6
CONTINUOUS
 62
     5
 10
173.93068047599539
 20
-284.94999999999658
 30
0.0
 11
172.72014353066061
 21
-284.94999999999658
 31
0.0
  0
LINE
  8
DETAIL
  6
CONTINUOUS
 62
     5
 10
174.20000000000161
 20
-282.949999999998
 30
0.0
 11
173.06747271599761
 21
-282.949999999998
 31
0.0
  0
LINE
  8
DETAIL
  6
CONTINUOUS
 62
     5
 10
175.3999999999987
 20
-282.949999999998
 30
0.0
 11
192.80000000000021
 21
-282.949999999998
 31
0.0
  0
LINE
  8
DETAIL
  6
CONTINUOUS
 62
     5
 10
-275.30000000000018
 20
-306.49999999999591
 30
0.0
 11
-234.30000000000021
 21
-265.49999999999682
 31
0.0
  0
LINE
  8
DETAIL
  6
CONTINUOUS
 62
     5
 10
368.29999999999558
 20
-263.54999999999558
 30
0.0
 11
368.09999999999849
 21
-263.54999999999558
 31
0.0
  0
LINE
  8
DETAIL
  6
CONTINUOUS
 62
     5
 10
368.29999999999558
 20
-248.5499999999947
 30
0.0
 11
368.09999999999849
 21
-248.5499999999947
 31
0.0
  0
LINE
  8
DETAIL
  6
CONTINUOUS
 62
     5
 10
174.20000000000161
 20
-236.94999999999439
 30
0.0
 11
173.06747271599761
 21
-236.94999999999439
 31
0.0
  0
LINE
  8
DETAIL
  6
CONTINUOUS
 62
     5
 10
175.3999999999987
 20
-236.94999999999439
 30
0.0
 11
192.80000000000021
 21
-236.94999999999439
 31
0.0
  0
LINE
  8
DETAIL
  6
CONTINUOUS
 62
     5
 10
173.93068047599539
 20
-234.94999999999851
 30
0.0
 11
172.72014353066061
 21
-234.94999999999851
 31
0.0
  0
LINE
  8
DETAIL
  6
CONTINUOUS
 62
     5
 10
388.29999999999558
 20
-230.54999999999609
 30
0.0
 11
380.5
 21
-230.54999999999609
 31
0.0
  0
LINE
  8
DETAIL
  6
CONTINUOUS
 62
     5
 10
-174.20000000000161
 20
-217.79999999999751
 30
0.0
 11
-169.20000000000161
 21
-217.79999999999751
 31
0.0
  0
LINE
  8
DETAIL
  6
CONTINUOUS
 62
     5
 10
-159.20000000000161
 20
-211.59999999999491
 30
0.0
 11
-172.20000000000161
 21
-211.59999999999491
 31
0.0
  0
LINE
  8
DETAIL
  6
CONTINUOUS
 62
     5
 10
-172.20000000000161
 20
-210.59999999999491
 30
0.0
 11
-159.20000000000161
 21
-210.59999999999491
 31
0.0
  0
LINE
  8
DETAIL
  6
CONTINUOUS
 62
     5
 10
-172.20000000000161
 20
-209.59999999999579
 30
0.0
 11
-174.20000000000161
 21
-209.59999999999579
 31
0.0
  0
LINE
  8
DETAIL
  6
CONTINUOUS
 62
     5
 10
-176.20000000000161
 20
-200.299999999997
 30
0.0
 11
-175.400000000006
 21
-200.299999999997
 31
0.0
  0
LINE
  8
DETAIL
  6
CONTINUOUS
 62
     5
 10
-176.20000000000161
 20
-201.79999999999751
 30
0.0
 11
-178.18715574266841
 21
-201.6261463999995
 31
0.0
  0
LINE
  8
BASIS
  6
DASHDOT
 62
     6
 10
0.0
 20
66.446724353338595
 30
0.0
 11
0.0
 21
-397.86666666666451
 31
0.0
  0
LINE
  8
DETAIL
  6
CONTINUOUS
 62
     5
 10
-176.20000000000161
 20
-193.7999999999943
 30
0.0
 11
-178.18715574266841
 21
-193.97385360000001
 31
0.0
  0
LINE
  8
DETAIL
  6
CONTINUOUS
 62
     5
 10
-176.20000000000161
 20
-195.2999999999993
 30
0.0
 11
-175.400000000006
 21
-195.2999999999993
 31
0.0
  0
LINE
  8
DETAIL
  6
CONTINUOUS
 62
     5
 10
-172.20000000000161
 20
-191.79999999999879
 30
0.0
 11
-174.20000000000161
 21
-191.79999999999879
 31
0.0
  0
LINE
  8
DETAIL
  6
CONTINUOUS
 62
     5
 10
-141.80280433867031
 20
-190.29999937199551
 30
0.0
 11
-159.20000000000161
 21
-190.29999937199551
 31
0.0
  0
LINE
  8
DETAIL
  6
CONTINUOUS
 62
     5
 10
-172.20000000000161
 20
-190.29999937199551
 30
0.0
 11
-180.52471029467139
 21
-190.29999937199551
 31
0.0
  0
LINE
  8
DETAIL
  6
CONTINUOUS
 62
     5
 10
-141.80280433867031
 20
-188.0999993719943
 30
0.0
 11
-159.20000000000161
 21
-188.0999993719943
 31
0.0
  0
LINE
  8
DETAIL
  6
CONTINUOUS
 62
     5
 10
-172.20000000000161
 20
-188.0999993719943
 30
0.0
 11
-180.52471029467139
 21
-188.0999993719943
 31
0.0
  0
LINE
  8
DETAIL
  6
CONTINUOUS
 62
     5
 10
-186.13397459600401
 20
-185.39999999999779
 30
0.0
 11
-175.86602540399781
 21
-185.39999999999779
 31
0.0
  0
LINE
  8
DETAIL
  6
CONTINUOUS
 62
     5
 10
-162.20000000000161
 20
-177.79999999999839
 30
0.0
 11
-174.20000000000161
 21
-177.79999999999839
 31
0.0
  0
LINE
  8
BASIS
  6
DASHDOT
 62
     6
 10
574.66666666665969
 20
-165.4999999999973
 30
0.0
 11
-574.66666666666742
 21
-165.4999999999973
 31
0.0
  0
LINE
  8
DETAIL
  6
CONTINUOUS
 62
     5
 10
186.80000000000021
 20
-157.54999999999751
 30
0.0
 11
191.79999999999291
 21
-157.54999999999751
 31
0.0
  0
LINE
  8
DETAIL
  6
CONTINUOUS
 62
     5
 10
-500.00000000000318
 20
-149.49989999999889
 30
0.0
 11
-507.99999999999591
 21
-149.49989999999889
 31
0.0
  0
LINE
  8
DETAIL
  6
CONTINUOUS
 62
     5
 10
499.99999999999551
 20
-149.49979999999641
 30
0.0
 11
507.99999999999551
 21
-149.49979999999641
 31
0.0
  0
LINE
  8
DETAIL
  6
CONTINUOUS
 62
     5
 10
-186.13397459600401
 20
-145.5999999999967
 30
0.0
 11
-175.86602540399781
 21
-145.5999999999967
 31
0.0
  0
LINE
  8
DETAIL
  6
CONTINUOUS
 62
     5
 10
-180.52471029467139
 20
-142.89999937199539
 30
0.0
 11
-141.80280433867031
 21
-142.89999937199539
 31
0.0
  0
LINE
  8
DETAIL
  6
CONTINUOUS
 62
     5
 10
-180.52471029467139
 20
-140.6999993719937
 30
0.0
 11
-141.80280433867031
 21
-140.6999993719937
 31
0.0
  0
LINE
  8
DETAIL
  6
CONTINUOUS
 62
     5
 10
-437.60000000000309
 20
-134.9999999999973
 30
0.0
 11
-451.10000000000309
 21
-134.9999999999973
 31
0.0
  0
LINE
  8
DETAIL
  6
CONTINUOUS
 62
     5
 10
437.59999999999582
 20
-134.9999999999973
 30
0.0
 11
451.09999999999582
 21
-134.9999999999973
 31
0.0
  0
LINE
  8
DETAIL
  6
CONTINUOUS
 62
     5
 10
-275.30000000000018
 20
-134.49999999999679
 30
0.0
 11
-365.30000000000018
 21
-134.49999999999679
 31
0.0
  0
LINE
  8
DETAIL
  6
CONTINUOUS
 62
     5
 10
186.80000000000021
 20
-129.54999999999649
 30
0.0
 11
191.79999999999291
 21
-129.54999999999649
 31
0.0
  0
LINE
  8
DETAIL
  6
CONTINUOUS
 62
     5
 10
368.29999999999558
 20
-122.5499999999961
 30
0.0
 11
368.09999999999849
 21
-122.5499999999961
 31
0.0
  0
LINE
  8
DETAIL
  6
CONTINUOUS
 62
     5
 10
383.09999999999849
 20
-120.2155069319961
 30
0.0
 11
381.89999999999418
 21
-120.2155069319961
 31
0.0
  0
LINE
  8
DETAIL
  6
CONTINUOUS
 62
     5
 10
-437.6264151093319
 20
-113.9999999999964
 30
0.0
 11
-441.00000000000449
 21
-113.9999999999964
 31
0.0
  0
LINE
  8
DETAIL
  6
CONTINUOUS
 62
     5
 10
437.6264151093319
 20
-113.9999999999964
 30
0.0
 11
440.99999999999733
 21
-113.9999999999964
 31
0.0
  0
LINE
  8
DETAIL
  6
CONTINUOUS
 62
     5
 10
383.09999999999849
 20
-113.9180763693284
 30
0.0
 11
381.89999999999418
 21
-113.9180763693284
 31
0.0
  0
LINE
  8
DETAIL
  6
CONTINUOUS
 62
     5
 10
-437.60000000000309
 20
-109.29999999999841
 30
0.0
 11
-438.10000000000309
 21
-109.29999999999841
 31
0.0
  0
LINE
  8
DETAIL
  6
CONTINUOUS
 62
     5
 10
-417.59999999999582
 20
-107.9999999999955
 30
0.0
 11
-441.00000000000449
 21
-107.9999999999955
 31
0.0
  0
LINE
  8
DETAIL
  6
CONTINUOUS
 62
     5
 10
417.59999999999582
 20
-107.9999999999955
 30
0.0
 11
440.99999999999733
 21
-107.9999999999955
 31
0.0
  0
LINE
  8
DETAIL
  6
CONTINUOUS
 62
     5
 10
368.29999999999558
 20
-107.54999999999561
 30
0.0
 11
368.09999999999849
 21
-107.54999999999561
 31
0.0
  0
LINE
  8
DETAIL
  6
CONTINUOUS
 62
     5
 10
388.29999999999558
 20
-105.5499999999965
 30
0.0
 11
383.09999999999849
 21
-105.5499999999965
 31
0.0
  0
LINE
  8
DETAIL
  6
CONTINUOUS
 62
     5
 10
381.89999999999418
 20
-105.5499999999965
 30
0.0
 11
380.5
 21
-105.5499999999965
 31
0.0
  0
LINE
  8
DETAIL
  6
CONTINUOUS
 62
     5
 10
426.59999999999582
 20
-102.9999999999982
 30
0.0
 11
424.59999999999582
 21
-102.9999999999982
 31
0.0
  0
LINE
  8
DETAIL
  6
CONTINUOUS
 62
     5
 10
-426.59999999999582
 20
-102.9999999999982
 30
0.0
 11
-424.60000000000309
 21
-102.9999999999982
 31
0.0
  0
LINE
  8
DETAIL
  6
CONTINUOUS
 62
     5
 10
-424.60000000000309
 20
-96.999999999997272
 30
0.0
 11
-426.59999999999582
 21
-96.999999999997272
 31
0.0
  0
LINE
  8
DETAIL
  6
CONTINUOUS
 62
     5
 10
424.59999999999582
 20
-96.999999999997272
 30
0.0
 11
426.59999999999582
 21
-96.999999999997272
 31
0.0
  0
LINE
  8
DETAIL
  6
CONTINUOUS
 62
     5
 10
376.29999999999558
 20
-96.549999999996999
 30
0.0
 11
384.29999999999558
 21
-96.549999999996999
 31
0.0
  0
LINE
  8
DETAIL
  6
CONTINUOUS
 62
     5
 10
453.10000000000309
 20
-94.999999999998181
 30
0.0
 11
447.09999999999582
 21
-94.999999999998181
 31
0.0
  0
LINE
  8
DETAIL
  6
CONTINUOUS
 62
     5
 10
-453.10000000000309
 20
-94.999999999998181
 30
0.0
 11
-447.09999999999582
 21
-94.999999999998181
 31
0.0
  0
LINE
  8
DETAIL
  6
CONTINUOUS
 62
     5
 10
173.93068047599539
 20
-94.949999999998909
 30
0.0
 11
172.72014353066061
 21
-94.949999999998909
 31
0.0
  0
LINE
  8
DETAIL
  6
CONTINUOUS
 62
     5
 10
174.20000000000161
 20
-92.949999999999818
 30
0.0
 11
173.06747271599761
 21
-92.949999999999818
 31
0.0
  0
LINE
  8
DETAIL
  6
CONTINUOUS
 62
     5
 10
175.3999999999987
 20
-92.949999999999818
 30
0.0
 11
192.80000000000021
 21
-92.949999999999818
 31
0.0
  0
LINE
  8
DETAIL
  6
CONTINUOUS
 62
     5
 10
-445.60000000000309
 20
-140.49999999999821
 30
0.0
 11
-500.00000000000318
 21
-149.49989999999889
 31
0.0
  0
LINE
  8
DETAIL
  6
CONTINUOUS
 62
     5
 10
-444.10000000000309
 20
-88.199999999996635
 30
0.0
 11
-412.60000000000309
 21
-88.199999999996635
 31
0.0
  0
LINE
  8
DETAIL
  6
CONTINUOUS
 62
     5
 10
412.60000000000309
 20
-88.199999999996635
 30
0.0
 11
444.10000000000309
 21
-88.199999999996635
 31
0.0
  0
LINE
  8
DETAIL
  6
CONTINUOUS
 62
     5
 10
384.29999999999558
 20
-87.749999999996362
 30
0.0
 11
391.90000000000151
 21
-87.749999999996362
 31
0.0
  0
LINE
  8
DETAIL
  6
CONTINUOUS
 62
     5
 10
376.29999999999558
 20
-86.549999999998363
 30
0.0
 11
391.90000000000151
 21
-86.549999999998363
 31
0.0
  0
LINE
  8
DETAIL
  6
CONTINUOUS
 62
     5
 10
-431.10000000000309
 20
-84.999999999999091
 30
0.0
 11
-456.09999999999582
 21
-84.999999999999091
 31
0.0
  0
LINE
  8
DETAIL
  6
CONTINUOUS
 62
     5
 10
431.09999999999582
 20
-84.999999999999091
 30
0.0
 11
456.09999999999582
 21
-84.999999999999091
 31
0.0
  0
LINE
  8
DETAIL
  6
CONTINUOUS
 62
     5
 10
-415.60000000000309
 20
-78.199999999997544
 30
0.0
 11
-428.09999999999582
 21
-78.199999999997544
 31
0.0
  0
LINE
  8
DETAIL
  6
CONTINUOUS
 62
     5
 10
415.59999999999582
 20
-78.199999999997544
 30
0.0
 11
428.09999999999582
 21
-78.199999999997544
 31
0.0
  0
LINE
  8
DETAIL
  6
CONTINUOUS
 62
     5
 10
373.30000000000291
 20
-58.049999999997453
 30
0.0
 11
388.29999999999558
 21
-58.049999999997453
 31
0.0
  0
LINE
  8
DETAIL
  6
CONTINUOUS
 62
     5
 10
369.29999999999558
 20
-56.449999999998909
 30
0.0
 11
371.69999999999709
 21
-56.449999999998909
 31
0.0
  0
LINE
  8
DETAIL
  6
CONTINUOUS
 62
     5
 10
197.79999999999291
 20
-55.699999999998909
 30
0.0
 11
208.5
 21
-55.699999999998909
 31
0.0
  0
LINE
  8
DETAIL
  6
CONTINUOUS
 62
     5
 10
369.29999999999558
 20
-55.099999999995823
 30
0.0
 11
200.09999999999849
 21
-55.099999999995823
 31
0.0
  0
LINE
  8
DETAIL
  6
CONTINUOUS
 62
     5
 10
200.09999999999849
 20
-54.499999999997272
 30
0.0
 11
211.5
 21
-54.499999999997272
 31
0.0
  0
LINE
  8
DETAIL
  6
CONTINUOUS
 62
     5
 10
445.59999999999582
 20
-140.4999999999973
 30
0.0
 11
499.99999999999551
 21
-149.49979999999641
 31
0.0
  0
LINE
  8
DETAIL
  6
CONTINUOUS
 62
     5
 10
174.20000000000161
 20
-46.949999999995732
 30
0.0
 11
173.06747271599761
 21
-46.949999999995732
 31
0.0
  0
LINE
  8
DETAIL
  6
CONTINUOUS
 62
     5
 10
175.3999999999987
 20
-46.949999999995732
 30
0.0
 11
192.80000000000021
 21
-46.949999999995732
 31
0.0
  0
LINE
  8
DETAIL
  6
CONTINUOUS
 62
     5
 10
173.93068047599539
 20
-44.949999999996628
 30
0.0
 11
172.72014353066061
 21
-44.949999999996628
 31
0.0
  0
LINE
  8
DETAIL
  6
CONTINUOUS
 62
     5
 10
195.06794919199911
 20
-235.0141016159973
 30
0.0
 11
196.80000000000021
 21
-238.014101615996
 31
0.0
  0
LINE
  8
DETAIL
  6
CONTINUOUS
 62
     5
 10
170.63616841866039
 20
-281.94999999999482
 30
0.0
 11
170.63616841866039
 21
-237.94999999999709
 31
0.0
  0
LINE
  8
DETAIL
  6
CONTINUOUS
 62
     5
 10
170.63616841866039
 20
-91.94999999999618
 30
0.0
 11
170.63616841866039
 21
-47.949999999998909
 31
0.0
  0
LINE
  8
DETAIL
  6
CONTINUOUS
 62
     5
 10
173.06747271599761
 20
-44.949999999996628
 30
0.0
 11
173.06747271599761
 21
-46.949999999995732
 31
0.0
  0
LINE
  8
DETAIL
  6
CONTINUOUS
 62
     5
 10
173.06747271599761
 20
-234.94999999999851
 30
0.0
 11
173.06747271599761
 21
-236.94999999999439
 31
0.0
  0
LINE
  8
DETAIL
  6
CONTINUOUS
 62
     5
 10
173.06747271599761
 20
-284.94999999999658
 30
0.0
 11
173.06747271599761
 21
-282.949999999998
 31
0.0
  0
LINE
  8
DETAIL
  6
CONTINUOUS
 62
     5
 10
173.06747271599761
 20
-94.949999999998909
 30
0.0
 11
173.06747271599761
 21
-92.949999999999818
 31
0.0
  0
LINE
  8
DETAIL
  6
CONTINUOUS
 62
     5
 10
173.93068047599539
 20
-44.949999999996628
 30
0.0
 11
173.93068047599539
 21
-46.949999999995732
 31
0.0
  0
LINE
  8
DETAIL
  6
CONTINUOUS
 62
     5
 10
173.93068047599539
 20
-234.94999999999851
 30
0.0
 11
173.93068047599539
 21
-236.94999999999439
 31
0.0
  0
LINE
  8
DETAIL
  6
CONTINUOUS
 62
     5
 10
173.93068047599539
 20
-284.94999999999658
 30
0.0
 11
173.93068047599539
 21
-282.949999999998
 31
0.0
  0
LINE
  8
DETAIL
  6
CONTINUOUS
 62
     5
 10
173.93068047599539
 20
-94.949999999998909
 30
0.0
 11
173.93068047599539
 21
-92.949999999999818
 31
0.0
  0
LINE
  8
DETAIL
  6
CONTINUOUS
 62
     5
 10
174.20000000000161
 20
-326.74999999999733
 30
0.0
 11
174.20000000000161
 21
-4.2499999999972724
 31
0.0
  0
LINE
  8
DETAIL
  6
CONTINUOUS
 62
     5
 10
175.3999999999987
 20
-325.54999999999927
 30
0.0
 11
175.3999999999987
 21
-5.4499999999984539
 31
0.0
  0
LINE
  8
DETAIL
  6
CONTINUOUS
 62
     5
 10
178.9999999999973
 20
-282.949999999998
 30
0.0
 11
178.9999999999973
 21
-236.94999999999439
 31
0.0
  0
LINE
  8
DETAIL
  6
CONTINUOUS
 62
     5
 10
178.9999999999973
 20
-92.949999999999818
 30
0.0
 11
178.9999999999973
 21
-46.949999999995732
 31
0.0
  0
LINE
  8
DETAIL
  6
CONTINUOUS
 62
     5
 10
-175.40000000000549
 20
-5.4499999999984539
 30
0.0
 11
175.39999999999921
 21
-5.4499999999984539
 31
0.0
  0
LINE
  8
DETAIL
  6
CONTINUOUS
 62
     5
 10
-174.20000000000161
 20
-4.2499999999972724
 30
0.0
 11
174.20000000000161
 21
-4.2499999999972724
 31
0.0
  0
LINE
  8
DETAIL
  6
CONTINUOUS
 62
     5
 10
-437.60000000000309
 20
-2.6499999999978172
 30
0.0
 11
-435.60000000000309
 21
-2.6499999999978172
 31
0.0
  0
LINE
  8
DETAIL
  6
CONTINUOUS
 62
     5
 10
435.60000000000309
 20
-2.6499999999978172
 30
0.0
 11
437.59999999999582
 21
-2.6499999999978172
 31
0.0
  0
LINE
  8
DETAIL
  6
CONTINUOUS
 62
     5
 10
438.09999999999582
 20
-1.1499999999969079
 30
0.0
 11
443.17500000000018
 21
-1.1499999999969079
 31
0.0
  0
LINE
  8
DETAIL
  6
CONTINUOUS
 62
     5
 10
-442.60000000000309
 20
-0.6499999999987267
 30
0.0
 11
-438.10000000000309
 21
-0.6499999999987267
 31
0.0
  0
LINE
  8
DETAIL
  6
CONTINUOUS
 62
     5
 10
-435.60000000000309
 20
-0.6499999999987267
 30
0.0
 11
-430.74999999999591
 21
-0.6499999999987267
 31
0.0
  0
LINE
  8
DETAIL
  6
CONTINUOUS
 62
     5
 10
430.74999999998909
 20
-0.6499999999987267
 30
0.0
 11
435.60000000000309
 21
-0.6499999999987267
 31
0.0
  0
LINE
  8
DETAIL
  6
CONTINUOUS
 62
     5
 10
438.09999999999582
 20
-0.6499999999987267
 30
0.0
 11
442.59999999999582
 21
-0.6499999999987267
 31
0.0
  0
LINE
  8
DETAIL
  6
CONTINUOUS
 62
     5
 10
-443.17500000000018
 20
-0.4999999999990905
 30
0.0
 11
-437.5581655866672
 21
-0.4999999999972715
 31
0.0
  0
LINE
  8
DETAIL
  6
CONTINUOUS
 62
     5
 10
437.5581655866672
 20
-0.4999999999972715
 30
0.0
 11
443.17500000000018
 21
-0.4999999999990905
 31
0.0
  0
LINE
  8
DETAIL
  6
CONTINUOUS
 62
     5
 10
-443.17499999999291
 20
0.0000000000045475
 30
0.0
 11
-437.5581655866672
 21
0.0
 31
0.0
  0
LINE
  8
DETAIL
  6
CONTINUOUS
 62
     5
 10
-435.49999999999733
 20
0.0
 30
0.0
 11
435.49999999999733
 21
0.0
 31
0.0
  0
LINE
  8
DETAIL
  6
CONTINUOUS
 62
     5
 10
437.5581655866672
 20
0.0
 30
0.0
 11
443.17499999998557
 21
0.0000000000045475
 31
0.0
  0
LINE
  8
DETAIL
  6
CONTINUOUS
 62
     5
 10
195.06794919199911
 20
-179.01410161599421
 30
0.0
 11
196.80000000000021
 21
-182.0141016159964
 31
0.0
  0
LINE
  8
DETAIL
  6
CONTINUOUS
 62
     5
 10
183.80000000000021
 20
-132.54999999999521
 30
0.0
 11
183.80000000000021
 21
-154.54999999999879
 31
0.0
  0
LINE
  8
DETAIL
  6
CONTINUOUS
 62
     5
 10
192.80000000000021
 20
-282.949999999998
 30
0.0
 11
192.80000000000021
 21
-236.94999999999439
 31
0.0
  0
LINE
  8
DETAIL
  6
CONTINUOUS
 62
     5
 10
192.80000000000021
 20
-92.949999999999818
 30
0.0
 11
192.80000000000021
 21
-46.949999999995732
 31
0.0
  0
LINE
  8
DETAIL
  6
CONTINUOUS
 62
     5
 10
194.80000000000021
 20
-58.699999999997537
 30
0.0
 11
194.80000000000021
 21
-126.5499999999975
 31
0.0
  0
LINE
  8
DETAIL
  6
CONTINUOUS
 62
     5
 10
194.80000000000021
 20
-311.89999999999691
 30
0.0
 11
194.80000000000021
 21
-255.08589838533129
 31
0.0
  0
LINE
  8
DETAIL
  6
CONTINUOUS
 62
     5
 10
194.80000000000021
 20
-234.01410161599421
 30
0.0
 11
194.80000000000021
 21
-199.08589838532859
 31
0.0
  0
LINE
  8
DETAIL
  6
CONTINUOUS
 62
     5
 10
194.80000000000021
 20
-178.01410161599509
 30
0.0
 11
194.80000000000021
 21
-160.54999999999649
 31
0.0
  0
LINE
  8
DETAIL
  6
CONTINUOUS
 62
     5
 10
196.80000000000021
 20
-182.0141016159964
 30
0.0
 11
196.80000000000021
 21
-195.08589838533001
 31
0.0
  0
LINE
  8
DETAIL
  6
CONTINUOUS
 62
     5
 10
196.80000000000021
 20
-238.014101615996
 30
0.0
 11
196.80000000000021
 21
-251.08589838533001
 31
0.0
  0
LINE
  8
DETAIL
  6
CONTINUOUS
 62
     5
 10
198.89999999999421
 20
-314.89999999999958
 30
0.0
 11
198.89999999999421
 21
-55.699999999998909
 31
0.0
  0
LINE
  8
DETAIL
  6
CONTINUOUS
 62
     5
 10
200.09999999999849
 20
-314.89999999999958
 30
0.0
 11
200.09999999999849
 21
-315.49999999999449
 31
0.0
  0
LINE
  8
DETAIL
  6
CONTINUOUS
 62
     5
 10
200.09999999999849
 20
-55.699999999998909
 30
0.0
 11
200.09999999999849
 21
-55.099999999995823
 31
0.0
  0
LINE
  8
DETAIL
  6
CONTINUOUS
 62
     5
 10
211.5
 20
-58.699999999997537
 30
0.0
 11
211.5
 21
-311.89999999999691
 31
0.0
  0
LINE
  8
DETAIL
  6
CONTINUOUS
 62
     5
 10
211.5
 20
-315.49999999999449
 30
0.0
 11
211.5
 21
-316.09999999999758
 31
0.0
  0
LINE
  8
DETAIL
  6
CONTINUOUS
 62
     5
 10
211.5
 20
-55.099999999995823
 30
0.0
 11
211.5
 21
-54.499999999997272
 31
0.0
  0
LINE
  8
DETAIL
  6
CONTINUOUS
 62
     5
 10
196.80000000000021
 20
-195.08589838533001
 30
0.0
 11
195.06794919199911
 21
-198.0858983853291
 31
0.0
  0
LINE
  8
DETAIL
  6
CONTINUOUS
 62
     5
 10
196.80000000000021
 20
-251.08589838533001
 30
0.0
 11
195.06794919199911
 21
-254.08589838532819
 31
0.0
  0
LINE
  8
DETAIL
  6
CONTINUOUS
 62
     5
 10
431.39999999998548
 20
0.0
 30
0.0
 11
429.74999999998272
 21
-1.6500000000096411
 31
0.0
  0
LINE
  8
DETAIL
  6
CONTINUOUS
 62
     5
 10
431.32999999999271
 20
-330.99999999999409
 30
0.0
 11
429.07999999997719
 21
-328.74999999997948
 31
0.0
  0
LINE
  8
DETAIL
  6
CONTINUOUS
 62
     5
 10
388.29999999999558
 20
-105.5499999999965
 30
0.0
 11
391.29999999999558
 21
-102.5499999999975
 31
0.0
  0
LINE
  8
DETAIL
  6
CONTINUOUS
 62
     5
 10
391.29999999999558
 20
-233.54999999999521
 30
0.0
 11
388.29999999999558
 21
-230.54999999999609
 31
0.0
  0
LINE
  8
DETAIL
  6
CONTINUOUS
 62
     5
 10
391.29999999999558
 20
-61.049999999996537
 30
0.0
 11
388.29999999999558
 21
-58.049999999997453
 31
0.0
  0
LINE
  8
DETAIL
  6
CONTINUOUS
 62
     5
 10
368.09999999999849
 20
-263.54999999999558
 30
0.0
 11
368.09999999999849
 21
-248.5499999999947
 31
0.0
  0
LINE
  8
DETAIL
  6
CONTINUOUS
 62
     5
 10
368.09999999999849
 20
-122.5499999999961
 30
0.0
 11
368.09999999999849
 21
-107.54999999999561
 31
0.0
  0
LINE
  8
DETAIL
  6
CONTINUOUS
 62
     5
 10
369.29999999999558
 20
-315.49999999999449
 30
0.0
 11
369.29999999999558
 21
-264.54999999999882
 31
0.0
  0
LINE
  8
DETAIL
  6
CONTINUOUS
 62
     5
 10
369.29999999999558
 20
-247.54999999999521
 30
0.0
 11
369.29999999999558
 21
-123.54999999999519
 31
0.0
  0
LINE
  8
DETAIL
  6
CONTINUOUS
 62
     5
 10
369.29999999999558
 20
-106.5500000000002
 30
0.0
 11
369.29999999999558
 21
-55.099999999995823
 31
0.0
  0
LINE
  8
DETAIL
  6
CONTINUOUS
 62
     5
 10
373.30000000000291
 20
-312.549999999997
 30
0.0
 11
373.30000000000291
 21
-58.049999999997453
 31
0.0
  0
LINE
  8
DETAIL
  6
CONTINUOUS
 62
     5
 10
374.42449979999952
 20
-90.920367141329734
 30
0.0
 11
374.42449979999952
 21
-89.479632859998219
 31
0.0
  0
LINE
  8
DETAIL
  6
CONTINUOUS
 62
     5
 10
376.29999999999558
 20
-66.699999999998454
 30
0.0
 11
376.29999999999558
 21
-86.699999999999363
 31
0.0
  0
LINE
  8
DETAIL
  6
CONTINUOUS
 62
     5
 10
376.29999999999558
 20
-93.699999999996635
 30
0.0
 11
376.29999999999558
 21
-113.699999999998
 31
0.0
  0
LINE
  8
DETAIL
  6
CONTINUOUS
 62
     5
 10
376.29999999999558
 20
-264.39999999999691
 30
0.0
 11
376.29999999999558
 21
-284.39999999999827
 31
0.0
  0
LINE
  8
DETAIL
  6
CONTINUOUS
 62
     5
 10
376.39999999999418
 20
-86.549999999998363
 30
0.0
 11
376.39999999999418
 21
-96.549999999996999
 31
0.0
  0
LINE
  8
DETAIL
  6
CONTINUOUS
 62
     5
 10
377.49999999999272
 20
-227.54999999999751
 30
0.0
 11
377.49999999999272
 21
-108.54999999999561
 31
0.0
  0
LINE
  8
DETAIL
  6
CONTINUOUS
 62
     5
 10
380.69999999999709
 20
-96.549999999996999
 30
0.0
 11
380.69999999999709
 21
-86.549999999998363
 31
0.0
  0
LINE
  8
DETAIL
  6
CONTINUOUS
 62
     5
 10
381.89999999999418
 20
-77.749999999997272
 30
0.0
 11
381.89999999999418
 21
-86.549999999998363
 31
0.0
  0
LINE
  8
DETAIL
  6
CONTINUOUS
 62
     5
 10
381.89999999999418
 20
-120.2155069319961
 30
0.0
 11
381.89999999999418
 21
-96.549999999996999
 31
0.0
  0
LINE
  8
DETAIL
  6
CONTINUOUS
 62
     5
 10
383.09999999999849
 20
-77.749999999997272
 30
0.0
 11
383.09999999999849
 21
-86.549999999998363
 31
0.0
  0
LINE
  8
DETAIL
  6
CONTINUOUS
 62
     5
 10
383.09999999999849
 20
-96.549999999996999
 30
0.0
 11
383.09999999999849
 21
-120.2155069319961
 31
0.0
  0
LINE
  8
DETAIL
  6
CONTINUOUS
 62
     5
 10
384.29999999999558
 20
-86.549999999998363
 30
0.0
 11
384.29999999999558
 21
-96.549999999996999
 31
0.0
  0
LINE
  8
DETAIL
  6
CONTINUOUS
 62
     5
 10
391.29999999999558
 20
-61.049999999996537
 30
0.0
 11
391.29999999999558
 21
-67.778730513330629
 31
0.0
  0
LINE
  8
DETAIL
  6
CONTINUOUS
 62
     5
 10
391.29999999999558
 20
-68.982329914662387
 30
0.0
 11
391.29999999999558
 21
-86.549999999998363
 31
0.0
  0
LINE
  8
DETAIL
  6
CONTINUOUS
 62
     5
 10
391.29999999999558
 20
-87.749999999996362
 30
0.0
 11
391.29999999999558
 21
-102.5499999999975
 31
0.0
  0
LINE
  8
DETAIL
  6
CONTINUOUS
 62
     5
 10
391.29999999999558
 20
-233.54999999999521
 30
0.0
 11
391.29999999999558
 21
-309.54999999999472
 31
0.0
  0
LINE
  8
DETAIL
  6
CONTINUOUS
 62
     5
 10
388.29999999999558
 20
-312.549999999997
 30
0.0
 11
391.29999999999558
 21
-309.54999999999472
 31
0.0
  0
LINE
  8
DETAIL
  6
CONTINUOUS
 62
     5
 10
436.23915342266719
 20
-329.53944918932888
 30
0.0
 11
436.1088435026586
 21
-328.04999999999609
 31
0.0
  0
LINE
  8
DETAIL
  6
CONTINUOUS
 62
     5
 10
437.03610917999782
 20
-329.46972459466218
 30
0.0
 11
436.91189937333269
 21
-328.04999999999609
 31
0.0
  0
LINE
  8
DETAIL
  6
CONTINUOUS
 62
     5
 10
412.60000000000309
 20
-102.9999999999982
 30
0.0
 11
412.60000000000309
 21
-81.199999999995725
 31
0.0
  0
LINE
  8
DETAIL
  6
CONTINUOUS
 62
     5
 10
431.09999999999582
 20
-81.199999999995725
 30
0.0
 11
431.09999999999582
 21
-88.199999999996635
 31
0.0
  0
LINE
  8
DETAIL
  6
CONTINUOUS
 62
     5
 10
436.40998945466441
 20
-2.6499999999978172
 30
0.0
 11
436.56197088933283
 21
-0.9128442573282882
 31
0.0
  0
LINE
  8
DETAIL
  6
CONTINUOUS
 62
     5
 10
436.91189937333269
 20
-2.6499999999978172
 30
0.0
 11
437.06006823733787
 21
-0.9564221293276205
 31
0.0
  0
LINE
  8
DETAIL
  6
CONTINUOUS
 62
     5
 10
435.09999999999582
 20
-330.04999999999518
 30
0.0
 11
435.09999999999582
 21
-330.99999999999409
 31
0.0
  0
LINE
  8
DETAIL
  6
CONTINUOUS
 62
     5
 10
435.49999999999733
 20
0.0
 30
0.0
 11
435.49999999999733
 21
-0.6499999999987267
 31
0.0
  0
LINE
  8
DETAIL
  6
CONTINUOUS
 62
     5
 10
435.60000000000309
 20
-330.04999999999518
 30
0.0
 11
435.60000000000309
 21
-328.04999999999609
 31
0.0
  0
LINE
  8
DETAIL
  6
CONTINUOUS
 62
     5
 10
435.60000000000309
 20
-2.6499999999978172
 30
0.0
 11
435.60000000000309
 21
-0.6499999999987267
 31
0.0
  0
LINE
  8
DETAIL
  6
CONTINUOUS
 62
     5
 10
437.09999999999582
 20
-1.649999999995089
 30
0.0
 11
437.09999999999582
 21
-2.6499999999978172
 31
0.0
  0
LINE
  8
DETAIL
  6
CONTINUOUS
 62
     5
 10
437.09999999999582
 20
-329.04999999999927
 30
0.0
 11
437.09999999999582
 21
-328.04999999999609
 31
0.0
  0
LINE
  8
DETAIL
  6
CONTINUOUS
 62
     5
 10
437.59999999999582
 20
-329.04999999999927
 30
0.0
 11
437.59999999999582
 21
-107.9999999999955
 31
0.0
  0
LINE
  8
DETAIL
  6
CONTINUOUS
 62
     5
 10
437.59999999999582
 20
-84.999999999999091
 30
0.0
 11
437.59999999999582
 21
-1.649999999995089
 31
0.0
  0
LINE
  8
DETAIL
  6
CONTINUOUS
 62
     5
 10
438.19999999999442
 20
-134.9999999999973
 30
0.0
 11
438.19999999999442
 21
-310.54999999733133
 31
0.0
  0
LINE
  8
DETAIL
  6
CONTINUOUS
 62
     5
 10
442.59999999999582
 20
-0.6499999999987267
 30
0.0
 11
442.59999999999582
 21
-1.1499999999969079
 31
0.0
  0
LINE
  8
DETAIL
  6
CONTINUOUS
 62
     5
 10
442.59999999999582
 20
-329.549999999997
 30
0.0
 11
442.59999999999582
 21
-330.04999999999518
 31
0.0
  0
LINE
  8
DETAIL
  6
CONTINUOUS
 62
     5
 10
444.10000000000309
 20
-91.999999999995907
 30
0.0
 11
444.10000000000309
 21
-84.999999999999091
 31
0.0
  0
LINE
  8
DETAIL
  6
CONTINUOUS
 62
     5
 10
445.59999999999582
 20
-300.49999999999858
 30
0.0
 11
445.59999999999582
 21
-140.4999999999973
 31
0.0
  0
LINE
  8
DETAIL
  6
CONTINUOUS
 62
     5
 10
456.09999999999582
 20
-129.99999999999639
 30
0.0
 11
456.09999999999582
 21
-84.999999999999091
 31
0.0
  0
LINE
  8
DETAIL
  6
CONTINUOUS
 62
     5
 10
499.99999999999551
 20
-291.49999999999591
 30
0.0
 11
499.99999999999551
 21
-149.49979999999641
 31
0.0
  0
LINE
  8
DETAIL
  6
CONTINUOUS
 62
     5
 10
507.99999999999551
 20
-291.49977104399568
 30
0.0
 11
507.99999999999551
 21
-149.50002895599621
 31
0.0
  0
ARC
  8
DETAIL
  6
CONTINUOUS
 62
     5
 10
-181.00000000000449
 20
-172.99999999999551
 30
0.0
 40
5.1339745959999874
 50
0.0
 51
180.0
  0
CIRCLE
  8
DETAIL
  6
CONTINUOUS
 62
     5
 10
-381.11118318266841
 20
-281.31118318266408
 30
0.0
 40
4.6999999999999869
  0
CIRCLE
  8
DETAIL
  6
CONTINUOUS
 62
     5
 10
-259.48881681866351
 20
-281.31118318266408
 30
0.0
 40
4.6999999999999869
  0
CIRCLE
  8
DETAIL
  6
CONTINUOUS
 62
     5
 10
-165.70000000000161
 20
-184.299999999997
 30
0.0
 40
4.6999999999999869
  0
ARC
  8
DETAIL
  6
CONTINUOUS
 62
     5
 10
-169.20000000000161
 20
-214.79999999999521
 30
0.0
 40
2.999999999999992
 50
270.0
 51
0.0
  0
ARC
  8
DETAIL
  6
CONTINUOUS
 62
     5
 10
-169.20000000000161
 20
-180.799999999997
 30
0.0
 40
2.999999999999992
 50
90.0
 51
180.0
  0
ARC
  8
DETAIL
  6
CONTINUOUS
 62
     5
 10
-162.20000000000161
 20
-180.799999999997
 30
0.0
 40
2.999999999999992
 50
0.0
 51
90.0
  0
ARC
  8
DETAIL
  6
CONTINUOUS
 62
     5
 10
-173.6052631573375
 20
-187.799999999997
 30
0.0
 40
2.5947368426666602
 50
133.84961891521289
 51
186.65103627650871
  0
ARC
  8
DETAIL
  6
CONTINUOUS
 62
     5
 10
-173.6052631573375
 20
-207.79999999999879
 30
0.0
 40
2.5947368426666602
 50
133.84961891650281
 51
226.15038108349719
  0
ARC
  8
DETAIL
  6
CONTINUOUS
 62
     5
 10
-181.00000000000449
 20
-190.3999999999987
 30
0.0
 40
1.9499999999999951
 50
116.9735301477713
 51
2.943019772792411
  0
ARC
  8
DETAIL
  6
CONTINUOUS
 62
     5
 10
-181.00000000000449
 20
-172.99999999999551
 30
0.0
 40
1.776965739999995
 50
0.0
 51
180.0
  0
ARC
  8
DETAIL
  6
CONTINUOUS
 62
     5
 10
-437.83306493866712
 20
-329.39999999999549
 30
0.0
 40
1.5999999999999961
 50
270.0
 51
355.00000000000028
  0
ARC
  8
DETAIL
  6
CONTINUOUS
 62
     5
 10
-178.10000000000309
 20
-194.97004829866179
 30
0.0
 40
0.9999999999999976
 50
95.000000008081457
 51
180.0
  0
ARC
  8
DETAIL
  6
CONTINUOUS
 62
     5
 10
-178.10000000000309
 20
-200.62995170266231
 30
0.0
 40
0.9999999999999976
 50
180.0
 51
264.99999999191863
  0
ARC
  8
DETAIL
  6
CONTINUOUS
 62
     5
 10
-438.10000000000309
 20
-329.04999999999927
 30
0.0
 40
0.9999999999999976
 50
270.0
 51
0.0
  0
ARC
  8
DETAIL
  6
CONTINUOUS
 62
     5
 10
-437.83306493866712
 20
-329.39999999999549
 30
0.0
 40
0.7999999999999981
 50
270.0
 51
355.00000000010488
  0
ARC
  8
DETAIL
  6
CONTINUOUS
 62
     5
 10
-438.80000000000751
 20
-301.09999999999809
 30
0.0
 40
0.5999999999999987
 50
0.0
 51
90.0
  0
ARC
  8
DETAIL
  6
CONTINUOUS
 62
     5
 10
-438.10000000000309
 20
-329.04999999999927
 30
0.0
 40
0.4999999999999988
 50
270.0
 51
0.0
  0
ARC
  8
DETAIL
  6
CONTINUOUS
 62
     5
 10
-433.57749999999669
 20
-113.9999999999964
 30
0.0
 40
6.522499999999984
 50
133.8973981670832
 51
180.0
  0
ARC
  8
DETAIL
  6
CONTINUOUS
 62
     5
 10
-181.00000000000449
 20
-157.999999999995
 30
0.0
 40
5.1339745959999874
 50
180.0
 51
0.0
  0
ARC
  8
DETAIL
  6
CONTINUOUS
 62
     5
 10
-417.59999999999582
 20
-102.9999999999982
 30
0.0
 40
4.9999999999999876
 50
270.0
 51
0.0
  0
ARC
  8
DETAIL
  6
CONTINUOUS
 62
     5
 10
-451.10000000000309
 20
-129.99999999999639
 30
0.0
 40
4.9999999999999876
 50
180.0
 51
270.0
  0
CIRCLE
  8
DETAIL
  6
CONTINUOUS
 62
     5
 10
-381.11118318266841
 20
-159.68881681866381
 30
0.0
 40
4.6999999999999869
  0
CIRCLE
  8
DETAIL
  6
CONTINUOUS
 62
     5
 10
-259.48881681866351
 20
-159.68881681866381
 30
0.0
 40
4.6999999999999869
  0
ARC
  8
DETAIL
  6
CONTINUOUS
 62
     5
 10
-441.00000000000449
 20
-110.9999999999977
 30
0.0
 40
2.999999999999992
 50
90.0
 51
270.0
  0
ARC
  8
DETAIL
  6
CONTINUOUS
 62
     5
 10
-424.60000000000309
 20
-99.999999999995907
 30
0.0
 40
2.999999999999992
 50
270.0
 51
90.0
  0
ARC
  8
DETAIL
  6
CONTINUOUS
 62
     5
 10
-415.60000000000309
 20
-81.199999999995725
 30
0.0
 40
2.999999999999992
 50
0.0
 51
90.0
  0
ARC
  8
DETAIL
  6
CONTINUOUS
 62
     5
 10
-428.09999999999582
 20
-81.199999999995725
 30
0.0
 40
2.999999999999992
 50
90.0
 51
180.0
  0
ARC
  8
DETAIL
  6
CONTINUOUS
 62
     5
 10
-426.59999999999582
 20
-99.999999999995907
 30
0.0
 40
2.999999999999992
 50
90.0
 51
270.0
  0
ARC
  8
DETAIL
  6
CONTINUOUS
 62
     5
 10
-447.09999999999582
 20
-91.999999999995907
 30
0.0
 40
2.999999999999992
 50
270.0
 51
0.0
  0
ARC
  8
DETAIL
  6
CONTINUOUS
 62
     5
 10
-453.10000000000309
 20
-91.999999999995907
 30
0.0
 40
2.999999999999992
 50
180.0
 51
270.0
  0
CIRCLE
  8
DETAIL
  6
CONTINUOUS
 62
     5
 10
-425.60000000000309
 20
-99.999999999995907
 30
0.0
 40
2.4999999999999938
  0
ARC
  8
DETAIL
  6
CONTINUOUS
 62
     5
 10
-181.00000000000449
 20
-140.59999999999491
 30
0.0
 40
1.9499999999999951
 50
357.05701709419441
 51
243.0351444587202
  0
ARC
  8
DETAIL
  6
CONTINUOUS
 62
     5
 10
-181.00000000000449
 20
-157.999999999995
 30
0.0
 40
1.776965739999995
 50
180.0
 51
0.0
  0
ARC
  8
DETAIL
  6
CONTINUOUS
 62
     5
 10
-437.5581655866672
 20
-0.9999999999954525
 30
0.0
 40
0.9999999999999976
 50
4.9999999999997433
 51
90.0
  0
ARC
  8
DETAIL
  6
CONTINUOUS
 62
     5
 10
-438.10000000000309
 20
-1.649999999995089
 30
0.0
 40
0.9999999999999976
 50
0.0
 51
90.0
  0
ARC
  8
DETAIL
  6
CONTINUOUS
 62
     5
 10
-438.10000000000309
 20
-1.649999999995089
 30
0.0
 40
0.4999999999999988
 50
0.0
 51
90.0
  0
ARC
  8
DETAIL
  6
CONTINUOUS
 62
     5
 10
-437.5581655866672
 20
-0.9999999999954525
 30
0.0
 40
0.4999999999999988
 50
4.9999999998950679
 51
90.0
  0
CIRCLE
  8
DETAIL
  6
CONTINUOUS
 62
     5
 10
185.80000000000021
 20
-277.44999999999533
 30
0.0
 40
4.6999999999999869
  0
ARC
  8
DETAIL
  6
CONTINUOUS
 62
     5
 10
197.79999999999291
 20
-311.89999999999691
 30
0.0
 40
2.999999999999992
 50
180.0
 51
270.0
  0
ARC
  8
DETAIL
  6
CONTINUOUS
 62
     5
 10
208.5
 20
-311.89999999999691
 30
0.0
 40
2.999999999999992
 50
270.0
 51
0.0
  0
ARC
  8
DETAIL
  6
CONTINUOUS
 62
     5
 10
196.80000000000021
 20
-255.08589838533129
 30
0.0
 40
1.9999999999999949
 50
150.00000000000389
 51
180.0
  0
ARC
  8
DETAIL
  6
CONTINUOUS
 62
     5
 10
200.09999999999849
 20
-314.89999999999958
 30
0.0
 40
1.1999999999999971
 50
180.0
 51
270.0
  0
ARC
  8
DETAIL
  6
CONTINUOUS
 62
     5
 10
200.09999999999849
 20
-314.89999999999958
 30
0.0
 40
0.5999999999999987
 50
180.0
 51
270.0
  0
CIRCLE
  8
DETAIL
  6
CONTINUOUS
 62
     5
 10
185.80000000000021
 20
-252.4499999999957
 30
0.0
 40
4.6999999999999869
  0
ARC
  8
DETAIL
  6
CONTINUOUS
 62
     5
 10
196.80000000000021
 20
-234.01410161599421
 30
0.0
 40
1.9999999999999949
 50
180.0
 51
209.99999999999611
  0
ARC
  8
DETAIL
  6
CONTINUOUS
 62
     5
 10
196.80000000000021
 20
-199.08589838532859
 30
0.0
 40
1.9999999999999949
 50
150.00000000000389
 51
180.0
  0
ARC
  8
DETAIL
  6
CONTINUOUS
 62
     5
 10
196.80000000000021
 20
-178.01410161599509
 30
0.0
 40
1.9999999999999949
 50
180.0
 51
209.99999999999611
  0
CIRCLE
  8
DETAIL
  6
CONTINUOUS
 62
     5
 10
383.29999999999558
 20
-285.54999999999558
 30
0.0
 40
4.6999999999999869
  0
CIRCLE
  8
DETAIL
  6
CONTINUOUS
 62
     5
 10
362.49999999999272
 20
-290.54999999999751
 30
0.0
 40
4.6999999999999869
  0
ARC
  8
DETAIL
  6
CONTINUOUS
 62
     5
 10
373.30000000000291
 20
-264.39999999999691
 30
0.0
 40
2.999999999999992
 50
0.0
 51
90.0
  0
ARC
  8
DETAIL
  6
CONTINUOUS
 62
     5
 10
373.30000000000291
 20
-284.39999999999827
 30
0.0
 40
2.999999999999992
 50
270.0
 51
0.0
  0
ARC
  8
DETAIL
  6
CONTINUOUS
 62
     5
 10
437.83306493866712
 20
-329.39999999999549
 30
0.0
 40
1.5999999999999961
 50
184.99999999999969
 51
270.0
  0
ARC
  8
DETAIL
  6
CONTINUOUS
 62
     5
 10
371.69999999999709
 20
-312.549999999997
 30
0.0
 40
1.5999999999999961
 50
270.0
 51
0.0
  0
ARC
  8
DETAIL
  6
CONTINUOUS
 62
     5
 10
368.29999999999558
 20
-264.54999999999882
 30
0.0
 40
0.9999999999999976
 50
0.0
 51
90.0
  0
ARC
  8
DETAIL
  6
CONTINUOUS
 62
     5
 10
438.09999999999582
 20
-329.04999999999927
 30
0.0
 40
0.9999999999999976
 50
180.0
 51
270.0
  0
ARC
  8
DETAIL
  6
CONTINUOUS
 62
     5
 10
437.83306493866712
 20
-329.39999999999549
 30
0.0
 40
0.7999999999999981
 50
184.9999999998951
 51
269.99999999989569
  0
ARC
  8
DETAIL
  6
CONTINUOUS
 62
     5
 10
438.09999999999582
 20
-329.04999999999927
 30
0.0
 40
0.4999999999999988
 50
180.0
 51
270.0
  0
ARC
  8
DETAIL
  6
CONTINUOUS
 62
     5
 10
380.5
 20
-227.54999999999751
 30
0.0
 40
2.999999999999992
 50
180.0
 51
270.0
  0
ARC
  8
DETAIL
  6
CONTINUOUS
 62
     5
 10
368.29999999999558
 20
-247.54999999999521
 30
0.0
 40
0.9999999999999976
 50
270.0
 51
0.0
  0
CIRCLE
  8
DETAIL
  6
CONTINUOUS
 62
     5
 10
185.80000000000021
 20
-87.449999999996635
 30
0.0
 40
4.6999999999999869
  0
CIRCLE
  8
DETAIL
  6
CONTINUOUS
 62
     5
 10
189.80000000000021
 20
-143.549999999997
 30
0.0
 40
4.6999999999999869
  0
ARC
  8
DETAIL
  6
CONTINUOUS
 62
     5
 10
186.80000000000021
 20
-154.54999999999879
 30
0.0
 40
2.999999999999992
 50
180.0
 51
270.0
  0
ARC
  8
DETAIL
  6
CONTINUOUS
 62
     5
 10
186.80000000000021
 20
-132.54999999999521
 30
0.0
 40
2.999999999999992
 50
90.0
 51
180.0
  0
ARC
  8
DETAIL
  6
CONTINUOUS
 62
     5
 10
191.79999999999291
 20
-126.5499999999975
 30
0.0
 40
2.999999999999992
 50
270.0
 51
0.0
  0
ARC
  8
DETAIL
  6
CONTINUOUS
 62
     5
 10
191.79999999999291
 20
-160.54999999999649
 30
0.0
 40
2.999999999999992
 50
0.0
 51
90.0
  0
CIRCLE
  8
DETAIL
  6
CONTINUOUS
 62
     5
 10
185.80000000000021
 20
-62.449999999997537
 30
0.0
 40
4.6999999999999869
  0
ARC
  8
DETAIL
  6
CONTINUOUS
 62
     5
 10
197.79999999999291
 20
-58.699999999997537
 30
0.0
 40
2.999999999999992
 50
90.0
 51
180.0
  0
ARC
  8
DETAIL
  6
CONTINUOUS
 62
     5
 10
208.5
 20
-58.699999999997537
 30
0.0
 40
2.999999999999992
 50
0.0
 51
90.0
  0
ARC
  8
DETAIL
  6
CONTINUOUS
 62
     5
 10
200.09999999999849
 20
-55.699999999998909
 30
0.0
 40
1.1999999999999971
 50
90.0
 51
180.0
  0
ARC
  8
DETAIL
  6
CONTINUOUS
 62
     5
 10
200.09999999999849
 20
-55.699999999998909
 30
0.0
 40
0.5999999999999987
 50
90.0
 51
180.0
  0
ARC
  8
DETAIL
  6
CONTINUOUS
 62
     5
 10
451.09999999999582
 20
-129.99999999999639
 30
0.0
 40
4.9999999999999876
 50
270.0
 51
0.0
  0
ARC
  8
DETAIL
  6
CONTINUOUS
 62
     5
 10
417.59999999999582
 20
-102.9999999999982
 30
0.0
 40
4.9999999999999876
 50
180.0
 51
270.0
  0
ARC
  8
DETAIL
  6
CONTINUOUS
 62
     5
 10
373.30000000000291
 20
-93.699999999996635
 30
0.0
 40
2.999999999999992
 50
0.0
 51
90.0
  0
ARC
  8
DETAIL
  6
CONTINUOUS
 62
     5
 10
373.30000000000291
 20
-113.699999999998
 30
0.0
 40
2.999999999999992
 50
270.0
 51
0.0
  0
ARC
  8
DETAIL
  6
CONTINUOUS
 62
     5
 10
373.30000000000291
 20
-86.699999999999363
 30
0.0
 40
2.999999999999992
 50
270.0
 51
0.0
  0
ARC
  8
DETAIL
  6
CONTINUOUS
 62
     5
 10
440.99999999999733
 20
-110.9999999999977
 30
0.0
 40
2.999999999999992
 50
270.0
 51
90.0
  0
ARC
  8
DETAIL
  6
CONTINUOUS
 62
     5
 10
424.59999999999582
 20
-99.999999999995907
 30
0.0
 40
2.999999999999992
 50
90.0
 51
270.0
  0
ARC
  8
DETAIL
  6
CONTINUOUS
 62
     5
 10
415.59999999999582
 20
-81.199999999995725
 30
0.0
 40
2.999999999999992
 50
90.0
 51
180.0
  0
ARC
  8
DETAIL
  6
CONTINUOUS
 62
     5
 10
428.09999999999582
 20
-81.199999999995725
 30
0.0
 40
2.999999999999992
 50
0.0
 51
90.0
  0
ARC
  8
DETAIL
  6
CONTINUOUS
 62
     5
 10
426.59999999999582
 20
-99.999999999995907
 30
0.0
 40
2.999999999999992
 50
270.0
 51
90.0
  0
ARC
  8
DETAIL
  6
CONTINUOUS
 62
     5
 10
447.09999999999582
 20
-91.999999999995907
 30
0.0
 40
2.999999999999992
 50
180.0
 51
270.0
  0
ARC
  8
DETAIL
  6
CONTINUOUS
 62
     5
 10
453.10000000000309
 20
-91.999999999995907
 30
0.0
 40
2.999999999999992
 50
270.0
 51
0.0
  0
ARC
  8
DETAIL
  6
CONTINUOUS
 62
     5
 10
380.5
 20
-108.54999999999561
 30
0.0
 40
2.999999999999992
 50
90.0
 51
180.0
  0
CIRCLE
  8
DETAIL
  6
CONTINUOUS
 62
     5
 10
425.59999999999582
 20
-99.999999999995907
 30
0.0
 40
2.4999999999999938
  0
ARC
  8
DETAIL
  6
CONTINUOUS
 62
     5
 10
368.29999999999558
 20
-106.5500000000002
 30
0.0
 40
0.9999999999999976
 50
270.0
 51
0.0
  0
ARC
  8
DETAIL
  6
CONTINUOUS
 62
     5
 10
368.29999999999558
 20
-123.54999999999519
 30
0.0
 40
0.9999999999999976
 50
0.0
 51
90.0
  0
ARC
  8
DETAIL
  6
CONTINUOUS
 62
     5
 10
391.90000000000151
 20
-77.749999999997272
 30
0.0
 40
9.9999999999999751
 50
270.0
 51
180.0
  0
ARC
  8
DETAIL
  6
CONTINUOUS
 62
     5
 10
391.90000000000151
 20
-77.749999999997272
 30
0.0
 40
8.7999999999999794
 50
270.0
 51
180.0
  0
ARC
  8
DETAIL
  6
CONTINUOUS
 62
     5
 10
383.29999999999558
 20
-77.549999999994725
 30
0.0
 40
5.4999999999999867
 50
131.97416068468121
 51
255.24000878682429
  0
ARC
  8
DETAIL
  6
CONTINUOUS
 62
     5
 10
383.29999999999558
 20
-77.549999999994725
 30
0.0
 40
5.4999999999999867
 50
267.91752440258438
 51
48.02583931531889
  0
ARC
  8
DETAIL
  6
CONTINUOUS
 62
     5
 10
383.29999999999558
 20
-70.549999999998363
 30
0.0
 40
4.6999999999999869
 50
22.833675615710881
 51
257.24802663457677
  0
ARC
  8
DETAIL
  6
CONTINUOUS
 62
     5
 10
383.29999999999558
 20
-70.549999999998363
 30
0.0
 40
4.6999999999999869
 50
272.24859668208552
 51
7.89241666071295
  0
CIRCLE
  8
DETAIL
  6
CONTINUOUS
 62
     5
 10
362.49999999999272
 20
-80.549999999997453
 30
0.0
 40
4.6999999999999869
  0
ARC
  8
DETAIL
  6
CONTINUOUS
 62
     5
 10
373.30000000000291
 20
-66.699999999998454
 30
0.0
 40
2.999999999999992
 50
0.0
 51
90.0
  0
ARC
  8
DETAIL
  6
CONTINUOUS
 62
     5
 10
371.69999999999709
 20
-58.049999999997453
 30
0.0
 40
1.5999999999999961
 50
0.0
 51
90.0
  0
ARC
  8
DETAIL
  6
CONTINUOUS
 62
     5
 10
437.5581655866672
 20
-0.9999999999954525
 30
0.0
 40
0.9999999999999976
 50
90.0
 51
175.00000000000031
  0
ARC
  8
DETAIL
  6
CONTINUOUS
 62
     5
 10
438.09999999999582
 20
-1.649999999995089
 30
0.0
 40
0.9999999999999976
 50
90.0
 51
180.0
  0
ARC
  8
DETAIL
  6
CONTINUOUS
 62
     5
 10
438.09999999999582
 20
-1.649999999995089
 30
0.0
 40
0.4999999999999988
 50
90.0
 51
180.0
  0
ARC
  8
DETAIL
  6
CONTINUOUS
 62
     5
 10
437.5581655866672
 20
-0.9999999999954525
 30
0.0
 40
0.4999999999999988
 50
90.0
 51
175.0000000001049
  0
LINE
  8
DETAIL
  6
CONTINUOUS
 62
     5
 10
-440.07078204132722
 20
-113.5639411839952
 30
0.0
 11
-440.07227752125112
 21
-113.57594969131276
 31
0.0
  0
LINE
  8
DETAIL
  6
CONTINUOUS
 62
     5
 10
-440.07227752125112
 20
-113.57594969131276
 30
0.0
 11
-440.07377351472701
 21
-113.58799708652934
 31
0.0
  0
LINE
  8
DETAIL
  6
CONTINUOUS
 62
     5
 10
-440.07377351472701
 20
-113.58799708652934
 30
0.0
 11
-440.0752705343013
 21
-113.60012225848992
 31
0.0
  0
LINE
  8
DETAIL
  6
CONTINUOUS
 62
     5
 10
-440.0752705343013
 20
-113.60012225848992
 30
0.0
 11
-440.07676498852493
 21
-113.61205298781734
 31
0.0
  0
LINE
  8
DETAIL
  6
CONTINUOUS
 62
     5
 10
-440.07676498852493
 20
-113.61205298781734
 30
0.0
 11
-440.07826072538109
 21
-113.62408093882894
 31
0.0
  0
LINE
  8
DETAIL
  6
CONTINUOUS
 62
     5
 10
-440.07826072538109
 20
-113.62408093882894
 30
0.0
 11
-440.07978294066294
 21
-113.63812610999706
 31
0.0
  0
LINE
  8
DETAIL
  6
CONTINUOUS
 62
     5
 10
-440.07978294066294
 20
-113.63812610999706
 30
0.0
 11
-440.08131839488817
 21
-113.65317989088639
 31
0.0
  0
LINE
  8
DETAIL
  6
CONTINUOUS
 62
     5
 10
-440.08131839488817
 20
-113.65317989088639
 30
0.0
 11
-440.08285384888921
 21
-113.66823367177453
 31
0.0
  0
LINE
  8
DETAIL
  6
CONTINUOUS
 62
     5
 10
-440.08285384888921
 20
-113.66823367177453
 30
0.0
 11
-440.08438930355106
 21
-113.68328745221871
 31
0.0
  0
LINE
  8
DETAIL
  6
CONTINUOUS
 62
     5
 10
-440.08438930355106
 20
-113.68328745221871
 30
0.0
 11
-440.08592475844097
 21
-113.69834123288648
 31
0.0
  0
LINE
  8
DETAIL
  6
CONTINUOUS
 62
     5
 10
-440.08592475844097
 20
-113.69834123288648
 30
0.0
 11
-440.08726862765985
 21
-113.71239549938498
 31
0.0
  0
LINE
  8
DETAIL
  6
CONTINUOUS
 62
     5
 10
-440.08726862765985
 20
-113.71239549938498
 30
0.0
 11
-440.08822932632728
 21
-113.72445073688552
 31
0.0
  0
LINE
  8
DETAIL
  6
CONTINUOUS
 62
     5
 10
-440.08822932632728
 20
-113.72445073688552
 30
0.0
 11
-440.08917410877172
 21
-113.7363739914973
 31
0.0
  0
LINE
  8
DETAIL
  6
CONTINUOUS
 62
     5
 10
-440.08917410877172
 20
-113.7363739914973
 30
0.0
 11
-440.09015072388343
 21
-113.7485612111081
 31
0.0
  0
LINE
  8
DETAIL
  6
CONTINUOUS
 62
     5
 10
-440.09015072388343
 20
-113.7485612111081
 30
0.0
 11
-440.09111142266437
 21
-113.76061644855157
 31
0.0
  0
LINE
  8
DETAIL
  6
CONTINUOUS
 62
     5
 10
-440.09111142266437
 20
-113.76061644855157
 30
0.0
 11
-440.09207212132827
 21
-113.7726716859958
 31
0.0
  0
LINE
  8
DETAIL
  6
CONTINUOUS
 62
     5
 10
-440.09207212132827
 20
-113.7726716859958
 30
0.0
 11
-440.09293810599053
 21
-113.78775214194026
 31
0.0
  0
LINE
  8
DETAIL
  6
CONTINUOUS
 62
     5
 10
-440.09293810599053
 20
-113.78775214194026
 30
0.0
 11
-440.09380409110565
 21
-113.80283259855258
 31
0.0
  0
LINE
  8
DETAIL
  6
CONTINUOUS
 62
     5
 10
-440.09380409110565
 20
-113.80283259855258
 30
0.0
 11
-440.09465817405248
 21
-113.8177807292746
 31
0.0
  0
LINE
  8
DETAIL
  6
CONTINUOUS
 62
     5
 10
-440.09465817405248
 20
-113.8177807292746
 30
0.0
 11
-440.09553606132943
 21
-113.83299351166329
 31
0.0
  0
LINE
  8
DETAIL
  6
CONTINUOUS
 62
     5
 10
-440.09553606132943
 20
-113.83299351166329
 30
0.0
 11
-440.09640204627277
 21
-113.84807396777539
 31
0.0
  0
LINE
  8
DETAIL
  6
CONTINUOUS
 62
     5
 10
-440.09640204627277
 20
-113.84807396777539
 30
0.0
 11
-440.09697384999498
 21
-113.86114787044086
 31
0.0
  0
LINE
  8
DETAIL
  6
CONTINUOUS
 62
     5
 10
-440.09697384999498
 20
-113.86114787044086
 30
0.0
 11
-440.09739856266214
 21
-113.87321849755223
 31
0.0
  0
LINE
  8
DETAIL
  6
CONTINUOUS
 62
     5
 10
-440.09739856266214
 20
-113.87321849755223
 30
0.0
 11
-440.09782327532804
 21
-113.88528912399687
 31
0.0
  0
LINE
  8
DETAIL
  6
CONTINUOUS
 62
     5
 10
-440.09782327532804
 20
-113.88528912399687
 30
0.0
 11
-440.09824798821586
 21
-113.8973597502201
 31
0.0
  0
LINE
  8
DETAIL
  6
CONTINUOUS
 62
     5
 10
-440.09824798821586
 20
-113.8973597502201
 30
0.0
 11
-440.09867270088301
 21
-113.90943037644165
 31
0.0
  0
LINE
  8
DETAIL
  6
CONTINUOUS
 62
     5
 10
-440.09867270088301
 20
-113.90943037644165
 30
0.0
 11
-440.09902110277295
 21
-113.92263511955179
 31
0.0
  0
LINE
  8
DETAIL
  6
CONTINUOUS
 62
     5
 10
-440.09902110277295
 20
-113.92263511955179
 30
0.0
 11
-440.09921688240058
 21
-113.9381080955517
 31
0.0
  0
LINE
  8
DETAIL
  6
CONTINUOUS
 62
     5
 10
-440.09921688240058
 20
-113.9381080955517
 30
0.0
 11
-440.09940531424382
 21
-113.95369038577471
 31
0.0
  0
LINE
  8
DETAIL
  6
CONTINUOUS
 62
     5
 10
-440.09940531424382
 20
-113.95369038577471
 30
0.0
 11
-440.09960844113505
 21
-113.9690540466639
 31
0.0
  0
LINE
  8
DETAIL
  6
CONTINUOUS
 62
     5
 10
-440.09960844113505
 20
-113.9690540466639
 30
0.0
 11
-440.09980568989386
 21
-113.98450515949628
 31
0.0
  0
LINE
  8
DETAIL
  6
CONTINUOUS
 62
     5
 10
-440.09980568989386
 20
-113.98450515949628
 30
0.0
 11
-440.09999999999582
 21
-113.99999999733021
 31
0.0
  0
LINE
  8
DETAIL
  6
CONTINUOUS
 62
     5
 10
-439.69963249199373
 20
-112.4090097426638
 30
0.0
 11
-439.7179601190287
 21
-112.44681715448144
 31
0.0
  0
LINE
  8
DETAIL
  6
CONTINUOUS
 62
     5
 10
-439.7179601190287
 20
-112.44681715448144
 30
0.0
 11
-439.73626148620332
 21
-112.48463052583746
 31
0.0
  0
LINE
  8
DETAIL
  6
CONTINUOUS
 62
     5
 10
-439.73626148620332
 20
-112.48463052583746
 30
0.0
 11
-439.75466264155034
 21
-112.52242125024407
 31
0.0
  0
LINE
  8
DETAIL
  6
CONTINUOUS
 62
     5
 10
-439.75466264155034
 20
-112.52242125024407
 30
0.0
 11
-439.77326193695853
 21
-112.56016700684251
 31
0.0
  0
LINE
  8
DETAIL
  6
CONTINUOUS
 62
     5
 10
-439.77326193695853
 20
-112.56016700684251
 30
0.0
 11
-439.79099167378007
 21
-112.59811007116275
 31
0.0
  0
LINE
  8
DETAIL
  6
CONTINUOUS
 62
     5
 10
-439.79099167378007
 20
-112.59811007116275
 30
0.0
 11
-439.80736066695971
 21
-112.63636104390795
 31
0.0
  0
LINE
  8
DETAIL
  6
CONTINUOUS
 62
     5
 10
-439.80736066695971
 20
-112.63636104390795
 30
0.0
 11
-439.82343436640537
 21
-112.67467945347745
 31
0.0
  0
LINE
  8
DETAIL
  6
CONTINUOUS
 62
     5
 10
-439.82343436640537
 20
-112.67467945347745
 30
0.0
 11
-439.83959708135882
 21
-112.71298088125559
 31
0.0
  0
LINE
  8
DETAIL
  6
CONTINUOUS
 62
     5
 10
-439.83959708135882
 20
-112.71298088125559
 30
0.0
 11
-439.85569746519548
 21
-112.75129130014014
 31
0.0
  0
LINE
  8
DETAIL
  6
CONTINUOUS
 62
     5
 10
-439.85569746519548
 20
-112.75129130014014
 30
0.0
 11
-439.87107184321417
 21
-112.78974409657405
 31
0.0
  0
LINE
  8
DETAIL
  6
CONTINUOUS
 62
     5
 10
-439.87107184321417
 20
-112.78974409657405
 30
0.0
 11
-439.88487338360926
 21
-112.82849804212752
 31
0.0
  0
LINE
  8
DETAIL
  6
CONTINUOUS
 62
     5
 10
-439.88487338360926
 20
-112.82849804212752
 30
0.0
 11
-439.89871358519957
 21
-112.86720694665746
 31
0.0
  0
LINE
  8
DETAIL
  6
CONTINUOUS
 62
     5
 10
-439.89871358519957
 20
-112.86720694665746
 30
0.0
 11
-439.91257226349086
 21
-112.90605481652995
 31
0.0
  0
LINE
  8
DETAIL
  6
CONTINUOUS
 62
     5
 10
-439.91257226349086
 20
-112.90605481652995
 30
0.0
 11
-439.92653042211492
 21
-112.94450324668902
 31
0.0
  0
LINE
  8
DETAIL
  6
CONTINUOUS
 62
     5
 10
-439.92653042211492
 20
-112.94450324668902
 30
0.0
 11
-439.93965205682662
 21
-112.98507753649935
 31
0.0
  0
LINE
  8
DETAIL
  6
CONTINUOUS
 62
     5
 10
-439.93965205682662
 20
-112.98507753649935
 30
0.0
 11
-439.95193094967925
 21
-113.02778626886555
 31
0.0
  0
LINE
  8
DETAIL
  6
CONTINUOUS
 62
     5
 10
-439.95193094967925
 20
-113.02778626886555
 30
0.0
 11
-439.96434010837697
 21
-113.07005307196077
 31
0.0
  0
LINE
  8
DETAIL
  6
CONTINUOUS
 62
     5
 10
-439.96434010837697
 20
-113.07005307196077
 30
0.0
 11
-439.97672992105061
 21
-113.11251104288382
 31
0.0
  0
LINE
  8
DETAIL
  6
CONTINUOUS
 62
     5
 10
-439.97672992105061
 20
-113.11251104288382
 30
0.0
 11
-439.98914784999829
 21
-113.15493852715946
 31
0.0
  0
LINE
  8
DETAIL
  6
CONTINUOUS
 62
     5
 10
-439.98914784999829
 20
-113.15493852715946
 30
0.0
 11
-439.99926066947791
 21
-113.1953492405413
 31
0.0
  0
LINE
  8
DETAIL
  6
CONTINUOUS
 62
     5
 10
-439.99926066947791
 20
-113.1953492405413
 30
0.0
 11
-440.00830643667967
 21
-113.23483504660202
 31
0.0
  0
LINE
  8
DETAIL
  6
CONTINUOUS
 62
     5
 10
-440.00830643667967
 20
-113.23483504660202
 30
0.0
 11
-440.01732072051243
 21
-113.27425439453238
 31
0.0
  0
LINE
  8
DETAIL
  6
CONTINUOUS
 62
     5
 10
-440.01732072051243
 20
-113.27425439453238
 30
0.0
 11
-440.02638513713424
 21
-113.31364548566083
 31
0.0
  0
LINE
  8
DETAIL
  6
CONTINUOUS
 62
     5
 10
-440.02638513713424
 20
-113.31364548566083
 30
0.0
 11
-440.03519043574079
 21
-113.35341165735898
 31
0.0
  0
LINE
  8
DETAIL
  6
CONTINUOUS
 62
     5
 10
-440.03519043574079
 20
-113.35341165735898
 30
0.0
 11
-440.04278239254438
 21
-113.39485416340939
 31
0.0
  0
LINE
  8
DETAIL
  6
CONTINUOUS
 62
     5
 10
-440.04278239254438
 20
-113.39485416340939
 30
0.0
 11
-440.04965747637311
 21
-113.43730097856138
 31
0.0
  0
LINE
  8
DETAIL
  6
CONTINUOUS
 62
     5
 10
-440.04965747637311
 20
-113.43730097856138
 30
0.0
 11
-440.05672983292965
 21
-113.4794711301151
 31
0.0
  0
LINE
  8
DETAIL
  6
CONTINUOUS
 62
     5
 10
-440.05672983292965
 20
-113.4794711301151
 30
0.0
 11
-440.06377464142616
 21
-113.52167991648885
 31
0.0
  0
LINE
  8
DETAIL
  6
CONTINUOUS
 62
     5
 10
-440.06377464142616
 20
-113.52167991648885
 30
0.0
 11
-440.07078203998839
 21
-113.563941169331
 31
0.0
  0
LINE
  8
DETAIL
  6
CONTINUOUS
 62
     5
 10
172.72014353066791
 20
-234.94999999999891
 30
0.0
 11
172.32263196688655
 21
-235.00683629795572
 31
0.0
  0
LINE
  8
DETAIL
  6
CONTINUOUS
 62
     5
 10
172.32263196688655
 20
-235.00683629795572
 30
0.0
 11
171.94864502321226
 21
-235.16337297436141
 31
0.0
  0
LINE
  8
DETAIL
  6
CONTINUOUS
 62
     5
 10
171.94864502321226
 20
-235.16337297436141
 30
0.0
 11
171.62213598674751
 21
-235.39876480602459
 31
0.0
  0
LINE
  8
DETAIL
  6
CONTINUOUS
 62
     5
 10
171.62213598674751
 20
-235.39876480602459
 30
0.0
 11
171.34712387101683
 21
-235.69273198948073
 31
0.0
  0
LINE
  8
DETAIL
  6
CONTINUOUS
 62
     5
 10
171.34712387101683
 20
-235.69273198948073
 30
0.0
 11
171.12138026668637
 21
-236.0255972096289
 31
0.0
  0
LINE
  8
DETAIL
  6
CONTINUOUS
 62
     5
 10
171.12138026668637
 20
-236.0255972096289
 30
0.0
 11
170.94217503743184
 21
-236.38458092051872
 31
0.0
  0
LINE
  8
DETAIL
  6
CONTINUOUS
 62
     5
 10
170.94217503743184
 20
-236.38458092051872
 30
0.0
 11
170.80637311996637
 21
-236.76249324815407
 31
0.0
  0
LINE
  8
DETAIL
  6
CONTINUOUS
 62
     5
 10
170.80637311996637
 20
-236.76249324815407
 30
0.0
 11
170.71107303006829
 21
-237.15261705166884
 31
0.0
  0
LINE
  8
DETAIL
  6
CONTINUOUS
 62
     5
 10
170.71107303006829
 20
-237.15261705166884
 30
0.0
 11
170.65470913123823
 21
-237.54993368241225
 31
0.0
  0
LINE
  8
DETAIL
  6
CONTINUOUS
 62
     5
 10
170.65470913123823
 20
-237.54993368241225
 30
0.0
 11
170.63616841866769
 21
-237.94999999999749
 31
0.0
  0
LINE
  8
DETAIL
  6
CONTINUOUS
 62
     5
 10
170.63616841866769
 20
-281.94999999999533
 30
0.0
 11
170.65470913123823
 21
-282.35006631777503
 31
0.0
  0
LINE
  8
DETAIL
  6
CONTINUOUS
 62
     5
 10
170.65470913123823
 20
-282.35006631777503
 30
0.0
 11
170.71107303006826
 21
-282.74738294888658
 31
0.0
  0
LINE
  8
DETAIL
  6
CONTINUOUS
 62
     5
 10
170.71107303006826
 20
-282.74738294888658
 30
0.0
 11
170.80637311996637
 21
-283.13750675262048
 31
0.0
  0
LINE
  8
DETAIL
  6
CONTINUOUS
 62
     5
 10
170.80637311996637
 20
-283.13750675262048
 30
0.0
 11
170.94217503743184
 21
-283.51541908014684
 31
0.0
  0
LINE
  8
DETAIL
  6
CONTINUOUS
 62
     5
 10
170.94217503743184
 20
-283.51541908014684
 30
0.0
 11
171.1213802666864
 21
-283.87440279084348
 31
0.0
  0
LINE
  8
DETAIL
  6
CONTINUOUS
 62
     5
 10
171.1213802666864
 20
-283.87440279084348
 30
0.0
 11
171.34712387101681
 21
-284.20726801102654
 31
0.0
  0
LINE
  8
DETAIL
  6
CONTINUOUS
 62
     5
 10
171.34712387101681
 20
-284.20726801102654
 30
0.0
 11
171.62213598674754
 21
-284.50123519472208
 31
0.0
  0
LINE
  8
DETAIL
  6
CONTINUOUS
 62
     5
 10
171.62213598674754
 20
-284.50123519472208
 30
0.0
 11
171.94864502321229
 21
-284.73662702639069
 31
0.0
  0
LINE
  8
DETAIL
  6
CONTINUOUS
 62
     5
 10
171.94864502321229
 20
-284.73662702639069
 30
0.0
 11
172.32263196688652
 21
-284.8931637023523
 31
0.0
  0
LINE
  8
DETAIL
  6
CONTINUOUS
 62
     5
 10
172.32263196688652
 20
-284.8931637023523
 30
0.0
 11
172.72014353066791
 21
-284.94999999999658
 31
0.0
  0
LINE
  8
DETAIL
  6
CONTINUOUS
 62
     5
 10
172.72014353066791
 20
-44.949999999996628
 30
0.0
 11
172.32263196688655
 21
-45.006836297954386
 31
0.0
  0
LINE
  8
DETAIL
  6
CONTINUOUS
 62
     5
 10
172.32263196688655
 20
-45.006836297954386
 30
0.0
 11
171.94864502321226
 21
-45.163372974361437
 31
0.0
  0
LINE
  8
DETAIL
  6
CONTINUOUS
 62
     5
 10
171.94864502321226
 20
-45.163372974361437
 30
0.0
 11
171.62213598674751
 21
-45.398764806024573
 31
0.0
  0
LINE
  8
DETAIL
  6
CONTINUOUS
 62
     5
 10
171.62213598674751
 20
-45.398764806024573
 30
0.0
 11
171.34712387101683
 21
-45.692731989479711
 31
0.0
  0
LINE
  8
DETAIL
  6
CONTINUOUS
 62
     5
 10
171.34712387101683
 20
-45.692731989479711
 30
0.0
 11
171.12138026668637
 21
-46.025597209627101
 31
0.0
  0
LINE
  8
DETAIL
  6
CONTINUOUS
 62
     5
 10
171.12138026668637
 20
-46.025597209627101
 30
0.0
 11
170.94217503743184
 21
-46.384580920516704
 31
0.0
  0
LINE
  8
DETAIL
  6
CONTINUOUS
 62
     5
 10
170.94217503743184
 20
-46.384580920516704
 30
0.0
 11
170.80637311996637
 21
-46.762493248152104
 31
0.0
  0
LINE
  8
DETAIL
  6
CONTINUOUS
 62
     5
 10
170.80637311996637
 20
-46.762493248152104
 30
0.0
 11
170.71107303006829
 21
-47.152617051666859
 31
0.0
  0
LINE
  8
DETAIL
  6
CONTINUOUS
 62
     5
 10
170.71107303006829
 20
-47.152617051666859
 30
0.0
 11
170.65470913123823
 21
-47.549933682411073
 31
0.0
  0
LINE
  8
DETAIL
  6
CONTINUOUS
 62
     5
 10
170.65470913123823
 20
-47.549933682411073
 30
0.0
 11
170.63616841866769
 21
-47.949999999998909
 31
0.0
  0
LINE
  8
DETAIL
  6
CONTINUOUS
 62
     5
 10
170.63616841866769
 20
-91.949999999996635
 30
0.0
 11
170.65470913123823
 21
-92.350066317776182
 31
0.0
  0
LINE
  8
DETAIL
  6
CONTINUOUS
 62
     5
 10
170.65470913123823
 20
-92.350066317776182
 30
0.0
 11
170.71107303006826
 21
-92.747382948886738
 31
0.0
  0
LINE
  8
DETAIL
  6
CONTINUOUS
 62
     5
 10
170.71107303006826
 20
-92.747382948886738
 30
0.0
 11
170.80637311996637
 21
-93.137506752619586
 31
0.0
  0
LINE
  8
DETAIL
  6
CONTINUOUS
 62
     5
 10
170.80637311996637
 20
-93.137506752619586
 30
0.0
 11
170.94217503743184
 21
-93.515419080145463
 31
0.0
  0
LINE
  8
DETAIL
  6
CONTINUOUS
 62
     5
 10
170.94217503743184
 20
-93.515419080145463
 30
0.0
 11
171.1213802666864
 21
-93.874402790842367
 31
0.0
  0
LINE
  8
DETAIL
  6
CONTINUOUS
 62
     5
 10
171.1213802666864
 20
-93.874402790842367
 30
0.0
 11
171.34712387101681
 21
-94.207268011026329
 31
0.0
  0
LINE
  8
DETAIL
  6
CONTINUOUS
 62
     5
 10
171.34712387101681
 20
-94.207268011026329
 30
0.0
 11
171.62213598674754
 21
-94.501235194722994
 31
0.0
  0
LINE
  8
DETAIL
  6
CONTINUOUS
 62
     5
 10
171.62213598674754
 20
-94.501235194722994
 30
0.0
 11
171.94864502321229
 21
-94.736627026392568
 31
0.0
  0
LINE
  8
DETAIL
  6
CONTINUOUS
 62
     5
 10
171.94864502321229
 20
-94.736627026392568
 30
0.0
 11
172.32263196688652
 21
-94.893163702354585
 31
0.0
  0
LINE
  8
DETAIL
  6
CONTINUOUS
 62
     5
 10
172.32263196688652
 20
-94.893163702354585
 30
0.0
 11
172.72014353066791
 21
-94.949999999998909
 31
0.0
  0
LINE
  8
DETAIL
  6
CONTINUOUS
 62
     5
 10
-137.11284095333119
 20
-185.29999937199449
 30
0.0
 11
-137.16708424635357
 21
-186.05624903893695
 31
0.0
  0
LINE
  8
DETAIL
  6
CONTINUOUS
 62
     5
 10
-137.16708424635357
 20
-186.05624903893695
 30
0.0
 11
-137.32882566334055
 21
-186.79988951449445
 31
0.0
  0
LINE
  8
DETAIL
  6
CONTINUOUS
 62
     5
 10
-137.32882566334055
 20
-186.79988951449445
 30
0.0
 11
-137.59650914740118
 21
-187.51253677653776
 31
0.0
  0
LINE
  8
DETAIL
  6
CONTINUOUS
 62
     5
 10
-137.59650914740118
 20
-187.51253677653776
 30
0.0
 11
-137.96633722028477
 21
-188.17699649085111
 31
0.0
  0
LINE
  8
DETAIL
  6
CONTINUOUS
 62
     5
 10
-137.96633722028477
 20
-188.17699649085111
 30
0.0
 11
-138.43191230751091
 21
-188.77745438638487
 31
0.0
  0
LINE
  8
DETAIL
  6
CONTINUOUS
 62
     5
 10
-138.43191230751091
 20
-188.77745438638487
 30
0.0
 11
-138.98581827151835
 21
-189.29823650266988
 31
0.0
  0
LINE
  8
DETAIL
  6
CONTINUOUS
 62
     5
 10
-138.98581827151835
 20
-189.29823650266988
 30
0.0
 11
-139.61619806134675
 21
-189.72398944822424
 31
0.0
  0
LINE
  8
DETAIL
  6
CONTINUOUS
 62
     5
 10
-139.61619806134675
 20
-189.72398944822424
 30
0.0
 11
-140.30960181341499
 21
-190.03959003745956
 31
0.0
  0
LINE
  8
DETAIL
  6
CONTINUOUS
 62
     5
 10
-140.30960181341499
 20
-190.03959003745956
 30
0.0
 11
-141.04698024144511
 21
-190.23382344940896
 31
0.0
  0
LINE
  8
DETAIL
  6
CONTINUOUS
 62
     5
 10
-141.04698024144511
 20
-190.23382344940896
 30
0.0
 11
-141.80280249333461
 21
-190.29999937199551
 31
0.0
  0
LINE
  8
DETAIL
  6
CONTINUOUS
 62
     5
 10
-139.3128409533283
 20
-185.29999937199449
 30
0.0
 11
-139.3548151683392
 21
-185.80937607277156
 31
0.0
  0
LINE
  8
DETAIL
  6
CONTINUOUS
 62
     5
 10
-139.3548151683392
 20
-185.80937607277156
 30
0.0
 11
-139.48093629755189
 21
-186.311495547764
 31
0.0
  0
LINE
  8
DETAIL
  6
CONTINUOUS
 62
     5
 10
-139.48093629755189
 20
-186.311495547764
 30
0.0
 11
-139.69150210412894
 21
-186.7866847496376
 31
0.0
  0
LINE
  8
DETAIL
  6
CONTINUOUS
 62
     5
 10
-139.69150210412894
 20
-186.7866847496376
 30
0.0
 11
-139.9868103512328
 21
-187.21527063105836
 31
0.0
  0
LINE
  8
DETAIL
  6
CONTINUOUS
 62
     5
 10
-139.9868103512328
 20
-187.21527063105836
 30
0.0
 11
-140.36528465915325
 21
-187.57783629241501
 31
0.0
  0
LINE
  8
DETAIL
  6
CONTINUOUS
 62
     5
 10
-140.36528465915325
 20
-187.57783629241501
 30
0.0
 11
-140.8101802819132
 21
-187.85703796445168
 31
0.0
  0
LINE
  8
DETAIL
  6
CONTINUOUS
 62
     5
 10
-140.8101802819132
 20
-187.85703796445168
 30
0.0
 11
-141.29740196991116
 21
-188.03653650503719
 31
0.0
  0
LINE
  8
DETAIL
  6
CONTINUOUS
 62
     5
 10
-141.29740196991116
 20
-188.03653650503719
 30
0.0
 11
-141.80280618399871
 21
-188.0999993719947
 31
0.0
  0
LINE
  8
DETAIL
  6
CONTINUOUS
 62
     5
 10
-141.80280249333461
 20
-140.69999937199421
 30
0.0
 11
-141.04698041841652
 21
-140.76617527713637
 31
0.0
  0
LINE
  8
DETAIL
  6
CONTINUOUS
 62
     5
 10
-141.04698041841652
 20
-140.76617527713637
 30
0.0
 11
-140.30960217654535
 21
-140.96040863152521
 31
0.0
  0
LINE
  8
DETAIL
  6
CONTINUOUS
 62
     5
 10
-140.30960217654535
 20
-140.96040863152521
 30
0.0
 11
-139.61619854904802
 21
-141.27600911197413
 31
0.0
  0
LINE
  8
DETAIL
  6
CONTINUOUS
 62
     5
 10
-139.61619854904802
 20
-141.27600911197413
 30
0.0
 11
-138.98581877251078
 21
-141.70176188254388
 31
0.0
  0
LINE
  8
DETAIL
  6
CONTINUOUS
 62
     5
 10
-138.98581877251078
 20
-141.70176188254388
 30
0.0
 11
-138.43191278819819
 21
-142.22254381550383
 31
0.0
  0
LINE
  8
DETAIL
  6
CONTINUOUS
 62
     5
 10
-138.43191278819819
 20
-142.22254381550383
 30
0.0
 11
-137.96633771033737
 21
-142.82300156005402
 31
0.0
  0
LINE
  8
DETAIL
  6
CONTINUOUS
 62
     5
 10
-137.96633771033737
 20
-142.82300156005402
 30
0.0
 11
-137.59650962466549
 21
-143.48746111630234
 31
0.0
  0
LINE
  8
DETAIL
  6
CONTINUOUS
 62
     5
 10
-137.59650962466549
 20
-143.48746111630234
 30
0.0
 11
-137.32882603608687
 21
-144.20010816536092
 31
0.0
  0
LINE
  8
DETAIL
  6
CONTINUOUS
 62
     5
 10
-137.32882603608687
 20
-144.20010816536092
 30
0.0
 11
-137.16708444606365
 21
-144.94374840363039
 31
0.0
  0
LINE
  8
DETAIL
  6
CONTINUOUS
 62
     5
 10
-137.16708444606365
 20
-144.94374840363039
 30
0.0
 11
-137.11284095333119
 21
-145.69999787466531
 31
0.0
  0
LINE
  8
DETAIL
  6
CONTINUOUS
 62
     5
 10
-141.80280618399871
 20
-142.89999937199579
 30
0.0
 11
-141.2974020527011
 21
-142.96346220144454
 31
0.0
  0
LINE
  8
DETAIL
  6
CONTINUOUS
 62
     5
 10
-141.2974020527011
 20
-142.96346220144454
 30
0.0
 11
-140.8101804275266
 21
-143.14296064553528
 31
0.0
  0
LINE
  8
DETAIL
  6
CONTINUOUS
 62
     5
 10
-140.8101804275266
 20
-143.14296064553528
 30
0.0
 11
-140.36528484562172
 21
-143.42216218614485
 31
0.0
  0
LINE
  8
DETAIL
  6
CONTINUOUS
 62
     5
 10
-140.36528484562172
 20
-143.42216218614485
 30
0.0
 11
-139.98681055483405
 21
-143.7847277051861
 31
0.0
  0
LINE
  8
DETAIL
  6
CONTINUOUS
 62
     5
 10
-139.98681055483405
 20
-143.7847277051861
 30
0.0
 11
-139.69150230396869
 21
-144.21331345147141
 31
0.0
  0
LINE
  8
DETAIL
  6
CONTINUOUS
 62
     5
 10
-139.69150230396869
 20
-144.21331345147141
 30
0.0
 11
-139.48093646780657
 21
-144.68850252877334
 31
0.0
  0
LINE
  8
DETAIL
  6
CONTINUOUS
 62
     5
 10
-139.48093646780657
 20
-144.68850252877334
 30
0.0
 11
-139.3548152747818
 21
-145.19062189098366
 31
0.0
  0
LINE
  8
DETAIL
  6
CONTINUOUS
 62
     5
 10
-139.3548152747818
 20
-145.19062189098366
 30
0.0
 11
-139.3128409533283
 21
-145.69999849199391
 31
0.0
  0
LINE
  8
DETAIL
  6
CONTINUOUS
 62
     5
 10
-179.8998366506612
 20
-145.5998813613314
 30
0.0
 11
-179.89674045678524
 21
-145.26153066886027
 31
0.0
  0
LINE
  8
DETAIL
  6
CONTINUOUS
 62
     5
 10
-179.89674045678524
 20
-145.26153066886027
 30
0.0
 11
-179.8900013046364
 21
-144.92318175051949
 31
0.0
  0
LINE
  8
DETAIL
  6
CONTINUOUS
 62
     5
 10
-179.8900013046364
 20
-144.92318175051949
 30
0.0
 11
-179.8800224121851
 21
-144.58471577074121
 31
0.0
  0
LINE
  8
DETAIL
  6
CONTINUOUS
 62
     5
 10
-179.8800224121851
 20
-144.58471577074121
 30
0.0
 11
-179.866127074134
 21
-144.24626217281616
 31
0.0
  0
LINE
  8
DETAIL
  6
CONTINUOUS
 62
     5
 10
-179.866127074134
 20
-144.24626217281616
 30
0.0
 11
-179.84702854885697
 21
-143.90809064992879
 31
0.0
  0
LINE
  8
DETAIL
  6
CONTINUOUS
 62
     5
 10
-179.84702854885697
 20
-143.90809064992879
 30
0.0
 11
-179.82143319765319
 21
-143.57047248092957
 31
0.0
  0
LINE
  8
DETAIL
  6
CONTINUOUS
 62
     5
 10
-179.82143319765319
 20
-143.57047248092957
 30
0.0
 11
-179.78804738182191
 21
-143.23367894466918
 31
0.0
  0
LINE
  8
DETAIL
  6
CONTINUOUS
 62
     5
 10
-179.78804738182191
 20
-143.23367894466918
 30
0.0
 11
-179.7455774626624
 21
-142.89798131999811
 31
0.0
  0
LINE
  8
DETAIL
  6
CONTINUOUS
 62
     5
 10
-182.09984770800381
 20
-145.59989652666451
 30
0.0
 11
-182.09510608432379
 21
-145.13393074804364
 31
0.0
  0
LINE
  8
DETAIL
  6
CONTINUOUS
 62
     5
 10
-182.09510608432379
 20
-145.13393074804364
 30
0.0
 11
-182.08349346526199
 21
-144.66806993856522
 31
0.0
  0
LINE
  8
DETAIL
  6
CONTINUOUS
 62
     5
 10
-182.08349346526199
 20
-144.66806993856522
 30
0.0
 11
-182.06467676683923
 21
-144.20236429464518
 31
0.0
  0
LINE
  8
DETAIL
  6
CONTINUOUS
 62
     5
 10
-182.06467676683923
 20
-144.20236429464518
 30
0.0
 11
-182.03830001252837
 21
-143.73686889435396
 31
0.0
  0
LINE
  8
DETAIL
  6
CONTINUOUS
 62
     5
 10
-182.03830001252837
 20
-143.73686889435396
 30
0.0
 11
-182.00255332649664
 21
-143.271948848264
 31
0.0
  0
LINE
  8
DETAIL
  6
CONTINUOUS
 62
     5
 10
-182.00255332649664
 20
-143.271948848264
 30
0.0
 11
-181.95332583396083
 21
-142.80845993673466
 31
0.0
  0
LINE
  8
DETAIL
  6
CONTINUOUS
 62
     5
 10
-181.95332583396083
 20
-142.80845993673466
 30
0.0
 11
-181.88623023689428
 21
-142.34732127333848
 31
0.0
  0
LINE
  8
DETAIL
  6
CONTINUOUS
 62
     5
 10
-181.88623023689428
 20
-142.34732127333848
 30
0.0
 11
-181.79095781206522
 21
-141.89107502571431
 31
0.0
  0
LINE
  8
DETAIL
  6
CONTINUOUS
 62
     5
 10
-181.79095781206522
 20
-141.89107502571431
 30
0.0
 11
-181.63691844842069
 21
-141.45115725544358
 31
0.0
  0
LINE
  8
DETAIL
  6
CONTINUOUS
 62
     5
 10
-181.63691844842069
 20
-141.45115725544358
 30
0.0
 11
-181.37346604608902
 21
-141.06458811686068
 31
0.0
  0
LINE
  8
DETAIL
  6
CONTINUOUS
 62
     5
 10
-181.37346604608902
 20
-141.06458811686068
 30
0.0
 11
-180.98500019041023
 21
-140.79736592602544
 31
0.0
  0
LINE
  8
DETAIL
  6
CONTINUOUS
 62
     5
 10
-180.98500019041023
 20
-140.79736592602544
 30
0.0
 11
-180.52472423865859
 21
-140.69999937199421
 31
0.0
  0
LINE
  8
DETAIL
  6
CONTINUOUS
 62
     5
 10
-179.7457741666631
 20
-188.10060835733199
 30
0.0
 11
-179.78717349037626
 21
-187.76490648868906
 31
0.0
  0
LINE
  8
DETAIL
  6
CONTINUOUS
 62
     5
 10
-179.78717349037626
 20
-187.76490648868906
 30
0.0
 11
-179.81945483073716
 21
-187.42814220188282
 31
0.0
  0
LINE
  8
DETAIL
  6
CONTINUOUS
 62
     5
 10
-179.81945483073716
 20
-187.42814220188282
 30
0.0
 11
-179.84534077021266
 21
-187.09081568562343
 31
0.0
  0
LINE
  8
DETAIL
  6
CONTINUOUS
 62
     5
 10
-179.84534077021266
 20
-187.09081568562343
 30
0.0
 11
-179.86551303685863
 21
-186.75306625784413
 31
0.0
  0
LINE
  8
DETAIL
  6
CONTINUOUS
 62
     5
 10
-179.86551303685863
 20
-186.75306625784413
 30
0.0
 11
-179.88051019378437
 21
-186.41500792156842
 31
0.0
  0
LINE
  8
DETAIL
  6
CONTINUOUS
 62
     5
 10
-179.88051019378437
 20
-186.41500792156842
 30
0.0
 11
-179.89087080409897
 21
-186.07675467981989
 31
0.0
  0
LINE
  8
DETAIL
  6
CONTINUOUS
 62
     5
 10
-179.89087080409897
 20
-186.07675467981989
 30
0.0
 11
-179.89713343091168
 21
-185.73842053562188
 31
0.0
  0
LINE
  8
DETAIL
  6
CONTINUOUS
 62
     5
 10
-179.89713343091168
 20
-185.73842053562188
 30
0.0
 11
-179.89983663733159
 21
-185.40011949199791
 31
0.0
  0
LINE
  8
DETAIL
  6
CONTINUOUS
 62
     5
 10
-180.52472423865859
 20
-190.29999937199551
 30
0.0
 11
-180.98504936263657
 21
-190.2026910088947
 31
0.0
  0
LINE
  8
DETAIL
  6
CONTINUOUS
 62
     5
 10
-180.98504936263657
 20
-190.2026910088947
 30
0.0
 11
-181.37345130760707
 21
-189.93545316713852
 31
0.0
  0
LINE
  8
DETAIL
  6
CONTINUOUS
 62
     5
 10
-181.37345130760707
 20
-189.93545316713852
 30
0.0
 11
-181.63674302239843
 21
-189.54875767634576
 31
0.0
  0
LINE
  8
DETAIL
  6
CONTINUOUS
 62
     5
 10
-181.63674302239843
 20
-189.54875767634576
 30
0.0
 11
-181.79095531602468
 21
-189.10889674245234
 31
0.0
  0
LINE
  8
DETAIL
  6
CONTINUOUS
 62
     5
 10
-181.79095531602468
 20
-189.10889674245234
 30
0.0
 11
-181.88625247817157
 21
-188.65266677314526
 31
0.0
  0
LINE
  8
DETAIL
  6
CONTINUOUS
 62
     5
 10
-181.88625247817157
 20
-188.65266677314526
 30
0.0
 11
-181.95330034779016
 21
-188.19151261037217
 31
0.0
  0
LINE
  8
DETAIL
  6
CONTINUOUS
 62
     5
 10
-181.95330034779016
 20
-188.19151261037217
 30
0.0
 11
-182.00252806632537
 21
-187.72802728504053
 31
0.0
  0
LINE
  8
DETAIL
  6
CONTINUOUS
 62
     5
 10
-182.00252806632537
 20
-187.72802728504053
 30
0.0
 11
-182.0382950516439
 21
-187.26311888650514
 31
0.0
  0
LINE
  8
DETAIL
  6
CONTINUOUS
 62
     5
 10
-182.0382950516439
 20
-187.26311888650514
 30
0.0
 11
-182.0646845176594
 21
-186.79763217037274
 31
0.0
  0
LINE
  8
DETAIL
  6
CONTINUOUS
 62
     5
 10
-182.0646845176594
 20
-186.79763217037274
 30
0.0
 11
-182.08350143071885
 21
-186.33193004043929
 31
0.0
  0
LINE
  8
DETAIL
  6
CONTINUOUS
 62
     5
 10
-182.08350143071885
 20
-186.33193004043929
 30
0.0
 11
-182.09510900195968
 21
-185.86607046772332
 31
0.0
  0
LINE
  8
DETAIL
  6
CONTINUOUS
 62
     5
 10
-182.09510900195968
 20
-185.86607046772332
 30
0.0
 11
-182.09984764398999
 21
-185.40010660132981
 31
0.0
  0
CIRCLE
  8
DETAIL
  6
DASHED
 62
     5
 10
-320.30000000000018
 20
-220.36363982921691
 30
0.0
 40
75.982616649522399
  0
LINE
  8
BASIS
  6
DASHDOT
 62
     6
 10
-320.30000000000018
 20
-117.8545221289842
 30
0.0
 11
-320.30000000000018
 21
-314.16987263514193
 31
0.0
  0
LINE
  8
BASIS
  6
DASHDOT
 62
     6
 10
-213.01395962053081
 20
-220.49999999999861
 30
0.0
 11
-534.23353918345265
 21
-220.49999999999861
 31
0.0
  0
ARC
  8
DETAIL
  6
CONTINUOUS
 62
     5
 10
438.79999999985739
 20
-301.1000000000181
 30
0.0
 40
0.5999999999999987
 50
90.0
 51
180.0
  0
LINE
  8
DETAIL
  6
CONTINUOUS
 62
     5
 10
438.79999999999291
 20
-140.49999999999449
 30
0.0
 11
445.59999999997399
 21
-140.49999999999321
 31
0.0
  0
ARC
  8
DETAIL
  6
CONTINUOUS
 62
     5
 10
438.79999999999291
 20
-139.89999999999461
 30
0.0
 40
0.5999999999999987
 50
180.0
 51
270.0
  0
LINE
  8
DETAIL
  6
CONTINUOUS
 62
     5
 10
-438.77578769379221
 20
-140.50251746657389
 30
0.0
 11
-445.71186240667612
 21
-140.51864373444371
 31
0.0
  0
LINE
  8
DETAIL
  6
CONTINUOUS
 62
     5
 10
-439.60000000000309
 20
-1.6500000000096411
 30
0.0
 11
-443.17499999999291
 21
-1.6500000000096411
 31
0.0
  0
LINE
  8
DETAIL
  6
CONTINUOUS
 62
     5
 10
-439.60000000000309
 20
-1.1499999999969079
 30
0.0
 11
-439.60000000000309
 21
-1.6500000000096411
 31
0.0
  0
ARC
  8
DETAIL
  6
CONTINUOUS
 62
     5
 10
-443.17500000000018
 20
-0.8249999999979991
 30
0.0
 40
0.3249999999990287
 50
90.0
 51
270.0
  0
ARC
  8
DETAIL
  6
CONTINUOUS
 62
     5
 10
-443.17499999999291
 20
-0.8250000000025466
 30
0.0
 40
0.8250000000070016
 50
90.0
 51
270.0
  0
LINE
  8
DETAIL
  6
CONTINUOUS
 62
     5
 10
-443.17500000000018
 20
-1.1499999999969079
 30
0.0
 11
-438.10000000000309
 21
-1.1499999999969079
 31
0.0
  0
LINE
  8
DETAIL
  6
CONTINUOUS
 62
     5
 10
439.59999999999582
 20
-1.6500000000096411
 30
0.0
 11
443.17499999998557
 21
-1.6500000000096411
 31
0.0
  0
LINE
  8
DETAIL
  6
CONTINUOUS
 62
     5
 10
439.59999999999582
 20
-1.1499999999969079
 30
0.0
 11
439.59999999999582
 21
-1.6500000000096411
 31
0.0
  0
ARC
  8
DETAIL
  6
CONTINUOUS
 62
     5
 10
443.17500000000018
 20
-0.8249999999979991
 30
0.0
 40
0.3249999999990287
 50
270.0
 51
90.0
  0
ARC
  8
DETAIL
  6
CONTINUOUS
 62
     5
 10
443.17499999998557
 20
-0.8250000000025466
 30
0.0
 40
0.8250000000070016
 50
270.0
 51
90.0
  0
LINE
  8
DETAIL
  6
CONTINUOUS
 62
     5
 10
-439.59999999999582
 20
-328.74999999997948
 30
0.0
 11
-443.17499999998557
 21
-328.74999999997948
 31
0.0
  0
ARC
  8
DETAIL
  6
CONTINUOUS
 62
     5
 10
-443.17499999998557
 20
-329.87499999998948
 30
0.0
 40
1.1250000000097859
 50
90.0
 51
270.0
  0
ARC
  8
DETAIL
  6
CONTINUOUS
 62
     5
 10
-443.17500000000018
 20
-329.87499999999949
 30
0.0
 40
0.3249999999997037
 50
90.0
 51
270.0
  0
LINE
  8
DETAIL
  6
CONTINUOUS
 62
     5
 10
-439.59999999999582
 20
-329.54999999999973
 30
0.0
 11
-439.59999999999582
 21
-328.74999999997948
 31
0.0
  0
LINE
  8
DETAIL
  6
CONTINUOUS
 62
     5
 10
-438.10000000000309
 20
-329.549999999997
 30
0.0
 11
-443.17500000000018
 21
-329.54999999999973
 31
0.0
  0
LINE
  8
DETAIL
  6
CONTINUOUS
 62
     5
 10
439.59999999999582
 20
-328.74999999997948
 30
0.0
 11
443.17499999998557
 21
-328.74999999997948
 31
0.0
  0
ARC
  8
DETAIL
  6
CONTINUOUS
 62
     5
 10
443.17499999998557
 20
-329.87499999998948
 30
0.0
 40
1.1250000000097859
 50
270.0
 51
90.0
  0
ARC
  8
DETAIL
  6
CONTINUOUS
 62
     5
 10
443.17499999999291
 20
-329.87499999999949
 30
0.0
 40
0.3249999999997037
 50
270.0
 51
90.0
  0
LINE
  8
DETAIL
  6
CONTINUOUS
 62
     5
 10
439.59999999999582
 20
-329.54999999999973
 30
0.0
 11
439.59999999999582
 21
-328.74999999997948
 31
0.0
  0
LINE
  8
DETAIL
  6
CONTINUOUS
 62
     5
 10
429.07999999997719
 20
-328.74999999997948
 30
0.0
 11
-429.07999999998452
 21
-328.74999999997948
 31
0.0
  0
LINE
  8
DETAIL
  6
CONTINUOUS
 62
     5
 10
-429.74999999999
 20
-1.6500000000096411
 30
0.0
 11
429.74999999998272
 21
-1.6500000000096411
 31
0.0
  0
LINE
  8
BASIS
  6
DASHDOT
 62
     6
 10
537.3266239699833
 20
-220.50001143641521
 30
0.0
 11
411.35535224393698
 21
-220.50001143641521
 31
0.0
  0
LINE
  8
SIZE
  6
CONTINUOUS
 62
    30
 10
-444.0
 20
19.17499999999745
 30
0.0
 11
-444.0
 21
292.43365340598478
 31
0.0
  0
LINE
  8
SIZE
  6
CONTINUOUS
 62
    30
 10
443.99999999999272
 20
19.17499999999745
 30
0.0
 11
443.99999999999272
 21
292.43365340598478
 31
0.0
  0
LINE
  8
SIZE
  6
CONTINUOUS
 62
    30
 10
-432.0
 20
272.43365340598478
 30
0.0
 11
431.99999999999272
 21
272.43365340598478
 31
0.0
  0
CIRCLE
  8
SIZE
  6
CONTINUOUS
 62
    30
 10
-444.0
 20
272.43365340598478
 30
0.0
 40
6.0
  0
LINE
  8
SIZE
  6
CONTINUOUS
 62
    30
 10
-444.0
 20
272.43365340598478
 30
0.0
 11
-432.0
 21
272.43365340598478
 31
0.0
  0
CIRCLE
  8
SIZE
  6
CONTINUOUS
 62
    30
 10
443.99999999999272
 20
272.43365340598478
 30
0.0
 40
6.0
  0
LINE
  8
SIZE
  6
CONTINUOUS
 62
    30
 10
443.99999999999272
 20
272.43365340598478
 30
0.0
 11
431.99999999999272
 21
272.43365340598478
 31
0.0
  0
TEXT
  8
SIZE
  6
CONTINUOUS
 62
    30
 10
-80.352000000003642
 20
297.43365340598478
 30
0.0
 40
64.0
  1
888
 50
0.0
 41
0.9
 51
0.0
  7
STANDARD
 71
     0
 72
     1
 11
-0.000000000003638
 21
297.43365340598478
 31
0.0
210
0.0
220
0.0
230
1.0
  0
POINT
  8
DEFPOINTS
  6
CONTINUOUS
 62
    30
 10
-444.0
 20
-0.8250000000025466
 30
0.0
  0
POINT
  8
DEFPOINTS
  6
CONTINUOUS
 62
    30
 10
443.99999999999272
 20
-0.8250000000025466
 30
0.0
  0
POINT
  8
DEFPOINTS
  6
CONTINUOUS
 62
    30
 10
443.99999999999272
 20
272.43365340598478
 30
0.0
  0
LINE
  8
SIZE
  6
CONTINUOUS
 62
    30
 10
-507.99999999999591
 20
-129.50012895599869
 30
0.0
 11
-507.99999999999591
 21
292.43365340598478
 31
0.0
  0
LINE
  8
SIZE
  6
CONTINUOUS
 62
    30
 10
-444.0
 20
19.17499999999745
 30
0.0
 11
-444.0
 21
292.43365340598478
 31
0.0
  0
LINE
  8
SIZE
  6
CONTINUOUS
 62
    30
 10
-519.99999999999591
 20
272.43365340598478
 30
0.0
 11
-531.99999999999591
 21
272.43365340598478
 31
0.0
  0
LINE
  8
SIZE
  6
CONTINUOUS
 62
    30
 10
-432.0
 20
272.43365340598478
 30
0.0
 11
-420.0
 21
272.43365340598478
 31
0.0
  0
LINE
  8
SIZE
  6
CONTINUOUS
 62
    30
 10
-507.99999999999591
 20
272.43365340598478
 30
0.0
 11
-444.0
 21
272.43365340598478
 31
0.0
  0
CIRCLE
  8
SIZE
  6
CONTINUOUS
 62
    30
 10
-507.99999999999591
 20
272.43365340598478
 30
0.0
 40
6.0
  0
LINE
  8
SIZE
  6
CONTINUOUS
 62
    30
 10
-507.99999999999591
 20
272.43365340598478
 30
0.0
 11
-519.99999999999591
 21
272.43365340598478
 31
0.0
  0
CIRCLE
  8
SIZE
  6
CONTINUOUS
 62
    30
 10
-444.0
 20
272.43365340598478
 30
0.0
 40
6.0
  0
LINE
  8
SIZE
  6
CONTINUOUS
 62
    30
 10
-444.0
 20
272.43365340598478
 30
0.0
 11
-432.0
 21
272.43365340598478
 31
0.0
  0
TEXT
  8
SIZE
  6
CONTINUOUS
 62
    30
 10
-530.14399999999796
 20
297.43365340598478
 30
0.0
 40
64.0
  1
64
 50
0.0
 41
0.9
 51
0.0
  7
STANDARD
 71
     0
 72
     1
 11
-475.99999999999795
 21
297.43365340598478
 31
0.0
210
0.0
220
0.0
230
1.0
  0
POINT
  8
DEFPOINTS
  6
CONTINUOUS
 62
    30
 10
-507.99999999999591
 20
-149.50012895599869
 30
0.0
  0
POINT
  8
DEFPOINTS
  6
CONTINUOUS
 62
    30
 10
-444.0
 20
-0.8250000000025466
 30
0.0
  0
POINT
  8
DEFPOINTS
  6
CONTINUOUS
 62
    30
 10
-444.0
 20
272.43365340598478
 30
0.0
  0
LINE
  8
SIZE
  6
CONTINUOUS
 62
    30
 10
507.99999999999551
 20
-129.49979999999641
 30
0.0
 11
507.99999999999551
 21
292.43365340598478
 31
0.0
  0
LINE
  8
SIZE
  6
CONTINUOUS
 62
    30
 10
443.99999999999272
 20
19.17499999999745
 30
0.0
 11
443.99999999999272
 21
292.43365340598478
 31
0.0
  0
LINE
  8
SIZE
  6
CONTINUOUS
 62
    30
 10
519.99999999999545
 20
272.43365340598478
 30
0.0
 11
531.99999999999545
 21
272.43365340598478
 31
0.0
  0
LINE
  8
SIZE
  6
CONTINUOUS
 62
    30
 10
431.99999999999272
 20
272.43365340598478
 30
0.0
 11
419.99999999999272
 21
272.43365340598478
 31
0.0
  0
LINE
  8
SIZE
  6
CONTINUOUS
 62
    30
 10
507.99999999999551
 20
272.43365340598478
 30
0.0
 11
443.99999999999272
 21
272.43365340598478
 31
0.0
  0
CIRCLE
  8
SIZE
  6
CONTINUOUS
 62
    30
 10
507.99999999999551
 20
272.43365340598478
 30
0.0
 40
6.0
  0
LINE
  8
SIZE
  6
CONTINUOUS
 62
    30
 10
507.99999999999551
 20
272.43365340598478
 30
0.0
 11
519.99999999999545
 21
272.43365340598478
 31
0.0
  0
CIRCLE
  8
SIZE
  6
CONTINUOUS
 62
    30
 10
443.99999999999272
 20
272.43365340598478
 30
0.0
 40
6.0
  0
LINE
  8
SIZE
  6
CONTINUOUS
 62
    30
 10
443.99999999999272
 20
272.43365340598478
 30
0.0
 11
431.99999999999272
 21
272.43365340598478
 31
0.0
  0
TEXT
  8
SIZE
  6
CONTINUOUS
 62
    30
 10
421.85599999999408
 20
297.43365340598478
 30
0.0
 40
64.0
  1
64
 50
0.0
 41
0.9
 51
0.0
  7
STANDARD
 71
     0
 72
     1
 11
475.99999999999409
 21
297.43365340598478
 31
0.0
210
0.0
220
0.0
230
1.0
  0
POINT
  8
DEFPOINTS
  6
CONTINUOUS
 62
    30
 10
507.99999999999551
 20
-149.49979999999641
 30
0.0
  0
POINT
  8
DEFPOINTS
  6
CONTINUOUS
 62
    30
 10
443.99999999999272
 20
-0.8250000000025466
 30
0.0
  0
POINT
  8
DEFPOINTS
  6
CONTINUOUS
 62
    30
 10
443.99999999999272
 20
272.43365340598478
 30
0.0
  0
LINE
  8
SIZE
  6
CONTINUOUS
 62
    30
 10
-444.29999999999558
 20
-349.87499999998948
 30
0.0
 11
-444.29999999999558
 21
-566.40738240206974
 31
0.0
  0
LINE
  8
SIZE
  6
CONTINUOUS
 62
    30
 10
-320.30000000000018
 20
-334.16987263514193
 30
0.0
 11
-320.30000000000018
 21
-566.40738240206974
 31
0.0
  0
LINE
  8
SIZE
  6
CONTINUOUS
 62
    30
 10
-332.30000000000018
 20
-546.40738240206974
 30
0.0
 11
-432.29999999999558
 21
-546.40738240206974
 31
0.0
  0
LINE
  8
SIZE
  6
CONTINUOUS
 62
    30
 10
-444.29999999999558
 20
-546.40738240206974
 30
0.0
 11
-646.18571428570999
 21
-546.40738240206974
 31
0.0
  0
CIRCLE
  8
SIZE
  6
CONTINUOUS
 62
    30
 10
-320.30000000000018
 20
-546.40738240206974
 30
0.0
 40
6.0
  0
LINE
  8
SIZE
  6
CONTINUOUS
 62
    30
 10
-320.30000000000018
 20
-546.40738240206974
 30
0.0
 11
-332.30000000000018
 21
-546.40738240206974
 31
0.0
  0
CIRCLE
  8
SIZE
  6
CONTINUOUS
 62
    30
 10
-444.29999999999558
 20
-546.40738240206974
 30
0.0
 40
6.0
  0
LINE
  8
SIZE
  6
CONTINUOUS
 62
    30
 10
-444.29999999999558
 20
-546.40738240206974
 30
0.0
 11
-432.29999999999558
 21
-546.40738240206974
 31
0.0
  0
TEXT
  8
SIZE
  6
CONTINUOUS
 62
    30
 10
-626.41085714285282
 20
-521.40738240206974
 30
0.0
 40
64.0
  1
124
 50
0.0
 41
0.9
 51
0.0
  7
STANDARD
 71
     0
 72
     1
 11
-551.24285714285281
 21
-521.40738240206974
 31
0.0
210
0.0
220
0.0
230
1.0
  0
POINT
  8
DEFPOINTS
  6
CONTINUOUS
 62
    30
 10
-444.29999999999558
 20
-329.87499999998948
 30
0.0
  0
POINT
  8
DEFPOINTS
  6
CONTINUOUS
 62
    30
 10
-320.30000000000018
 20
-314.16987263514193
 30
0.0
  0
POINT
  8
DEFPOINTS
  6
CONTINUOUS
 62
    30
 10
-320.30000000000018
 20
-546.40738240206974
 30
0.0
  0
LINE
  8
SIZE
  6
CONTINUOUS
 62
    30
 10
-554.23353918345288
 20
-220.49999999999869
 30
0.0
 11
-710.31374930879724
 21
-220.49999999999881
 31
0.0
  0
LINE
  8
SIZE
  6
CONTINUOUS
 62
    30
 10
-594.66666666666765
 20
-165.49999999999741
 30
0.0
 11
-710.31374930879724
 21
-165.49999999999741
 31
0.0
  0
LINE
  8
SIZE
  6
CONTINUOUS
 62
    30
 10
-690.31374930879724
 20
-232.49999999999881
 30
0.0
 11
-690.31374930879724
 21
-244.49999999999881
 31
0.0
  0
LINE
  8
SIZE
  6
CONTINUOUS
 62
    30
 10
-690.31374930879724
 20
-153.49999999999741
 30
0.0
 11
-690.31374930879724
 21
-141.49999999999741
 31
0.0
  0
LINE
  8
SIZE
  6
CONTINUOUS
 62
    30
 10
-690.31374930879724
 20
-220.49999999999881
 30
0.0
 11
-690.31374930879724
 21
-165.49999999999741
 31
0.0
  0
CIRCLE
  8
SIZE
  6
CONTINUOUS
 62
    30
 10
-690.31374930879724
 20
-220.49999999999881
 30
0.0
 40
6.0
  0
LINE
  8
SIZE
  6
CONTINUOUS
 62
    30
 10
-690.31374930879724
 20
-220.49999999999881
 30
0.0
 11
-690.31374930879724
 21
-232.49999999999881
 31
0.0
  0
CIRCLE
  8
SIZE
  6
CONTINUOUS
 62
    30
 10
-690.31374930879724
 20
-165.49999999999741
 30
0.0
 40
6.0
  0
LINE
  8
SIZE
  6
CONTINUOUS
 62
    30
 10
-690.31374930879724
 20
-165.49999999999741
 30
0.0
 11
-690.31374930879724
 21
-153.49999999999741
 31
0.0
  0
TEXT
  8
SIZE
  6
CONTINUOUS
 62
    30
 10
-715.31374930879713
 20
-246.5679999999978
 30
0.0
 40
64.0
  1
55
 50
90.0
 41
0.9
 51
0.0
  7
STANDARD
 71
     0
 72
     1
 11
-715.31374930879713
 21
-192.99999999999781
 31
0.0
210
0.0
220
0.0
230
1.0
  0
POINT
  8
DEFPOINTS
  6
CONTINUOUS
 62
    30
 10
-534.23353918345288
 20
-220.49999999999869
 30
0.0
  0
POINT
  8
DEFPOINTS
  6
CONTINUOUS
 62
    30
 10
-574.66666666666765
 20
-165.4999999999973
 30
0.0
  0
POINT
  8
DEFPOINTS
  6
CONTINUOUS
 62
    30
 10
-690.31374930879724
 20
-165.49999999999741
 30
0.0
  0
LINE
  8
SIZE
  6
CONTINUOUS
 62
    30
 10
527.99999999999568
 20
-291.49999999999602
 30
0.0
 11
870.53209821911184
 21
-291.49999999999602
 31
0.0
  0
LINE
  8
SIZE
  6
CONTINUOUS
 62
    30
 10
527.99999999999557
 20
-149.50002895599621
 30
0.0
 11
870.53209821911173
 21
-149.50002895599621
 31
0.0
  0
LINE
  8
SIZE
  6
CONTINUOUS
 62
    30
 10
850.53209821911184
 20
-279.49999999999602
 30
0.0
 11
850.53209821911173
 21
-161.50002895599621
 31
0.0
  0
LINE
  8
SIZE
  6
CONTINUOUS
 62
    30
 10
850.53209821911173
 20
-149.50002895599621
 30
0.0
 11
850.53209821911173
 21
101.7571139011467
 31
0.0
  0
CIRCLE
  8
SIZE
  6
CONTINUOUS
 62
    30
 10
850.53209821911184
 20
-291.49999999999602
 30
0.0
 40
6.0
  0
LINE
  8
SIZE
  6
CONTINUOUS
 62
    30
 10
850.53209821911184
 20
-291.49999999999602
 30
0.0
 11
850.53209821911184
 21
-279.49999999999602
 31
0.0
  0
CIRCLE
  8
SIZE
  6
CONTINUOUS
 62
    30
 10
850.53209821911173
 20
-149.50002895599621
 30
0.0
 40
6.0
  0
LINE
  8
SIZE
  6
CONTINUOUS
 62
    30
 10
850.53209821911173
 20
-149.50002895599621
 30
0.0
 11
850.53209821911173
 21
-161.50002895599621
 31
0.0
  0
TEXT
  8
SIZE
  6
CONTINUOUS
 62
    30
 10
825.5320982191115
 20
-127.59945752742503
 30
0.0
 40
64.0
  1
φ142
 50
90.0
 41
0.9
 51
0.0
  7
STANDARD
 71
     0
 72
     1
 11
825.5320982191115
 21
-17.871457527424973
 31
0.0
210
0.0
220
0.0
230
1.0
  0
POINT
  8
DEFPOINTS
  6
CONTINUOUS
 62
    30
 10
507.99999999999568
 20
-291.49999999999602
 30
0.0
  0
POINT
  8
DEFPOINTS
  6
CONTINUOUS
 62
    30
 10
507.99999999999568
 20
-149.50002895599621
 30
0.0
  0
POINT
  8
DEFPOINTS
  6
CONTINUOUS
 62
    30
 10
850.53209821911173
 20
-149.50002895599621
 30
0.0
  0
LINE
  8
SIZE
  6
CONTINUOUS
 62
    30
 10
465.59999999999599
 20
-300.49999999999869
 30
0.0
 11
1005.73618742677
 21
-300.49999999999869
 31
0.0
  0
LINE
  8
SIZE
  6
CONTINUOUS
 62
    30
 10
465.59999999999599
 20
-140.4999999999973
 30
0.0
 11
1005.73618742677
 21
-140.49999999999719
 31
0.0
  0
LINE
  8
SIZE
  6
CONTINUOUS
 62
    30
 10
985.73618742677024
 20
-288.49999999999869
 30
0.0
 11
985.73618742677013
 21
-152.49999999999719
 31
0.0
  0
LINE
  8
SIZE
  6
CONTINUOUS
 62
    30
 10
985.73618742677013
 20
-140.49999999999719
 30
0.0
 11
985.73618742677013
 21
110.75714285714569
 31
0.0
  0
CIRCLE
  8
SIZE
  6
CONTINUOUS
 62
    30
 10
985.73618742677024
 20
-300.49999999999869
 30
0.0
 40
6.0
  0
LINE
  8
SIZE
  6
CONTINUOUS
 62
    30
 10
985.73618742677024
 20
-300.49999999999869
 30
0.0
 11
985.73618742677024
 21
-288.49999999999869
 31
0.0
  0
CIRCLE
  8
SIZE
  6
CONTINUOUS
 62
    30
 10
985.73618742677013
 20
-140.49999999999719
 30
0.0
 40
6.0
  0
LINE
  8
SIZE
  6
CONTINUOUS
 62
    30
 10
985.73618742677013
 20
-140.49999999999719
 30
0.0
 11
985.73618742677013
 21
-152.49999999999719
 31
0.0
  0
TEXT
  8
SIZE
  6
CONTINUOUS
 62
    30
 10
960.7361874267699
 20
-118.59942857142599
 30
0.0
 40
64.0
  1
φ160
 50
90.0
 41
0.9
 51
0.0
  7
STANDARD
 71
     0
 72
     1
 11
960.7361874267699
 21
-8.8714285714260352
 31
0.0
210
0.0
220
0.0
230
1.0
  0
POINT
  8
DEFPOINTS
  6
CONTINUOUS
 62
    30
 10
445.59999999999599
 20
-300.49999999999869
 30
0.0
  0
POINT
  8
DEFPOINTS
  6
CONTINUOUS
 62
    30
 10
445.59999999999599
 20
-140.4999999999973
 30
0.0
  0
POINT
  8
DEFPOINTS
  6
CONTINUOUS
 62
    30
 10
985.73618742677013
 20
-140.49999999999719
 30
0.0
  0
LINE
  8
SIZE
  6
CONTINUOUS
 62
    30
 10
-463.17499999999308
 20
0.0000000000045443
 30
0.0
 11
-831.86153065134192
 21
0.000000000004485
 31
0.0
  0
LINE
  8
SIZE
  6
CONTINUOUS
 62
    30
 10
-463.2499999999975
 20
-330.9999999999942
 30
0.0
 11
-831.86153065134181
 21
-330.99999999999432
 31
0.0
  0
LINE
  8
SIZE
  6
CONTINUOUS
 62
    30
 10
-811.86153065134192
 20
-11.999999999995509
 30
0.0
 11
-811.86153065134181
 21
-318.99999999999432
 31
0.0
  0
CIRCLE
  8
SIZE
  6
CONTINUOUS
 62
    30
 10
-811.86153065134192
 20
0.0000000000044882
 30
0.0
 40
6.0
  0
LINE
  8
SIZE
  6
CONTINUOUS
 62
    30
 10
-811.86153065134192
 20
0.0000000000044882
 30
0.0
 11
-811.86153065134192
 21
-11.999999999995511
 31
0.0
  0
CIRCLE
  8
SIZE
  6
CONTINUOUS
 62
    30
 10
-811.86153065134181
 20
-330.99999999999432
 30
0.0
 40
6.0
  0
LINE
  8
SIZE
  6
CONTINUOUS
 62
    30
 10
-811.86153065134181
 20
-330.99999999999432
 30
0.0
 11
-811.86153065134181
 21
-318.99999999999432
 31
0.0
  0
TEXT
  8
SIZE
  6
CONTINUOUS
 62
    30
 10
-836.8615306513417
 20
-240.09199999999458
 30
0.0
 40
64.0
  1
331
 50
90.0
 41
0.9
 51
0.0
  7
STANDARD
 71
     0
 72
     1
 11
-836.8615306513417
 21
-165.4999999999946
 31
0.0
210
0.0
220
0.0
230
1.0
  0
POINT
  8
DEFPOINTS
  6
CONTINUOUS
 62
    30
 10
-443.17499999999308
 20
0.0000000000045475
 30
0.0
  0
POINT
  8
DEFPOINTS
  6
CONTINUOUS
 62
    30
 10
-443.2499999999975
 20
-330.9999999999942
 30
0.0
  0
POINT
  8
DEFPOINTS
  6
CONTINUOUS
 62
    30
 10
-811.86153065134181
 20
-330.99999999999432
 30
0.0
  0
LINE
  8
SIZE
  6
CONTINUOUS
 62
    30
 10
-463.17499999999308
 20
0.0000000000045443
 30
0.0
 11
-710.31374930879986
 21
0.0000000000045045
 31
0.0
  0
LINE
  8
SIZE
  6
CONTINUOUS
 62
    30
 10
-508.43427874224773
 20
-84.899999999999665
 30
0.0
 11
-710.31374930879986
 21
-84.899999999999693
 31
0.0
  0
LINE
  8
SIZE
  6
CONTINUOUS
 62
    30
 10
-690.31374930879986
 20
-72.899999999999693
 30
0.0
 11
-690.31374930879986
 21
-11.99999999999549
 31
0.0
  0
LINE
  8
SIZE
  6
CONTINUOUS
 62
    30
 10
-690.31374930879986
 20
0.0000000000045077
 30
0.0
 11
-690.31374930879986
 21
155.25714285714739
 31
0.0
  0
CIRCLE
  8
SIZE
  6
CONTINUOUS
 62
    30
 10
-690.31374930879986
 20
-84.899999999999693
 30
0.0
 40
6.0
  0
LINE
  8
SIZE
  6
CONTINUOUS
 62
    30
 10
-690.31374930879986
 20
-84.899999999999693
 30
0.0
 11
-690.31374930879986
 21
-72.899999999999693
 31
0.0
  0
CIRCLE
  8
SIZE
  6
CONTINUOUS
 62
    30
 10
-690.31374930879986
 20
0.0000000000045077
 30
0.0
 40
6.0
  0
LINE
  8
SIZE
  6
CONTINUOUS
 62
    30
 10
-690.31374930879986
 20
0.0000000000045077
 30
0.0
 11
-690.31374930879986
 21
-11.999999999995492
 31
0.0
  0
TEXT
  8
SIZE
  6
CONTINUOUS
 62
    30
 10
-715.31374930879974
 20
30.060571428576154
 30
0.0
 40
64.0
  1
85
 50
90.0
 41
0.9
 51
0.0
  7
STANDARD
 71
     0
 72
     1
 11
-715.31374930879974
 21
83.628571428576137
 31
0.0
210
0.0
220
0.0
230
1.0
  0
POINT
  8
DEFPOINTS
  6
CONTINUOUS
 62
    30
 10
-443.17499999999308
 20
0.0000000000045475
 30
0.0
  0
POINT
  8
DEFPOINTS
  6
CONTINUOUS
 62
    30
 10
-488.43427874224773
 20
-84.899999999999665
 30
0.0
  0
POINT
  8
DEFPOINTS
  6
CONTINUOUS
 62
    30
 10
-690.31374930879986
 20
-84.899999999999693
 30
0.0
  0
LINE
  8
SIZE
  6
CONTINUOUS
 62
    30
 10
508.43427874224858
 20
-84.950000000007122
 30
0.0
 11
731.18911818708887
 21
-84.950000000007094
 31
0.0
  0
LINE
  8
SIZE
  6
CONTINUOUS
 62
    30
 10
463.1749999999854
 20
0.0000000000045507
 30
0.0
 11
731.18911818708887
 21
0.0000000000045938
 31
0.0
  0
LINE
  8
SIZE
  6
CONTINUOUS
 62
    30
 10
711.18911818708887
 20
-72.950000000007094
 30
0.0
 11
711.18911818708887
 21
-11.99999999999541
 31
0.0
  0
LINE
  8
SIZE
  6
CONTINUOUS
 62
    30
 10
711.18911818708887
 20
0.0000000000045906
 30
0.0
 11
711.18911818708887
 21
155.2571428571475
 31
0.0
  0
CIRCLE
  8
SIZE
  6
CONTINUOUS
 62
    30
 10
711.18911818708887
 20
-84.950000000007094
 30
0.0
 40
6.0
  0
LINE
  8
SIZE
  6
CONTINUOUS
 62
    30
 10
711.18911818708887
 20
-84.950000000007094
 30
0.0
 11
711.18911818708887
 21
-72.950000000007094
 31
0.0
  0
CIRCLE
  8
SIZE
  6
CONTINUOUS
 62
    30
 10
711.18911818708887
 20
0.0000000000045906
 30
0.0
 40
6.0
  0
LINE
  8
SIZE
  6
CONTINUOUS
 62
    30
 10
711.18911818708887
 20
0.0000000000045906
 30
0.0
 11
711.18911818708887
 21
-11.99999999999541
 31
0.0
  0
TEXT
  8
SIZE
  6
CONTINUOUS
 62
    30
 10
686.18911818708875
 20
30.060571428575841
 30
0.0
 40
64.0
  1
85
 50
90.0
 41
0.9
 51
0.0
  7
STANDARD
 71
     0
 72
     1
 11
686.18911818708875
 21
83.628571428575825
 31
0.0
210
0.0
220
0.0
230
1.0
  0
POINT
  8
DEFPOINTS
  6
CONTINUOUS
 62
    30
 10
488.43427874224858
 20
-84.950000000007122
 30
0.0
  0
POINT
  8
DEFPOINTS
  6
CONTINUOUS
 62
    30
 10
443.1749999999854
 20
0.0000000000045475
 30
0.0
  0
POINT
  8
DEFPOINTS
  6
CONTINUOUS
 62
    30
 10
711.18911818708887
 20
0.0000000000045906
 30
0.0
  0
POINT
  8
ARRANGE
  6
CONTINUOUS
 62
     1
 10
0.0
 20
0.0
 30
0.0
  0
CIRCLE
  8
ARRANGE
  6
CONTINUOUS
 62
     1
 10
0.0
 20
0.0
 30
0.0
 40
40.0
  0
LINE
  8
OUTLINE
  6
CONTINUOUS
 62
     3
 10
-438.80000000000751
 20
-300.49999999999909
 30
0.0
 11
-445.60000000000309
 21
-300.49999999999909
 31
0.0
  0
LINE
  8
OUTLINE
  6
CONTINUOUS
 62
     3
 10
-445.60000000000309
 20
-300.49999999999909
 30
0.0
 11
-500.10000000000309
 21
-291.50010000000202
 31
0.0
  0
LINE
  8
OUTLINE
  6
CONTINUOUS
 62
     3
 10
-500.10000000000309
 20
-291.50010000000202
 30
0.0
 11
-507.99999999999591
 21
-291.50009999999838
 31
0.0
  0
LINE
  8
OUTLINE
  6
CONTINUOUS
 62
     3
 10
-507.99999999999591
 20
-291.50009999999838
 30
0.0
 11
-507.99999999999591
 21
-149.50012895599869
 31
0.0
  0
LINE
  8
OUTLINE
  6
CONTINUOUS
 62
     3
 10
-507.99999999999591
 20
-149.50012895599869
 30
0.0
 11
-500.00000000000318
 21
-149.49989999999889
 31
0.0
  0
LINE
  8
OUTLINE
  6
CONTINUOUS
 62
     3
 10
-500.00000000000318
 20
-149.49989999999889
 30
0.0
 11
-445.71186240667612
 21
-140.51864373444371
 31
0.0
  0
LINE
  8
OUTLINE
  6
CONTINUOUS
 62
     3
 10
-445.71186240667612
 20
-140.51864373444371
 30
0.0
 11
-438.80000000000791
 21
-140.5030061954308
 31
0.0
  0
ARC
  8
OUTLINE
  6
CONTINUOUS
 62
     3
 10
-438.80000000000712
 20
-139.90300619543166
 30
0.0
 40
0.5999999999991346
 50
270.0
 51
0.0
  0
LINE
  8
OUTLINE
  6
CONTINUOUS
 62
     3
 10
-438.200000000008
 20
-139.90300619543089
 30
0.0
 11
-438.20000000000158
 21
-134.9999999999977
 31
0.0
  0
LINE
  8
OUTLINE
  6
CONTINUOUS
 62
     3
 10
-438.20000000000158
 20
-134.9999999999977
 30
0.0
 11
-451.10000000000309
 21
-134.9999999999973
 31
0.0
  0
ARC
  8
OUTLINE
  6
CONTINUOUS
 62
     3
 10
-451.10000000000775
 20
-130.00000000000924
 30
0.0
 40
4.9999999999880638
 50
180.0
 51
270.0
  0
LINE
  8
OUTLINE
  6
CONTINUOUS
 62
     3
 10
-456.09999999999582
 20
-129.99999999999639
 30
0.0
 11
-456.10000000000628
 21
-84.999999999999091
 31
0.0
  0
LINE
  8
OUTLINE
  6
CONTINUOUS
 62
     3
 10
-456.10000000000628
 20
-84.999999999999091
 30
0.0
 11
-437.60000000000258
 21
-84.999999999999091
 31
0.0
  0
LINE
  8
OUTLINE
  6
CONTINUOUS
 62
     3
 10
-437.60000000000258
 20
-84.999999999999091
 30
0.0
 11
-437.60000000000309
 21
-1.649999999995089
 31
0.0
  0
ARC
  8
OUTLINE
  6
CONTINUOUS
 62
     3
 10
-438.10000000000088
 20
-1.6499999999942114
 30
0.0
 40
0.4999999999977585
 50
0.0
 51
90.0
  0
LINE
  8
OUTLINE
  6
CONTINUOUS
 62
     3
 10
-438.10000000000491
 20
-1.149999999996453
 30
0.0
 11
-439.60000000000309
 21
-1.1499999999969079
 31
0.0
  0
LINE
  8
OUTLINE
  6
CONTINUOUS
 62
     3
 10
-439.60000000000309
 20
-1.1499999999969079
 30
0.0
 11
-439.60000000000309
 21
-1.6500000000096411
 31
0.0
  0
LINE
  8
OUTLINE
  6
CONTINUOUS
 62
     3
 10
-439.60000000000309
 20
-1.6500000000096411
 30
0.0
 11
-443.17499999999291
 21
-1.6500000000096411
 31
0.0
  0
ARC
  8
OUTLINE
  6
CONTINUOUS
 62
     3
 10
-443.17499999999291
 20
-0.8250000000025468
 30
0.0
 40
0.8250000000070943
 50
90.0
 51
270.0
  0
LINE
  8
OUTLINE
  6
CONTINUOUS
 62
     3
 10
-443.17499999999291
 20
0.0000000000045475
 30
0.0
 11
-437.5581655866672
 21
0.0
 31
0.0
  0
ARC
  8
OUTLINE
  6
CONTINUOUS
 62
     3
 10
-437.55816558609041
 20
-0.9999999985289245
 30
0.0
 40
0.9999999985289245
 50
4.9999999183975774
 51
90.0
  0
LINE
  8
OUTLINE
  6
CONTINUOUS
 62
     3
 10
-436.56197088933999
 20
-0.9128442573282882
 30
0.0
 11
-436.40998945467157
 21
-2.6499999999978172
 31
0.0
  0
LINE
  8
OUTLINE
  6
CONTINUOUS
 62
     3
 10
-436.40998945467157
 20
-2.6499999999978172
 30
0.0
 11
-435.60000000000309
 21
-2.6499999999978172
 31
0.0
  0
LINE
  8
OUTLINE
  6
CONTINUOUS
 62
     3
 10
-435.60000000000309
 20
-2.6499999999978172
 30
0.0
 11
-435.60000000000309
 21
-0.6499999999987267
 31
0.0
  0
LINE
  8
OUTLINE
  6
CONTINUOUS
 62
     3
 10
-435.60000000000309
 20
-0.6499999999987267
 30
0.0
 11
-435.49999999999733
 21
-0.6499999999987267
 31
0.0
  0
LINE
  8
OUTLINE
  6
CONTINUOUS
 62
     3
 10
-435.49999999999733
 20
-0.6499999999987267
 30
0.0
 11
-435.49999999999733
 21
0.0
 31
0.0
  0
LINE
  8
OUTLINE
  6
CONTINUOUS
 62
     3
 10
-435.49999999999733
 20
0.0
 30
0.0
 11
435.49999999999733
 21
0.0
 31
0.0
  0
LINE
  8
OUTLINE
  6
CONTINUOUS
 62
     3
 10
435.49999999999733
 20
0.0
 30
0.0
 11
435.50000000000449
 21
-0.6499999999987267
 31
0.0
  0
LINE
  8
OUTLINE
  6
CONTINUOUS
 62
     3
 10
435.50000000000449
 20
-0.6499999999987267
 30
0.0
 11
435.60000000000309
 21
-0.6499999999987267
 31
0.0
  0
LINE
  8
OUTLINE
  6
CONTINUOUS
 62
     3
 10
435.60000000000309
 20
-0.6499999999987267
 30
0.0
 11
435.60000000000309
 21
-2.6499999999978172
 31
0.0
  0
LINE
  8
OUTLINE
  6
CONTINUOUS
 62
     3
 10
435.60000000000309
 20
-2.6499999999978172
 30
0.0
 11
436.40998945466441
 21
-2.6499999999978172
 31
0.0
  0
LINE
  8
OUTLINE
  6
CONTINUOUS
 62
     3
 10
436.40998945466441
 20
-2.6499999999978172
 30
0.0
 11
436.56197088933283
 21
-0.9128442573282882
 31
0.0
  0
ARC
  8
OUTLINE
  6
CONTINUOUS
 62
     3
 10
437.55816558609553
 20
-0.9999999985423774
 30
0.0
 40
0.9999999985423775
 50
90.0
 51
175.00000008089592
  0
LINE
  8
OUTLINE
  6
CONTINUOUS
 62
     3
 10
437.5581655866672
 20
0.0
 30
0.0
 11
443.24999999999733
 21
-0.0000000000004547
 31
0.0
  0
ARC
  8
OUTLINE
  6
CONTINUOUS
 62
     3
 10
443.17321428570614
 20
-0.8232142857190815
 30
0.0
 40
0.8267876427054525
 50
270.12374879097069
 51
84.671126803243965
  0
LINE
  8
OUTLINE
  6
CONTINUOUS
 62
     3
 10
443.17499999998557
 20
-1.6500000000096411
 30
0.0
 11
439.59999999999951
 21
-1.6500000000096411
 31
0.0
  0
LINE
  8
OUTLINE
  6
CONTINUOUS
 62
     3
 10
439.59999999999951
 20
-1.6500000000096411
 30
0.0
 11
439.59999999999951
 21
-1.1499999999969079
 31
0.0
  0
LINE
  8
OUTLINE
  6
CONTINUOUS
 62
     3
 10
439.59999999999951
 20
-1.1499999999969079
 30
0.0
 11
438.09999999999582
 21
-1.1499999999969079
 31
0.0
  0
ARC
  8
OUTLINE
  6
CONTINUOUS
 62
     3
 10
438.09999999999258
 20
-1.6499999999936958
 30
0.0
 40
0.499999999996788
 50
90.0
 51
180.0
  0
LINE
  8
OUTLINE
  6
CONTINUOUS
 62
     3
 10
437.59999999999582
 20
-1.649999999995089
 30
0.0
 11
437.59999999999218
 21
-84.999999999999091
 31
0.0
  0
LINE
  8
OUTLINE
  6
CONTINUOUS
 62
     3
 10
437.59999999999218
 20
-84.999999999999091
 30
0.0
 11
456.09999999999582
 21
-84.999999999999091
 31
0.0
  0
LINE
  8
OUTLINE
  6
CONTINUOUS
 62
     3
 10
456.09999999999582
 20
-84.999999999999091
 30
0.0
 11
456.09999999999582
 21
-129.99999999999639
 31
0.0
  0
ARC
  8
OUTLINE
  6
CONTINUOUS
 62
     3
 10
451.09999999999667
 20
-129.99999999999727
 30
0.0
 40
4.999999999999126
 50
270.0
 51
0.0
  0
LINE
  8
OUTLINE
  6
CONTINUOUS
 62
     3
 10
451.09999999999582
 20
-134.99999999999639
 30
0.0
 11
438.19999999999442
 21
-134.9999999999973
 31
0.0
  0
LINE
  8
OUTLINE
  6
CONTINUOUS
 62
     3
 10
438.19999999999442
 20
-134.9999999999973
 30
0.0
 11
438.19999999999482
 21
-139.89999999999461
 31
0.0
  0
ARC
  8
OUTLINE
  6
CONTINUOUS
 62
     3
 10
438.79999999999086
 20
-139.89999999999847
 30
0.0
 40
0.5999999999960292
 50
180.0
 51
270.0
  0
LINE
  8
OUTLINE
  6
CONTINUOUS
 62
     3
 10
438.79999999999291
 20
-140.49999999999449
 30
0.0
 11
445.59999999997399
 21
-140.49999999999321
 31
0.0
  0
LINE
  8
OUTLINE
  6
CONTINUOUS
 62
     3
 10
445.59999999997399
 20
-140.49999999999321
 30
0.0
 11
499.99999999999551
 21
-149.4997710440002
 31
0.0
  0
LINE
  8
OUTLINE
  6
CONTINUOUS
 62
     3
 10
499.99999999999551
 20
-149.4997710440002
 30
0.0
 11
507.99999999999551
 21
-149.49999999999909
 31
0.0
  0
LINE
  8
OUTLINE
  6
CONTINUOUS
 62
     3
 10
507.99999999999551
 20
-149.49999999999909
 30
0.0
 11
507.99999999999551
 21
-291.49977104399568
 31
0.0
  0
LINE
  8
OUTLINE
  6
CONTINUOUS
 62
     3
 10
507.99999999999551
 20
-291.49977104399568
 30
0.0
 11
499.99999999999551
 21
-291.49977104399568
 31
0.0
  0
LINE
  8
OUTLINE
  6
CONTINUOUS
 62
     3
 10
499.99999999999551
 20
-291.49977104399568
 30
0.0
 11
445.59999999998132
 21
-300.50000000125277
 31
0.0
  0
LINE
  8
OUTLINE
  6
CONTINUOUS
 62
     3
 10
445.59999999998132
 20
-300.50000000125277
 30
0.0
 11
438.79999999999291
 21
-300.49999999999773
 31
0.0
  0
ARC
  8
OUTLINE
  6
CONTINUOUS
 62
     3
 10
438.80140768029077
 20
-301.10140771058462
 30
0.0
 40
0.6014093580226348
 50
90.134108677459551
 51
179.86466400700635
  0
LINE
  8
OUTLINE
  6
CONTINUOUS
 62
     3
 10
438.19999999999533
 20
-301.09998714771473
 30
0.0
 11
438.19999999999442
 21
-310.54999999733133
 31
0.0
  0
LINE
  8
OUTLINE
  6
CONTINUOUS
 62
     3
 10
438.19999999999442
 20
-310.54999999733133
 30
0.0
 11
437.59999999999582
 21
-310.54999999999791
 31
0.0
  0
LINE
  8
OUTLINE
  6
CONTINUOUS
 62
     3
 10
437.59999999999582
 20
-310.54999999999791
 30
0.0
 11
437.59999999999582
 21
-329.04999999999927
 31
0.0
  0
ARC
  8
OUTLINE
  6
CONTINUOUS
 62
     3
 10
438.09999999999582
 20
-329.04999999999927
 30
0.0
 40
0.4999999999999902
 50
180.0
 51
270.0
  0
LINE
  8
OUTLINE
  6
CONTINUOUS
 62
     3
 10
438.09999999999582
 20
-329.54999999999927
 30
0.0
 11
439.59999999999582
 21
-329.54999999999791
 31
0.0
  0
LINE
  8
OUTLINE
  6
CONTINUOUS
 62
     3
 10
439.59999999999582
 20
-329.54999999999791
 30
0.0
 11
439.59999999999582
 21
-328.74999999997948
 31
0.0
  0
LINE
  8
OUTLINE
  6
CONTINUOUS
 62
     3
 10
439.59999999999582
 20
-328.74999999997948
 30
0.0
 11
443.17499999998557
 21
-328.74999999997948
 31
0.0
  0
ARC
  8
OUTLINE
  6
CONTINUOUS
 62
     3
 10
443.17499999998557
 20
-329.87499999998948
 30
0.0
 40
1.1250000000100044
 50
270.0
 51
90.0
  0
LINE
  8
OUTLINE
  6
CONTINUOUS
 62
     3
 10
443.17499999998557
 20
-330.99999999999949
 30
0.0
 11
437.83306493866712
 21
-330.99999999999409
 31
0.0
  0
ARC
  8
OUTLINE
  6
CONTINUOUS
 62
     3
 10
437.83306493866451
 20
-329.39999999999685
 30
0.0
 40
1.5999999999972183
 50
184.99999999995828
 51
270.0
  0
LINE
  8
OUTLINE
  6
CONTINUOUS
 62
     3
 10
436.2391534217204
 20
-329.5394491883917
 30
0.0
 11
436.1088435026586
 21
-328.04999999999609
 31
0.0
  0
LINE
  8
OUTLINE
  6
CONTINUOUS
 62
     3
 10
436.1088435026586
 20
-328.04999999999609
 30
0.0
 11
435.60000000000309
 21
-328.04999999999609
 31
0.0
  0
LINE
  8
OUTLINE
  6
CONTINUOUS
 62
     3
 10
435.60000000000309
 20
-328.04999999999609
 30
0.0
 11
435.60000000000309
 21
-330.04999999999518
 31
0.0
  0
LINE
  8
OUTLINE
  6
CONTINUOUS
 62
     3
 10
435.60000000000309
 20
-330.04999999999518
 30
0.0
 11
435.09999999999582
 21
-330.04999999999518
 31
0.0
  0
LINE
  8
OUTLINE
  6
CONTINUOUS
 62
     3
 10
435.09999999999582
 20
-330.04999999999518
 30
0.0
 11
435.09999999999582
 21
-330.99999999999409
 31
0.0
  0
LINE
  8
OUTLINE
  6
CONTINUOUS
 62
     3
 10
435.09999999999582
 20
-330.99999999999409
 30
0.0
 11
-435.09999999999582
 21
-330.99999999999409
 31
0.0
  0
LINE
  8
OUTLINE
  6
CONTINUOUS
 62
     3
 10
-435.09999999999582
 20
-330.99999999999409
 30
0.0
 11
-435.09999999999582
 21
-330.04999999999518
 31
0.0
  0
LINE
  8
OUTLINE
  6
CONTINUOUS
 62
     3
 10
-435.09999999999582
 20
-330.04999999999518
 30
0.0
 11
-435.60000000000309
 21
-330.04999999999382
 31
0.0
  0
LINE
  8
OUTLINE
  6
CONTINUOUS
 62
     3
 10
-435.60000000000309
 20
-330.04999999999382
 30
0.0
 11
-435.60000000000309
 21
-328.04999999999609
 31
0.0
  0
LINE
  8
OUTLINE
  6
CONTINUOUS
 62
     3
 10
-435.60000000000309
 20
-328.04999999999609
 30
0.0
 11
-436.10884350399738
 21
-328.04999999999609
 31
0.0
  0
LINE
  8
OUTLINE
  6
CONTINUOUS
 62
     3
 10
-436.10884350399738
 20
-328.04999999999609
 30
0.0
 11
-436.23915342266719
 21
-329.53944918932888
 31
0.0
  0
ARC
  8
OUTLINE
  6
CONTINUOUS
 62
     3
 10
-437.83306493802684
 20
-329.40000000163656
 30
0.0
 40
1.599999998357525
 50
270.0
 51
355.00000002015827
  0
LINE
  8
OUTLINE
  6
CONTINUOUS
 62
     3
 10
-437.83306493866712
 20
-330.99999999999409
 30
0.0
 11
-443.17499999998557
 21
-330.99999999999449
 31
0.0
  0
ARC
  8
OUTLINE
  6
CONTINUOUS
 62
     3
 10
-443.17499999998557
 20
-329.87499999998698
 30
0.0
 40
1.1250000000075033
 50
90.0
 51
270.0
  0
LINE
  8
OUTLINE
  6
CONTINUOUS
 62
     3
 10
-443.17499999998557
 20
-328.74999999997948
 30
0.0
 11
-439.59999999999582
 21
-328.74999999997948
 31
0.0
  0
LINE
  8
OUTLINE
  6
CONTINUOUS
 62
     3
 10
-439.59999999999582
 20
-328.74999999997948
 30
0.0
 11
-439.59999999999758
 21
-329.54999999999649
 31
0.0
  0
LINE
  8
OUTLINE
  6
CONTINUOUS
 62
     3
 10
-439.59999999999758
 20
-329.54999999999649
 30
0.0
 11
-438.09999999999951
 21
-329.549999999997
 31
0.0
  0
ARC
  8
OUTLINE
  6
CONTINUOUS
 62
     3
 10
-438.09999999999928
 20
-329.04999999999723
 30
0.0
 40
0.4999999999997962
 50
270.0
 51
0.0
  0
LINE
  8
OUTLINE
  6
CONTINUOUS
 62
     3
 10
-437.59999999999951
 20
-329.049999999997
 30
0.0
 11
-437.60000000000309
 21
-310.45000000199889
 31
0.0
  0
LINE
  8
OUTLINE
  6
CONTINUOUS
 62
     3
 10
-437.60000000000309
 20
-310.45000000199889
 30
0.0
 11
-438.20000000000158
 21
-310.44999999799711
 31
0.0
  0
LINE
  8
OUTLINE
  6
CONTINUOUS
 62
     3
 10
-438.20000000000158
 20
-310.44999999799711
 30
0.0
 11
-438.20000000000158
 21
-301.10000000000127
 31
0.0
  0
ARC
  8
OUTLINE
  6
CONTINUOUS
 62
     3
 10
-438.80000000001479
 20
-301.1000000000123
 30
0.0
 40
0.6000000000132048
 50
0.0
 51
90.0
  0
ARC
  8
DETAIL
  6
CONTINUOUS
 62
     5
 10
-438.80000000000791
 20
-139.90300619543089
 30
0.0
 40
0.5999999999999987
 50
270.0
 51
0.0
  0
LINE
  8
BASIS
  6
DASHDOT
 62
     6
 10
488.43427874224841
 20
-84.950000000007094
 30
0.0
 11
386.56572125775529
 21
-84.950000000006185
 31
0.0
  0
LINE
  8
BASIS
  6
DASHDOT
 62
     6
 10
437.49999999999818
 20
-34.015721257751473
 30
0.0
 11
437.49999999999818
 21
-135.88427874224911
 31
0.0
  0
LINE
  8
BASIS
  6
DASHDOT
 62
     6
 10
-386.56572125775438
 20
-85.0
 30
0.0
 11
-488.43427874224739
 21
-84.899999999999636
 31
0.0
  0
LINE
  8
BASIS
  6
DASHDOT
 62
     6
 10
-437.50000000000091
 20
-34.022102026291577
 30
0.0
 11
-437.50000000000182
 21
-135.89065951078831
 31
0.0
  0
LINE
  8
SIZE
  6
CONTINUOUS
 62
    30
 10
-437.60000000000309
 20
-23.32499999999709
 30
0.0
 11
-437.60000000000309
 21
177.46541400781101
 31
0.0
  0
LINE
  8
SIZE
  6
CONTINUOUS
 62
    30
 10
437.49999999999818
 20
-14.015721257751469
 30
0.0
 11
437.49999999999818
 21
177.46541400781101
 31
0.0
  0
LINE
  8
SIZE
  6
CONTINUOUS
 62
    30
 10
-425.60000000000309
 20
157.46541400781101
 30
0.0
 11
425.49999999999818
 21
157.46541400781101
 31
0.0
  0
CIRCLE
  8
SIZE
  6
CONTINUOUS
 62
    30
 10
-437.60000000000309
 20
157.46541400781101
 30
0.0
 40
6.0
  0
LINE
  8
SIZE
  6
CONTINUOUS
 62
    30
 10
-437.60000000000309
 20
157.46541400781101
 30
0.0
 11
-425.60000000000309
 21
157.46541400781101
 31
0.0
  0
CIRCLE
  8
SIZE
  6
CONTINUOUS
 62
    30
 10
437.49999999999818
 20
157.46541400781101
 30
0.0
 40
6.0
  0
LINE
  8
SIZE
  6
CONTINUOUS
 62
    30
 10
437.49999999999818
 20
157.46541400781101
 30
0.0
 11
425.49999999999818
 21
157.46541400781101
 31
0.0
  0
TEXT
  8
SIZE
  6
CONTINUOUS
 62
    30
 10
-80.40200000000246
 20
182.46541400781101
 30
0.0
 40
64.0
  1
875
 50
0.0
 41
0.9
 51
0.0
  7
STANDARD
 71
     0
 72
     1
 11
-0.0500000000024556
 21
182.46541400781101
 31
0.0
210
0.0
220
0.0
230
1.0
  0
POINT
  8
DEFPOINTS
  6
CONTINUOUS
 62
    30
 10
-437.60000000000309
 20
-43.32499999999709
 30
0.0
  0
POINT
  8
DEFPOINTS
  6
CONTINUOUS
 62
    30
 10
437.49999999999818
 20
-34.015721257751473
 30
0.0
  0
POINT
  8
DEFPOINTS
  6
CONTINUOUS
 62
    30
 10
437.49999999999818
 20
157.46541400781101
 30
0.0
  0
CIRCLE
  8
FIX
  6
CONTINUOUS
 62
    11
 10
437.50000000000182
 20
-84.950000000006185
 30
0.0
 40
6.5
  0
CIRCLE
  8
FIX
  6
CONTINUOUS
 62
    11
 10
-437.50000000000091
 20
-84.95638076853993
 30
0.0
 40
6.5
  0
TEXT
  8
ETC
  6
CONTINUOUS
 62
    61
 10
962.68867391614276
 20
708.78892540943116
 30
0.0
 40
64.065641025638456
  1
LGH-35RVX3-E_5
 41
0.9
  0
TEXT
  8
ETC
  6
CONTINUOUS
 62
    61
 10
958.4983865889626
 20
590.71263558946112
 30
0.0
 40
64.065641025638456
  1
LOSSNAY
 41
0.9
  0
TEXT
  8
ETC
  6
CONTINUOUS
 62
    61
 10
1009.251786271618
 20
482.45294088489493
 30
0.0
 40
40.041025641024042
  1
LGH-35RVX3-E
 50
0.0
 41
0.9
 51
0.0
  7
STANDARD
 71
     0
 11
0.0
 21
0.0
 31
0.0
210
0.0
220
0.0
230
1.0
  0
TEXT
  8
NOTE
  6
CONTINUOUS
 62
     4
 10
549.0704248833963
 20
-252.8916524210799
 30
0.0
 40
64.065641025638456
  1
SA
 41
0.9
  0
TEXT
  8
NOTE
  6
CONTINUOUS
 62
     4
 10
-647.91455675152429
 20
-252.8916524210799
 30
0.0
 40
64.065641025638456
  1
OA
 41
0.9
  0
TEXT
  8
NOTE
  6
CONTINUOUS
 62
     4
 10
496.26303322684629
 20
-420.06626031273481
 30
0.0
 40
69.0
  1
Power supply
 50
0.0
 41
0.9
 51
0.0
  7
STANDARD
 71
     0
 11
0.0
 21
0.0
 31
0.0
210
0.0
220
0.0
230
1.0
  0
TEXT
  8
NOTE
  6
CONTINUOUS
 62
     4
 10
496.26303322684629
 20
-533.91626031273483
 30
0.0
 40
69.0
  1
cable opening
 50
0.0
 41
0.9
 51
0.0
  7
STANDARD
 71
     0
 11
0.0
 21
0.0
 31
0.0
210
0.0
220
0.0
230
1.0
  0
LINE
  8
NOTE
  6
CONTINUOUS
 62
     4
 10
486.26303322684629
 20
-558.06626031273481
 30
0.0
 11
1137.9630332268459
 21
-558.06626031273481
 31
0.0
  0
LINE
  8
NOTE
  6
CONTINUOUS
 62
     4
 10
379.08760843097997
 20
-310.52728625703634
 30
0.0
 11
376.29999999999558
 21
-274.39999999999782
 31
0.0
  0
LINE
  8
NOTE
  6
CONTINUOUS
 62
     4
 10
376.29999999999558
 20
-274.39999999999782
 30
0.0
 11
396.77782789311442
 21
-304.29331259399288
 31
0.0
  0
LINE
  8
NOTE
  6
CONTINUOUS
 62
     4
 10
376.29999999999558
 20
-274.39999999999782
 30
0.0
 11
399.56543632409881
 21
-340.4205988510314
 31
0.0
  0
LINE
  8
NOTE
  6
CONTINUOUS
 62
     4
 10
399.56543632409881
 20
-340.42059885103151
 30
0.0
 11
476.26303322684629
 21
-558.06626031273481
 31
0.0
  0
LINE
  8
NOTE
  6
CONTINUOUS
 62
     4
 10
476.26303322684629
 20
-558.06626031273481
 30
0.0
 11
486.26303322684629
 21
-558.06626031273481
 31
0.0
  0
TEXT
  8
NOTE
  6
CONTINUOUS
 62
     4
 10
579.00887788309365
 20
364.55919312464681
 30
0.0
 40
69.0
  1
Ceiling suspension fixture
 50
0.0
 41
0.9
 51
0.0
  7
STANDARD
 71
     0
 11
0.0
 21
0.0
 31
0.0
210
0.0
220
0.0
230
1.0
  0
TEXT
  8
NOTE
  6
CONTINUOUS
 62
     4
 10
579.00887788309365
 20
250.70919312464682
 30
0.0
 40
69.0
  1
(4-13X20 oval)
 50
0.0
 41
0.9
 51
0.0
  7
STANDARD
 71
     0
 11
0.0
 21
0.0
 31
0.0
210
0.0
220
0.0
230
1.0
  0
LINE
  8
NOTE
  6
CONTINUOUS
 62
     4
 10
569.00887788309365
 20
213.41633598178939
 30
0.0
 11
1785.5231635973789
 21
213.41633598178939
 31
0.0
  0
LINE
  8
NOTE
  6
CONTINUOUS
 62
     4
 10
459.38655508970123
 20
-56.072149971264508
 30
0.0
 11
437.50000489138392
 21
-84.950004695586358
 31
0.0
  0
LINE
  8
NOTE
  6
CONTINUOUS
 62
     4
 10
437.50000489138392
 20
-84.950004695586358
 30
0.0
 11
442.01533182417484
 21
-48.997766993984072
 31
0.0
  0
LINE
  8
NOTE
  6
CONTINUOUS
 62
     4
 10
437.50000489138392
 20
-84.950004695586358
 30
0.0
 11
463.90188202249215
 21
-20.119912269662223
 31
0.0
  0
LINE
  8
NOTE
  6
CONTINUOUS
 62
     4
 10
463.90188202249198
 20
-20.119912269662191
 30
0.0
 11
559.00887788309365
 21
213.41633598178939
 31
0.0
  0
LINE
  8
NOTE
  6
CONTINUOUS
 62
     4
 10
559.00887788309365
 20
213.41633598178939
 30
0.0
 11
569.00887788309365
 21
213.41633598178939
 31
0.0
  0
ENDSEC
  0
EOF
