  0
SECTION
  2
HEADER
  9
$ACADVER
  1
AC1009
  9
$DWGCODEPAGE
  3
dos932
  9
$INSBASE
 10
0.0
 20
0.0
 30
0.0
  9
$EXTMIN
 10
-1316.5054163738459
 20
-576.46178043966938
 30
-0.0000000349181948
  9
$EXTMAX
 10
1835.8566409277919
 20
877.67029644184549
 30
0.0000000814935746
  9
$LIMMIN
 10
-2970.0
 20
-2100.0
  9
$LIMMAX
 10
2970.0
 20
2100.0
  9
$ORTHOMODE
 70
     1
  9
$REGENMODE
 70
     1
  9
$FILLMODE
 70
     1
  9
$QTEXTMODE
 70
     0
  9
$MIRRTEXT
 70
     0
  9
$LTSCALE
 40
20.0
  9
$ATTMODE
 70
     1
  9
$TEXTSIZE
 40
64.0
  9
$TRACEWID
 40
0.05
  9
$TEXTSTYLE
  7
STANDARD
  9
$CLAYER
  8
SIZE
  9
$CELTYPE
  6
CONTINUOUS
  9
$CECOLOR
 62
     7
  9
$DIMSCALE
 40
1.0
  9
$DIMASZ
 40
12.0
  9
$DIMEXO
 40
20.0
  9
$DIMDLI
 40
200.0
  9
$DIMRND
 40
0.0
  9
$DIMDLE
 40
0.0
  9
$DIMEXE
 40
20.0
  9
$DIMTP
 40
0.0
  9
$DIMTM
 40
0.0
  9
$DIMTXT
 40
64.0
  9
$DIMCEN
 40
0.09
  9
$DIMTSZ
 40
0.0
  9
$DIMTOL
 70
     0
  9
$DIMLIM
 70
     0
  9
$DIMTIH
 70
     0
  9
$DIMTOH
 70
     0
  9
$DIMSE1
 70
     0
  9
$DIMSE2
 70
     0
  9
$DIMTAD
 70
     1
  9
$DIMZIN
 70
     8
  9
$DIMBLK
  1

  9
$DIMASO
 70
     1
  9
$DIMSHO
 70
     0
  9
$DIMPOST
  1

  9
$DIMAPOST
  1

  9
$DIMALT
 70
     0
  9
$DIMALTD
 70
     2
  9
$DIMALTF
 40
25.399999999999999
  9
$DIMLFAC
 40
1.0
  9
$DIMTOFL
 70
     1
  9
$DIMTVP
 40
0.0
  9
$DIMTIX
 70
     1
  9
$DIMSOXD
 70
     0
  9
$DIMSAH
 70
     0
  9
$DIMBLK1
  1

  9
$DIMBLK2
  1

  9
$DIMSTYLE
  2
STANDARD
  9
$DIMCLRD
 70
     7
  9
$DIMCLRE
 70
     7
  9
$DIMCLRT
 70
     7
  9
$DIMTFAC
 40
1.0
  9
$DIMGAP
 40
25.0
  9
$LUNITS
 70
     2
  9
$LUPREC
 70
     4
  9
$SKETCHINC
 40
0.1
  9
$FILLETRAD
 40
3.0
  9
$AUNITS
 70
     1
  9
$AUPREC
 70
     3
  9
$MENU
  1
ACAD
  9
$ELEVATION
 40
0.0
  9
$PELEVATION
 40
0.0
  9
$THICKNESS
 40
0.0
  9
$LIMCHECK
 70
     0
  9
$CHAMFERA
 40
0.0
  9
$CHAMFERB
 40
0.0
  9
$SKPOLY
 70
     0
  9
$TDCREATE
 40
2453019.62301037
  9
$TDUPDATE
 40
2460045.428324305
  9
$TDINDWG
 40
1.7138470023
  9
$TDUSRTIMER
 40
1.7138470023
  9
$USRTIMER
 70
     1
  9
$ANGBASE
 50
0.0
  9
$ANGDIR
 70
     0
  9
$PDMODE
 70
     3
  9
$PDSIZE
 40
-2.0
  9
$PLINEWID
 40
0.0
  9
$SPLFRAME
 70
     0
  9
$SPLINETYPE
 70
     6
  9
$SPLINESEGS
 70
     8
  9
$SURFTAB1
 70
     6
  9
$SURFTAB2
 70
     6
  9
$SURFTYPE
 70
     6
  9
$SURFU
 70
     6
  9
$SURFV
 70
     6
  9
$UCSNAME
  2

  9
$UCSORG
 10
0.0
 20
0.0
 30
0.0
  9
$UCSXDIR
 10
1.0
 20
0.0
 30
0.0
  9
$UCSYDIR
 10
0.0
 20
1.0
 30
0.0
  9
$PUCSNAME
  2

  9
$PUCSORG
 10
0.0
 20
0.0
 30
0.0
  9
$PUCSXDIR
 10
1.0
 20
0.0
 30
0.0
  9
$PUCSYDIR
 10
0.0
 20
1.0
 30
0.0
  9
$USERI1
 70
     0
  9
$USERI2
 70
     0
  9
$USERI3
 70
     0
  9
$USERI4
 70
     0
  9
$USERI5
 70
     0
  9
$USERR1
 40
20.0
  9
$USERR2
 40
0.0
  9
$USERR3
 40
0.0
  9
$USERR4
 40
0.0
  9
$USERR5
 40
0.0
  9
$WORLDVIEW
 70
     1
  9
$SHADEDGE
 70
     3
  9
$SHADEDIF
 70
    70
  9
$TILEMODE
 70
     1
  9
$MAXACTVP
 70
    48
  9
$PINSBASE
 10
0.0
 20
0.0
 30
0.0
  9
$PLIMCHECK
 70
     0
  9
$PEXTMIN
 10
-100000000000000000000.0
 20
-100000000000000000000.0
 30
-100000000000000000000.0
  9
$PEXTMAX
 10
100000000000000000000.0
 20
100000000000000000000.0
 30
100000000000000000000.0
  9
$PLIMMIN
 10
0.0
 20
0.0
  9
$PLIMMAX
 10
12.0
 20
9.0
  9
$UNITMODE
 70
     0
  9
$VISRETAIN
 70
     0
  9
$PLINEGEN
 70
     0
  9
$PSLTSCALE
 70
     0
  9
$TREEDEPTH
 70
  3020
  9
$ATTDIA
 70
     0
  9
$ATTREQ
 70
     1
  9
$BLIPMODE
 70
     1
  9
$COORDS
 70
     1
  9
$DRAGMODE
 70
     2
  9
$OSMODE
 70
     0
  9
$HANDLING
 70
     0
  9
$HANDSEED
  5
F5FB
  0
ENDSEC
  0
SECTION
  2
TABLES
  0
TABLE
  2
LTYPE
 70
     2
  0
LTYPE
  2
CONTINUOUS
 70
     0
  3
実線
 72
    65
 73
     0
 40
0.0
  0
LTYPE
  2
DASHDOT
 70
     0
  3
____ _ ____ _ ____ _ ____ _ ____ _ ____ _ ____
 72
    65
 73
     4
 40
5.5
 49
4.0
 49
-0.6
 49
0.3
 49
-0.6
  0
ENDTAB
  0
TABLE
  2
LAYER
 70
    12
  0
LAYER
  2
0
 70
     0
 62
     7
  6
CONTINUOUS
  0
LAYER
  2
BASIS
 70
     0
 62
     6
  6
DASHDOT
  0
LAYER
  2
OUTLINE
 70
     0
 62
     3
  6
CONTINUOUS
  0
LAYER
  2
DETAIL
 70
     0
 62
     5
  6
CONTINUOUS
  0
LAYER
  2
SIZE
 70
     0
 62
    30
  6
CONTINUOUS
  0
LAYER
  2
ARRANGE
 70
     0
 62
     1
  6
CONTINUOUS
  0
LAYER
  2
DEFPOINTS
 70
     0
 62
     7
  6
CONTINUOUS
  0
LAYER
  2
ETC
 70
     0
 62
    61
  6
CONTINUOUS
  0
LAYER
  2
FIX
 70
     0
 62
    11
  6
CONTINUOUS
  0
LAYER
  2
NOTE
 70
     0
 62
     4
  6
CONTINUOUS
  0
LAYER
  2
SERVICESPACE
 70
    64
 62
     2
  6
DASHDOT
  0
LAYER
  2
SYMBOLLINE
 70
    64
 62
    15
  6
CONTINUOUS
  0
ENDTAB
  0
TABLE
  2
STYLE
 70
     1
  0
STYLE
  2
STANDARD
 70
     0
 40
64.0
 41
0.9
 50
0.0
 71
     0
 42
64.0
  3
SIMPLEX.shx
  4
BIGFONT.shx
  0
ENDTAB
  0
TABLE
  2
APPID
 70
    23
  0
APPID
  2
ACAD
 70
     0
  0
APPID
  2
AUTOCAD_POSTSCRIPT_FIGURE
 70
     0
  0
APPID
  2
ACAD_EXEMPT_FROM_CAD_STANDARDS
 70
     0
  0
APPID
  2
ACAD_PSEXT
 70
     0
  0
APPID
  2
ACAUTHENVIRON
 70
     0
  0
APPID
  2
GENIUS_GENOENT_13
 70
     0
  0
APPID
  2
GENIUS_GENCFG_13
 70
     0
  0
APPID
  2
GENIUS_GENCFG0_13
 70
     0
  0
APPID
  2
GENIUS_GENCFG1_13
 70
     0
  0
APPID
  2
GENIUS_GENCFG2_13
 70
     0
  0
APPID
  2
GENIUS_GENCFG3_13
 70
     0
  0
APPID
  2
GENIUS_GENCFG4_13
 70
     0
  0
APPID
  2
GENIUS_GEVCFG0_13
 70
     0
  0
APPID
  2
CONTENTBLOCKICON
 70
     0
  0
APPID
  2
CONTENTBLOCKDESCRIPTION
 70
     0
  0
APPID
  2
ACAD_NAV_VCDISPLAY
 70
     0
  0
APPID
  2
ACAD_MLEADERVER
 70
     0
  0
APPID
  2
ACDBDYNAMICBLOCKTRUENAME
 70
     0
  0
APPID
  2
ACDBDYNAMICBLOCKGUID
 70
     0
  0
APPID
  2
GENIUS_GENODEF_13
 70
     0
  0
APPID
  2
GENIUS_GENOBJ-N-CEN_13
 70
     0
  0
APPID
  2
GENIUS_GENCEN_19
 70
     0
  0
APPID
  2
ACAD_DSTYLE_DIMRADIAL_EXTENSION
 70
     0
  0
ENDTAB
  0
TABLE
  2
DIMSTYLE
 70
     1
  0
DIMSTYLE
  2
STANDARD
 70
     0
  3

  4

  5
_ORIGIN
  6

  7

 40
1.0
 41
12.0
 42
20.0
 43
200.0
 44
20.0
 45
0.0
 46
0.0
 47
0.0
 48
0.0
140
64.0
141
0.09
142
0.0
143
25.399999999999999
144
1.0
145
0.0
146
1.0
147
25.0
 71
     0
 72
     0
 73
     0
 74
     0
 75
     0
 76
     0
 77
     1
 78
     8
170
     0
171
     2
172
     1
173
     0
174
     1
175
     0
176
     7
177
     7
178
     7
  0
ENDTAB
  0
TABLE
  2
VIEW
 70
     1
  0
VIEW
  2
ALL
 70
     0
 40
4282.6198079999986
 10
0.0
 20
41.309904000000003
 41
5940.0
 11
0.0
 21
0.0
 31
1.0
 12
0.0
 22
0.0
 32
0.0
 42
50.0
 43
0.0
 44
0.0
 50
0.0
 71
     0
  0
ENDTAB
  0
TABLE
  2
UCS
 70
     0
  0
ENDTAB
  0
TABLE
  2
VPORT
 70
     1
  0
VPORT
  2
*ACTIVE
 70
     0
 10
0.0
 20
0.0
 11
1.0
 21
1.0
 12
259.67561227697303
 22
150.60425800108811
 13
0.0
 23
0.0
 14
1.0
 24
1.0
 15
0.0
 25
0.0
 16
0.0
 26
0.0
 36
1.0
 17
0.0
 27
0.0
 37
0.0
 40
1776.424974692482
 41
1.781285231116122
 42
50.0
 43
0.0
 44
0.0
 50
0.0
 51
0.0
 71
     0
 72
  1000
 73
     1
 74
     3
 75
     0
 76
     0
 77
     0
 78
     0
  0
ENDTAB
  0
ENDSEC
  0
SECTION
  2
BLOCKS
  0
BLOCK
  8
0
  2
_ORIGIN
 70
     0
 10
0.0
 20
0.0
 30
0.0
  3
_ORIGIN
  1
_ORIGIN
  0
CIRCLE
  8
0
  6
CONTINUOUS
 62
     7
 10
0.0
 20
0.0
 30
0.0
 40
0.5
  0
LINE
  8
0
  6
CONTINUOUS
 62
     7
 10
0.0
 20
0.0
 30
0.0
 11
-1.0
 21
0.0
 31
0.0
  0
ENDBLK
  8
0
  0
ENDSEC
  0
SECTION
  2
ENTITIES
  0
LINE
  8
DETAIL
  6
CONTINUOUS
 62
     5
 10
-571.60000000177206
 20
-96.250000000007276
 30
0.0
 11
-571.60000000177206
 21
-86.25
 31
0.0
  0
LINE
  8
DETAIL
  6
CONTINUOUS
 62
     5
 10
-570.433565271107
 20
-96.250000000007276
 30
0.0
 11
-570.433565271107
 21
-86.25
 31
0.0
  0
LINE
  8
DETAIL
  6
CONTINUOUS
 62
     5
 10
-567.30000000177643
 20
-86.25
 30
0.0
 11
-567.30000000177643
 21
-96.250000000007276
 31
0.0
  0
LINE
  8
DETAIL
  6
CONTINUOUS
 62
     5
 10
-565.60000000177206
 20
-87.450000000004366
 30
0.0
 11
-565.60000000177206
 21
-67.450568997337541
 31
0.0
  0
LINE
  8
DETAIL
  6
CONTINUOUS
 62
     5
 10
-565.60000000177206
 20
-96.250000000007276
 30
0.0
 11
-565.60000000177297
 21
-113.61807636933371
 31
0.0
  0
LINE
  8
DETAIL
  6
CONTINUOUS
 62
     5
 10
-557.60000000177206
 20
-87.450000000004366
 30
0.0
 11
-557.60000000177206
 21
-67.450568997337541
 31
0.0
  0
LINE
  8
DETAIL
  6
CONTINUOUS
 62
     5
 10
-557.60000000177206
 20
-96.250000000007276
 30
0.0
 11
-557.60000000177297
 21
-113.6155069320084
 31
0.0
  0
LINE
  8
DETAIL
  6
CONTINUOUS
 62
     5
 10
-555.90000000177315
 20
-86.25
 30
0.0
 11
-555.90000000177315
 21
-96.250000000007276
 31
0.0
  0
LINE
  8
DETAIL
  6
CONTINUOUS
 62
     5
 10
-552.73256777377173
 20
-96.250000000007276
 30
0.0
 11
-552.73256777377173
 21
-86.25
 31
0.0
  0
LINE
  8
DETAIL
  6
CONTINUOUS
 62
     5
 10
-551.5000000017717
 20
-78.200000000008913
 30
0.0
 11
-551.5000000017717
 21
-81.800000000000182
 31
0.0
  0
LINE
  8
DETAIL
  6
CONTINUOUS
 62
     5
 10
-551.60000000177206
 20
-86.25
 30
0.0
 11
-551.60000000177206
 21
-96.250000000007276
 31
0.0
  0
LINE
  8
DETAIL
  6
CONTINUOUS
 62
     5
 10
-548.30000000177461
 20
-78.200000000008913
 30
0.0
 11
-548.30000000177461
 21
-81.800000000000182
 31
0.0
  0
LINE
  8
DETAIL
  6
CONTINUOUS
 62
     5
 10
-548.30000000177461
 20
-91.400000000006003
 30
0.0
 11
-548.30000000177461
 21
-95.000000000004547
 31
0.0
  0
LINE
  8
DETAIL
  6
CONTINUOUS
 62
     5
 10
-536.20000000177424
 20
-54.450000000004373
 30
0.0
 11
-536.20000000177424
 21
-47.340046220000659
 31
0.0
  0
LINE
  8
DETAIL
  6
CONTINUOUS
 62
     5
 10
-559.15760783510723
 20
-118.5207968506656
 30
0.0
 11
-557.60000000177297
 21
-113.6155069320084
 31
0.0
  0
LINE
  8
DETAIL
  6
CONTINUOUS
 62
     5
 10
-528.10000000177388
 20
-54.450000000004373
 30
0.0
 11
-528.10000000177388
 21
-46.700000000004373
 31
0.0
  0
LINE
  8
DETAIL
  6
CONTINUOUS
 62
     5
 10
-522.00000000177624
 20
-54.450000000004373
 30
0.0
 11
-522.00000000177624
 21
-46.650000000001462
 31
0.0
  0
LINE
  8
DETAIL
  6
CONTINUOUS
 62
     5
 10
-519.60000000177206
 20
-44.700000000004373
 30
0.0
 11
-519.60000000177206
 21
-46.650000000001462
 31
0.0
  0
LINE
  8
DETAIL
  6
CONTINUOUS
 62
     5
 10
-510.70000000177521
 20
-325.85000000000582
 30
0.0
 11
-510.70000000177521
 21
-325.25
 31
0.0
  0
LINE
  8
DETAIL
  6
CONTINUOUS
 62
     5
 10
-510.70000000177521
 20
-4.5500000000029104
 30
0.0
 11
-510.70000000177521
 21
-5.1500000000087311
 31
0.0
  0
LINE
  8
DETAIL
  6
CONTINUOUS
 62
     5
 10
-506.60000000177109
 20
-330.05000000000018
 30
0.0
 11
-506.60000000177109
 21
-329.55000000000018
 31
0.0
  0
LINE
  8
DETAIL
  6
CONTINUOUS
 62
     5
 10
-506.60000000177109
 20
-1.1500000000087309
 30
0.0
 11
-506.60000000177109
 21
-0.6500000000087312
 31
0.0
  0
LINE
  8
DETAIL
  6
CONTINUOUS
 62
     5
 10
-504.80000000177461
 20
-135.00000000000449
 30
0.0
 11
-504.80000000177461
 21
-91.400000000006003
 31
0.0
  0
LINE
  8
DETAIL
  6
CONTINUOUS
 62
     5
 10
-504.60000000177212
 20
-4.6999999999970896
 30
0.0
 11
-504.60000000177212
 21
-46.650000000001462
 31
0.0
  0
LINE
  8
DETAIL
  6
CONTINUOUS
 62
     5
 10
-504.60000000177212
 20
-314.85000000000582
 30
0.0
 11
-504.60000000177212
 21
-325.70000000000442
 31
0.0
  0
LINE
  8
DETAIL
  6
CONTINUOUS
 62
     5
 10
-502.80000000177461
 20
-55.650000000001462
 30
0.0
 11
-502.80000000177461
 21
-46.650000000001462
 31
0.0
  0
LINE
  8
DETAIL
  6
CONTINUOUS
 62
     5
 10
-501.60000000177303
 20
-1.650000000001455
 30
0.0
 11
-501.60000000177303
 21
-329.05000000000751
 31
0.0
  0
LINE
  8
DETAIL
  6
CONTINUOUS
 62
     5
 10
-501.10000000177212
 20
-329.05000000000751
 30
0.0
 11
-501.10000000177212
 21
-328.05000000000018
 31
0.0
  0
LINE
  8
DETAIL
  6
CONTINUOUS
 62
     5
 10
-501.10000000177212
 20
-1.650000000001455
 30
0.0
 11
-501.10000000177212
 21
-2.6500000000014552
 31
0.0
  0
LINE
  8
DETAIL
  6
CONTINUOUS
 62
     5
 10
-499.60000000177479
 20
-0.6500000000087312
 30
0.0
 11
-499.60000000177479
 21
-2.6500000000014552
 31
0.0
  0
LINE
  8
DETAIL
  6
CONTINUOUS
 62
     5
 10
-499.60000000177479
 20
-328.05000000000018
 30
0.0
 11
-499.60000000177479
 21
-330.05000000000018
 31
0.0
  0
LINE
  8
DETAIL
  6
CONTINUOUS
 62
     5
 10
-499.50000000177351
 20
-0.6500000000087312
 30
0.0
 11
-499.50000000177351
 21
0.0
 31
0.0
  0
LINE
  8
DETAIL
  6
CONTINUOUS
 62
     5
 10
-499.10000000177303
 20
-330.05000000000018
 30
0.0
 11
-499.10000000177303
 21
-330.99999999999733
 31
0.0
  0
LINE
  8
DETAIL
  6
CONTINUOUS
 62
     5
 10
-501.06006824044113
 20
-0.9564221280015772
 30
0.0
 11
-500.91189937510808
 21
-2.6500000000014552
 31
0.0
  0
LINE
  8
DETAIL
  6
CONTINUOUS
 62
     5
 10
-500.56197089110628
 20
-0.9128442573346547
 30
0.0
 11
-500.40998945643793
 21
-2.6500000000014552
 31
0.0
  0
LINE
  8
DETAIL
  6
CONTINUOUS
 62
     5
 10
-496.60000000177212
 20
-0.6500000000087312
 30
0.0
 11
-496.60000000177212
 21
-1.1500000000087309
 31
0.0
  0
LINE
  8
DETAIL
  6
CONTINUOUS
 62
     5
 10
-495.24000000177421
 20
-0.500000000007276
 30
0.0
 11
-495.24000000177421
 21
0.0
 31
0.0
  0
LINE
  8
DETAIL
  6
CONTINUOUS
 62
     5
 10
-481.60000000177212
 20
-130.00000000000449
 30
0.0
 11
-481.60000000177212
 21
-123.5021363226742
 31
0.0
  0
LINE
  8
DETAIL
  6
CONTINUOUS
 62
     5
 10
-501.03610918310369
 20
-329.46972459467088
 30
0.0
 11
-500.91189937510808
 21
-328.05000000000018
 31
0.0
  0
LINE
  8
DETAIL
  6
CONTINUOUS
 62
     5
 10
-500.23915342443979
 20
-329.53944918800431
 30
0.0
 11
-500.10884350577447
 21
-328.05000000000018
 31
0.0
  0
LINE
  8
DETAIL
  6
CONTINUOUS
 62
     5
 10
-515.60000000177479
 20
-325.25
 30
0.0
 11
-515.97978630177295
 21
-325.71444062533561
 31
0.0
  0
LINE
  8
DETAIL
  6
CONTINUOUS
 62
     5
 10
495.33000000178339
 20
-330.99999999999733
 30
0.0
 11
493.0800000017598
 21
-328.74999999998272
 31
0.0
  0
LINE
  8
DETAIL
  6
CONTINUOUS
 62
     5
 10
507.17500000176369
 20
0.0
 30
0.0
 11
501.55816558843981
 21
0.0
 31
0.0
  0
LINE
  8
DETAIL
  6
CONTINUOUS
 62
     5
 10
-507.17500000176369
 20
0.0
 30
0.0
 11
-501.55816558843981
 21
0.0
 31
0.0
  0
LINE
  8
DETAIL
  6
CONTINUOUS
 62
     5
 10
-499.50000000177351
 20
0.0
 30
0.0
 11
499.50000000177351
 21
0.0
 31
0.0
  0
LINE
  8
DETAIL
  6
CONTINUOUS
 62
     5
 10
507.17500000177461
 20
-0.500000000007276
 30
0.0
 11
501.55816558843981
 21
-0.500000000007276
 31
0.0
  0
LINE
  8
DETAIL
  6
CONTINUOUS
 62
     5
 10
-495.24000000177421
 20
-0.500000000007276
 30
0.0
 11
-499.50000000177351
 21
-0.500000000007276
 31
0.0
  0
LINE
  8
DETAIL
  6
CONTINUOUS
 62
     5
 10
-507.17500000177552
 20
-0.500000000007276
 30
0.0
 11
-501.55816558843981
 21
-0.500000000007276
 31
0.0
  0
LINE
  8
DETAIL
  6
CONTINUOUS
 62
     5
 10
-506.60000000177109
 20
-0.6500000000087312
 30
0.0
 11
-502.10000000177479
 21
-0.6500000000087312
 31
0.0
  0
LINE
  8
DETAIL
  6
CONTINUOUS
 62
     5
 10
-499.60000000177479
 20
-0.6500000000087312
 30
0.0
 11
-494.80464226577533
 21
-0.6500000000087312
 31
0.0
  0
LINE
  8
DETAIL
  6
CONTINUOUS
 62
     5
 10
494.75000000177079
 20
-0.6500000000014552
 30
0.0
 11
499.60000000177388
 21
-0.6500000000087312
 31
0.0
  0
LINE
  8
DETAIL
  6
CONTINUOUS
 62
     5
 10
502.10000000177479
 20
-0.6500000000087312
 30
0.0
 11
506.60000000177388
 21
-0.6500000000087312
 31
0.0
  0
LINE
  8
DETAIL
  6
CONTINUOUS
 62
     5
 10
-494.25000000177442
 20
-1.1500000000087309
 30
0.0
 11
-499.60000000177479
 21
-1.1500000000087309
 31
0.0
  0
LINE
  8
DETAIL
  6
CONTINUOUS
 62
     5
 10
-502.10000000177479
 20
-1.1500000000087309
 30
0.0
 11
-507.17500000177552
 21
-1.1500000000087309
 31
0.0
  0
LINE
  8
DETAIL
  6
CONTINUOUS
 62
     5
 10
-503.60000000177303
 20
-1.6500000000087309
 30
0.0
 11
-507.17500000176369
 21
-1.6500000000087309
 31
0.0
  0
LINE
  8
DETAIL
  6
CONTINUOUS
 62
     5
 10
502.10000000177479
 20
-1.1500000000087309
 30
0.0
 11
507.17500000177461
 21
-1.1500000000087309
 31
0.0
  0
LINE
  8
DETAIL
  6
CONTINUOUS
 62
     5
 10
501.60000000177661
 20
-1.650000000001455
 30
0.0
 11
502.10000000177479
 21
-1.650000000001455
 31
0.0
  0
LINE
  8
DETAIL
  6
CONTINUOUS
 62
     5
 10
-501.60000000177303
 20
-2.6500000000014552
 30
0.0
 11
-499.60000000177479
 21
-2.6500000000014552
 31
0.0
  0
LINE
  8
DETAIL
  6
CONTINUOUS
 62
     5
 10
499.60000000177388
 20
-2.6500000000014552
 30
0.0
 11
501.60000000177661
 21
-2.6500000000014552
 31
0.0
  0
LINE
  8
DETAIL
  6
CONTINUOUS
 62
     5
 10
-505.8000000017737
 20
-3.950000000004366
 30
0.0
 11
-515.10000000177297
 21
-3.950000000004366
 31
0.0
  0
LINE
  8
DETAIL
  6
CONTINUOUS
 62
     5
 10
-505.8000000017737
 20
-4.5500000000029104
 30
0.0
 11
-515.10000000177297
 21
-4.5500000000029104
 31
0.0
  0
LINE
  8
DETAIL
  6
CONTINUOUS
 62
     5
 10
-504.60000000177212
 20
-4.6999999999970896
 30
0.0
 11
-501.60000000177303
 21
-4.6999999999970896
 31
0.0
  0
LINE
  8
DETAIL
  6
CONTINUOUS
 62
     5
 10
-515.60000000177479
 20
-5.1500000000087311
 30
0.0
 11
-504.60000000177212
 21
-5.1500000000087311
 31
0.0
  0
LINE
  8
DETAIL
  6
CONTINUOUS
 62
     5
 10
-495.33000000177623
 20
-330.99999999999733
 30
0.0
 11
-493.08000000175713
 21
-328.74999999998272
 31
0.0
  0
LINE
  8
DETAIL
  6
CONTINUOUS
 62
     5
 10
-523.60000000177388
 20
-44.700000000004373
 30
0.0
 11
-519.60000000177206
 21
-44.700000000004373
 31
0.0
  0
LINE
  8
DETAIL
  6
CONTINUOUS
 62
     5
 10
-501.60000000177303
 20
-46.650000000001462
 30
0.0
 11
-521.99998262577355
 21
-46.650000000001462
 31
0.0
  0
LINE
  8
DETAIL
  6
CONTINUOUS
 62
     5
 10
-528.10000000177388
 20
-46.700000000004373
 30
0.0
 11
-525.60000000177297
 21
-46.700000000004373
 31
0.0
  0
LINE
  8
DETAIL
  6
CONTINUOUS
 62
     5
 10
-557.60000000177206
 20
-67.44999999999709
 30
0.0
 11
-565.60000000177206
 21
-67.44999999999709
 31
0.0
  0
LINE
  8
DETAIL
  6
CONTINUOUS
 62
     5
 10
-548.30000000177461
 20
-78.200000000008913
 30
0.0
 11
-551.5000000017717
 21
-78.200000000008913
 31
0.0
  0
LINE
  8
DETAIL
  6
CONTINUOUS
 62
     5
 10
548.30000000177188
 20
-78.200000000008913
 30
0.0
 11
551.50000000177715
 21
-78.200000000008913
 31
0.0
  0
LINE
  8
DETAIL
  6
CONTINUOUS
 62
     5
 10
545.10000000177479
 20
-85.000000000004547
 30
0.0
 11
508.00000000177442
 21
-85.000000000004547
 31
0.0
  0
LINE
  8
DETAIL
  6
CONTINUOUS
 62
     5
 10
-545.10000000176933
 20
-85.000000000004547
 30
0.0
 11
-508.0000000017717
 21
-85.000000000004547
 31
0.0
  0
LINE
  8
DETAIL
  6
CONTINUOUS
 62
     5
 10
-571.60000000177206
 20
-86.25
 30
0.0
 11
-565.60000000177206
 21
-86.25
 31
0.0
  0
LINE
  8
DETAIL
  6
CONTINUOUS
 62
     5
 10
-557.60000000177206
 20
-86.25
 30
0.0
 11
-551.60000000177206
 21
-86.25
 31
0.0
  0
LINE
  8
DETAIL
  6
CONTINUOUS
 62
     5
 10
-557.60000000177206
 20
-87.450000000004366
 30
0.0
 11
-565.60000000177206
 21
-87.450000000004366
 31
0.0
  0
LINE
  8
DETAIL
  6
CONTINUOUS
 62
     5
 10
545.10000000177479
 20
-88.200000000001637
 30
0.0
 11
508.00000000177442
 21
-88.200000000001637
 31
0.0
  0
LINE
  8
DETAIL
  6
CONTINUOUS
 62
     5
 10
-545.10000000176933
 20
-88.200000000001637
 30
0.0
 11
-508.0000000017717
 21
-88.200000000001637
 31
0.0
  0
LINE
  8
DETAIL
  6
CONTINUOUS
 62
     5
 10
-548.30000000177461
 20
-95.000000000004547
 30
0.0
 11
-551.5000000017717
 21
-95.000000000004547
 31
0.0
  0
LINE
  8
DETAIL
  6
CONTINUOUS
 62
     5
 10
548.30000000177188
 20
-95.000000000004547
 30
0.0
 11
551.50000000177715
 21
-95.000000000004547
 31
0.0
  0
LINE
  8
DETAIL
  6
CONTINUOUS
 62
     5
 10
-571.60000000177206
 20
-96.250000000007276
 30
0.0
 11
-551.60000000177206
 21
-96.250000000007276
 31
0.0
  0
LINE
  8
DETAIL
  6
CONTINUOUS
 62
     5
 10
-498.98087488977308
 20
-114.0000000000045
 30
0.0
 11
-499.51355287377561
 21
-114.0000000000045
 31
0.0
  0
LINE
  8
DETAIL
  6
CONTINUOUS
 62
     5
 10
498.98087488977308
 20
-114.0000000000045
 30
0.0
 11
499.51355287377191
 21
-114.0000000000045
 31
0.0
  0
LINE
  8
DETAIL
  6
CONTINUOUS
 62
     5
 10
-561.06381456844065
 20
-119.91550693200411
 30
0.0
 11
-562.13711192044138
 21
-119.91550693200411
 31
0.0
  0
LINE
  8
DETAIL
  6
CONTINUOUS
 62
     5
 10
-504.80000000177461
 20
-135.00000000000449
 30
0.0
 11
-486.60000000187569
 21
-134.9999999997863
 31
0.0
  0
LINE
  8
DETAIL
  6
CONTINUOUS
 62
     5
 10
486.60000000187478
 20
-134.9999999997863
 30
0.0
 11
504.80000000177461
 21
-135.00000000000449
 31
0.0
  0
LINE
  8
BASIS
  6
DASHDOT
 62
     6
 10
572.27651730577327
 20
-165.20000000000439
 30
0.0
 11
-671.50111398177341
 21
-165.20000000000439
 31
0.0
  0
LINE
  8
BASIS
  6
DASHDOT
 62
     6
 10
0.0
 20
66.746724353331956
 30
0.0
 11
0.0
 21
-397.5666666666657
 31
0.0
  0
LINE
  8
DETAIL
  6
CONTINUOUS
 62
     5
 10
-484.8912846857711
 20
-118.80316920533819
 30
0.0
 11
-497.27215957510629
 21
-114.30103288266859
 31
0.0
  0
LINE
  8
DETAIL
  6
CONTINUOUS
 62
     5
 10
484.89128468577559
 20
-118.80316920533819
 30
0.0
 11
497.27215957510629
 21
-114.30103288266859
 31
0.0
  0
LINE
  8
DETAIL
  6
CONTINUOUS
 62
     5
 10
-515.60000000177479
 20
-325.25
 30
0.0
 11
-504.60000000177212
 21
-325.25
 31
0.0
  0
LINE
  8
DETAIL
  6
CONTINUOUS
 62
     5
 10
-504.60000000177212
 20
-325.70000000000442
 30
0.0
 11
-501.60000000177303
 21
-325.70000000000442
 31
0.0
  0
LINE
  8
DETAIL
  6
CONTINUOUS
 62
     5
 10
-515.10000000177297
 20
-325.85000000000582
 30
0.0
 11
-505.8000000017737
 21
-325.85000000000582
 31
0.0
  0
LINE
  8
DETAIL
  6
CONTINUOUS
 62
     5
 10
-515.10000000177297
 20
-326.45000000000442
 30
0.0
 11
-505.8000000017737
 21
-326.45000000000442
 31
0.0
  0
LINE
  8
DETAIL
  6
CONTINUOUS
 62
     5
 10
-501.60000000177303
 20
-328.05000000000018
 30
0.0
 11
-499.60000000177479
 21
-328.05000000000018
 31
0.0
  0
LINE
  8
DETAIL
  6
CONTINUOUS
 62
     5
 10
499.60000000177388
 20
-328.05000000000018
 30
0.0
 11
501.60000000177661
 21
-328.05000000000018
 31
0.0
  0
LINE
  8
DETAIL
  6
CONTINUOUS
 62
     5
 10
501.60000000177661
 20
-329.05000000000751
 30
0.0
 11
502.10000000177479
 21
-329.05000000000751
 31
0.0
  0
LINE
  8
DETAIL
  6
CONTINUOUS
 62
     5
 10
502.10000000177479
 20
-329.55000000000018
 30
0.0
 11
507.17500000177279
 21
-329.55000000000018
 31
0.0
  0
LINE
  8
DETAIL
  6
CONTINUOUS
 62
     5
 10
503.60000000177303
 20
-328.74999999998272
 30
0.0
 11
507.17500000176278
 21
-328.74999999998272
 31
0.0
  0
LINE
  8
DETAIL
  6
CONTINUOUS
 62
     5
 10
-502.10000000177479
 20
-330.05000000000018
 30
0.0
 11
-506.60000000177109
 21
-330.05000000000018
 31
0.0
  0
LINE
  8
DETAIL
  6
CONTINUOUS
 62
     5
 10
-499.60000000177479
 20
-330.05000000000018
 30
0.0
 11
-494.38000000177999
 21
-330.05000000000751
 31
0.0
  0
LINE
  8
DETAIL
  6
CONTINUOUS
 62
     5
 10
494.38000000177999
 20
-330.05000000000751
 30
0.0
 11
499.60000000177388
 21
-330.05000000000018
 31
0.0
  0
LINE
  8
DETAIL
  6
CONTINUOUS
 62
     5
 10
502.10000000177479
 20
-330.05000000000018
 30
0.0
 11
506.60000000177388
 21
-330.05000000000018
 31
0.0
  0
LINE
  8
DETAIL
  6
CONTINUOUS
 62
     5
 10
507.17500000177279
 20
-330.20000000000158
 30
0.0
 11
501.83306494043973
 21
-330.20000000000158
 31
0.0
  0
LINE
  8
DETAIL
  6
CONTINUOUS
 62
     5
 10
-507.25000000177442
 20
-330.20000000000158
 30
0.0
 11
-501.83306494044058
 21
-330.20000000000158
 31
0.0
  0
LINE
  8
DETAIL
  6
CONTINUOUS
 62
     5
 10
507.17500000176278
 20
-330.99999999999733
 30
0.0
 11
501.83306494043973
 21
-330.99999999999733
 31
0.0
  0
LINE
  8
DETAIL
  6
CONTINUOUS
 62
     5
 10
-507.25000000177442
 20
-330.99999999999733
 30
0.0
 11
-501.83306494044058
 21
-330.99999999999733
 31
0.0
  0
LINE
  8
DETAIL
  6
CONTINUOUS
 62
     5
 10
-499.10000000177303
 20
-330.99999999999733
 30
0.0
 11
499.1000000017757
 21
-330.99999999999733
 31
0.0
  0
LINE
  8
DETAIL
  6
CONTINUOUS
 62
     5
 10
-494.65000000177412
 20
-0.75
 30
0.0
 11
-493.75000000176351
 21
-1.6500000000087309
 31
0.0
  0
LINE
  8
DETAIL
  6
CONTINUOUS
 62
     5
 10
-515.60000000177479
 20
-5.1500000000087311
 30
0.0
 11
-515.97978630177295
 21
-4.6855593746658997
 31
0.0
  0
LINE
  8
DETAIL
  6
CONTINUOUS
 62
     5
 10
495.40000000178412
 20
0.0
 30
0.0
 11
493.75000000176169
 21
-1.6500000000087309
 31
0.0
  0
LINE
  8
DETAIL
  6
CONTINUOUS
 62
     5
 10
-565.60000000177297
 20
-113.61807636933371
 30
0.0
 11
-564.04333105910609
 21
-118.52075778933791
 31
0.0
  0
LINE
  8
DETAIL
  6
CONTINUOUS
 62
     5
 10
500.10884350444121
 20
-328.05000000000018
 30
0.0
 11
500.23915342443888
 21
-329.53944918800431
 31
0.0
  0
LINE
  8
DETAIL
  6
CONTINUOUS
 62
     5
 10
500.91189937510723
 20
-328.05000000000018
 30
0.0
 11
501.03610918310551
 21
-329.46972459467088
 31
0.0
  0
LINE
  8
DETAIL
  6
CONTINUOUS
 62
     5
 10
481.60000000177479
 20
-130.00000000000449
 30
0.0
 11
481.60000000177479
 21
-123.5021363226742
 31
0.0
  0
LINE
  8
DETAIL
  6
CONTINUOUS
 62
     5
 10
499.1000000017757
 20
-330.05000000000018
 30
0.0
 11
499.1000000017757
 21
-330.99999999999733
 31
0.0
  0
LINE
  8
DETAIL
  6
CONTINUOUS
 62
     5
 10
499.50000000177351
 20
-0.6500000000087312
 30
0.0
 11
499.50000000177351
 21
0.0
 31
0.0
  0
LINE
  8
DETAIL
  6
CONTINUOUS
 62
     5
 10
499.60000000177388
 20
-330.05000000000018
 30
0.0
 11
499.60000000177388
 21
-328.05000000000018
 31
0.0
  0
LINE
  8
DETAIL
  6
CONTINUOUS
 62
     5
 10
499.60000000177388
 20
-0.6500000000087312
 30
0.0
 11
499.60000000177388
 21
-2.6500000000014552
 31
0.0
  0
LINE
  8
DETAIL
  6
CONTINUOUS
 62
     5
 10
501.1000000017757
 20
-329.05000000000751
 30
0.0
 11
501.1000000017757
 21
-328.05000000000018
 31
0.0
  0
LINE
  8
DETAIL
  6
CONTINUOUS
 62
     5
 10
501.1000000017757
 20
-1.650000000001455
 30
0.0
 11
501.1000000017757
 21
-2.6500000000014552
 31
0.0
  0
LINE
  8
DETAIL
  6
CONTINUOUS
 62
     5
 10
501.60000000177661
 20
-329.05000000000751
 30
0.0
 11
501.60000000177661
 21
-1.650000000001455
 31
0.0
  0
LINE
  8
DETAIL
  6
CONTINUOUS
 62
     5
 10
502.10000000177479
 20
-329.05000000000751
 30
0.0
 11
502.10000000177479
 21
-135.00000000000449
 31
0.0
  0
LINE
  8
DETAIL
  6
CONTINUOUS
 62
     5
 10
502.10000000177479
 20
-88.923726158664977
 30
0.0
 11
502.10000000177479
 21
-1.650000000001455
 31
0.0
  0
LINE
  8
DETAIL
  6
CONTINUOUS
 62
     5
 10
504.80000000177461
 20
-135.00000000000449
 30
0.0
 11
504.80000000177461
 21
-91.400000000006003
 31
0.0
  0
LINE
  8
DETAIL
  6
CONTINUOUS
 62
     5
 10
506.60000000177388
 20
-0.6500000000087312
 30
0.0
 11
506.60000000177388
 21
-1.1500000000087309
 31
0.0
  0
LINE
  8
DETAIL
  6
CONTINUOUS
 62
     5
 10
506.60000000177388
 20
-329.55000000000018
 30
0.0
 11
506.60000000177388
 21
-330.05000000000018
 31
0.0
  0
LINE
  8
DETAIL
  6
CONTINUOUS
 62
     5
 10
500.40998945643793
 20
-2.6500000000014552
 30
0.0
 11
500.56197089110628
 21
-0.9128442573346547
 31
0.0
  0
LINE
  8
DETAIL
  6
CONTINUOUS
 62
     5
 10
500.91189937510723
 20
-2.6500000000014552
 30
0.0
 11
501.06006823910502
 21
-0.9564221280015772
 31
0.0
  0
LINE
  8
DETAIL
  6
CONTINUOUS
 62
     5
 10
548.30000000177188
 20
-78.200000000008913
 30
0.0
 11
548.30000000177188
 21
-81.800000000000182
 31
0.0
  0
LINE
  8
DETAIL
  6
CONTINUOUS
 62
     5
 10
548.30000000177188
 20
-91.400000000006003
 30
0.0
 11
548.30000000177188
 21
-95.000000000004547
 31
0.0
  0
LINE
  8
DETAIL
  6
CONTINUOUS
 62
     5
 10
551.50000000177715
 20
-78.200000000008913
 30
0.0
 11
551.50000000177715
 21
-81.800000000000182
 31
0.0
  0
LINE
  8
DETAIL
  6
CONTINUOUS
 62
     5
 10
551.50000000177715
 20
-91.400000000006003
 30
0.0
 11
551.50000000177715
 21
-95.000000000004547
 31
0.0
  0
ARC
  8
DETAIL
  6
CONTINUOUS
 62
     5
 10
-481.1000000017757
 20
-47.340046220000659
 30
0.0
 40
55.099999999999831
 50
129.27384257796359
 51
180.0
  0
CIRCLE
  8
DETAIL
  6
CONTINUOUS
 62
     5
 10
-597.80000000177461
 20
-76.400000000001455
 30
0.0
 40
12.999999999999959
  0
ARC
  8
DETAIL
  6
CONTINUOUS
 62
     5
 10
-505.8000000017737
 20
-5.1500000000087311
 30
0.0
 40
1.199999999999996
 50
0.0
 51
90.0
  0
ARC
  8
DETAIL
  6
CONTINUOUS
 62
     5
 10
-501.55816558843981
 20
-1.000000000007276
 30
0.0
 40
0.9999999999999969
 50
4.9999999999735039
 51
90.0
  0
ARC
  8
DETAIL
  6
CONTINUOUS
 62
     5
 10
-525.60000000177297
 20
-45.700000000004373
 30
0.0
 40
0.9999999999999969
 50
270.0
 51
0.0
  0
ARC
  8
DETAIL
  6
CONTINUOUS
 62
     5
 10
-523.60000000177388
 20
-45.700000000004373
 30
0.0
 40
0.9999999999999969
 50
90.0
 51
180.0
  0
ARC
  8
DETAIL
  6
CONTINUOUS
 62
     5
 10
-502.10000000177479
 20
-1.650000000001455
 30
0.0
 40
0.9999999999999969
 50
0.0
 51
90.0
  0
ARC
  8
DETAIL
  6
CONTINUOUS
 62
     5
 10
-505.8000000017737
 20
-5.1500000000087311
 30
0.0
 40
0.5999999999999982
 50
0.0
 51
90.0
  0
ARC
  8
DETAIL
  6
CONTINUOUS
 62
     5
 10
-515.10000000177297
 20
-4.5500000000029104
 30
0.0
 40
0.5999999999999982
 50
90.0
 51
270.0
  0
ARC
  8
DETAIL
  6
CONTINUOUS
 62
     5
 10
-502.10000000177479
 20
-1.650000000001455
 30
0.0
 40
0.4999999999999984
 50
0.0
 51
90.0
  0
ARC
  8
DETAIL
  6
CONTINUOUS
 62
     5
 10
-501.55816558843981
 20
-1.000000000007276
 30
0.0
 40
0.4999999999999984
 50
4.9999999999213074
 51
90.0
  0
CIRCLE
  8
DETAIL
  6
CONTINUOUS
 62
     5
 10
-597.80000000177461
 20
-103.4000000000015
 30
0.0
 40
12.999999999999959
  0
CIRCLE
  8
DETAIL
  6
CONTINUOUS
 62
     5
 10
-490.60000000177479
 20
-126.0000000000045
 30
0.0
 40
6.9999999999999787
  0
ARC
  8
DETAIL
  6
CONTINUOUS
 62
     5
 10
-545.10000000176933
 20
-81.800000000000182
 30
0.0
 40
6.3999999999999782
 50
180.0
 51
228.65645515206299
  0
ARC
  8
DETAIL
  6
CONTINUOUS
 62
     5
 10
-545.10000000176933
 20
-91.400000000006003
 30
0.0
 40
6.3999999999999782
 50
90.0
 51
180.0
  0
ARC
  8
DETAIL
  6
CONTINUOUS
 62
     5
 10
-508.0000000017717
 20
-91.400000000006003
 30
0.0
 40
6.3999999999999782
 50
0.0
 51
90.0
  0
ARC
  8
DETAIL
  6
CONTINUOUS
 62
     5
 10
-486.60000000177303
 20
-123.5021363226742
 30
0.0
 40
4.999999999999984
 50
0.0
 51
70.016893478078885
  0
ARC
  8
DETAIL
  6
CONTINUOUS
 62
     5
 10
-498.98087488977308
 20
-119.0000000000045
 30
0.0
 40
4.999999999999984
 50
70.016893478078885
 51
90.0
  0
CIRCLE
  8
DETAIL
  6
CONTINUOUS
 62
     5
 10
-476.10000000177388
 20
-114.0000000000045
 30
0.0
 40
4.6999999999999842
  0
ARC
  8
DETAIL
  6
CONTINUOUS
 62
     5
 10
-545.10000000176933
 20
-91.400000000006003
 30
0.0
 40
3.1999999999999891
 50
90.0
 51
180.0
  0
ARC
  8
DETAIL
  6
CONTINUOUS
 62
     5
 10
-508.0000000017717
 20
-91.400000000006003
 30
0.0
 40
3.1999999999999891
 50
0.0
 51
90.0
  0
ARC
  8
DETAIL
  6
CONTINUOUS
 62
     5
 10
-545.10000000176933
 20
-81.800000000000182
 30
0.0
 40
3.1999999999999891
 50
180.0
 51
270.0
  0
CIRCLE
  8
DETAIL
  6
CONTINUOUS
 62
     5
 10
-561.60000000177206
 20
-112.91550693200411
 30
0.0
 40
2.6999999999999922
  0
ARC
  8
DETAIL
  6
CONTINUOUS
 62
     5
 10
-562.13711192044138
 20
-117.9155069319968
 30
0.0
 40
1.999999999999994
 50
197.61536088906229
 51
270.0
  0
ARC
  8
DETAIL
  6
CONTINUOUS
 62
     5
 10
-561.06381456844065
 20
-117.9155069319968
 30
0.0
 40
1.999999999999994
 50
270.0
 51
342.38346499350308
  0
ARC
  8
DETAIL
  6
CONTINUOUS
 62
     5
 10
501.55816558843981
 20
-1.000000000007276
 30
0.0
 40
0.9999999999999969
 50
90.0
 51
174.99999999997729
  0
ARC
  8
DETAIL
  6
CONTINUOUS
 62
     5
 10
502.10000000177479
 20
-1.650000000001455
 30
0.0
 40
0.9999999999999969
 50
90.000000000052125
 51
180.0
  0
ARC
  8
DETAIL
  6
CONTINUOUS
 62
     5
 10
502.10000000177479
 20
-1.650000000001455
 30
0.0
 40
0.4999999999999984
 50
90.0
 51
180.0
  0
ARC
  8
DETAIL
  6
CONTINUOUS
 62
     5
 10
501.55816558843981
 20
-1.000000000007276
 30
0.0
 40
0.4999999999999984
 50
90.0
 51
175.0000000000787
  0
CIRCLE
  8
DETAIL
  6
CONTINUOUS
 62
     5
 10
490.60000000177109
 20
-126.0000000000045
 30
0.0
 40
6.9999999999999787
  0
ARC
  8
DETAIL
  6
CONTINUOUS
 62
     5
 10
545.10000000177479
 20
-81.800000000000182
 30
0.0
 40
6.3999999999999782
 50
311.34354484793693
 51
0.0
  0
ARC
  8
DETAIL
  6
CONTINUOUS
 62
     5
 10
545.10000000177479
 20
-91.400000000006003
 30
0.0
 40
6.3999999999999782
 50
0.0
 51
90.0
  0
ARC
  8
DETAIL
  6
CONTINUOUS
 62
     5
 10
508.00000000177442
 20
-91.400000000006003
 30
0.0
 40
6.3999999999999782
 50
90.0
 51
180.0
  0
ARC
  8
DETAIL
  6
CONTINUOUS
 62
     5
 10
498.98087488977308
 20
-119.0000000000045
 30
0.0
 40
4.999999999999984
 50
90.0
 51
109.9831065219211
  0
ARC
  8
DETAIL
  6
CONTINUOUS
 62
     5
 10
486.60000000177752
 20
-123.5021363226742
 30
0.0
 40
4.999999999999984
 50
109.9831065219211
 51
180.0
  0
CIRCLE
  8
DETAIL
  6
CONTINUOUS
 62
     5
 10
476.10000000177303
 20
-114.0000000000045
 30
0.0
 40
4.6999999999999842
  0
ARC
  8
DETAIL
  6
CONTINUOUS
 62
     5
 10
545.10000000177479
 20
-91.400000000006003
 30
0.0
 40
3.1999999999999891
 50
0.0
 51
90.0
  0
ARC
  8
DETAIL
  6
CONTINUOUS
 62
     5
 10
508.00000000177442
 20
-91.400000000006003
 30
0.0
 40
3.1999999999999891
 50
90.0
 51
180.0
  0
ARC
  8
DETAIL
  6
CONTINUOUS
 62
     5
 10
545.10000000177479
 20
-81.800000000000182
 30
0.0
 40
3.1999999999999891
 50
270.0
 51
0.0
  0
ARC
  8
DETAIL
  6
CONTINUOUS
 62
     5
 10
-481.1000000017757
 20
-283.0599537800008
 30
0.0
 40
55.099999999999831
 50
216.78606796772721
 51
230.72615742203641
  0
ARC
  8
DETAIL
  6
CONTINUOUS
 62
     5
 10
-501.83306494044058
 20
-329.400000000006
 30
0.0
 40
1.599999999999995
 50
270.0
 51
355.00000000002649
  0
ARC
  8
DETAIL
  6
CONTINUOUS
 62
     5
 10
-505.8000000017737
 20
-325.25
 30
0.0
 40
1.199999999999996
 50
270.0
 51
0.0
  0
ARC
  8
DETAIL
  6
CONTINUOUS
 62
     5
 10
-502.10000000177479
 20
-329.05000000000751
 30
0.0
 40
0.9999999999999969
 50
270.00000000010431
 51
0.0
  0
ARC
  8
DETAIL
  6
CONTINUOUS
 62
     5
 10
-501.83306494044058
 20
-329.400000000006
 30
0.0
 40
0.7999999999999975
 50
270.0
 51
355.00000000002649
  0
ARC
  8
DETAIL
  6
CONTINUOUS
 62
     5
 10
-505.8000000017737
 20
-325.25
 30
0.0
 40
0.5999999999999982
 50
270.0
 51
0.0
  0
ARC
  8
DETAIL
  6
CONTINUOUS
 62
     5
 10
-515.10000000177297
 20
-325.85000000000582
 30
0.0
 40
0.5999999999999982
 50
90.0
 51
270.0
  0
ARC
  8
DETAIL
  6
CONTINUOUS
 62
     5
 10
-502.10000000177479
 20
-329.05000000000751
 30
0.0
 40
0.4999999999999984
 50
270.0
 51
0.0
  0
ARC
  8
DETAIL
  6
CONTINUOUS
 62
     5
 10
501.83306494043973
 20
-329.400000000006
 30
0.0
 40
1.599999999999995
 50
184.99999999997351
 51
270.0
  0
ARC
  8
DETAIL
  6
CONTINUOUS
 62
     5
 10
502.10000000177479
 20
-329.05000000000751
 30
0.0
 40
0.9999999999999969
 50
180.0
 51
269.99999999989569
  0
ARC
  8
DETAIL
  6
CONTINUOUS
 62
     5
 10
501.83306494043973
 20
-329.400000000006
 30
0.0
 40
0.7999999999999975
 50
184.99999999997351
 51
270.0
  0
ARC
  8
DETAIL
  6
CONTINUOUS
 62
     5
 10
502.10000000177479
 20
-329.05000000000751
 30
0.0
 40
0.4999999999999984
 50
180.0
 51
270.0
  0
LINE
  8
DETAIL
  6
CONTINUOUS
 62
     5
 10
-495.24000000177421
 20
0.0
 30
0.0
 11
-495.12681220688302
 21
-0.0324889786975549
 31
0.0
  0
LINE
  8
DETAIL
  6
CONTINUOUS
 62
     5
 10
-495.12681220688302
 20
-0.0324889786975549
 30
0.0
 11
-495.02961325126512
 21
-0.11334059022854
 31
0.0
  0
LINE
  8
DETAIL
  6
CONTINUOUS
 62
     5
 10
-495.02961325126512
 20
-0.11334059022854
 30
0.0
 11
-494.94645212590558
 21
-0.217631847750436
 31
0.0
  0
LINE
  8
DETAIL
  6
CONTINUOUS
 62
     5
 10
-494.94645212590558
 20
-0.217631847750436
 30
0.0
 11
-494.87520263479934
 21
-0.3245016375063764
 31
0.0
  0
LINE
  8
DETAIL
  6
CONTINUOUS
 62
     5
 10
-494.87520263479934
 20
-0.3245016375063764
 30
0.0
 11
-494.81299686047294
 21
-0.4302863468696935
 31
0.0
  0
LINE
  8
DETAIL
  6
CONTINUOUS
 62
     5
 10
-494.81299686047294
 20
-0.4302863468696935
 30
0.0
 11
-494.7567706197907
 21
-0.5358729648933054
 31
0.0
  0
LINE
  8
DETAIL
  6
CONTINUOUS
 62
     5
 10
-494.7567706197907
 20
-0.5358729648933054
 30
0.0
 11
-494.70345972835639
 21
-0.6421485098468589
 31
0.0
  0
LINE
  8
DETAIL
  6
CONTINUOUS
 62
     5
 10
-494.70345972835639
 20
-0.6421485098468589
 30
0.0
 11
-494.65000000177412
 21
-0.75
 31
0.0
  0
LINE
  8
DETAIL
  6
CONTINUOUS
 62
     5
 10
-495.24000000177421
 20
-0.500000000007276
 30
0.0
 11
-495.15912205608043
 21
-0.5059028105444114
 31
0.0
  0
LINE
  8
DETAIL
  6
CONTINUOUS
 62
     5
 10
-495.15912205608043
 20
-0.5059028105444114
 30
0.0
 11
-495.07968966135473
 21
-0.5224109827901928
 31
0.0
  0
LINE
  8
DETAIL
  6
CONTINUOUS
 62
     5
 10
-495.07968966135473
 20
-0.5224109827901928
 30
0.0
 11
-495.0029749773957
 21
-0.5477684199882472
 31
0.0
  0
LINE
  8
DETAIL
  6
CONTINUOUS
 62
     5
 10
-495.0029749773957
 20
-0.5477684199882472
 30
0.0
 11
-494.92881221105432
 21
-0.5803286293163825
 31
0.0
  0
LINE
  8
DETAIL
  6
CONTINUOUS
 62
     5
 10
-494.92881221105432
 20
-0.5803286293163825
 30
0.0
 11
-494.85681734632624
 21
-0.6184617513781122
 31
0.0
  0
LINE
  8
DETAIL
  6
CONTINUOUS
 62
     5
 10
-494.85681734632624
 20
-0.6184617513781122
 30
0.0
 11
-494.7866063672065
 21
-0.6605379267769493
 31
0.0
  0
LINE
  8
DETAIL
  6
CONTINUOUS
 62
     5
 10
-494.7866063672065
 20
-0.6605379267769493
 30
0.0
 11
-494.71779525769068
 21
-0.7049272961164075
 31
0.0
  0
LINE
  8
DETAIL
  6
CONTINUOUS
 62
     5
 10
-494.71779525769068
 20
-0.7049272961164075
 30
0.0
 11
-494.65000000177412
 21
-0.75
 31
0.0
  0
LINE
  8
DETAIL
  6
CONTINUOUS
 62
     5
 10
-499.51355287377561
 20
-114.0000000000045
 30
0.0
 11
-499.85357220871879
 21
-113.99636278759699
 31
0.0
  0
LINE
  8
DETAIL
  6
CONTINUOUS
 62
     5
 10
-499.85357220871879
 20
-113.99636278759699
 30
0.0
 11
-500.19313175575462
 21
-113.97963473105781
 31
0.0
  0
LINE
  8
DETAIL
  6
CONTINUOUS
 62
     5
 10
-500.19313175575462
 20
-113.97963473105781
 30
0.0
 11
-500.53047970579235
 21
-113.93681783700342
 31
0.0
  0
LINE
  8
DETAIL
  6
CONTINUOUS
 62
     5
 10
-500.53047970579235
 20
-113.93681783700342
 30
0.0
 11
-500.85929710742352
 21
-113.84554128644348
 31
0.0
  0
LINE
  8
DETAIL
  6
CONTINUOUS
 62
     5
 10
-500.85929710742352
 20
-113.84554128644348
 30
0.0
 11
-501.15030628960051
 21
-113.66945829374252
 31
0.0
  0
LINE
  8
DETAIL
  6
CONTINUOUS
 62
     5
 10
-501.15030628960051
 20
-113.66945829374252
 30
0.0
 11
-501.36470726648054
 21
-113.40679214112761
 31
0.0
  0
LINE
  8
DETAIL
  6
CONTINUOUS
 62
     5
 10
-501.36470726648054
 20
-113.40679214112761
 30
0.0
 11
-501.48934163346689
 21
-113.09168784317703
 31
0.0
  0
LINE
  8
DETAIL
  6
CONTINUOUS
 62
     5
 10
-501.48934163346689
 20
-113.09168784317703
 30
0.0
 11
-501.55136157638231
 21
-112.74940863246826
 31
0.0
  0
LINE
  8
DETAIL
  6
CONTINUOUS
 62
     5
 10
-501.55136157638231
 20
-112.74940863246826
 30
0.0
 11
-501.58086245989398
 21
-112.4034198256328
 31
0.0
  0
LINE
  8
DETAIL
  6
CONTINUOUS
 62
     5
 10
-501.58086245989398
 20
-112.4034198256328
 30
0.0
 11
-501.59490004698296
 21
-112.06295872137487
 31
0.0
  0
LINE
  8
DETAIL
  6
CONTINUOUS
 62
     5
 10
-501.59490004698296
 20
-112.06295872137487
 30
0.0
 11
-501.59939464995045
 21
-111.72511229389244
 31
0.0
  0
LINE
  8
DETAIL
  6
CONTINUOUS
 62
     5
 10
-501.59939464995045
 20
-111.72511229389244
 30
0.0
 11
-501.59990884844319
 21
-111.38657718133349
 31
0.0
  0
LINE
  8
DETAIL
  6
CONTINUOUS
 62
     5
 10
499.51355287377191
 20
-114.0000000000045
 30
0.0
 11
499.85357220871794
 21
-113.99636278759699
 31
0.0
  0
LINE
  8
DETAIL
  6
CONTINUOUS
 62
     5
 10
499.85357220871794
 20
-113.99636278759699
 30
0.0
 11
500.19313175575587
 21
-113.97963473105781
 31
0.0
  0
LINE
  8
DETAIL
  6
CONTINUOUS
 62
     5
 10
500.19313175575587
 20
-113.97963473105781
 30
0.0
 11
500.53047970579291
 21
-113.93681783700342
 31
0.0
  0
LINE
  8
DETAIL
  6
CONTINUOUS
 62
     5
 10
500.53047970579291
 20
-113.93681783700342
 30
0.0
 11
500.85929710742045
 21
-113.84554128644625
 31
0.0
  0
LINE
  8
DETAIL
  6
CONTINUOUS
 62
     5
 10
500.85929710742045
 20
-113.84554128644625
 30
0.0
 11
501.1503062895676
 21
-113.66945829377376
 31
0.0
  0
LINE
  8
DETAIL
  6
CONTINUOUS
 62
     5
 10
501.1503062895676
 20
-113.66945829377376
 30
0.0
 11
501.36470726641767
 21
-113.40679214120765
 31
0.0
  0
LINE
  8
DETAIL
  6
CONTINUOUS
 62
     5
 10
501.36470726641767
 20
-113.40679214120765
 30
0.0
 11
501.48934163341727
 21
-113.09168784329566
 31
0.0
  0
LINE
  8
DETAIL
  6
CONTINUOUS
 62
     5
 10
501.48934163341727
 20
-113.09168784329566
 30
0.0
 11
501.5513615763607
 21
-112.74940863260628
 31
0.0
  0
LINE
  8
DETAIL
  6
CONTINUOUS
 62
     5
 10
501.5513615763607
 20
-112.74940863260628
 30
0.0
 11
501.58086245988517
 21
-112.40341982576891
 31
0.0
  0
LINE
  8
DETAIL
  6
CONTINUOUS
 62
     5
 10
501.58086245988517
 20
-112.40341982576891
 30
0.0
 11
501.59490004697932
 21
-112.0629587214987
 31
0.0
  0
LINE
  8
DETAIL
  6
CONTINUOUS
 62
     5
 10
501.59490004697932
 20
-112.0629587214987
 30
0.0
 11
501.59939464994756
 21
-111.72511229397743
 31
0.0
  0
LINE
  8
DETAIL
  6
CONTINUOUS
 62
     5
 10
501.59939464994756
 20
-111.72511229397743
 30
0.0
 11
501.59990884843768
 21
-111.38657718133349
 31
0.0
  0
ARC
  8
DETAIL
  6
CONTINUOUS
 62
     5
 10
486.60000000187478
 20
-129.99999999990999
 30
0.0
 40
4.9999999998753486
 50
180.0
 51
270.0
  0
ARC
  8
DETAIL
  6
CONTINUOUS
 62
     5
 10
-486.60000000187569
 20
-129.99999999990999
 30
0.0
 40
4.9999999998753486
 50
270.0
 51
0.0
  0
LINE
  8
DETAIL
  6
CONTINUOUS
 62
     5
 10
-617.80000000177461
 20
-55.650000000001462
 30
0.0
 11
-617.80000000177461
 21
-314.85000000000582
 31
0.0
  0
LINE
  8
DETAIL
  6
CONTINUOUS
 62
     5
 10
-617.20000000176969
 20
-55.650000000001462
 30
0.0
 11
-617.2000000017706
 21
-314.85000000000582
 31
0.0
  0
LINE
  8
DETAIL
  6
CONTINUOUS
 62
     5
 10
-616.60000000177297
 20
-54.44999999999709
 30
0.0
 11
-616.60000000177297
 21
-55.30205501466844
 31
0.0
  0
LINE
  8
DETAIL
  6
CONTINUOUS
 62
     5
 10
-616.60000000177388
 20
-315.19794498667028
 30
0.0
 11
-616.60000000177388
 21
-316.04999999999558
 31
0.0
  0
LINE
  8
DETAIL
  6
CONTINUOUS
 62
     5
 10
-506.90000000177412
 20
-315.44562532400602
 30
0.0
 11
-506.90000000177412
 21
-314.85000000000582
 31
0.0
  0
LINE
  8
DETAIL
  6
CONTINUOUS
 62
     5
 10
-506.90000000177412
 20
-55.05000000000291
 30
0.0
 11
-506.90000000177412
 21
-54.44999999999709
 31
0.0
  0
LINE
  8
DETAIL
  6
CONTINUOUS
 62
     5
 10
-506.90000000177412
 20
-55.054374677340093
 30
0.0
 11
-506.90000000177412
 21
-55.650000000001462
 31
0.0
  0
LINE
  8
DETAIL
  6
CONTINUOUS
 62
     5
 10
-506.90000000177412
 20
-315.45000000000442
 30
0.0
 11
-506.90000000177412
 21
-316.04999999999558
 31
0.0
  0
LINE
  8
DETAIL
  6
CONTINUOUS
 62
     5
 10
-502.40000000177503
 20
-55.650000000001462
 30
0.0
 11
-502.40000000177503
 21
-56.366399298669421
 31
0.0
  0
LINE
  8
DETAIL
  6
CONTINUOUS
 62
     5
 10
-502.40000000177503
 20
-314.13360070266941
 30
0.0
 11
-502.40000000177503
 21
-314.85000000000582
 31
0.0
  0
LINE
  8
DETAIL
  6
CONTINUOUS
 62
     5
 10
-616.60000000177297
 20
-54.44999999999709
 30
0.0
 11
-506.90000000177412
 21
-54.44999999999709
 31
0.0
  0
LINE
  8
DETAIL
  6
CONTINUOUS
 62
     5
 10
-506.90000000177412
 20
-55.05000000000291
 30
0.0
 11
-616.60000000177297
 21
-55.05000000000291
 31
0.0
  0
LINE
  8
DETAIL
  6
CONTINUOUS
 62
     5
 10
-617.80000000177461
 20
-55.650000000001462
 30
0.0
 11
-616.94794305910546
 21
-55.650000000001462
 31
0.0
  0
LINE
  8
DETAIL
  6
CONTINUOUS
 62
     5
 10
-506.90000000177412
 20
-55.650000000001462
 30
0.0
 11
-502.40000000177503
 21
-55.650000000001462
 31
0.0
  0
LINE
  8
DETAIL
  6
CONTINUOUS
 62
     5
 10
-617.80000000177461
 20
-314.85000000000582
 30
0.0
 11
-616.94794305910546
 21
-314.85000000000582
 31
0.0
  0
LINE
  8
DETAIL
  6
CONTINUOUS
 62
     5
 10
-506.90000000177412
 20
-314.85000000000582
 30
0.0
 11
-502.40000000177503
 21
-314.85000000000582
 31
0.0
  0
LINE
  8
DETAIL
  6
CONTINUOUS
 62
     5
 10
-616.60000000177388
 20
-315.45000000000442
 30
0.0
 11
-506.90000000177412
 21
-315.45000000000442
 31
0.0
  0
LINE
  8
DETAIL
  6
CONTINUOUS
 62
     5
 10
-616.60000000177388
 20
-316.04999999999558
 30
0.0
 11
-506.90000000177412
 21
-316.04999999999558
 31
0.0
  0
ARC
  8
DETAIL
  6
CONTINUOUS
 62
     5
 10
-615.80000000177006
 20
-56.450000000004373
 30
0.0
 40
1.3999999999999959
 50
90.0
 51
180.0
  0
CIRCLE
  8
DETAIL
  6
CONTINUOUS
 62
     5
 10
-591.80000000177279
 20
-274.09999999999849
 30
0.0
 40
12.999999999999959
  0
ARC
  8
DETAIL
  6
CONTINUOUS
 62
     5
 10
-615.80000000177097
 20
-314.05000000000291
 30
0.0
 40
1.3999999999999959
 50
180.0
 51
270.0
  0
ARC
  8
DETAIL
  6
CONTINUOUS
 62
     5
 10
507.17500000176278
 20
-329.87499999999
 30
0.0
 40
1.1250000000097859
 50
270.0
 51
90.0
  0
ARC
  8
DETAIL
  6
CONTINUOUS
 62
     5
 10
507.17500000177279
 20
-329.87500000000449
 30
0.0
 40
0.3249999999997035
 50
270.0
 51
90.0
  0
LINE
  8
DETAIL
  6
CONTINUOUS
 62
     5
 10
503.60000000177303
 20
-329.55000000000018
 30
0.0
 11
503.60000000177303
 21
-328.74999999998272
 31
0.0
  0
LINE
  8
DETAIL
  6
CONTINUOUS
 62
     5
 10
-503.60000000176927
 20
-328.74999999998272
 30
0.0
 11
-507.17500000176102
 21
-328.74999999998272
 31
0.0
  0
ARC
  8
DETAIL
  6
CONTINUOUS
 62
     5
 10
-507.17500000176102
 20
-329.87499999999733
 30
0.0
 40
1.1250000000097859
 50
90.0
 51
270.0
  0
ARC
  8
DETAIL
  6
CONTINUOUS
 62
     5
 10
-507.17500000177102
 20
-329.87500000001182
 30
0.0
 40
0.3249999999997035
 50
90.0
 51
270.0
  0
LINE
  8
DETAIL
  6
CONTINUOUS
 62
     5
 10
-503.60000000176927
 20
-329.55000000000018
 30
0.0
 11
-503.60000000176927
 21
-328.74999999998272
 31
0.0
  0
LINE
  8
DETAIL
  6
CONTINUOUS
 62
     5
 10
-502.10000000177479
 20
-329.55000000000018
 30
0.0
 11
-507.17500000177102
 21
-329.55000000000018
 31
0.0
  0
LINE
  8
DETAIL
  6
CONTINUOUS
 62
     5
 10
-503.60000000177303
 20
-1.1500000000087309
 30
0.0
 11
-503.60000000177303
 21
-1.6500000000087309
 31
0.0
  0
ARC
  8
DETAIL
  6
CONTINUOUS
 62
     5
 10
-507.17500000177552
 20
-0.8250000000043656
 30
0.0
 40
0.3249999999990285
 50
90.0
 51
270.0
  0
ARC
  8
DETAIL
  6
CONTINUOUS
 62
     5
 10
-507.17500000176369
 20
-0.8250000000043656
 30
0.0
 40
0.8250000000070009
 50
90.0
 51
270.0
  0
LINE
  8
DETAIL
  6
CONTINUOUS
 62
     5
 10
-493.75000000176351
 20
-1.6500000000087309
 30
0.0
 11
493.75000000176169
 21
-1.6500000000087309
 31
0.0
  0
LINE
  8
DETAIL
  6
CONTINUOUS
 62
     5
 10
503.60000000177303
 20
-1.6500000000087309
 30
0.0
 11
507.17500000176369
 21
-1.6500000000087309
 31
0.0
  0
LINE
  8
DETAIL
  6
CONTINUOUS
 62
     5
 10
503.60000000177303
 20
-1.1500000000087309
 30
0.0
 11
503.60000000177303
 21
-1.6500000000087309
 31
0.0
  0
ARC
  8
DETAIL
  6
CONTINUOUS
 62
     5
 10
507.17500000177461
 20
-0.8250000000043656
 30
0.0
 40
0.3249999999990285
 50
270.0
 51
90.0
  0
ARC
  8
DETAIL
  6
CONTINUOUS
 62
     5
 10
507.17500000176369
 20
-0.8250000000043656
 30
0.0
 40
0.8250000000070009
 50
270.0
 51
90.0
  0
LINE
  8
DETAIL
  6
CONTINUOUS
 62
     5
 10
-493.08000000175713
 20
-328.74999999998272
 30
0.0
 11
493.0800000017598
 21
-328.74999999998272
 31
0.0
  0
LINE
  8
DETAIL
  6
CONTINUOUS
 62
     5
 10
-479.49999999999818
 20
-146.64885796467209
 30
0.0
 11
-479.49999999999818
 21
-243.7510843486707
 31
0.0
  0
LINE
  8
DETAIL
  6
CONTINUOUS
 62
     5
 10
-265.5
 20
-146.6489723206723
 30
0.0
 11
-265.5
 21
-243.75096999267041
 31
0.0
  0
LINE
  8
DETAIL
  6
CONTINUOUS
 62
     5
 10
265.49999999999818
 20
-146.6489723206723
 30
0.0
 11
265.49999999999818
 21
-243.75096999267041
 31
0.0
  0
LINE
  8
DETAIL
  6
CONTINUOUS
 62
     5
 10
479.49999999999551
 20
-146.64885796467209
 30
0.0
 11
479.49999999999551
 21
-243.7510843486707
 31
0.0
  0
ARC
  8
DETAIL
  6
CONTINUOUS
 62
     5
 10
-372.49999999733149
 20
-195.2000225073316
 30
0.0
 40
117.4999443253329
 50
24.406082693698121
 51
155.5938665284138
  0
ARC
  8
DETAIL
  6
CONTINUOUS
 62
     5
 10
-372.49999999733149
 20
-195.19991980599659
 30
0.0
 40
117.4999443253329
 50
204.4061334715862
 51
335.59391730630188
  0
CIRCLE
  8
DETAIL
  6
CONTINUOUS
 62
     5
 10
-372.49999999999909
 20
-195.19997115667141
 30
0.0
 40
103.9999999999996
  0
CIRCLE
  8
DETAIL
  6
CONTINUOUS
 62
     5
 10
-372.49999999999909
 20
-195.19997115667141
 30
0.0
 40
95.999999999999687
  0
ARC
  8
DETAIL
  6
CONTINUOUS
 62
     5
 10
372.49999999733149
 20
-195.2000225073316
 30
0.0
 40
117.4999443253329
 50
24.40613347158623
 51
155.5939173063019
  0
ARC
  8
DETAIL
  6
CONTINUOUS
 62
     5
 10
372.49999999733149
 20
-195.19991980599659
 30
0.0
 40
117.4999443253329
 50
204.4060826936981
 51
335.59386652841368
  0
CIRCLE
  8
DETAIL
  6
CONTINUOUS
 62
     5
 10
372.49999999999818
 20
-195.19997115667141
 30
0.0
 40
103.9999999999996
  0
CIRCLE
  8
DETAIL
  6
CONTINUOUS
 62
     5
 10
372.49999999999818
 20
-195.19997115667141
 30
0.0
 40
95.999999999999687
  0
CIRCLE
  8
DETAIL
  6
CONTINUOUS
 62
     5
 10
-451.69595949333319
 20
-274.39593065000741
 30
0.0
 40
4.6999999999999842
  0
CIRCLE
  8
DETAIL
  6
CONTINUOUS
 62
     5
 10
-293.30404050666681
 20
-274.39593065000741
 30
0.0
 40
4.6999999999999842
  0
CIRCLE
  8
DETAIL
  6
CONTINUOUS
 62
     5
 10
-293.30404050666681
 20
-116.00401166334269
 30
0.0
 40
4.6999999999999842
  0
CIRCLE
  8
DETAIL
  6
CONTINUOUS
 62
     5
 10
-451.69595949333319
 20
-116.00401166334269
 30
0.0
 40
4.6999999999999842
  0
CIRCLE
  8
DETAIL
  6
CONTINUOUS
 62
     5
 10
293.30404050665948
 20
-274.39593065000741
 30
0.0
 40
4.6999999999999842
  0
CIRCLE
  8
DETAIL
  6
CONTINUOUS
 62
     5
 10
451.69595949332961
 20
-274.39593065000741
 30
0.0
 40
4.6999999999999842
  0
CIRCLE
  8
DETAIL
  6
CONTINUOUS
 62
     5
 10
451.69595949332961
 20
-116.00401166334269
 30
0.0
 40
4.6999999999999842
  0
CIRCLE
  8
DETAIL
  6
CONTINUOUS
 62
     5
 10
293.30404050665948
 20
-116.00401166334269
 30
0.0
 40
4.6999999999999842
  0
LINE
  8
BASIS
  6
DASHDOT
 62
     6
 10
-372.49999999999909
 20
-69.367459025073913
 30
0.0
 11
-372.49999999999909
 21
-321.03248328826879
 31
0.0
1001
GENIUS_GENODEF_13
1002
{
1000
HIER
1070
     0
1002
}
1002
{
1000
MANEDIT
1070
     0
1002
}
1002
{
1000
NOSEL
1070
     0
1002
}
1002
{
1000
BEHIND
1070
     0
1002
}
1002
{
1000
OTHER
1070
     0
1002
}
1002
{
1000
REACTOR
1002
}
1001
GENIUS_GENOBJ-N-CEN_13
1002
{
1000
OWNER
1000
GEN
1002
}
1001
GENIUS_GENCEN_19
1002
{
1040
5.0
1002
}
  0
LINE
  8
BASIS
  6
DASHDOT
 62
     6
 10
-493.07213564880658
 20
-195.19997115667141
 30
0.0
 11
502.10000000177479
 21
-195.19997115667141
 31
0.0
1001
GENIUS_GENODEF_13
1002
{
1000
HIER
1070
     0
1002
}
1002
{
1000
MANEDIT
1070
     0
1002
}
1002
{
1000
NOSEL
1070
     0
1002
}
1002
{
1000
BEHIND
1070
     0
1002
}
1002
{
1000
OTHER
1070
     0
1002
}
1002
{
1000
REACTOR
1002
}
1001
GENIUS_GENOBJ-N-CEN_13
1002
{
1000
OWNER
1000
GEN
1002
}
1001
GENIUS_GENCEN_19
1002
{
1040
5.0
1002
}
  0
LINE
  8
BASIS
  6
DASHDOT
 62
     6
 10
372.49999999733149
 20
-69.367459025073913
 30
0.0
 11
372.49999999733149
 21
-321.03248328826879
 31
0.0
1001
GENIUS_GENODEF_13
1002
{
1000
HIER
1070
     0
1002
}
1002
{
1000
MANEDIT
1070
     0
1002
}
1002
{
1000
NOSEL
1070
     0
1002
}
1002
{
1000
BEHIND
1070
     0
1002
}
1002
{
1000
OTHER
1070
     0
1002
}
1002
{
1000
REACTOR
1002
}
1001
GENIUS_GENOBJ-N-CEN_13
1002
{
1000
OWNER
1000
GEN
1002
}
1001
GENIUS_GENCEN_19
1002
{
1040
5.0
1002
}
  0
LINE
  8
DETAIL
  6
CONTINUOUS
 62
     5
 10
-502.40002886492312
 20
-56.366379084036453
 30
0.0
 11
-501.60000000177212
 21
-56.366379084036453
 31
0.0
  0
LINE
  8
DETAIL
  6
CONTINUOUS
 62
     5
 10
-502.40002794775143
 20
-314.13360352195741
 30
0.0
 11
-501.59999908460031
 21
-314.13360352195741
 31
0.0
  0
LINE
  8
SIZE
  6
CONTINUOUS
 62
    30
 10
-372.49999999999909
 20
-49.527459025073767
 30
0.0
 11
-372.49999999999909
 21
153.4038978850331
 31
0.0
  0
LINE
  8
SIZE
  6
CONTINUOUS
 62
    30
 10
372.49999999733149
 20
-49.527459025073767
 30
0.0
 11
372.49999999733149
 21
153.4038978850331
 31
0.0
  0
LINE
  8
SIZE
  6
CONTINUOUS
 62
    30
 10
-360.49999999999909
 20
133.4038978850331
 30
0.0
 11
360.49999999733149
 21
133.4038978850331
 31
0.0
  0
CIRCLE
  8
SIZE
  6
CONTINUOUS
 62
    30
 10
-372.49999999999909
 20
133.4038978850331
 30
0.0
 40
6.0
  0
LINE
  8
SIZE
  6
CONTINUOUS
 62
    30
 10
-372.49999999999909
 20
133.4038978850331
 30
0.0
 11
-360.49999999999909
 21
133.4038978850331
 31
0.0
  0
CIRCLE
  8
SIZE
  6
CONTINUOUS
 62
    30
 10
372.49999999733149
 20
133.4038978850331
 30
0.0
 40
6.0
  0
LINE
  8
SIZE
  6
CONTINUOUS
 62
    30
 10
372.49999999733149
 20
133.4038978850331
 30
0.0
 11
360.49999999733149
 21
133.4038978850331
 31
0.0
  0
TEXT
  8
SIZE
  6
CONTINUOUS
 62
    30
 10
-80.928000001333771
 20
158.4038978850331
 30
0.0
 40
64.0
  1
745
 50
0.0
 41
0.9
 51
0.0
  7
STANDARD
 71
     0
 72
     1
 11
-0.000000001333774
 21
158.4038978850331
 31
0.0
210
0.0
220
0.0
230
1.0
  0
POINT
  8
DEFPOINTS
  6
CONTINUOUS
 62
    30
 10
-372.49999999999909
 20
-69.527459025073767
 30
0.0
  0
POINT
  8
DEFPOINTS
  6
CONTINUOUS
 62
    30
 10
372.49999999733149
 20
-69.527459025073767
 30
0.0
  0
POINT
  8
DEFPOINTS
  6
CONTINUOUS
 62
    30
 10
372.49999999733149
 20
133.4038978850331
 30
0.0
  0
LINE
  8
SIZE
  6
CONTINUOUS
 62
    30
 10
-508.00000000176988
 20
19.174999999995631
 30
0.0
 11
-508.00000000176988
 21
273.32618222630481
 31
0.0
  0
LINE
  8
SIZE
  6
CONTINUOUS
 62
    30
 10
508.00000000177079
 20
19.174999999995631
 30
0.0
 11
508.00000000177079
 21
273.32618222630481
 31
0.0
  0
LINE
  8
SIZE
  6
CONTINUOUS
 62
    30
 10
-496.00000000176988
 20
253.32618222630481
 30
0.0
 11
496.00000000177079
 21
253.32618222630481
 31
0.0
  0
CIRCLE
  8
SIZE
  6
CONTINUOUS
 62
    30
 10
-508.00000000176988
 20
253.32618222630481
 30
0.0
 40
6.0
  0
LINE
  8
SIZE
  6
CONTINUOUS
 62
    30
 10
-508.00000000176988
 20
253.32618222630481
 30
0.0
 11
-496.00000000176988
 21
253.32618222630481
 31
0.0
  0
CIRCLE
  8
SIZE
  6
CONTINUOUS
 62
    30
 10
508.00000000177079
 20
253.32618222630481
 30
0.0
 40
6.0
  0
LINE
  8
SIZE
  6
CONTINUOUS
 62
    30
 10
508.00000000177079
 20
253.32618222630481
 30
0.0
 11
496.00000000177079
 21
253.32618222630481
 31
0.0
  0
TEXT
  8
SIZE
  6
CONTINUOUS
 62
    30
 10
-96.191999999999553
 20
278.32618222630481
 30
0.0
 40
64.0
  1
1016
 50
0.0
 41
0.9
 51
0.0
  7
STANDARD
 71
     0
 72
     1
 11
0.0000000000004547
 21
278.32618222630481
 31
0.0
210
0.0
220
0.0
230
1.0
  0
POINT
  8
DEFPOINTS
  6
CONTINUOUS
 62
    30
 10
-508.00000000176988
 20
-0.8250000000043656
 30
0.0
  0
POINT
  8
DEFPOINTS
  6
CONTINUOUS
 62
    30
 10
508.00000000177079
 20
-0.8250000000043656
 30
0.0
  0
POINT
  8
DEFPOINTS
  6
CONTINUOUS
 62
    30
 10
508.00000000177079
 20
253.32618222630481
 30
0.0
  0
LINE
  8
SIZE
  6
CONTINUOUS
 62
    30
 10
-501.60000000177303
 20
-349.05000000000751
 30
0.0
 11
-501.60000000177303
 21
-546.65562873880936
 31
0.0
  0
LINE
  8
SIZE
  6
CONTINUOUS
 62
    30
 10
-616.60000000177388
 20
-336.04999999999558
 30
0.0
 11
-616.60000000177388
 21
-546.65562873880936
 31
0.0
  0
LINE
  8
SIZE
  6
CONTINUOUS
 62
    30
 10
-604.60000000177388
 20
-526.65562873880936
 30
0.0
 11
-513.60000000177297
 21
-526.65562873880936
 31
0.0
  0
LINE
  8
SIZE
  6
CONTINUOUS
 62
    30
 10
-501.60000000177303
 20
-526.65562873880936
 30
0.0
 11
-313.42857143034439
 21
-526.65562873880936
 31
0.0
  0
CIRCLE
  8
SIZE
  6
CONTINUOUS
 62
    30
 10
-616.60000000177388
 20
-526.65562873880936
 30
0.0
 40
6.0
  0
LINE
  8
SIZE
  6
CONTINUOUS
 62
    30
 10
-616.60000000177388
 20
-526.65562873880936
 30
0.0
 11
-604.60000000177388
 21
-526.65562873880936
 31
0.0
  0
CIRCLE
  8
SIZE
  6
CONTINUOUS
 62
    30
 10
-501.60000000177303
 20
-526.65562873880936
 30
0.0
 40
6.0
  0
LINE
  8
SIZE
  6
CONTINUOUS
 62
    30
 10
-501.60000000177303
 20
-526.65562873880936
 30
0.0
 11
-513.60000000177297
 21
-526.65562873880936
 31
0.0
  0
TEXT
  8
SIZE
  6
CONTINUOUS
 62
    30
 10
-470.34628571605867
 20
-501.65562873880941
 30
0.0
 40
64.0
  1
115
 50
0.0
 41
0.9
 51
0.0
  7
STANDARD
 71
     0
 72
     1
 11
-401.51428571605868
 21
-501.65562873880941
 31
0.0
210
0.0
220
0.0
230
1.0
  0
POINT
  8
DEFPOINTS
  6
CONTINUOUS
 62
    30
 10
-501.60000000177303
 20
-329.05000000000751
 30
0.0
  0
POINT
  8
DEFPOINTS
  6
CONTINUOUS
 62
    30
 10
-616.60000000177388
 20
-316.04999999999558
 30
0.0
  0
POINT
  8
DEFPOINTS
  6
CONTINUOUS
 62
    30
 10
-616.60000000177388
 20
-526.65562873880936
 30
0.0
  0
LINE
  8
BASIS
  6
DASHDOT
 62
     6
 10
531.50000000176442
 20
-135.93427874225199
 30
0.0
 11
531.50000000176442
 21
-34.065721257758923
 31
0.0
  0
LINE
  8
BASIS
  6
DASHDOT
 62
     6
 10
582.43427874401732
 20
-85.000000000009095
 30
0.0
 11
480.56572125952152
 21
-85.000000000009095
 31
0.0
  0
LINE
  8
BASIS
  6
DASHDOT
 62
     6
 10
-531.50000000177715
 20
-135.93427874225199
 30
0.0
 11
-531.50000000177715
 21
-34.065721257758923
 31
0.0
  0
LINE
  8
BASIS
  6
DASHDOT
 62
     6
 10
-480.56572125952329
 20
-85.000000000009095
 30
0.0
 11
-582.43427874402096
 21
-85.000000000009095
 31
0.0
  0
LINE
  8
SIZE
  6
CONTINUOUS
 62
    30
 10
-531.50000000177715
 20
-14.06572125775892
 30
0.0
 11
-531.50000000177715
 21
383.59761729704411
 31
0.0
  0
LINE
  8
SIZE
  6
CONTINUOUS
 62
    30
 10
531.50000000176442
 20
-14.06572125775892
 30
0.0
 11
531.50000000176442
 21
383.59761729704411
 31
0.0
  0
LINE
  8
SIZE
  6
CONTINUOUS
 62
    30
 10
-519.50000000177715
 20
363.59761729704411
 30
0.0
 11
519.50000000176442
 21
363.59761729704411
 31
0.0
  0
CIRCLE
  8
SIZE
  6
CONTINUOUS
 62
    30
 10
-531.50000000177715
 20
363.59761729704411
 30
0.0
 40
6.0
  0
LINE
  8
SIZE
  6
CONTINUOUS
 62
    30
 10
-531.50000000177715
 20
363.59761729704411
 30
0.0
 11
-519.50000000177715
 21
363.59761729704411
 31
0.0
  0
CIRCLE
  8
SIZE
  6
CONTINUOUS
 62
    30
 10
531.50000000176442
 20
363.59761729704411
 30
0.0
 40
6.0
  0
LINE
  8
SIZE
  6
CONTINUOUS
 62
    30
 10
531.50000000176442
 20
363.59761729704411
 30
0.0
 11
519.50000000176442
 21
363.59761729704411
 31
0.0
  0
TEXT
  8
SIZE
  6
CONTINUOUS
 62
    30
 10
-101.95200000000636
 20
388.59761729704411
 30
0.0
 40
64.0
  1
1063
 50
0.0
 41
0.9
 51
0.0
  7
STANDARD
 71
     0
 72
     1
 11
-0.0000000000063665
 21
388.59761729704411
 31
0.0
210
0.0
220
0.0
230
1.0
  0
POINT
  8
DEFPOINTS
  6
CONTINUOUS
 62
    30
 10
-531.50000000177715
 20
-34.065721257758923
 30
0.0
  0
POINT
  8
DEFPOINTS
  6
CONTINUOUS
 62
    30
 10
531.50000000176442
 20
-34.065721257758923
 30
0.0
  0
POINT
  8
DEFPOINTS
  6
CONTINUOUS
 62
    30
 10
531.50000000176442
 20
363.59761729704411
 30
0.0
  0
CIRCLE
  8
FIX
  6
CONTINUOUS
 62
    11
 10
-531.50000000177715
 20
-85.000000000005457
 30
0.0
 40
6.5
  0
CIRCLE
  8
FIX
  6
CONTINUOUS
 62
    11
 10
531.50000000176442
 20
-85.000000000009095
 30
0.0
 40
6.5
  0
LINE
  8
SIZE
  6
CONTINUOUS
 62
    30
 10
-531.50000000177715
 20
-14.06572125775892
 30
0.0
 11
-531.50000000177715
 21
383.59761729706042
 31
0.0
  0
LINE
  8
SIZE
  6
CONTINUOUS
 62
    30
 10
-551.5000000017717
 20
-58.200000000008913
 30
0.0
 11
-551.5000000017717
 21
383.59761729706042
 31
0.0
  0
LINE
  8
SIZE
  6
CONTINUOUS
 62
    30
 10
-519.50000000177715
 20
363.59761729706042
 30
0.0
 11
-507.50000000177721
 21
363.59761729706042
 31
0.0
  0
LINE
  8
SIZE
  6
CONTINUOUS
 62
    30
 10
-563.5000000017717
 20
363.59761729706042
 30
0.0
 11
-718.85714285891584
 21
363.59761729706042
 31
0.0
  0
LINE
  8
SIZE
  6
CONTINUOUS
 62
    30
 10
-531.50000000177715
 20
363.59761729706042
 30
0.0
 11
-551.5000000017717
 21
363.59761729706042
 31
0.0
  0
CIRCLE
  8
SIZE
  6
CONTINUOUS
 62
    30
 10
-531.50000000177715
 20
363.59761729706042
 30
0.0
 40
6.0
  0
LINE
  8
SIZE
  6
CONTINUOUS
 62
    30
 10
-531.50000000177715
 20
363.59761729706042
 30
0.0
 11
-519.50000000177715
 21
363.59761729706042
 31
0.0
  0
CIRCLE
  8
SIZE
  6
CONTINUOUS
 62
    30
 10
-551.5000000017717
 20
363.59761729706042
 30
0.0
 40
6.0
  0
LINE
  8
SIZE
  6
CONTINUOUS
 62
    30
 10
-551.5000000017717
 20
363.59761729706042
 30
0.0
 11
-563.5000000017717
 21
363.59761729706042
 31
0.0
  0
TEXT
  8
SIZE
  6
CONTINUOUS
 62
    30
 10
-701.37257143034435
 20
388.59761729706042
 30
0.0
 40
64.0
  1
20
 50
0.0
 41
0.9
 51
0.0
  7
STANDARD
 71
     0
 72
     1
 11
-647.22857143034435
 21
388.59761729706042
 31
0.0
210
0.0
220
0.0
230
1.0
  0
POINT
  8
DEFPOINTS
  6
CONTINUOUS
 62
    30
 10
-531.50000000177715
 20
-34.065721257758923
 30
0.0
  0
POINT
  8
DEFPOINTS
  6
CONTINUOUS
 62
    30
 10
-551.5000000017717
 20
-78.200000000008913
 30
0.0
  0
POINT
  8
DEFPOINTS
  6
CONTINUOUS
 62
    30
 10
-551.5000000017717
 20
363.59761729706042
 30
0.0
  0
LINE
  8
DETAIL
  6
CONTINUOUS
 62
     5
 10
-551.5000000017717
 20
-91.400000000013279
 30
0.0
 11
-551.5000000017717
 21
-95.000000000004547
 31
0.0
  0
LINE
  8
SIZE
  6
CONTINUOUS
 62
    30
 10
-527.17500000176392
 20
-0.0000000000000032
 30
0.0
 11
-811.27297185275006
 21
-0.0000000000000489
 31
0.0
  0
LINE
  8
SIZE
  6
CONTINUOUS
 62
    30
 10
-602.43427874402119
 20
-85.000000000009123
 30
0.0
 11
-811.27297185275006
 21
-85.000000000009166
 31
0.0
  0
LINE
  8
SIZE
  6
CONTINUOUS
 62
    30
 10
-791.27297185275006
 20
-73.000000000009152
 30
0.0
 11
-791.27297185275006
 21
-12.00000000000005
 31
0.0
  0
LINE
  8
SIZE
  6
CONTINUOUS
 62
    30
 10
-791.27297185275006
 20
-0.0000000000000457
 30
0.0
 11
-791.27297185275006
 21
155.25714285714281
 31
0.0
  0
CIRCLE
  8
SIZE
  6
CONTINUOUS
 62
    30
 10
-791.27297185275006
 20
-85.000000000009152
 30
0.0
 40
6.0
  0
LINE
  8
SIZE
  6
CONTINUOUS
 62
    30
 10
-791.27297185275006
 20
-85.000000000009152
 30
0.0
 11
-791.27297185275006
 21
-73.000000000009152
 31
0.0
  0
CIRCLE
  8
SIZE
  6
CONTINUOUS
 62
    30
 10
-791.27297185275006
 20
-0.0000000000000457
 30
0.0
 40
6.0
  0
LINE
  8
SIZE
  6
CONTINUOUS
 62
    30
 10
-791.27297185275006
 20
-0.0000000000000457
 30
0.0
 11
-791.27297185275006
 21
-12.000000000000046
 31
0.0
  0
TEXT
  8
SIZE
  6
CONTINUOUS
 62
    30
 10
-816.27297185274983
 20
30.060571428571635
 30
0.0
 40
64.0
  1
85
 50
90.0
 41
0.9
 51
0.0
  7
STANDARD
 71
     0
 72
     1
 11
-816.27297185274983
 21
83.628571428571618
 31
0.0
210
0.0
220
0.0
230
1.0
  0
POINT
  8
DEFPOINTS
  6
CONTINUOUS
 62
    30
 10
-507.17500000176392
 20
0.0
 30
0.0
  0
POINT
  8
DEFPOINTS
  6
CONTINUOUS
 62
    30
 10
-582.43427874402119
 20
-85.000000000009123
 30
0.0
  0
POINT
  8
DEFPOINTS
  6
CONTINUOUS
 62
    30
 10
-791.27297185275006
 20
-85.000000000009152
 30
0.0
  0
LINE
  8
SIZE
  6
CONTINUOUS
 62
    30
 10
527.17500000176392
 20
0.0000000000000032
 30
0.0
 11
785.99297762959964
 21
0.0000000000000448
 31
0.0
  0
LINE
  8
SIZE
  6
CONTINUOUS
 62
    30
 10
602.43427874401755
 20
-85.000000000009123
 30
0.0
 11
785.99297762959964
 21
-85.000000000009095
 31
0.0
  0
LINE
  8
SIZE
  6
CONTINUOUS
 62
    30
 10
765.99297762959952
 20
-73.000000000009095
 30
0.0
 11
765.99297762959952
 21
-11.999999999999959
 31
0.0
  0
LINE
  8
SIZE
  6
CONTINUOUS
 62
    30
 10
765.99297762959952
 20
0.0000000000000416
 30
0.0
 11
765.99297762959952
 21
155.25714285714309
 31
0.0
  0
CIRCLE
  8
SIZE
  6
CONTINUOUS
 62
    30
 10
765.99297762959952
 20
-85.000000000009095
 30
0.0
 40
6.0
  0
LINE
  8
SIZE
  6
CONTINUOUS
 62
    30
 10
765.99297762959952
 20
-85.000000000009095
 30
0.0
 11
765.99297762959952
 21
-73.000000000009095
 31
0.0
  0
CIRCLE
  8
SIZE
  6
CONTINUOUS
 62
    30
 10
765.99297762959952
 20
0.0000000000000416
 30
0.0
 40
6.0
  0
LINE
  8
SIZE
  6
CONTINUOUS
 62
    30
 10
765.99297762959952
 20
0.0000000000000416
 30
0.0
 11
765.99297762959952
 21
-11.999999999999959
 31
0.0
  0
TEXT
  8
SIZE
  6
CONTINUOUS
 62
    30
 10
740.99297762959941
 20
30.060571428571393
 30
0.0
 40
64.0
  1
85
 50
90.0
 41
0.9
 51
0.0
  7
STANDARD
 71
     0
 72
     1
 11
740.99297762959941
 21
83.628571428571377
 31
0.0
210
0.0
220
0.0
230
1.0
  0
POINT
  8
DEFPOINTS
  6
CONTINUOUS
 62
    30
 10
507.17500000176392
 20
0.0
 30
0.0
  0
POINT
  8
DEFPOINTS
  6
CONTINUOUS
 62
    30
 10
582.43427874401755
 20
-85.000000000009123
 30
0.0
  0
POINT
  8
DEFPOINTS
  6
CONTINUOUS
 62
    30
 10
765.99297762959952
 20
-85.000000000009095
 30
0.0
  0
LINE
  8
SIZE
  6
CONTINUOUS
 62
    30
 10
-691.50111398177364
 20
-165.20000000000439
 30
0.0
 11
-811.27297185274301
 21
-165.20000000000451
 31
0.0
  0
LINE
  8
SIZE
  6
CONTINUOUS
 62
    30
 10
-513.07213564880692
 20
-195.1999711566715
 30
0.0
 11
-811.27297185274301
 21
-195.1999711566715
 31
0.0
  0
LINE
  8
SIZE
  6
CONTINUOUS
 62
    30
 10
-791.27297185274301
 20
-153.20000000000451
 30
0.0
 11
-791.27297185274301
 21
-141.20000000000451
 31
0.0
  0
LINE
  8
SIZE
  6
CONTINUOUS
 62
    30
 10
-791.27297185274301
 20
-207.1999711566715
 30
0.0
 11
-791.27297185274301
 21
-219.1999711566715
 31
0.0
  0
LINE
  8
SIZE
  6
CONTINUOUS
 62
    30
 10
-791.27297185274301
 20
-165.20000000000451
 30
0.0
 11
-791.27297185274301
 21
-195.1999711566715
 31
0.0
  0
CIRCLE
  8
SIZE
  6
CONTINUOUS
 62
    30
 10
-791.27297185274301
 20
-165.20000000000451
 30
0.0
 40
6.0
  0
LINE
  8
SIZE
  6
CONTINUOUS
 62
    30
 10
-791.27297185274301
 20
-165.20000000000451
 30
0.0
 11
-791.27297185274301
 21
-153.20000000000451
 31
0.0
  0
CIRCLE
  8
SIZE
  6
CONTINUOUS
 62
    30
 10
-791.27297185274301
 20
-195.1999711566715
 30
0.0
 40
6.0
  0
LINE
  8
SIZE
  6
CONTINUOUS
 62
    30
 10
-791.27297185274301
 20
-195.1999711566715
 30
0.0
 11
-791.27297185274301
 21
-207.1999711566715
 31
0.0
  0
TEXT
  8
SIZE
  6
CONTINUOUS
 62
    30
 10
-816.27297185274278
 20
-234.34398557833771
 30
0.0
 40
64.0
  1
30
 50
90.0
 41
0.9
 51
0.0
  7
STANDARD
 71
     0
 72
     1
 11
-816.27297185274278
 21
-180.1999855783377
 31
0.0
210
0.0
220
0.0
230
1.0
  0
POINT
  8
DEFPOINTS
  6
CONTINUOUS
 62
    30
 10
-671.50111398177364
 20
-165.20000000000439
 30
0.0
  0
POINT
  8
DEFPOINTS
  6
CONTINUOUS
 62
    30
 10
-493.07213564880681
 20
-195.1999711566715
 30
0.0
  0
POINT
  8
DEFPOINTS
  6
CONTINUOUS
 62
    30
 10
-791.27297185274301
 20
-195.1999711566715
 30
0.0
  0
LINE
  8
SIZE
  6
CONTINUOUS
 62
    30
 10
-527.17500000176392
 20
0.0000000000027253
 30
0.0
 11
-924.82989019623403
 21
0.0000000000026613
 31
0.0
  0
LINE
  8
SIZE
  6
CONTINUOUS
 62
    30
 10
-527.25000000177465
 20
-330.99999999999739
 30
0.0
 11
-924.82989019623392
 21
-330.9999999999975
 31
0.0
  0
LINE
  8
SIZE
  6
CONTINUOUS
 62
    30
 10
-904.82989019623403
 20
-11.999999999997341
 30
0.0
 11
-904.82989019623392
 21
-318.9999999999975
 31
0.0
  0
CIRCLE
  8
SIZE
  6
CONTINUOUS
 62
    30
 10
-904.82989019623403
 20
0.0000000000026645
 30
0.0
 40
6.0
  0
LINE
  8
SIZE
  6
CONTINUOUS
 62
    30
 10
-904.82989019623403
 20
0.0000000000026645
 30
0.0
 11
-904.82989019623403
 21
-11.999999999997335
 31
0.0
  0
CIRCLE
  8
SIZE
  6
CONTINUOUS
 62
    30
 10
-904.82989019623392
 20
-330.9999999999975
 30
0.0
 40
6.0
  0
LINE
  8
SIZE
  6
CONTINUOUS
 62
    30
 10
-904.82989019623392
 20
-330.9999999999975
 30
0.0
 11
-904.82989019623392
 21
-318.9999999999975
 31
0.0
  0
TEXT
  8
SIZE
  6
CONTINUOUS
 62
    30
 10
-929.8298901962338
 20
-240.09199999999709
 30
0.0
 40
64.0
  1
331
 50
90.0
 41
0.9
 51
0.0
  7
STANDARD
 71
     0
 72
     1
 11
-929.8298901962338
 21
-165.4999999999971
 31
0.0
210
0.0
220
0.0
230
1.0
  0
POINT
  8
DEFPOINTS
  6
CONTINUOUS
 62
    30
 10
-507.17500000176392
 20
0.0000000000027285
 30
0.0
  0
POINT
  8
DEFPOINTS
  6
CONTINUOUS
 62
    30
 10
-507.25000000177471
 20
-330.99999999999739
 30
0.0
  0
POINT
  8
DEFPOINTS
  6
CONTINUOUS
 62
    30
 10
-904.82989019623392
 20
-330.9999999999975
 30
0.0
  0
POINT
  8
ARRANGE
  6
CONTINUOUS
 62
     1
 10
0.0
 20
0.0
 30
0.0
 50
270.0
  0
CIRCLE
  8
ARRANGE
  6
CONTINUOUS
 62
     1
 10
0.0
 20
0.0
 30
0.0
 40
40.0
  0
LINE
  8
OUTLINE
  6
CONTINUOUS
 62
     3
 10
502.10000000177479
 20
-88.923726158664977
 30
0.0
 11
502.10000000177479
 21
-1.650000000001455
 31
0.0
  0
LINE
  8
OUTLINE
  6
CONTINUOUS
 62
     3
 10
502.10000000177479
 20
-1.650000000001455
 30
0.0
 11
501.60000000177479
 21
-1.650000000001455
 31
0.0
  0
ARC
  8
OUTLINE
  6
CONTINUOUS
 62
     3
 10
502.1000000017707
 20
-1.650000000005555
 30
0.0
 40
0.4999999999959139
 50
90.0
 51
180.0
  0
LINE
  8
OUTLINE
  6
CONTINUOUS
 62
     3
 10
502.10000000177479
 20
-1.1500000000096411
 30
0.0
 11
503.60000000177109
 21
-1.1500000000096411
 31
0.0
  0
LINE
  8
OUTLINE
  6
CONTINUOUS
 62
     3
 10
503.60000000177109
 20
-1.1500000000096411
 30
0.0
 11
503.60000000177109
 21
-1.650000000024193
 31
0.0
  0
LINE
  8
OUTLINE
  6
CONTINUOUS
 62
     3
 10
503.60000000177109
 20
-1.650000000024193
 30
0.0
 11
507.17500000176102
 21
-1.650000000026921
 31
0.0
  0
ARC
  8
OUTLINE
  6
CONTINUOUS
 62
     3
 10
507.17500000175733
 20
-0.8250000000134605
 30
0.0
 40
0.8250000000134605
 50
270.0
 51
90.0
  0
LINE
  8
OUTLINE
  6
CONTINUOUS
 62
     3
 10
507.17500000176187
 20
0.0
 30
0.0
 11
501.55816558843981
 21
0.0
 31
0.0
  0
ARC
  8
OUTLINE
  6
CONTINUOUS
 62
     3
 10
501.55816558845379
 20
-1.0000000000139577
 30
0.0
 40
1.0000000000139577
 50
90.0
 51
174.99999999965962
  0
LINE
  8
OUTLINE
  6
CONTINUOUS
 62
     3
 10
500.56197089034868
 20
-0.9128442572591666
 30
0.0
 11
500.40998945643878
 21
-2.6500000000014552
 31
0.0
  0
LINE
  8
OUTLINE
  6
CONTINUOUS
 62
     3
 10
500.40998945643878
 20
-2.6500000000014552
 30
0.0
 11
499.60000000177388
 21
-2.6500000000014552
 31
0.0
  0
LINE
  8
OUTLINE
  6
CONTINUOUS
 62
     3
 10
499.60000000177388
 20
-2.6500000000014552
 30
0.0
 11
499.60000000177388
 21
-0.6500000000087312
 31
0.0
  0
LINE
  8
OUTLINE
  6
CONTINUOUS
 62
     3
 10
499.60000000177388
 20
-0.6500000000087312
 30
0.0
 11
499.50000000177528
 21
-0.6500000000087312
 31
0.0
  0
LINE
  8
OUTLINE
  6
CONTINUOUS
 62
     3
 10
499.50000000177528
 20
-0.6500000000087312
 30
0.0
 11
499.50000000177351
 21
0.0
 31
0.0
  0
LINE
  8
OUTLINE
  6
CONTINUOUS
 62
     3
 10
499.50000000177351
 20
0.0
 30
0.0
 11
-499.50000000177442
 21
0.0
 31
0.0
  0
LINE
  8
OUTLINE
  6
CONTINUOUS
 62
     3
 10
-499.50000000177442
 20
0.0
 30
0.0
 11
-499.50000000177442
 21
-0.6500000000087312
 31
0.0
  0
LINE
  8
OUTLINE
  6
CONTINUOUS
 62
     3
 10
-499.50000000177442
 20
-0.6500000000087312
 30
0.0
 11
-499.60000000177479
 21
-0.6500000000087312
 31
0.0
  0
LINE
  8
OUTLINE
  6
CONTINUOUS
 62
     3
 10
-499.60000000177479
 20
-0.6500000000087312
 30
0.0
 11
-499.60000000177479
 21
-2.6500000000014552
 31
0.0
  0
LINE
  8
OUTLINE
  6
CONTINUOUS
 62
     3
 10
-499.60000000177479
 20
-2.6500000000014552
 30
0.0
 11
-500.40998945643793
 21
-2.6500000000014552
 31
0.0
  0
LINE
  8
OUTLINE
  6
CONTINUOUS
 62
     3
 10
-500.40998945643793
 20
-2.6500000000014552
 30
0.0
 11
-500.56197089034782
 21
-0.9128442572600761
 31
0.0
  0
ARC
  8
OUTLINE
  6
CONTINUOUS
 62
     3
 10
-501.55816558845436
 20
-1.0000000000153946
 30
0.0
 40
1.0000000000153944
 50
5.0000000003634
 51
90.0
  0
LINE
  8
OUTLINE
  6
CONTINUOUS
 62
     3
 10
-501.55816558843981
 20
0.0
 30
0.0
 11
-507.17500000176102
 21
-0.0000000000118234
 31
0.0
  0
ARC
  8
OUTLINE
  6
CONTINUOUS
 62
     3
 10
-507.17500000176102
 20
-0.8250000000175533
 30
0.0
 40
0.8250000000057298
 50
90.0
 51
270.0
  0
LINE
  8
OUTLINE
  6
CONTINUOUS
 62
     3
 10
-507.17500000176102
 20
-1.6500000000232831
 30
0.0
 11
-503.60000000177303
 21
-1.6500000000232831
 31
0.0
  0
LINE
  8
OUTLINE
  6
CONTINUOUS
 62
     3
 10
-503.60000000177303
 20
-1.6500000000232831
 30
0.0
 11
-503.60000000177303
 21
-1.1500000000087309
 31
0.0
  0
LINE
  8
OUTLINE
  6
CONTINUOUS
 62
     3
 10
-503.60000000177303
 20
-1.1500000000087309
 30
0.0
 11
-502.10000000177479
 21
-1.1500000000087309
 31
0.0
  0
ARC
  8
OUTLINE
  6
CONTINUOUS
 62
     3
 10
-502.10000000176228
 20
-1.6499999999962034
 30
0.0
 40
0.4999999999874724
 50
0.0
 51
90.0
  0
LINE
  8
OUTLINE
  6
CONTINUOUS
 62
     3
 10
-501.60000000177479
 20
-1.650000000001455
 30
0.0
 11
-501.60003021548351
 21
-4.699963052772091
 31
0.0
  0
LINE
  8
OUTLINE
  6
CONTINUOUS
 62
     3
 10
-501.60003021548351
 20
-4.699963052772091
 30
0.0
 11
-504.6000302154871
 21
-4.699963052772091
 31
0.0
  0
LINE
  8
OUTLINE
  6
CONTINUOUS
 62
     3
 10
-504.6000302154871
 20
-4.699963052772091
 30
0.0
 11
-504.60003021548351
 21
-5.1499630527691806
 31
0.0
  0
ARC
  8
OUTLINE
  6
CONTINUOUS
 62
     3
 10
-505.80003021547827
 20
-5.1499630527668661
 30
0.0
 40
1.199999999994775
 50
0.0
 51
90.0
  0
LINE
  8
OUTLINE
  6
CONTINUOUS
 62
     3
 10
-505.80003021548418
 20
-3.949963052772091
 30
0.0
 11
-515.10003021548346
 21
-3.949963052772091
 31
0.0
  0
ARC
  8
OUTLINE
  6
CONTINUOUS
 62
     3
 10
-515.10003021548346
 20
-4.549963052771318
 30
0.0
 40
0.5999999999992269
 50
90.0
 51
270.0
  0
LINE
  8
OUTLINE
  6
CONTINUOUS
 62
     3
 10
-515.10003021548346
 20
-5.1499630527705449
 30
0.0
 11
-515.60003021548528
 21
-5.1499630527691806
 31
0.0
  0
LINE
  8
OUTLINE
  6
CONTINUOUS
 62
     3
 10
-515.60003021548528
 20
-5.1499630527691806
 30
0.0
 11
-515.97981651548344
 21
-4.6855224274409011
 31
0.0
  0
ARC
  8
OUTLINE
  6
CONTINUOUS
 62
     3
 10
-481.10000000178354
 20
-47.340046219995486
 30
0.0
 40
55.099999999990729
 50
129.27384257795637
 51
180.0
  0
LINE
  8
OUTLINE
  6
CONTINUOUS
 62
     3
 10
-536.20000000177424
 20
-47.340046220000659
 30
0.0
 11
-536.20000000177424
 21
-54.450000000004373
 31
0.0
  0
LINE
  8
OUTLINE
  6
CONTINUOUS
 62
     3
 10
-536.20000000177424
 20
-54.450000000004373
 30
0.0
 11
-616.60000000177752
 21
-54.449999999990723
 31
0.0
  0
LINE
  8
OUTLINE
  6
CONTINUOUS
 62
     3
 10
-616.60000000177752
 20
-54.449999999990723
 30
0.0
 11
-616.60000000177752
 21
-55.301087470684251
 31
0.0
  0
ARC
  8
OUTLINE
  6
CONTINUOUS
 62
     3
 10
-615.80000000177597
 20
-56.449999999980705
 30
0.0
 40
1.3999999999917083
 50
124.84990457935925
 51
145.15009542139018
  0
LINE
  8
OUTLINE
  6
CONTINUOUS
 62
     3
 10
-616.9489125310829
 20
-55.649999999994179
 30
0.0
 11
-617.80000000177461
 21
-55.649999999994179
 31
0.0
  0
LINE
  8
OUTLINE
  6
CONTINUOUS
 62
     3
 10
-617.80000000177461
 20
-55.649999999994179
 30
0.0
 11
-617.80000000177097
 21
-314.84999999999218
 31
0.0
  0
LINE
  8
OUTLINE
  6
CONTINUOUS
 62
     3
 10
-617.80000000177097
 20
-314.84999999999218
 30
0.0
 11
-616.94891253108108
 21
-314.84999999999133
 31
0.0
  0
ARC
  8
OUTLINE
  6
CONTINUOUS
 62
     3
 10
-615.80000000176983
 20
-314.0499999999991
 30
0.0
 40
1.3999999999985526
 50
214.84990457870015
 51
235.15009542070993
  0
LINE
  8
OUTLINE
  6
CONTINUOUS
 62
     3
 10
-616.60000000177388
 20
-315.19891252930211
 30
0.0
 11
-616.60000000177388
 21
-316.04999999999558
 31
0.0
  0
LINE
  8
OUTLINE
  6
CONTINUOUS
 62
     3
 10
-616.60000000177388
 20
-316.04999999999558
 30
0.0
 11
-525.22832301882954
 21
-316.05542479803529
 31
0.0
  0
ARC
  8
OUTLINE
  6
CONTINUOUS
 62
     3
 10
-481.10000000175256
 20
-283.05995378000318
 30
0.0
 40
55.100000000011647
 50
216.78606796770418
 51
230.72615742202106
  0
LINE
  8
OUTLINE
  6
CONTINUOUS
 62
     3
 10
-515.97981651548253
 20
-325.71447757256021
 30
0.0
 11
-515.6000000017757
 21
-325.25000000000011
 31
0.0
  0
LINE
  8
OUTLINE
  6
CONTINUOUS
 62
     3
 10
-515.6000000017757
 20
-325.25000000000011
 30
0.0
 11
-515.10000000177388
 21
-325.24999999999869
 31
0.0
  0
ARC
  8
OUTLINE
  6
CONTINUOUS
 62
     3
 10
-515.10000000177388
 20
-325.85000000000161
 30
0.0
 40
0.6000000000028933
 50
90.0
 51
270.0
  0
LINE
  8
OUTLINE
  6
CONTINUOUS
 62
     3
 10
-515.10000000177388
 20
-326.45000000000448
 30
0.0
 11
-505.80000000177461
 21
-326.45000000000448
 31
0.0
  0
ARC
  8
OUTLINE
  6
CONTINUOUS
 62
     3
 10
-505.8000000017812
 20
-325.24999999999716
 30
0.0
 40
1.2000000000072935
 50
270.0
 51
0.0
  0
LINE
  8
OUTLINE
  6
CONTINUOUS
 62
     3
 10
-504.60000000177388
 20
-325.25000000000011
 30
0.0
 11
-504.60000000177388
 21
-325.70000000000448
 31
0.0
  0
LINE
  8
OUTLINE
  6
CONTINUOUS
 62
     3
 10
-504.60000000177388
 20
-325.70000000000448
 30
0.0
 11
-501.60000000177388
 21
-325.70000000000448
 31
0.0
  0
LINE
  8
OUTLINE
  6
CONTINUOUS
 62
     3
 10
-501.60000000177388
 20
-325.70000000000448
 30
0.0
 11
-501.60000000177479
 21
-329.05000000000751
 31
0.0
  0
ARC
  8
OUTLINE
  6
CONTINUOUS
 62
     3
 10
-502.10000000174927
 20
-329.05000000001843
 30
0.0
 40
0.4999999999744693
 50
270.0
 51
0.0
  0
LINE
  8
OUTLINE
  6
CONTINUOUS
 62
     3
 10
-502.10000000177479
 20
-329.54999999999291
 30
0.0
 11
-503.60000000176927
 21
-329.54999999999518
 31
0.0
  0
LINE
  8
OUTLINE
  6
CONTINUOUS
 62
     3
 10
-503.60000000176927
 20
-329.54999999999518
 30
0.0
 11
-503.60000000176927
 21
-328.74999999998272
 31
0.0
  0
LINE
  8
OUTLINE
  6
CONTINUOUS
 62
     3
 10
-503.60000000176927
 20
-328.74999999998272
 30
0.0
 11
-507.17500000175909
 21
-328.74999999998272
 31
0.0
  0
ARC
  8
OUTLINE
  6
CONTINUOUS
 62
     3
 10
-507.17370689831989
 20
-329.87629310343851
 30
0.0
 40
1.1262938457652054
 50
90.065781577423252
 51
266.11591355582857
  0
LINE
  8
OUTLINE
  6
CONTINUOUS
 62
     3
 10
-507.25000000177442
 20
-330.99999999999733
 30
0.0
 11
-501.83306494044058
 21
-330.99999999999733
 31
0.0
  0
ARC
  8
OUTLINE
  6
CONTINUOUS
 62
     3
 10
-501.83306494042546
 20
-329.40000000001316
 30
0.0
 40
1.5999999999841406
 50
270.0
 51
355.00000000023567
  0
LINE
  8
OUTLINE
  6
CONTINUOUS
 62
     3
 10
-500.23915342349392
 20
-329.53944918840148
 30
0.0
 11
-500.10884350577447
 21
-328.05000000000018
 31
0.0
  0
LINE
  8
OUTLINE
  6
CONTINUOUS
 62
     3
 10
-500.10884350577447
 20
-328.05000000000018
 30
0.0
 11
-499.60000000177479
 21
-328.05000000000018
 31
0.0
  0
LINE
  8
OUTLINE
  6
CONTINUOUS
 62
     3
 10
-499.60000000177479
 20
-328.05000000000018
 30
0.0
 11
-499.60000000177479
 21
-330.05000000000018
 31
0.0
  0
LINE
  8
OUTLINE
  6
CONTINUOUS
 62
     3
 10
-499.60000000177479
 20
-330.05000000000018
 30
0.0
 11
-499.10000000177303
 21
-330.050000000002
 31
0.0
  0
LINE
  8
OUTLINE
  6
CONTINUOUS
 62
     3
 10
-499.10000000177303
 20
-330.050000000002
 30
0.0
 11
-499.10000000177303
 21
-330.99999999999733
 31
0.0
  0
LINE
  8
OUTLINE
  6
CONTINUOUS
 62
     3
 10
-499.10000000177303
 20
-330.99999999999733
 30
0.0
 11
499.1000000017757
 21
-331.00000000000642
 31
0.0
  0
LINE
  8
OUTLINE
  6
CONTINUOUS
 62
     3
 10
499.1000000017757
 20
-331.00000000000642
 30
0.0
 11
499.1000000017757
 21
-330.050000000002
 31
0.0
  0
LINE
  8
OUTLINE
  6
CONTINUOUS
 62
     3
 10
499.1000000017757
 20
-330.050000000002
 30
0.0
 11
499.60000000177212
 21
-330.050000000002
 31
0.0
  0
LINE
  8
OUTLINE
  6
CONTINUOUS
 62
     3
 10
499.60000000177212
 20
-330.050000000002
 30
0.0
 11
499.60000000177388
 21
-328.05000000000018
 31
0.0
  0
LINE
  8
OUTLINE
  6
CONTINUOUS
 62
     3
 10
499.60000000177388
 20
-328.05000000000018
 30
0.0
 11
500.10884350444388
 21
-328.05000000000018
 31
0.0
  0
LINE
  8
OUTLINE
  6
CONTINUOUS
 62
     3
 10
500.10884350444388
 20
-328.05000000000018
 30
0.0
 11
500.23915342443888
 21
-329.53944918800431
 31
0.0
  0
ARC
  8
OUTLINE
  6
CONTINUOUS
 62
     3
 10
501.83306493970673
 20
-329.40000000187024
 30
0.0
 40
1.5999999981302615
 50
184.99999992453991
 51
270.0
  0
LINE
  8
OUTLINE
  6
CONTINUOUS
 62
     3
 10
501.83306494043791
 20
-331.00000000000051
 30
0.0
 11
507.17500000176187
 21
-331.00000000000909
 31
0.0
  0
ARC
  8
OUTLINE
  6
CONTINUOUS
 62
     3
 10
507.17500000176506
 20
-329.87499999999955
 30
0.0
 40
1.1250000000095497
 50
270.0
 51
90.0
  0
LINE
  8
OUTLINE
  6
CONTINUOUS
 62
     3
 10
507.17500000176278
 20
-328.74999999999
 30
0.0
 11
503.60000000177303
 21
-328.74999999999
 31
0.0
  0
LINE
  8
OUTLINE
  6
CONTINUOUS
 62
     3
 10
503.60000000177303
 20
-328.74999999999
 30
0.0
 11
503.60000000177303
 21
-329.55000000000751
 31
0.0
  0
LINE
  8
OUTLINE
  6
CONTINUOUS
 62
     3
 10
503.60000000177303
 20
-329.55000000000751
 30
0.0
 11
502.10000000177479
 21
-329.55000000000751
 31
0.0
  0
ARC
  8
OUTLINE
  6
CONTINUOUS
 62
     3
 10
502.10000000177655
 20
-329.05000000000939
 30
0.0
 40
0.4999999999981465
 50
180.0
 51
270.0
  0
LINE
  8
OUTLINE
  6
CONTINUOUS
 62
     3
 10
501.60000000177843
 20
-329.05000000000751
 30
0.0
 11
502.10000000177479
 21
-329.05000000000751
 31
0.0
  0
LINE
  8
OUTLINE
  6
CONTINUOUS
 62
     3
 10
502.10000000177479
 20
-329.05000000000751
 30
0.0
 11
502.10000000177479
 21
-135.00000000000449
 31
0.0
  0
LINE
  8
OUTLINE
  6
CONTINUOUS
 62
     3
 10
502.10000000177479
 20
-135.00000000000449
 30
0.0
 11
504.8000000017737
 21
-135.00000000000449
 31
0.0
  0
LINE
  8
OUTLINE
  6
CONTINUOUS
 62
     3
 10
504.8000000017737
 20
-135.00000000000449
 30
0.0
 11
504.8000000017737
 21
-91.399999999991451
 31
0.0
  0
ARC
  8
OUTLINE
  6
CONTINUOUS
 62
     3
 10
508.00000000175669
 20
-91.39999999998463
 30
0.0
 40
3.1999999999829956
 50
90.0
 51
180.0
  0
LINE
  8
OUTLINE
  6
CONTINUOUS
 62
     3
 10
508.00000000177442
 20
-88.200000000001637
 30
0.0
 11
545.10000000177479
 21
-88.200000000017099
 31
0.0
  0
ARC
  8
OUTLINE
  6
CONTINUOUS
 62
     3
 10
545.10000000177342
 20
-91.400000000015524
 30
0.0
 40
3.1999999999984237
 50
0.0
 51
90.0
  0
LINE
  8
OUTLINE
  6
CONTINUOUS
 62
     3
 10
548.30000000177188
 20
-91.400000000016917
 30
0.0
 11
548.30000000177188
 21
-95.000000000011823
 31
0.0
  0
LINE
  8
OUTLINE
  6
CONTINUOUS
 62
     3
 10
548.30000000177188
 20
-95.000000000011823
 30
0.0
 11
551.50000000177624
 21
-95.000000000011823
 31
0.0
  0
LINE
  8
OUTLINE
  6
CONTINUOUS
 62
     3
 10
551.50000000177624
 20
-95.000000000011823
 30
0.0
 11
551.50000000177261
 21
-91.400000000016917
 31
0.0
  0
ARC
  8
OUTLINE
  6
CONTINUOUS
 62
     3
 10
545.10000000177342
 20
-91.400000000014288
 30
0.0
 40
6.3999999999992259
 50
0.0
 51
48.590377890777972
  0
ARC
  8
OUTLINE
  6
CONTINUOUS
 62
     3
 10
545.10000000177456
 20
-81.800000000003962
 30
0.0
 40
6.4000000000016728
 50
311.40962210918883
 51
0.0
  0
LINE
  8
OUTLINE
  6
CONTINUOUS
 62
     3
 10
551.50000000177624
 20
-81.800000000007458
 30
0.0
 11
551.50000000177624
 21
-78.200000000008913
 31
0.0
  0
LINE
  8
OUTLINE
  6
CONTINUOUS
 62
     3
 10
551.50000000177624
 20
-78.200000000008913
 30
0.0
 11
548.30000000177188
 21
-78.200000000008913
 31
0.0
  0
LINE
  8
OUTLINE
  6
CONTINUOUS
 62
     3
 10
548.30000000177188
 20
-78.200000000008913
 30
0.0
 11
548.30000000177188
 21
-81.800000000007458
 31
0.0
  0
ARC
  8
OUTLINE
  6
CONTINUOUS
 62
     3
 10
545.10000000177661
 20
-81.800000000011963
 30
0.0
 40
3.1999999999953181
 50
270.0
 51
0.0
  0
LINE
  8
OUTLINE
  6
CONTINUOUS
 62
     3
 10
545.10000000177479
 20
-85.000000000007276
 30
0.0
 11
508.00000000177442
 21
-85.000000000006025
 31
0.0
  0
ARC
  8
OUTLINE
  6
CONTINUOUS
 62
     3
 10
507.97512202467504
 20
-91.360289278632251
 30
0.0
 40
6.3603379329680445
 50
89.77589135353162
 51
157.47496654276244
  0
TEXT
  8
NOTE
  6
CONTINUOUS
 62
     4
 10
-422.14927910513143
 20
-225.36446902988061
 30
0.0
 40
64.065641025638456
  1
SA
 41
0.9
  0
TEXT
  8
NOTE
  6
CONTINUOUS
 62
     4
 10
324.91863914336142
 20
-225.36446902988061
 30
0.0
 40
64.065641025638456
  1
RA
 41
0.9
  0
TEXT
  8
ETC
  6
CONTINUOUS
 62
    61
 10
848.17639447347392
 20
813.52550532791975
 30
0.0
 40
64.065641025638456
  1
LGH-50RVX3-E_2
 41
0.9
  0
TEXT
  8
ETC
  6
CONTINUOUS
 62
    61
 10
843.98610714629467
 20
695.44921550794925
 30
0.0
 40
64.065641025638456
  1
LOSSNAY
 41
0.9
  0
TEXT
  8
ETC
  6
CONTINUOUS
 62
    61
 10
894.73950682894974
 20
587.18952080338306
 30
0.0
 40
40.041025641024042
  1
LGH-50RVX3-E
 50
0.0
 41
0.9
 51
0.0
  7
STANDARD
 71
     0
 11
0.0
 21
0.0
 31
0.0
210
0.0
220
0.0
230
1.0
  0
LINE
  8
SIZE
  6
CONTINUOUS
 62
    30
 10
801.8552128100448
 20
-290.1402193581755
 30
0.0
 11
477.95269487882939
 21
-218.51797155962231
 31
0.0
  0
LINE
  8
SIZE
  6
CONTINUOUS
 62
    30
 10
267.04730512116691
 20
-171.8819707537204
 30
0.0
 11
255.33033902351889
 21
-169.29108182005919
 31
0.0
  0
TEXT
  8
SIZE
  6
CONTINUOUS
 62
    30
 10
583.86838148608069
 20
-216.33445242549425
 30
0.0
 40
64.0
  1
φ192
 50
347.53123144335348
 41
0.9
 51
0.0
  7
STANDARD
 71
     0
 72
     1
 11
690.44590511028662
 21
-239.90117816607673
 31
0.0
210
0.0
220
0.0
230
1.0
  0
LINE
  8
SIZE
  6
CONTINUOUS
 62
    30
 10
278.76427121881483
 20
-174.4728596873816
 30
0.0
 11
466.23572878118148
 21
-215.92708262596099
 31
0.0
  0
CIRCLE
  8
SIZE
  6
CONTINUOUS
 62
    30
 10
278.76427121881483
 20
-174.4728596873816
 30
0.0
 40
6.0
  0
LINE
  8
SIZE
  6
CONTINUOUS
 62
    30
 10
278.76427121881483
 20
-174.4728596873816
 30
0.0
 11
267.04730512116686
 21
-171.88197075372037
 31
0.0
  0
CIRCLE
  8
SIZE
  6
CONTINUOUS
 62
    30
 10
466.23572878118148
 20
-215.92708262596099
 30
0.0
 40
6.0
  0
LINE
  8
SIZE
  6
CONTINUOUS
 62
    30
 10
466.23572878118148
 20
-215.92708262596099
 30
0.0
 11
477.95269487882945
 21
-218.5179715596222
 31
0.0
  0
POINT
  8
DEFPOINTS
  6
CONTINUOUS
 62
    30
 10
466.23572878118148
 20
-215.92708262596099
 30
0.0
  0
POINT
  8
DEFPOINTS
  6
CONTINUOUS
 62
    30
 10
278.76427121881483
 20
-174.4728596873816
 30
0.0
  0
LINE
  8
SIZE
  6
CONTINUOUS
 62
    30
 10
778.49150841567507
 20
-466.52814613906469
 30
0.0
 11
468.94462333589638
 21
-259.6548750011163
 31
0.0
  0
LINE
  8
SIZE
  6
CONTINUOUS
 62
    30
 10
276.05537666409998
 20
-130.74506731222641
 30
0.0
 11
266.07834666383468
 21
-124.0773186386632
 31
0.0
  0
TEXT
  8
SIZE
  6
CONTINUOUS
 62
    30
 10
592.34129959361144
 20
-312.05303601953494
 30
0.0
 40
64.0
  1
φ208
 50
326.24479791349904
 41
0.9
 51
0.0
  7
STANDARD
 71
     0
 72
     1
 11
688.36023631616524
 21
-376.22344925390803
 31
0.0
210
0.0
220
0.0
230
1.0
  0
LINE
  8
SIZE
  6
CONTINUOUS
 62
    30
 10
286.0324066643654
 20
-137.41281598578971
 30
0.0
 11
458.96759333563102
 21
-252.987126327553
 31
0.0
  0
CIRCLE
  8
SIZE
  6
CONTINUOUS
 62
    30
 10
286.0324066643654
 20
-137.41281598578971
 30
0.0
 40
6.0
  0
LINE
  8
SIZE
  6
CONTINUOUS
 62
    30
 10
286.0324066643654
 20
-137.41281598578971
 30
0.0
 11
276.05537666410004
 21
-130.74506731222641
 31
0.0
  0
CIRCLE
  8
SIZE
  6
CONTINUOUS
 62
    30
 10
458.96759333563102
 20
-252.987126327553
 30
0.0
 40
6.0
  0
LINE
  8
SIZE
  6
CONTINUOUS
 62
    30
 10
458.96759333563102
 20
-252.987126327553
 30
0.0
 11
468.94462333589638
 21
-259.6548750011163
 31
0.0
  0
POINT
  8
DEFPOINTS
  6
CONTINUOUS
 62
    30
 10
458.96759333563102
 20
-252.987126327553
 30
0.0
  0
POINT
  8
DEFPOINTS
  6
CONTINUOUS
 62
    30
 10
286.0324066643654
 20
-137.41281598578971
 30
0.0
  0
TEXT
  8
NOTE
  6
CONTINUOUS
 62
     4
 10
673.00886079769407
 20
364.50920422174568
 30
0.0
 40
69.0
  1
Ceiling suspension fixture
 50
0.0
 41
0.9
 51
0.0
  7
STANDARD
 71
     0
 11
0.0
 21
0.0
 31
0.0
210
0.0
220
0.0
230
1.0
  0
TEXT
  8
NOTE
  6
CONTINUOUS
 62
     4
 10
673.00886079769407
 20
250.65920422174568
 30
0.0
 40
69.0
  1
(4-13X20 oval)
 50
0.0
 41
0.9
 51
0.0
  7
STANDARD
 71
     0
 11
0.0
 21
0.0
 31
0.0
210
0.0
220
0.0
230
1.0
  0
LINE
  8
NOTE
  6
CONTINUOUS
 62
     4
 10
663.00886079769407
 20
213.36634707888831
 30
0.0
 11
1879.52314651198
 21
213.36634707888831
 31
0.0
  0
LINE
  8
NOTE
  6
CONTINUOUS
 62
     4
 10
553.38653800430166
 20
-56.122138874165586
 30
0.0
 11
531.49998780598435
 21
-84.999993598487436
 31
0.0
  0
LINE
  8
NOTE
  6
CONTINUOUS
 62
     4
 10
531.49998780598435
 20
-84.999993598487436
 30
0.0
 11
536.01531473877526
 21
-49.04775589688515
 31
0.0
  0
LINE
  8
NOTE
  6
CONTINUOUS
 62
     4
 10
531.49998780598435
 20
-84.999993598487436
 30
0.0
 11
557.90186493709257
 21
-20.1699011725633
 31
0.0
  0
LINE
  8
NOTE
  6
CONTINUOUS
 62
     4
 10
557.90186493709245
 20
-20.169901172563272
 30
0.0
 11
653.00886079769407
 21
213.36634707888831
 31
0.0
  0
LINE
  8
NOTE
  6
CONTINUOUS
 62
     4
 10
653.00886079769407
 20
213.36634707888831
 30
0.0
 11
663.00886079769407
 21
213.36634707888831
 31
0.0
  0
TEXT
  8
NOTE
  6
CONTINUOUS
 62
     4
 10
-1303.4315292052524
 20
-438.43549895820843
 30
0.0
 40
69.0
  1
Power supply
 50
0.0
 41
0.9
 51
0.0
  7
STANDARD
 71
     0
 72
     2
 11
-699.19852920525227
 21
-438.43549895820843
 31
0.0
210
0.0
220
0.0
230
1.0
  0
TEXT
  8
NOTE
  6
CONTINUOUS
 62
     4
 10
-1331.3765292052524
 20
-552.28549895820845
 30
0.0
 40
69.0
  1
cable opening
 50
0.0
 41
0.9
 51
0.0
  7
STANDARD
 71
     0
 72
     2
 11
-699.19852920525227
 21
-552.28549895820845
 31
0.0
210
0.0
220
0.0
230
1.0
  0
LINE
  8
NOTE
  6
CONTINUOUS
 62
     4
 10
-689.19852920525227
 20
-576.43549895820843
 30
0.0
 11
-1340.8985292052521
 21
-576.43549895820843
 31
0.0
  0
LINE
  8
NOTE
  6
CONTINUOUS
 62
     4
 10
-610.52911866414047
 20
-305.11889242370455
 30
0.0
 11
-591.80000000177279
 21
-274.09999999999849
 31
0.0
  0
LINE
  8
NOTE
  6
CONTINUOUS
 62
     4
 10
-591.80000000177279
 20
-274.09999999999849
 30
0.0
 11
-592.51039174890468
 21
-310.32770923792998
 31
0.0
  0
LINE
  8
NOTE
  6
CONTINUOUS
 62
     4
 10
-591.80000000177279
 20
-274.09999999999849
 30
0.0
 11
-611.23951041127236
 21
-341.34660166163604
 31
0.0
  0
LINE
  8
NOTE
  6
CONTINUOUS
 62
     4
 10
-611.23951041127236
 20
-341.3466016616361
 30
0.0
 11
-679.19852920525227
 21
-576.43549895820843
 31
0.0
  0
LINE
  8
NOTE
  6
CONTINUOUS
 62
     4
 10
-679.19852920525227
 20
-576.43549895820843
 30
0.0
 11
-689.19852920525227
 21
-576.43549895820843
 31
0.0
  0
ENDSEC
  0
EOF
