  0
SECTION
  2
HEADER
  9
$ACADVER
  1
AC1009
  9
$DWGCODEPAGE
  3
dos932
  9
$INSBASE
 10
0.0
 20
0.0
 30
0.0
  9
$EXTMIN
 10
-1330.554183480044
 20
-987.89976919989567
 30
-0.0000000349181948
  9
$EXTMAX
 10
1835.8566409277919
 20
1326.278695401594
 30
0.0000000814935746
  9
$LIMMIN
 10
-2970.0
 20
-2100.0
  9
$LIMMAX
 10
2970.0
 20
2100.0
  9
$ORTHOMODE
 70
     1
  9
$REGENMODE
 70
     1
  9
$FILLMODE
 70
     1
  9
$QTEXTMODE
 70
     0
  9
$MIRRTEXT
 70
     0
  9
$LTSCALE
 40
20.0
  9
$ATTMODE
 70
     1
  9
$TEXTSIZE
 40
64.0
  9
$TRACEWID
 40
0.05
  9
$TEXTSTYLE
  7
STANDARD
  9
$CLAYER
  8
SIZE
  9
$CELTYPE
  6
CONTINUOUS
  9
$CECOLOR
 62
     7
  9
$DIMSCALE
 40
1.0
  9
$DIMASZ
 40
12.0
  9
$DIMEXO
 40
20.0
  9
$DIMDLI
 40
200.0
  9
$DIMRND
 40
0.0
  9
$DIMDLE
 40
0.0
  9
$DIMEXE
 40
20.0
  9
$DIMTP
 40
0.0
  9
$DIMTM
 40
0.0
  9
$DIMTXT
 40
64.0
  9
$DIMCEN
 40
0.09
  9
$DIMTSZ
 40
0.0
  9
$DIMTOL
 70
     0
  9
$DIMLIM
 70
     0
  9
$DIMTIH
 70
     0
  9
$DIMTOH
 70
     0
  9
$DIMSE1
 70
     0
  9
$DIMSE2
 70
     0
  9
$DIMTAD
 70
     1
  9
$DIMZIN
 70
     8
  9
$DIMBLK
  1

  9
$DIMASO
 70
     1
  9
$DIMSHO
 70
     0
  9
$DIMPOST
  1

  9
$DIMAPOST
  1

  9
$DIMALT
 70
     0
  9
$DIMALTD
 70
     2
  9
$DIMALTF
 40
25.399999999999999
  9
$DIMLFAC
 40
1.0
  9
$DIMTOFL
 70
     1
  9
$DIMTVP
 40
0.0
  9
$DIMTIX
 70
     1
  9
$DIMSOXD
 70
     0
  9
$DIMSAH
 70
     0
  9
$DIMBLK1
  1

  9
$DIMBLK2
  1

  9
$DIMSTYLE
  2
STANDARD
  9
$DIMCLRD
 70
     7
  9
$DIMCLRE
 70
     7
  9
$DIMCLRT
 70
     7
  9
$DIMTFAC
 40
1.0
  9
$DIMGAP
 40
25.0
  9
$LUNITS
 70
     2
  9
$LUPREC
 70
     4
  9
$SKETCHINC
 40
0.1
  9
$FILLETRAD
 40
3.0
  9
$AUNITS
 70
     1
  9
$AUPREC
 70
     3
  9
$MENU
  1
ACAD
  9
$ELEVATION
 40
0.0
  9
$PELEVATION
 40
0.0
  9
$THICKNESS
 40
0.0
  9
$LIMCHECK
 70
     0
  9
$CHAMFERA
 40
0.0
  9
$CHAMFERB
 40
0.0
  9
$SKPOLY
 70
     0
  9
$TDCREATE
 40
2453019.62301037
  9
$TDUPDATE
 40
2460045.428279283
  9
$TDINDWG
 40
1.7131525579
  9
$TDUSRTIMER
 40
1.7131525579
  9
$USRTIMER
 70
     1
  9
$ANGBASE
 50
0.0
  9
$ANGDIR
 70
     0
  9
$PDMODE
 70
     3
  9
$PDSIZE
 40
-2.0
  9
$PLINEWID
 40
0.0
  9
$SPLFRAME
 70
     0
  9
$SPLINETYPE
 70
     6
  9
$SPLINESEGS
 70
     8
  9
$SURFTAB1
 70
     6
  9
$SURFTAB2
 70
     6
  9
$SURFTYPE
 70
     6
  9
$SURFU
 70
     6
  9
$SURFV
 70
     6
  9
$UCSNAME
  2

  9
$UCSORG
 10
0.0
 20
0.0
 30
0.0
  9
$UCSXDIR
 10
1.0
 20
0.0
 30
0.0
  9
$UCSYDIR
 10
0.0
 20
1.0
 30
0.0
  9
$PUCSNAME
  2

  9
$PUCSORG
 10
0.0
 20
0.0
 30
0.0
  9
$PUCSXDIR
 10
1.0
 20
0.0
 30
0.0
  9
$PUCSYDIR
 10
0.0
 20
1.0
 30
0.0
  9
$USERI1
 70
     0
  9
$USERI2
 70
     0
  9
$USERI3
 70
     0
  9
$USERI4
 70
     0
  9
$USERI5
 70
     0
  9
$USERR1
 40
20.0
  9
$USERR2
 40
0.0
  9
$USERR3
 40
0.0
  9
$USERR4
 40
0.0
  9
$USERR5
 40
0.0
  9
$WORLDVIEW
 70
     1
  9
$SHADEDGE
 70
     3
  9
$SHADEDIF
 70
    70
  9
$TILEMODE
 70
     1
  9
$MAXACTVP
 70
    48
  9
$PINSBASE
 10
0.0
 20
0.0
 30
0.0
  9
$PLIMCHECK
 70
     0
  9
$PEXTMIN
 10
-100000000000000000000.0
 20
-100000000000000000000.0
 30
-100000000000000000000.0
  9
$PEXTMAX
 10
100000000000000000000.0
 20
100000000000000000000.0
 30
100000000000000000000.0
  9
$PLIMMIN
 10
0.0
 20
0.0
  9
$PLIMMAX
 10
12.0
 20
9.0
  9
$UNITMODE
 70
     0
  9
$VISRETAIN
 70
     0
  9
$PLINEGEN
 70
     0
  9
$PSLTSCALE
 70
     0
  9
$TREEDEPTH
 70
  3020
  9
$ATTDIA
 70
     0
  9
$ATTREQ
 70
     1
  9
$BLIPMODE
 70
     1
  9
$COORDS
 70
     1
  9
$DRAGMODE
 70
     2
  9
$OSMODE
 70
     0
  9
$HANDLING
 70
     0
  9
$HANDSEED
  5
F173
  0
ENDSEC
  0
SECTION
  2
TABLES
  0
TABLE
  2
LTYPE
 70
     3
  0
LTYPE
  2
CONTINUOUS
 70
     0
  3
実線
 72
    65
 73
     0
 40
0.0
  0
LTYPE
  2
DASHDOT
 70
     0
  3
____ _ ____ _ ____ _ ____ _ ____ _ ____ _ ____
 72
    65
 73
     4
 40
5.5
 49
4.0
 49
-0.6
 49
0.3
 49
-0.6
  0
LTYPE
  2
DASHED
 70
     0
  3
-- -- -- -- -- -- -- -- -- -- -- -- -- -- --
 72
    65
 73
     2
 40
0.75
 49
0.5
 49
-0.25
  0
ENDTAB
  0
TABLE
  2
LAYER
 70
    12
  0
LAYER
  2
0
 70
     0
 62
     7
  6
CONTINUOUS
  0
LAYER
  2
BASIS
 70
     0
 62
     6
  6
DASHDOT
  0
LAYER
  2
OUTLINE
 70
     0
 62
     3
  6
CONTINUOUS
  0
LAYER
  2
DETAIL
 70
     0
 62
     5
  6
CONTINUOUS
  0
LAYER
  2
SIZE
 70
     0
 62
    30
  6
CONTINUOUS
  0
LAYER
  2
ARRANGE
 70
     0
 62
     1
  6
CONTINUOUS
  0
LAYER
  2
DEFPOINTS
 70
     0
 62
     7
  6
CONTINUOUS
  0
LAYER
  2
ETC
 70
     0
 62
    61
  6
CONTINUOUS
  0
LAYER
  2
FIX
 70
     0
 62
    11
  6
CONTINUOUS
  0
LAYER
  2
NOTE
 70
     0
 62
     4
  6
CONTINUOUS
  0
LAYER
  2
SERVICESPACE
 70
     0
 62
     2
  6
DASHDOT
  0
LAYER
  2
SYMBOLLINE
 70
    64
 62
    15
  6
CONTINUOUS
  0
ENDTAB
  0
TABLE
  2
STYLE
 70
     1
  0
STYLE
  2
STANDARD
 70
     0
 40
64.0
 41
0.9
 50
0.0
 71
     0
 42
64.0
  3
SIMPLEX.shx
  4
BIGFONT.shx
  0
ENDTAB
  0
TABLE
  2
APPID
 70
    22
  0
APPID
  2
ACAD
 70
     0
  0
APPID
  2
AUTOCAD_POSTSCRIPT_FIGURE
 70
     0
  0
APPID
  2
ACAD_EXEMPT_FROM_CAD_STANDARDS
 70
     0
  0
APPID
  2
ACAD_PSEXT
 70
     0
  0
APPID
  2
ACAUTHENVIRON
 70
     0
  0
APPID
  2
GENIUS_GENOENT_13
 70
     0
  0
APPID
  2
GENIUS_GENCFG_13
 70
     0
  0
APPID
  2
GENIUS_GENCFG0_13
 70
     0
  0
APPID
  2
GENIUS_GENCFG1_13
 70
     0
  0
APPID
  2
GENIUS_GENCFG2_13
 70
     0
  0
APPID
  2
GENIUS_GENCFG3_13
 70
     0
  0
APPID
  2
GENIUS_GENCFG4_13
 70
     0
  0
APPID
  2
GENIUS_GEVCFG0_13
 70
     0
  0
APPID
  2
CONTENTBLOCKICON
 70
     0
  0
APPID
  2
CONTENTBLOCKDESCRIPTION
 70
     0
  0
APPID
  2
ACAD_NAV_VCDISPLAY
 70
     0
  0
APPID
  2
ACAD_MLEADERVER
 70
     0
  0
APPID
  2
ACDBDYNAMICBLOCKTRUENAME
 70
     0
  0
APPID
  2
ACDBDYNAMICBLOCKGUID
 70
     0
  0
APPID
  2
GENIUS_GENODEF_13
 70
     0
  0
APPID
  2
GENIUS_GENOBJ-N-CEN_13
 70
     0
  0
APPID
  2
GENIUS_GENCEN_19
 70
     0
  0
ENDTAB
  0
TABLE
  2
DIMSTYLE
 70
     1
  0
DIMSTYLE
  2
STANDARD
 70
     0
  3

  4

  5
_ORIGIN
  6

  7

 40
1.0
 41
12.0
 42
20.0
 43
200.0
 44
20.0
 45
0.0
 46
0.0
 47
0.0
 48
0.0
140
64.0
141
0.09
142
0.0
143
25.399999999999999
144
1.0
145
0.0
146
1.0
147
25.0
 71
     0
 72
     0
 73
     0
 74
     0
 75
     0
 76
     0
 77
     1
 78
     8
170
     0
171
     2
172
     1
173
     0
174
     1
175
     0
176
     7
177
     7
178
     7
  0
ENDTAB
  0
TABLE
  2
VIEW
 70
     1
  0
VIEW
  2
ALL
 70
     0
 40
4282.6198079999986
 10
0.0
 20
41.309904000000003
 41
5940.0
 11
0.0
 21
0.0
 31
1.0
 12
0.0
 22
0.0
 32
0.0
 42
50.0
 43
0.0
 44
0.0
 50
0.0
 71
     0
  0
ENDTAB
  0
TABLE
  2
UCS
 70
     0
  0
ENDTAB
  0
TABLE
  2
VPORT
 70
     1
  0
VPORT
  2
*ACTIVE
 70
     0
 10
0.0
 20
0.0
 11
1.0
 21
1.0
 12
252.65122872387411
 22
169.189463100849
 13
0.0
 23
0.0
 14
1.0
 24
1.0
 15
0.0
 25
0.0
 16
0.0
 26
0.0
 36
1.0
 17
0.0
 27
0.0
 37
0.0
 40
2329.8148055785259
 41
1.781285231116122
 42
50.0
 43
0.0
 44
0.0
 50
0.0
 51
0.0
 71
     0
 72
  1000
 73
     1
 74
     3
 75
     0
 76
     0
 77
     0
 78
     0
  0
ENDTAB
  0
ENDSEC
  0
SECTION
  2
BLOCKS
  0
BLOCK
  8
0
  2
_ORIGIN
 70
     0
 10
0.0
 20
0.0
 30
0.0
  3
_ORIGIN
  1
_ORIGIN
  0
CIRCLE
  8
0
  6
CONTINUOUS
 62
     7
 10
0.0
 20
0.0
 30
0.0
 40
0.5
  0
LINE
  8
0
  6
CONTINUOUS
 62
     7
 10
0.0
 20
0.0
 30
0.0
 11
-1.0
 21
0.0
 31
0.0
  0
ENDBLK
  8
0
  0
ENDSEC
  0
SECTION
  2
ENTITIES
  0
LINE
  8
DETAIL
  6
CONTINUOUS
 62
     5
 10
508.00000000177403
 20
430.48999999999518
 30
0.0
 11
502.99000000177563
 21
435.49999999999
 31
0.0
  0
LINE
  8
DETAIL
  6
CONTINUOUS
 62
     5
 10
494.49000000177921
 20
443.99999999999
 30
0.0
 11
499.50000000177403
 21
438.98999999999518
 31
0.0
  0
LINE
  8
DETAIL
  6
CONTINUOUS
 62
     5
 10
-494.49000000177921
 20
443.99999999999733
 30
0.0
 11
-499.50000000177312
 21
438.98999999999518
 31
0.0
  0
LINE
  8
DETAIL
  6
CONTINUOUS
 62
     5
 10
-508.00000000177118
 20
430.49000000000251
 30
0.0
 11
-502.99000000177102
 21
435.49999999999
 31
0.0
  0
LINE
  8
DETAIL
  6
CONTINUOUS
 62
     5
 10
-617.8000000017696
 20
-200.10000000000579
 30
0.0
 11
-617.8000000017696
 21
-211.5
 31
0.0
  0
LINE
  8
DETAIL
  6
CONTINUOUS
 62
     5
 10
-617.20000000177561
 20
-211.5
 30
0.0
 11
-617.20000000177561
 21
-369.30000000000291
 31
0.0
  0
LINE
  8
DETAIL
  6
CONTINUOUS
 62
     5
 10
-616.60000000177342
 20
-371.70000000000442
 30
0.0
 11
-616.60000000177342
 21
-369.30000000000291
 31
0.0
  0
LINE
  8
DETAIL
  6
CONTINUOUS
 62
     5
 10
-494.49000000178557
 20
443.99999999999
 30
0.0
 11
494.49000000178381
 21
443.99999999999
 31
0.0
  0
LINE
  8
DETAIL
  6
CONTINUOUS
 62
     5
 10
-500.60000000177251
 20
437.59999999999582
 30
0.0
 11
-499.50000000177403
 21
437.59999999998848
 31
0.0
  0
LINE
  8
DETAIL
  6
CONTINUOUS
 62
     5
 10
499.50000000177403
 20
437.59999999998848
 30
0.0
 11
500.60000000176979
 21
437.59999999999582
 31
0.0
  0
LINE
  8
DETAIL
  6
CONTINUOUS
 62
     5
 10
-500.60000000177251
 20
437.09999999999582
 30
0.0
 11
500.60000000176979
 21
437.09999999999582
 31
0.0
  0
LINE
  8
DETAIL
  6
CONTINUOUS
 62
     5
 10
502.99000000177563
 20
435.49999999999
 30
0.0
 11
499.50000000177403
 21
435.49999999999
 31
0.0
  0
LINE
  8
DETAIL
  6
CONTINUOUS
 62
     5
 10
-499.50000000177312
 20
435.49999999999
 30
0.0
 11
-502.99000000177102
 21
435.49999999999
 31
0.0
  0
LINE
  8
DETAIL
  6
CONTINUOUS
 62
     5
 10
-571.60000000177297
 20
-373.92449980000669
 30
0.0
 11
-571.60000000177297
 21
-373.80000000000291
 31
0.0
  0
LINE
  8
DETAIL
  6
CONTINUOUS
 62
     5
 10
-567.30000000177643
 20
-380.70000000000442
 30
0.0
 11
-567.30000000177643
 21
-384.30000000000291
 31
0.0
  0
LINE
  8
DETAIL
  6
CONTINUOUS
 62
     5
 10
-566.10000000177479
 20
-383.34999999999849
 30
0.0
 11
-566.10000000177479
 21
-381.65000000000151
 31
0.0
  0
LINE
  8
DETAIL
  6
CONTINUOUS
 62
     5
 10
-565.60000000177297
 20
-401.89943100266828
 30
0.0
 11
-565.60000000177297
 21
-381.90000000000151
 31
0.0
  0
LINE
  8
DETAIL
  6
CONTINUOUS
 62
     5
 10
-565.30000000177279
 20
-376.40000000000151
 30
0.0
 11
-565.30000000177279
 21
-380.70000000000442
 31
0.0
  0
LINE
  8
DETAIL
  6
CONTINUOUS
 62
     5
 10
-564.10000000177297
 20
-381.65000000000151
 30
0.0
 11
-564.10000000177297
 21
-377.65000000000151
 31
0.0
  0
LINE
  8
DETAIL
  6
CONTINUOUS
 62
     5
 10
-559.10000000177024
 20
-377.65000000000151
 30
0.0
 11
-559.10000000177024
 21
-381.65000000000151
 31
0.0
  0
LINE
  8
DETAIL
  6
CONTINUOUS
 62
     5
 10
-557.90000000177133
 20
-380.44999999999709
 30
0.0
 11
-557.90000000177133
 21
-376.84999999999849
 31
0.0
  0
LINE
  8
DETAIL
  6
CONTINUOUS
 62
     5
 10
-557.60000000177297
 20
-401.89943100266828
 30
0.0
 11
-557.60000000177297
 21
-381.90000000000151
 31
0.0
  0
LINE
  8
DETAIL
  6
CONTINUOUS
 62
     5
 10
-557.10000000177479
 20
-381.65000000000151
 30
0.0
 11
-557.10000000177479
 21
-383.34999999999849
 31
0.0
  0
LINE
  8
DETAIL
  6
CONTINUOUS
 62
     5
 10
-555.90000000177315
 20
-384.30000000000291
 30
0.0
 11
-555.90000000177315
 21
-380.44999999999709
 31
0.0
  0
LINE
  8
DETAIL
  6
CONTINUOUS
 62
     5
 10
-551.60000000177206
 20
-373.80000000000291
 30
0.0
 11
-551.60000000177206
 21
-373.92449980000669
 31
0.0
  0
LINE
  8
DETAIL
  6
CONTINUOUS
 62
     5
 10
-551.5000000017717
 20
-412.50000000000318
 30
0.0
 11
-551.5000000017717
 21
-431.00000000000318
 31
0.0
  0
LINE
  8
DETAIL
  6
CONTINUOUS
 62
     5
 10
-551.5000000017717
 20
-444.00000000000318
 30
0.0
 11
-551.5000000017717
 21
-456.00000000000318
 31
0.0
  0
LINE
  8
DETAIL
  6
CONTINUOUS
 62
     5
 10
-548.30000000177461
 20
-412.50000000000318
 30
0.0
 11
-548.30000000177461
 21
-431.00000000000318
 31
0.0
  0
LINE
  8
DETAIL
  6
CONTINUOUS
 62
     5
 10
-546.7000000017747
 20
162.19999999999439
 30
0.0
 11
-546.7000000017747
 21
169.19999999999439
 31
0.0
  0
LINE
  8
DETAIL
  6
CONTINUOUS
 62
     5
 10
-539.70000000177106
 20
172.19999999999439
 30
0.0
 11
-539.70000000177106
 21
159.19999999999439
 31
0.0
  0
LINE
  8
DETAIL
  6
CONTINUOUS
 62
     5
 10
-538.70000000177561
 20
172.19999999999439
 30
0.0
 11
-538.70000000177561
 21
159.19999999999439
 31
0.0
  0
LINE
  8
DETAIL
  6
CONTINUOUS
 62
     5
 10
-537.20000000177379
 20
163.09999999999579
 30
0.0
 11
-537.20000000177379
 21
168.29999999999291
 31
0.0
  0
LINE
  8
DETAIL
  6
CONTINUOUS
 62
     5
 10
-533.70000000177379
 20
173.19999999999439
 30
0.0
 11
-533.70000000177379
 21
174.20000000000161
 31
0.0
  0
LINE
  8
DETAIL
  6
CONTINUOUS
 62
     5
 10
-529.20000000177379
 20
176.19999999999439
 30
0.0
 11
-529.1612684231045
 21
176.64270396800291
 31
0.0
  0
LINE
  8
DETAIL
  6
CONTINUOUS
 62
     5
 10
-528.85577561510536
 20
158.6231873106635
 30
0.0
 11
-537.33701255643837
 21
138.64264519466539
 31
0.0
  0
LINE
  8
DETAIL
  6
CONTINUOUS
 62
     5
 10
-526.83066493777051
 20
157.76357882799951
 30
0.0
 11
-535.31190187910533
 21
137.7830367119941
 31
0.0
  0
LINE
  8
DETAIL
  6
CONTINUOUS
 62
     5
 10
-521.20000000177379
 20
176.19999999999439
 30
0.0
 11
-521.32293299510775
 21
177.6051305413321
 31
0.0
  0
LINE
  8
DETAIL
  6
CONTINUOUS
 62
     5
 10
-527.80000000177415
 20
172.19999999999439
 30
0.0
 11
-527.80000000177415
 21
171.69999999999439
 31
0.0
  0
LINE
  8
DETAIL
  6
CONTINUOUS
 62
     5
 10
-527.70000000177288
 20
175.3999999999987
 30
0.0
 11
-527.70000000177288
 21
176.19999999999439
 31
0.0
  0
LINE
  8
DETAIL
  6
CONTINUOUS
 62
     5
 10
-526.70000000177288
 20
171.69999999999439
 30
0.0
 11
-526.70000000177288
 21
168.20000000000161
 31
0.0
  0
LINE
  8
DETAIL
  6
CONTINUOUS
 62
     5
 10
-523.7000000017747
 20
171.69999999999439
 30
0.0
 11
-523.7000000017747
 21
168.20000000000161
 31
0.0
  0
LINE
  8
DETAIL
  6
CONTINUOUS
 62
     5
 10
-522.70000000177106
 20
175.3999999999987
 30
0.0
 11
-522.70000000177106
 21
176.19999999999439
 31
0.0
  0
LINE
  8
DETAIL
  6
CONTINUOUS
 62
     5
 10
-522.6000000017716
 20
172.19999999999439
 30
0.0
 11
-522.6000000017716
 21
171.69999999999439
 31
0.0
  0
LINE
  8
DETAIL
  6
CONTINUOUS
 62
     5
 10
-515.70000000177106
 20
174.20000000000161
 30
0.0
 11
-515.70000000177151
 21
-174.20000000000161
 31
0.0
  0
LINE
  8
DETAIL
  6
CONTINUOUS
 62
     5
 10
-515.60000000177479
 20
-175.400000000006
 30
0.0
 11
-515.60000000177479
 21
-174.80000000000021
 31
0.0
  0
LINE
  8
DETAIL
  6
CONTINUOUS
 62
     5
 10
-515.60000000177433
 20
175.3999999999987
 30
0.0
 11
-515.60000000177433
 21
174.79999999999291
 31
0.0
  0
LINE
  8
DETAIL
  6
CONTINUOUS
 62
     5
 10
-514.20000000177379
 20
175.3999999999987
 30
0.0
 11
-514.20000000177379
 21
176.19999999999439
 31
0.0
  0
LINE
  8
DETAIL
  6
CONTINUOUS
 62
     5
 10
-513.91905584177493
 20
-174.80000000000021
 30
0.0
 11
-513.91905584177493
 21
-174.20000000000161
 31
0.0
  0
LINE
  8
DETAIL
  6
CONTINUOUS
 62
     5
 10
-513.91905584177448
 20
174.79999999999291
 30
0.0
 11
-513.91905584177448
 21
174.20000000000161
 31
0.0
  0
LINE
  8
DETAIL
  6
CONTINUOUS
 62
     5
 10
-508.30000000177421
 20
179.2041456506677
 30
0.0
 11
-508.30000000177421
 21
175.3999999999987
 31
0.0
  0
LINE
  8
DETAIL
  6
CONTINUOUS
 62
     5
 10
-508.30000000177421
 20
174.79999999999291
 30
0.0
 11
-508.30000000177421
 21
174.20000000000161
 31
0.0
  0
LINE
  8
DETAIL
  6
CONTINUOUS
 62
     5
 10
-508.30000000177461
 20
-174.20000000000161
 30
0.0
 11
-508.30000000177461
 21
-174.80000000000021
 31
0.0
  0
LINE
  8
DETAIL
  6
CONTINUOUS
 62
     5
 10
-508.30000000177461
 20
-175.400000000006
 30
0.0
 11
-508.30000000177461
 21
-177.80000000000749
 31
0.0
  0
LINE
  8
DETAIL
  6
CONTINUOUS
 62
     5
 10
-508.0000000017717
 20
-430.48999999999518
 30
0.0
 11
-508.00000000177027
 21
430.49000000000979
 31
0.0
  0
LINE
  8
DETAIL
  6
CONTINUOUS
 62
     5
 10
-501.60000000177303
 20
-456.00000000000318
 30
0.0
 11
-501.6000000017716
 21
-435.49999999999733
 31
0.0
  0
LINE
  8
DETAIL
  6
CONTINUOUS
 62
     5
 10
-501.1000000017716
 20
436.59999999999582
 30
0.0
 11
-501.10000000177212
 21
-436.60000000000309
 31
0.0
  0
LINE
  8
DETAIL
  6
CONTINUOUS
 62
     5
 10
-499.50000000177351
 20
-438.99000000000251
 30
0.0
 11
-499.50000000177351
 21
-435.49999999999733
 31
0.0
  0
LINE
  8
DETAIL
  6
CONTINUOUS
 62
     5
 10
-499.50000000177312
 20
438.98999999999518
 30
0.0
 11
-499.50000000177312
 21
435.49999999999
 31
0.0
  0
LINE
  8
DETAIL
  6
CONTINUOUS
 62
     5
 10
-508.00000000177118
 20
181.45750263466201
 30
0.0
 11
-535.38957005377188
 21
178.09448630266431
 31
0.0
  0
LINE
  8
DETAIL
  6
CONTINUOUS
 62
     5
 10
-508.00000000177118
 20
179.24098101866281
 30
0.0
 11
-535.12145749777528
 21
175.9108847693324
 31
0.0
  0
LINE
  8
DETAIL
  6
CONTINUOUS
 62
     5
 10
-528.0299511537728
 20
179.09999999999579
 30
0.0
 11
-527.20031816844084
 21
179.09999999999579
 31
0.0
  0
LINE
  8
DETAIL
  6
CONTINUOUS
 62
     5
 10
-529.19862218844128
 20
176.19999999999439
 30
0.0
 11
-521.20137781510721
 21
176.19999999999439
 31
0.0
  0
LINE
  8
DETAIL
  6
CONTINUOUS
 62
     5
 10
-508.00000000177118
 20
175.3999999999987
 30
0.0
 11
-535.60000000177524
 21
175.3999999999987
 31
0.0
  0
LINE
  8
DETAIL
  6
CONTINUOUS
 62
     5
 10
-508.00000000177118
 20
174.79999999999291
 30
0.0
 11
-515.60000000177433
 21
174.79999999999291
 31
0.0
  0
LINE
  8
DETAIL
  6
CONTINUOUS
 62
     5
 10
-513.91905584177448
 20
174.29999999999291
 30
0.0
 11
-511.70000000177288
 21
174.29999999999291
 31
0.0
  0
LINE
  8
DETAIL
  6
CONTINUOUS
 62
     5
 10
-536.51863906977314
 20
174.20000000000161
 30
0.0
 11
-508.00000000177118
 21
174.20000000000161
 31
0.0
  0
LINE
  8
DETAIL
  6
CONTINUOUS
 62
     5
 10
-536.083784880439
 20
173.19999999999439
 30
0.0
 11
-515.70000000177106
 21
173.19999999999439
 31
0.0
  0
LINE
  8
DETAIL
  6
CONTINUOUS
 62
     5
 10
-543.70000000177743
 20
172.19999999999439
 30
0.0
 11
-538.70000000177561
 21
172.19999999999439
 31
0.0
  0
LINE
  8
DETAIL
  6
CONTINUOUS
 62
     5
 10
-527.80000000177415
 20
171.69999999999439
 30
0.0
 11
-522.6000000017716
 21
171.69999999999439
 31
0.0
  0
LINE
  8
DETAIL
  6
CONTINUOUS
 62
     5
 10
-537.70000000177106
 20
168.29999999999291
 30
0.0
 11
-537.20000000177379
 21
168.29999999999291
 31
0.0
  0
LINE
  8
DETAIL
  6
CONTINUOUS
 62
     5
 10
-523.7000000017747
 20
168.20000000000161
 30
0.0
 11
-526.70000000177288
 21
168.20000000000161
 31
0.0
  0
LINE
  8
DETAIL
  6
CONTINUOUS
 62
     5
 10
-537.20000000177379
 20
167.19999999999439
 30
0.0
 11
-534.31715902710721
 21
167.19999999999439
 31
0.0
  0
LINE
  8
DETAIL
  6
CONTINUOUS
 62
     5
 10
-537.20000000177379
 20
164.20000000000161
 30
0.0
 11
-532.056496876437
 21
164.20000000000161
 31
0.0
  0
LINE
  8
DETAIL
  6
CONTINUOUS
 62
     5
 10
-537.70000000177106
 20
163.09999999999579
 30
0.0
 11
-537.20000000177379
 21
163.09999999999579
 31
0.0
  0
LINE
  8
DETAIL
  6
CONTINUOUS
 62
     5
 10
-543.70000000177743
 20
159.19999999999439
 30
0.0
 11
-538.70000000177561
 21
159.19999999999439
 31
0.0
  0
LINE
  8
DETAIL
  6
CONTINUOUS
 62
     5
 10
-520.56966294444101
 20
-174.20000000000161
 30
0.0
 11
-516.87920730844053
 21
-170.63616841866769
 31
0.0
  0
LINE
  8
DETAIL
  6
CONTINUOUS
 62
     5
 10
-520.43359004577451
 20
-175.73679224000529
 30
0.0
 11
-520.0848314724426
 21
-175.400000000006
 31
0.0
  0
LINE
  8
DETAIL
  6
CONTINUOUS
 62
     5
 10
-518.84219509644208
 20
-174.20000000000161
 30
0.0
 11
-516.04561726444172
 21
-171.49937617999689
 31
0.0
  0
LINE
  8
BASIS
  6
DASHDOT
 62
     6
 10
-571.18889485751515
 20
0.0
 30
0.0
 11
571.18889485751424
 21
0.0
 31
0.0
  0
LINE
  8
BASIS
  6
DASHDOT
 62
     6
 10
-0.0000000000009095
 20
-520.35604538797816
 30
0.0
 11
-0.0000000000004547
 21
520.35604538797816
 31
0.0
  0
LINE
  8
DETAIL
  6
CONTINUOUS
 62
     5
 10
-557.90000000177133
 20
-376.84999999999849
 30
0.0
 11
-552.73256777377264
 21
-373.93819295067078
 31
0.0
  0
LINE
  8
DETAIL
  6
CONTINUOUS
 62
     5
 10
-535.6000000017757
 20
-174.20000000000161
 30
0.0
 11
-508.0000000017717
 21
-174.20000000000161
 31
0.0
  0
LINE
  8
DETAIL
  6
CONTINUOUS
 62
     5
 10
-515.60000000177479
 20
-174.80000000000021
 30
0.0
 11
-508.0000000017717
 21
-174.80000000000021
 31
0.0
  0
LINE
  8
DETAIL
  6
CONTINUOUS
 62
     5
 10
-535.6000000017757
 20
-175.400000000006
 30
0.0
 11
-508.0000000017717
 21
-175.400000000006
 31
0.0
  0
LINE
  8
DETAIL
  6
CONTINUOUS
 62
     5
 10
-508.0000000017717
 20
-177.80000000000749
 30
0.0
 11
-519.60000000177206
 21
-177.80000000000749
 31
0.0
  0
LINE
  8
DETAIL
  6
CONTINUOUS
 62
     5
 10
-508.0000000017717
 20
-178.9999999999973
 30
0.0
 11
-519.60000000177206
 21
-178.9999999999973
 31
0.0
  0
LINE
  8
DETAIL
  6
CONTINUOUS
 62
     5
 10
-616.60000000177342
 20
-198.90000000000151
 30
0.0
 11
-508.0000000017717
 21
-198.90000000000151
 31
0.0
  0
LINE
  8
DETAIL
  6
CONTINUOUS
 62
     5
 10
-617.20000000177561
 20
-211.5
 30
0.0
 11
-617.8000000017696
 21
-211.5
 31
0.0
  0
LINE
  8
DETAIL
  6
CONTINUOUS
 62
     5
 10
-536.20428336443865
 20
173.35990688932819
 30
0.0
 11
-527.29376844177432
 21
161.53525420400271
 31
0.0
  0
LINE
  8
DETAIL
  6
CONTINUOUS
 62
     5
 10
-537.96128148710477
 20
172.03591383866021
 30
0.0
 11
-529.05076656444226
 21
160.21126115332751
 31
0.0
  0
LINE
  8
DETAIL
  6
CONTINUOUS
 62
     5
 10
-617.20000000177561
 20
-369.30000000000291
 30
0.0
 11
-616.60000000177342
 21
-369.30000000000291
 31
0.0
  0
LINE
  8
DETAIL
  6
CONTINUOUS
 62
     5
 10
-615.00000000177033
 20
-373.30000000000291
 30
0.0
 11
-508.0000000017717
 21
-373.30000000000291
 31
0.0
  0
LINE
  8
DETAIL
  6
CONTINUOUS
 62
     5
 10
-607.80000000177279
 20
-376.30000000000291
 30
0.0
 11
-581.80000000177461
 21
-376.30000000000291
 31
0.0
  0
LINE
  8
DETAIL
  6
CONTINUOUS
 62
     5
 10
-564.10000000177297
 20
-377.65000000000151
 30
0.0
 11
-559.10000000177024
 21
-377.65000000000151
 31
0.0
  0
LINE
  8
DETAIL
  6
CONTINUOUS
 62
     5
 10
-555.90000000177315
 20
-380.44999999999709
 30
0.0
 11
-557.90000000177133
 21
-380.44999999999709
 31
0.0
  0
LINE
  8
DETAIL
  6
CONTINUOUS
 62
     5
 10
-565.30000000177279
 20
-380.70000000000442
 30
0.0
 11
-567.30000000177643
 21
-380.70000000000442
 31
0.0
  0
LINE
  8
DETAIL
  6
CONTINUOUS
 62
     5
 10
-566.10000000177479
 20
-381.65000000000151
 30
0.0
 11
-564.10000000177297
 21
-381.65000000000151
 31
0.0
  0
LINE
  8
DETAIL
  6
CONTINUOUS
 62
     5
 10
-559.10000000177024
 20
-381.65000000000151
 30
0.0
 11
-557.10000000177479
 21
-381.65000000000151
 31
0.0
  0
LINE
  8
DETAIL
  6
CONTINUOUS
 62
     5
 10
-557.60000000177297
 20
-381.90000000000151
 30
0.0
 11
-565.60000000177297
 21
-381.90000000000151
 31
0.0
  0
LINE
  8
DETAIL
  6
CONTINUOUS
 62
     5
 10
-557.10000000177479
 20
-383.34999999999849
 30
0.0
 11
-557.60000000177297
 21
-383.34999999999849
 31
0.0
  0
LINE
  8
DETAIL
  6
CONTINUOUS
 62
     5
 10
-565.60000000177297
 20
-383.34999999999849
 30
0.0
 11
-566.10000000177479
 21
-383.34999999999849
 31
0.0
  0
LINE
  8
DETAIL
  6
CONTINUOUS
 62
     5
 10
-555.90000000177315
 20
-384.30000000000291
 30
0.0
 11
-557.60000000177297
 21
-384.30000000000291
 31
0.0
  0
LINE
  8
DETAIL
  6
CONTINUOUS
 62
     5
 10
-565.60000000177297
 20
-384.30000000000291
 30
0.0
 11
-567.30000000177643
 21
-384.30000000000291
 31
0.0
  0
LINE
  8
DETAIL
  6
CONTINUOUS
 62
     5
 10
-557.60000000177297
 20
-401.90000000000151
 30
0.0
 11
-565.60000000177297
 21
-401.90000000000151
 31
0.0
  0
LINE
  8
DETAIL
  6
CONTINUOUS
 62
     5
 10
-508.0000000017717
 20
-412.50000000000318
 30
0.0
 11
-551.5000000017717
 21
-412.50000000000318
 31
0.0
  0
LINE
  8
DETAIL
  6
CONTINUOUS
 62
     5
 10
508.00000000177442
 20
-412.50000000000318
 30
0.0
 11
551.5000000017767
 21
-412.50000000000318
 31
0.0
  0
LINE
  8
DETAIL
  6
CONTINUOUS
 62
     5
 10
-531.50000000176988
 20
-431.00000000000318
 30
0.0
 11
-551.5000000017717
 21
-431.00000000000318
 31
0.0
  0
LINE
  8
DETAIL
  6
CONTINUOUS
 62
     5
 10
531.50000000177215
 20
-431.00000000000318
 30
0.0
 11
551.5000000017767
 21
-431.00000000000318
 31
0.0
  0
LINE
  8
DETAIL
  6
CONTINUOUS
 62
     5
 10
502.99000000177512
 20
-435.49999999999733
 30
0.0
 11
499.50000000177351
 21
-435.49999999999733
 31
0.0
  0
LINE
  8
DETAIL
  6
CONTINUOUS
 62
     5
 10
-502.99000000177148
 20
-435.49999999999733
 30
0.0
 11
-499.50000000177351
 21
-435.49999999999733
 31
0.0
  0
LINE
  8
DETAIL
  6
CONTINUOUS
 62
     5
 10
500.60000000176927
 20
-437.10000000000309
 30
0.0
 11
-500.60000000177303
 21
-437.10000000000309
 31
0.0
  0
LINE
  8
DETAIL
  6
CONTINUOUS
 62
     5
 10
500.60000000176927
 20
-437.60000000000309
 30
0.0
 11
499.50000000177351
 21
-437.60000000000309
 31
0.0
  0
LINE
  8
DETAIL
  6
CONTINUOUS
 62
     5
 10
-499.50000000177351
 20
-437.60000000000309
 30
0.0
 11
-500.60000000177303
 21
-437.60000000000309
 31
0.0
  0
LINE
  8
DETAIL
  6
CONTINUOUS
 62
     5
 10
-516.87920730844053
 20
-170.63616841866769
 30
0.0
 11
-516.04561726444172
 21
-171.49937617999689
 31
0.0
  0
LINE
  8
DETAIL
  6
CONTINUOUS
 62
     5
 10
-518.56330656577302
 20
-173.93068047600261
 30
0.0
 11
-519.39689660977456
 21
-173.06747271600489
 31
0.0
  0
LINE
  8
DETAIL
  6
CONTINUOUS
 62
     5
 10
-494.49000000178057
 20
-444.00000000000449
 30
0.0
 11
494.49000000178148
 21
-443.99999999999733
 31
0.0
  0
LINE
  8
DETAIL
  6
CONTINUOUS
 62
     5
 10
-551.5000000017717
 20
-444.00000000000318
 30
0.0
 11
-531.50000000176988
 21
-444.00000000000318
 31
0.0
  0
LINE
  8
DETAIL
  6
CONTINUOUS
 62
     5
 10
531.50000000177215
 20
-444.00000000000318
 30
0.0
 11
551.5000000017767
 21
-444.00000000000318
 31
0.0
  0
LINE
  8
DETAIL
  6
CONTINUOUS
 62
     5
 10
-551.5000000017717
 20
-456.00000000000318
 30
0.0
 11
-501.60000000177303
 21
-456.00000000000318
 31
0.0
  0
LINE
  8
DETAIL
  6
CONTINUOUS
 62
     5
 10
499.50000000177351
 20
-438.99000000000251
 30
0.0
 11
499.50000000177351
 21
-435.49999999999733
 31
0.0
  0
LINE
  8
DETAIL
  6
CONTINUOUS
 62
     5
 10
499.50000000177403
 20
438.98999999999518
 30
0.0
 11
499.50000000177403
 21
435.49999999999
 31
0.0
  0
LINE
  8
DETAIL
  6
CONTINUOUS
 62
     5
 10
501.10000000177621
 20
436.59999999999582
 30
0.0
 11
501.1000000017757
 21
-436.60000000000309
 31
0.0
  0
LINE
  8
DETAIL
  6
CONTINUOUS
 62
     5
 10
501.60000000177661
 20
-456.00000000000318
 30
0.0
 11
501.6000000017757
 21
-435.49999999999733
 31
0.0
  0
LINE
  8
DETAIL
  6
CONTINUOUS
 62
     5
 10
508.00000000177528
 20
-430.48999999999518
 30
0.0
 11
508.00000000177579
 21
430.48999999999518
 31
0.0
  0
LINE
  8
DETAIL
  6
CONTINUOUS
 62
     5
 10
548.30000000177142
 20
-412.50000000000318
 30
0.0
 11
548.30000000177142
 21
-431.00000000000318
 31
0.0
  0
LINE
  8
DETAIL
  6
CONTINUOUS
 62
     5
 10
551.5000000017767
 20
-412.50000000000318
 30
0.0
 11
551.5000000017767
 21
-431.00000000000318
 31
0.0
  0
LINE
  8
DETAIL
  6
CONTINUOUS
 62
     5
 10
551.5000000017767
 20
-444.00000000000318
 30
0.0
 11
551.5000000017767
 21
-456.00000000000318
 31
0.0
  0
LINE
  8
DETAIL
  6
CONTINUOUS
 62
     5
 10
-570.43356527110791
 20
-373.87395994667168
 30
0.0
 11
-565.30000000177279
 21
-376.40000000000151
 31
0.0
  0
LINE
  8
DETAIL
  6
CONTINUOUS
 62
     5
 10
-494.49000000177881
 20
-443.99999999999733
 30
0.0
 11
-499.50000000177351
 21
-438.99000000000251
 31
0.0
  0
LINE
  8
DETAIL
  6
CONTINUOUS
 62
     5
 10
-508.00000000176988
 20
-430.49000000000251
 30
0.0
 11
-502.99000000177148
 21
-435.49999999999733
 31
0.0
  0
LINE
  8
DETAIL
  6
CONTINUOUS
 62
     5
 10
508.00000000177442
 20
-430.49000000000251
 30
0.0
 11
502.99000000177512
 21
-435.49999999999733
 31
0.0
  0
LINE
  8
DETAIL
  6
CONTINUOUS
 62
     5
 10
494.49000000178057
 20
-443.99999999999733
 30
0.0
 11
499.50000000177351
 21
-438.99000000000251
 31
0.0
  0
ARC
  8
DETAIL
  6
CONTINUOUS
 62
     5
 10
-498.40000000177542
 20
443.99999999999
 30
0.0
 40
6.3999999999999782
 50
239.9927485905624
 51
260.103146561892
  0
ARC
  8
DETAIL
  6
CONTINUOUS
 62
     5
 10
-498.40000000177542
 20
443.99999999999
 30
0.0
 40
3.1999999999999891
 50
180.44621106478991
 51
284.76826919319149
  0
ARC
  8
DETAIL
  6
CONTINUOUS
 62
     5
 10
-500.93140077377069
 20
441.33349357865973
 30
0.0
 40
2.6665549173333241
 50
103.98164794547991
 51
104.5072811835613
  0
ARC
  8
DETAIL
  6
CONTINUOUS
 62
     5
 10
-500.93222323510457
 20
441.336789170663
 30
0.0
 40
2.6631582479999918
 50
103.6448867340205
 51
103.98160830008619
  0
ARC
  8
DETAIL
  6
CONTINUOUS
 62
     5
 10
-500.60000000177251
 20
436.59999999999582
 30
0.0
 40
0.9999999999999969
 50
90.0
 51
180.0
  0
ARC
  8
DETAIL
  6
CONTINUOUS
 62
     5
 10
-500.60000000177251
 20
436.59999999999582
 30
0.0
 40
0.4999999999999984
 50
90.0
 51
180.0
  0
ARC
  8
DETAIL
  6
CONTINUOUS
 62
     5
 10
-530.32858338043707
 20
159.24835711599459
 30
0.0
 40
3.7999999999999878
 50
336.99999999999568
 51
36.999999999977668
  0
ARC
  8
DETAIL
  6
CONTINUOUS
 62
     5
 10
-534.92646654843929
 20
174.32281092666841
 30
0.0
 40
3.7999999999999878
 50
96.99999999997975
 51
216.99999999997769
  0
ARC
  8
DETAIL
  6
CONTINUOUS
 62
     5
 10
-543.70000000177743
 20
162.19999999999439
 30
0.0
 40
2.9999999999999898
 50
180.0
 51
270.0
  0
ARC
  8
DETAIL
  6
CONTINUOUS
 62
     5
 10
-543.70000000177743
 20
169.19999999999439
 30
0.0
 40
2.9999999999999898
 50
90.0
 51
180.0
  0
ARC
  8
DETAIL
  6
CONTINUOUS
 62
     5
 10
-514.20000000177379
 20
173.6052631573302
 30
0.0
 40
2.5947368426666579
 50
15.530332036905101
 51
27.475020287715299
  0
ARC
  8
DETAIL
  6
CONTINUOUS
 62
     5
 10
-514.20000000177379
 20
173.6052631573302
 30
0.0
 40
2.5947368426666579
 50
43.835513774743212
 51
90.0
  0
ARC
  8
DETAIL
  6
CONTINUOUS
 62
     5
 10
-537.70000000177106
 20
172.19999999999439
 30
0.0
 40
1.999999999999994
 50
120.10431023466521
 51
180.0
  0
ARC
  8
DETAIL
  6
CONTINUOUS
 62
     5
 10
-530.32858338043707
 20
159.24835711599459
 30
0.0
 40
1.599999999999995
 50
336.99999999999568
 51
36.999999999977668
  0
ARC
  8
DETAIL
  6
CONTINUOUS
 62
     5
 10
-534.92646654843929
 20
174.32281092666841
 30
0.0
 40
1.599999999999995
 50
96.99999999997975
 51
216.99999999997769
  0
ARC
  8
DETAIL
  6
CONTINUOUS
 62
     5
 10
-536.32445721777322
 20
138.21284095332979
 30
0.0
 40
1.099999999999997
 50
156.99999999999571
 51
336.99999999999568
  0
ARC
  8
DETAIL
  6
CONTINUOUS
 62
     5
 10
-528.02995170310669
 20
178.09999999999579
 30
0.0
 40
0.9999999999999969
 50
90.0
 51
123.6765088706528
  0
ARC
  8
DETAIL
  6
CONTINUOUS
 62
     5
 10
-521.6000000017716
 20
172.19999999999439
 30
0.0
 40
0.9999999999999969
 50
90.0
 51
180.0
  0
ARC
  8
DETAIL
  6
CONTINUOUS
 62
     5
 10
-528.80000000177324
 20
172.19999999999439
 30
0.0
 40
0.9999999999999969
 50
0.0
 51
90.0
  0
ARC
  8
DETAIL
  6
CONTINUOUS
 62
     5
 10
-537.70000000177106
 20
172.19999999999439
 30
0.0
 40
0.9999999999999969
 50
137.3782928301649
 51
180.0
  0
ARC
  8
DETAIL
  6
CONTINUOUS
 62
     5
 10
-537.70000000177106
 20
162.09999999999579
 30
0.0
 40
0.9999999999999969
 50
90.0
 51
171.00000000008799
  0
ARC
  8
DETAIL
  6
CONTINUOUS
 62
     5
 10
-537.70000000177106
 20
169.30000000000021
 30
0.0
 40
0.9999999999999969
 50
188.99999999991201
 51
270.0
  0
ARC
  8
DETAIL
  6
CONTINUOUS
 62
     5
 10
-535.60000000177524
 20
174.79999999999291
 30
0.0
 40
0.5999999999999982
 50
90.0
 51
270.0
  0
ARC
  8
DETAIL
  6
CONTINUOUS
 62
     5
 10
-511.6000000017716
 20
174.29999999999291
 30
0.0
 40
0.0999999999999997
 50
180.0
 51
270.0
  0
ARC
  8
DETAIL
  6
CONTINUOUS
 62
     5
 10
498.4000000017727
 20
443.99999999999
 30
0.0
 40
6.3999999999999782
 50
279.89685343816097
 51
300.00725140943757
  0
ARC
  8
DETAIL
  6
CONTINUOUS
 62
     5
 10
498.4000000017727
 20
443.99999999999
 30
0.0
 40
3.1999999999999891
 50
255.23173080670011
 51
359.55378893520998
  0
ARC
  8
DETAIL
  6
CONTINUOUS
 62
     5
 10
500.93140076310419
 20
441.33349353599351
 30
0.0
 40
2.666554961333325
 50
75.492718824404406
 51
76.018352053821786
  0
ARC
  8
DETAIL
  6
CONTINUOUS
 62
     5
 10
500.93222322577321
 20
441.33678913199861
 30
0.0
 40
2.6631582866666572
 50
76.018391701149227
 51
76.355113262494314
  0
ARC
  8
DETAIL
  6
CONTINUOUS
 62
     5
 10
500.60000000176979
 20
436.59999999999582
 30
0.0
 40
0.9999999999999969
 50
0.0
 51
90.0
  0
ARC
  8
DETAIL
  6
CONTINUOUS
 62
     5
 10
500.60000000176979
 20
436.59999999999582
 30
0.0
 40
0.4999999999999984
 50
0.0
 51
90.0
  0
ARC
  8
DETAIL
  6
CONTINUOUS
 62
     5
 10
-519.60000000177206
 20
-176.60000000000309
 30
0.0
 40
2.3999999999999928
 50
149.94463625951809
 51
270.0
  0
ARC
  8
DETAIL
  6
CONTINUOUS
 62
     5
 10
-519.60000000177206
 20
-176.60000000000309
 30
0.0
 40
1.199999999999996
 50
133.9999999999564
 51
270.0
  0
ARC
  8
DETAIL
  6
CONTINUOUS
 62
     5
 10
-616.60000000177342
 20
-200.10000000000579
 30
0.0
 40
1.199999999999996
 50
90.0
 51
180.0
  0
ARC
  8
DETAIL
  6
CONTINUOUS
 62
     5
 10
-535.6000000017757
 20
-174.80000000000021
 30
0.0
 40
0.5999999999999982
 50
90.0
 51
270.0
  0
ARC
  8
DETAIL
  6
CONTINUOUS
 62
     5
 10
-531.50000000176988
 20
-437.50000000000318
 30
0.0
 40
6.4999999999999796
 50
270.0
 51
90.0
  0
ARC
  8
DETAIL
  6
CONTINUOUS
 62
     5
 10
-498.40000000177588
 20
-443.99999999999733
 30
0.0
 40
6.3999999999999782
 50
99.896853438107968
 51
120.0072514094375
  0
ARC
  8
DETAIL
  6
CONTINUOUS
 62
     5
 10
-498.40000000177588
 20
-443.99999999999733
 30
0.0
 40
3.1999999999999891
 50
75.23173080670017
 51
179.55378893531429
  0
ARC
  8
DETAIL
  6
CONTINUOUS
 62
     5
 10
-581.80000000177461
 20
-373.30000000000291
 30
0.0
 40
2.9999999999999898
 50
270.0
 51
0.0
  0
ARC
  8
DETAIL
  6
CONTINUOUS
 62
     5
 10
-587.80000000177552
 20
-373.30000000000291
 30
0.0
 40
2.9999999999999898
 50
270.0
 51
0.0
  0
ARC
  8
DETAIL
  6
CONTINUOUS
 62
     5
 10
-607.80000000177279
 20
-373.30000000000291
 30
0.0
 40
2.9999999999999898
 50
180.0
 51
270.0
  0
ARC
  8
DETAIL
  6
CONTINUOUS
 62
     5
 10
-615.00000000177033
 20
-371.70000000000442
 30
0.0
 40
1.599999999999995
 50
180.0
 51
270.0
  0
ARC
  8
DETAIL
  6
CONTINUOUS
 62
     5
 10
-551.60000000177206
 20
-373.30000000000291
 30
0.0
 40
1.299999999999996
 50
209.4009141972021
 51
231.3178125465781
  0
ARC
  8
DETAIL
  6
CONTINUOUS
 62
     5
 10
-571.60000000177297
 20
-373.30000000000291
 30
0.0
 40
1.299999999999996
 50
308.68218745355409
 51
333.79988515868718
  0
ARC
  8
DETAIL
  6
CONTINUOUS
 62
     5
 10
-500.60000000177303
 20
-436.60000000000309
 30
0.0
 40
0.9999999999999969
 50
180.0
 51
270.0
  0
ARC
  8
DETAIL
  6
CONTINUOUS
 62
     5
 10
-571.10000000177115
 20
-373.80000000000291
 30
0.0
 40
0.4999999999999984
 50
90.0
 51
180.0
  0
ARC
  8
DETAIL
  6
CONTINUOUS
 62
     5
 10
-552.10000000177388
 20
-373.80000000000291
 30
0.0
 40
0.4999999999999984
 50
0.0
 51
90.0
  0
ARC
  8
DETAIL
  6
CONTINUOUS
 62
     5
 10
-552.10000000177388
 20
-373.92449980000669
 30
0.0
 40
0.4999999999999984
 50
231.31781254644591
 51
0.0
  0
ARC
  8
DETAIL
  6
CONTINUOUS
 62
     5
 10
-571.10000000177115
 20
-373.92449980000669
 30
0.0
 40
0.4999999999999984
 50
180.0
 51
308.68218745355409
  0
ARC
  8
DETAIL
  6
CONTINUOUS
 62
     5
 10
-500.60000000177303
 20
-436.60000000000309
 30
0.0
 40
0.4999999999999984
 50
180.0
 51
270.0
  0
ARC
  8
DETAIL
  6
CONTINUOUS
 62
     5
 10
531.50000000177215
 20
-437.50000000000318
 30
0.0
 40
6.4999999999999796
 50
90.0
 51
270.0
  0
ARC
  8
DETAIL
  6
CONTINUOUS
 62
     5
 10
498.40000000177218
 20
-443.99999999999733
 30
0.0
 40
6.3999999999999782
 50
59.992748590562456
 51
80.103146561839011
  0
ARC
  8
DETAIL
  6
CONTINUOUS
 62
     5
 10
498.40000000177218
 20
-443.99999999999733
 30
0.0
 40
3.1999999999999891
 50
0.4462110646857207
 51
104.768269193273
  0
ARC
  8
DETAIL
  6
CONTINUOUS
 62
     5
 10
500.60000000176927
 20
-436.60000000000309
 30
0.0
 40
0.9999999999999969
 50
270.0
 51
0.0
  0
ARC
  8
DETAIL
  6
CONTINUOUS
 62
     5
 10
500.60000000176927
 20
-436.60000000000309
 30
0.0
 40
0.4999999999999984
 50
270.0
 51
0.0
  0
LINE
  8
DETAIL
  6
CONTINUOUS
 62
     5
 10
-515.60000000177479
 20
-175.400000000006
 30
0.0
 11
-515.7559515259619
 21
-175.34894848649307
 31
0.0
  0
LINE
  8
DETAIL
  6
CONTINUOUS
 62
     5
 10
-515.7559515259619
 20
-175.34894848649307
 30
0.0
 11
-515.87335222790728
 21
-175.21508616524906
 31
0.0
  0
LINE
  8
DETAIL
  6
CONTINUOUS
 62
     5
 10
-515.87335222790728
 20
-175.21508616524906
 30
0.0
 11
-515.94910843221533
 21
-175.02735136521625
 31
0.0
  0
LINE
  8
DETAIL
  6
CONTINUOUS
 62
     5
 10
-515.94910843221533
 20
-175.02735136521625
 30
0.0
 11
-515.98012723344868
 21
-174.81468107636806
 31
0.0
  0
LINE
  8
DETAIL
  6
CONTINUOUS
 62
     5
 10
-515.98012723344868
 20
-174.81468107636806
 30
0.0
 11
-515.96430326707912
 21
-174.6042949397893
 31
0.0
  0
LINE
  8
DETAIL
  6
CONTINUOUS
 62
     5
 10
-515.96430326707912
 20
-174.6042949397893
 30
0.0
 11
-515.90245477624865
 21
-174.41832839768313
 31
0.0
  0
LINE
  8
DETAIL
  6
CONTINUOUS
 62
     5
 10
-515.90245477624865
 20
-174.41832839768313
 30
0.0
 11
-515.79593847109913
 21
-174.27798048982723
 31
0.0
  0
LINE
  8
DETAIL
  6
CONTINUOUS
 62
     5
 10
-515.79593847109913
 20
-174.27798048982723
 30
0.0
 11
-515.64611106177199
 21
-174.20445025599929
 31
0.0
  0
LINE
  8
DETAIL
  6
CONTINUOUS
 62
     5
 10
-515.60000000177433
 20
175.3999999999987
 30
0.0
 11
-515.75595152596145
 21
175.34894848659167
 31
0.0
  0
LINE
  8
DETAIL
  6
CONTINUOUS
 62
     5
 10
-515.75595152596145
 20
175.34894848659167
 30
0.0
 11
-515.87335222790671
 21
175.21508616557946
 31
0.0
  0
LINE
  8
DETAIL
  6
CONTINUOUS
 62
     5
 10
-515.87335222790671
 20
175.21508616557946
 30
0.0
 11
-515.94910843221498
 21
175.02735136577547
 31
0.0
  0
LINE
  8
DETAIL
  6
CONTINUOUS
 62
     5
 10
-515.94910843221498
 20
175.02735136577547
 30
0.0
 11
-515.98012723344823
 21
174.81468107702437
 31
0.0
  0
LINE
  8
DETAIL
  6
CONTINUOUS
 62
     5
 10
-515.98012723344823
 20
174.81468107702437
 30
0.0
 11
-515.96430326707866
 21
174.60429494033713
 31
0.0
  0
LINE
  8
DETAIL
  6
CONTINUOUS
 62
     5
 10
-515.96430326707866
 20
174.60429494033713
 30
0.0
 11
-515.90245477624819
 21
174.41832839800603
 31
0.0
  0
LINE
  8
DETAIL
  6
CONTINUOUS
 62
     5
 10
-515.90245477624819
 20
174.41832839800603
 30
0.0
 11
-515.79593847109857
 21
174.27798048992781
 31
0.0
  0
LINE
  8
DETAIL
  6
CONTINUOUS
 62
     5
 10
-515.79593847109857
 20
174.27798048992781
 30
0.0
 11
-515.64611106177153
 21
174.20445025599929
 31
0.0
  0
LINE
  8
DETAIL
  6
CONTINUOUS
 62
     5
 10
-617.20000000177561
 20
-299.67659812799678
 30
0.0
 11
-617.17896585021651
 21
-299.70275899618224
 31
0.0
  0
LINE
  8
DETAIL
  6
CONTINUOUS
 62
     5
 10
-617.17896585021651
 20
-299.70275899618224
 30
0.0
 11
-617.13322182656179
 21
-299.71204865809972
 31
0.0
  0
LINE
  8
DETAIL
  6
CONTINUOUS
 62
     5
 10
-617.13322182656179
 20
-299.71204865809972
 30
0.0
 11
-617.0865095989659
 21
-299.71539464751976
 31
0.0
  0
LINE
  8
DETAIL
  6
CONTINUOUS
 62
     5
 10
-617.0865095989659
 20
-299.71539464751976
 30
0.0
 11
-617.0451602204181
 21
-299.71637424431702
 31
0.0
  0
LINE
  8
DETAIL
  6
CONTINUOUS
 62
     5
 10
-617.0451602204181
 20
-299.71637424431702
 30
0.0
 11
-617.00752492009099
 21
-299.71519587950354
 31
0.0
  0
LINE
  8
DETAIL
  6
CONTINUOUS
 62
     5
 10
-617.00752492009099
 20
-299.71519587950354
 30
0.0
 11
-616.97191334931847
 21
-299.7120504311402
 31
0.0
  0
LINE
  8
DETAIL
  6
CONTINUOUS
 62
     5
 10
-616.97191334931847
 20
-299.7120504311402
 30
0.0
 11
-616.93663515943422
 21
-299.70712877728801
 31
0.0
  0
LINE
  8
DETAIL
  6
CONTINUOUS
 62
     5
 10
-616.93663515943422
 20
-299.70712877728801
 30
0.0
 11
-616.90000000177179
 21
-299.70062179600791
 31
0.0
  0
LINE
  8
DETAIL
  6
CONTINUOUS
 62
     5
 10
-616.90000000177179
 20
-306.29937820399942
 30
0.0
 11
-616.9366351594341
 21
-306.29287122271921
 31
0.0
  0
LINE
  8
DETAIL
  6
CONTINUOUS
 62
     5
 10
-616.9366351594341
 20
-306.29287122271921
 30
0.0
 11
-616.97191334931847
 21
-306.28794956886685
 31
0.0
  0
LINE
  8
DETAIL
  6
CONTINUOUS
 62
     5
 10
-616.97191334931847
 20
-306.28794956886685
 30
0.0
 11
-617.0075249200911
 21
-306.28480412050317
 31
0.0
  0
LINE
  8
DETAIL
  6
CONTINUOUS
 62
     5
 10
-617.0075249200911
 20
-306.28480412050317
 30
0.0
 11
-617.04516022041821
 21
-306.283625755689
 31
0.0
  0
LINE
  8
DETAIL
  6
CONTINUOUS
 62
     5
 10
-617.04516022041821
 20
-306.283625755689
 30
0.0
 11
-617.0865095989659
 21
-306.28460535248507
 31
0.0
  0
LINE
  8
DETAIL
  6
CONTINUOUS
 62
     5
 10
-617.0865095989659
 20
-306.28460535248507
 30
0.0
 11
-617.13322182656179
 21
-306.28795134190341
 31
0.0
  0
LINE
  8
DETAIL
  6
CONTINUOUS
 62
     5
 10
-617.13322182656179
 20
-306.28795134190341
 30
0.0
 11
-617.17896585021651
 21
-306.29724100381873
 31
0.0
  0
LINE
  8
DETAIL
  6
CONTINUOUS
 62
     5
 10
-617.17896585021651
 20
-306.29724100381873
 30
0.0
 11
-617.20000000177561
 21
-306.32340187200322
 31
0.0
  0
LINE
  8
DETAIL
  6
CONTINUOUS
 62
     5
 10
501.60000000177661
 20
-456.00000000000318
 30
0.0
 11
551.5000000017767
 21
-456.00000000000318
 31
0.0
  0
LINE
  8
SERVICESPACE
  6
DASHDOT
 62
     2
 10
-1208.0000293542339
 20
443.99999999999051
 30
0.0
 11
-1208.0000293542339
 21
-443.99999999999682
 31
0.0
  0
LINE
  8
SERVICESPACE
  6
DASHDOT
 62
     2
 10
-494.49000000178057
 20
-444.00000000000449
 30
0.0
 11
-1208.0000293542339
 21
-444.00000000000409
 31
0.0
  0
LINE
  8
SERVICESPACE
  6
DASHDOT
 62
     2
 10
-494.49000000178557
 20
443.99999999999
 30
0.0
 11
-1208.0000293542339
 21
443.99999999999051
 31
0.0
  0
LINE
  8
BASIS
  6
DASHDOT
 62
     6
 10
531.50000000176715
 20
-488.43427874224608
 30
0.0
 11
531.50000000176715
 21
-386.56572125775301
 31
0.0
  0
LINE
  8
BASIS
  6
DASHDOT
 62
     6
 10
582.43427874402005
 20
-437.50000000000318
 30
0.0
 11
480.56572125952431
 21
-437.50000000000318
 31
0.0
  0
LINE
  8
BASIS
  6
DASHDOT
 62
     6
 10
-531.50000000177533
 20
-488.43427874224608
 30
0.0
 11
-531.50000000177533
 21
-386.56572125775301
 31
0.0
  0
LINE
  8
BASIS
  6
DASHDOT
 62
     6
 10
-480.56572125952152
 20
-437.50000000000318
 30
0.0
 11
-582.43427874401914
 21
-437.50000000000318
 31
0.0
  0
LINE
  8
DETAIL
  6
CONTINUOUS
 62
     5
 10
467.39999999999691
 20
522.99999999866304
 30
0.0
 11
277.59999999999673
 21
522.99999999999454
 31
0.0
  0
LINE
  8
DETAIL
  6
CONTINUOUS
 62
     5
 10
-277.59999999999951
 20
522.99999999999454
 30
0.0
 11
-467.39999999999958
 21
522.99999999999454
 31
0.0
  0
LINE
  8
DETAIL
  6
CONTINUOUS
 62
     5
 10
468.49999999999818
 20
514.3999999986645
 30
0.0
 11
276.49999999999909
 21
514.399999999996
 31
0.0
  0
LINE
  8
DETAIL
  6
CONTINUOUS
 62
     5
 10
-276.50000000000358
 20
514.399999999996
 30
0.0
 11
-468.5
 21
514.399999999996
 31
0.0
  0
LINE
  8
DETAIL
  6
CONTINUOUS
 62
     5
 10
-468.5
 20
-514.40000000000327
 30
0.0
 11
-476.5
 21
-445.60000000000309
 31
0.0
  0
LINE
  8
DETAIL
  6
CONTINUOUS
 62
     5
 10
-468.5
 20
514.399999999996
 30
0.0
 11
-476.5
 21
445.59999999999582
 31
0.0
  0
LINE
  8
DETAIL
  6
CONTINUOUS
 62
     5
 10
476.49999999999818
 20
445.59999999865698
 30
0.0
 11
268.49999999999642
 21
445.59999999999582
 31
0.0
  0
LINE
  8
DETAIL
  6
CONTINUOUS
 62
     5
 10
-268.49999999999909
 20
445.59999999999582
 30
0.0
 11
-476.5
 21
445.59999999999582
 31
0.0
  0
LINE
  8
DETAIL
  6
CONTINUOUS
 62
     5
 10
-476.5
 20
-445.60000000000309
 30
0.0
 11
-476.5
 21
-443.99999999999733
 31
0.0
  0
LINE
  8
DETAIL
  6
CONTINUOUS
 62
     5
 10
-476.5
 20
445.59999999999582
 30
0.0
 11
-476.5
 21
443.99999999999
 31
0.0
  0
LINE
  8
DETAIL
  6
CONTINUOUS
 62
     5
 10
-468.5
 20
-521.899999999996
 30
0.0
 11
-468.5
 21
-514.40000000000327
 31
0.0
  0
LINE
  8
DETAIL
  6
CONTINUOUS
 62
     5
 10
-468.5
 20
521.899999999996
 30
0.0
 11
-468.5
 21
514.399999999996
 31
0.0
  0
LINE
  8
DETAIL
  6
CONTINUOUS
 62
     5
 10
-276.50000000000358
 20
-521.899999999996
 30
0.0
 11
-276.50000000000358
 21
-514.40000000000327
 31
0.0
  0
LINE
  8
DETAIL
  6
CONTINUOUS
 62
     5
 10
-276.50000000000358
 20
521.899999999996
 30
0.0
 11
-276.50000000000358
 21
514.399999999996
 31
0.0
  0
LINE
  8
DETAIL
  6
CONTINUOUS
 62
     5
 10
-268.49999999999909
 20
-445.60000000000309
 30
0.0
 11
-268.49999999999909
 21
-443.99999999999733
 31
0.0
  0
LINE
  8
DETAIL
  6
CONTINUOUS
 62
     5
 10
-268.49999999999909
 20
445.59999999999582
 30
0.0
 11
-268.49999999999909
 21
443.99999999999
 31
0.0
  0
LINE
  8
DETAIL
  6
CONTINUOUS
 62
     5
 10
-276.50000000000358
 20
514.399999999996
 30
0.0
 11
-268.49999999999909
 21
445.59999999999582
 31
0.0
  0
LINE
  8
DETAIL
  6
CONTINUOUS
 62
     5
 10
-276.50000000000358
 20
-514.40000000000327
 30
0.0
 11
-268.49999999999909
 21
-445.60000000000309
 31
0.0
  0
LINE
  8
DETAIL
  6
CONTINUOUS
 62
     5
 10
276.49999999999858
 20
-514.40000000000327
 30
0.0
 11
268.49999999999591
 21
-445.60000000000309
 31
0.0
  0
LINE
  8
DETAIL
  6
CONTINUOUS
 62
     5
 10
276.49999999999909
 20
514.399999999996
 30
0.0
 11
268.49999999999642
 21
445.59999999999582
 31
0.0
  0
LINE
  8
DETAIL
  6
CONTINUOUS
 62
     5
 10
268.49999999999591
 20
-445.60000000000309
 30
0.0
 11
268.49999999999591
 21
-443.99999999999733
 31
0.0
  0
LINE
  8
DETAIL
  6
CONTINUOUS
 62
     5
 10
268.49999999999642
 20
445.59999999999582
 30
0.0
 11
268.49999999999642
 21
443.99999999999
 31
0.0
  0
LINE
  8
DETAIL
  6
CONTINUOUS
 62
     5
 10
276.49999999999858
 20
-521.899999999996
 30
0.0
 11
276.49999999999858
 21
-514.40000000000327
 31
0.0
  0
LINE
  8
DETAIL
  6
CONTINUOUS
 62
     5
 10
276.49999999999909
 20
521.899999999996
 30
0.0
 11
276.49999999999909
 21
514.399999999996
 31
0.0
  0
LINE
  8
DETAIL
  6
CONTINUOUS
 62
     5
 10
-476.5
 20
-445.60000000000309
 30
0.0
 11
-268.49999999999909
 21
-445.60000000000309
 31
0.0
  0
LINE
  8
DETAIL
  6
CONTINUOUS
 62
     5
 10
268.49999999999591
 20
-445.60000000000309
 30
0.0
 11
476.49999999999773
 21
-445.60000000000309
 31
0.0
  0
LINE
  8
DETAIL
  6
CONTINUOUS
 62
     5
 10
-468.5
 20
-514.40000000000327
 30
0.0
 11
-276.50000000000358
 21
-514.40000000000327
 31
0.0
  0
LINE
  8
DETAIL
  6
CONTINUOUS
 62
     5
 10
276.49999999999858
 20
-514.40000000000327
 30
0.0
 11
468.49999999999773
 21
-514.40000000000327
 31
0.0
  0
LINE
  8
DETAIL
  6
CONTINUOUS
 62
     5
 10
-467.39999999999958
 20
-523.00000000000182
 30
0.0
 11
-277.59999999999951
 21
-523.00000000000182
 31
0.0
  0
LINE
  8
DETAIL
  6
CONTINUOUS
 62
     5
 10
277.59999999999633
 20
-523.00000000000182
 30
0.0
 11
467.39999999999651
 21
-523.00000000000182
 31
0.0
  0
LINE
  8
DETAIL
  6
CONTINUOUS
 62
     5
 10
468.49999999999773
 20
-521.899999999996
 30
0.0
 11
468.49999999999773
 21
-514.40000000000327
 31
0.0
  0
LINE
  8
DETAIL
  6
CONTINUOUS
 62
     5
 10
468.49999999999818
 20
521.89999999865722
 30
0.0
 11
468.49999999999818
 21
514.3999999986645
 31
0.0
  0
LINE
  8
DETAIL
  6
CONTINUOUS
 62
     5
 10
476.49999999999773
 20
-445.60000000000309
 30
0.0
 11
476.49999999999773
 21
-443.99999999999733
 31
0.0
  0
LINE
  8
DETAIL
  6
CONTINUOUS
 62
     5
 10
476.49999999999818
 20
445.59999999865698
 30
0.0
 11
476.49999999999818
 21
443.99999999999
 31
0.0
  0
LINE
  8
DETAIL
  6
CONTINUOUS
 62
     5
 10
468.49999999999818
 20
514.3999999986645
 30
0.0
 11
476.49999999999818
 21
445.59999999865698
 31
0.0
  0
LINE
  8
DETAIL
  6
CONTINUOUS
 62
     5
 10
468.49999999999773
 20
-514.40000000000327
 30
0.0
 11
476.49999999999773
 21
-445.60000000000309
 31
0.0
  0
ARC
  8
DETAIL
  6
CONTINUOUS
 62
     5
 10
-467.39999999999958
 20
521.899999999996
 30
0.0
 40
1.099999999999997
 50
90.0
 51
180.0
  0
ARC
  8
DETAIL
  6
CONTINUOUS
 62
     5
 10
-277.59999999999951
 20
521.899999999996
 30
0.0
 40
1.099999999999997
 50
0.0
 51
90.0
  0
ARC
  8
DETAIL
  6
CONTINUOUS
 62
     5
 10
277.59999999999673
 20
521.899999999996
 30
0.0
 40
1.099999999999997
 50
90.0
 51
180.0
  0
ARC
  8
DETAIL
  6
CONTINUOUS
 62
     5
 10
467.39999999999691
 20
521.89999999865722
 30
0.0
 40
1.099999999999997
 50
0.0
 51
90.0
  0
ARC
  8
DETAIL
  6
CONTINUOUS
 62
     5
 10
-467.39999999999958
 20
-521.899999999996
 30
0.0
 40
1.099999999999997
 50
180.0
 51
270.0
  0
ARC
  8
DETAIL
  6
CONTINUOUS
 62
     5
 10
-277.59999999999951
 20
-521.899999999996
 30
0.0
 40
1.099999999999997
 50
270.0
 51
0.0
  0
ARC
  8
DETAIL
  6
CONTINUOUS
 62
     5
 10
277.59999999999633
 20
-521.899999999996
 30
0.0
 40
1.099999999999997
 50
180.0
 51
270.0
  0
ARC
  8
DETAIL
  6
CONTINUOUS
 62
     5
 10
467.39999999999651
 20
-521.899999999996
 30
0.0
 40
1.099999999999997
 50
270.0
 51
0.0
  0
LINE
  8
BASIS
  6
DASHDOT
 62
     6
 10
-603.6007525158202
 20
319.99995891034501
 30
0.0
 11
-487.75258349351452
 21
319.99995891034501
 31
0.0
1001
GENIUS_GENODEF_13
1002
{
1000
HIER
1070
     0
1002
}
1002
{
1000
MANEDIT
1070
     0
1002
}
1002
{
1000
NOSEL
1070
     0
1002
}
1002
{
1000
BEHIND
1070
     0
1002
}
1002
{
1000
OTHER
1070
     0
1002
}
1002
{
1000
REACTOR
1002
}
1001
GENIUS_GENOBJ-N-CEN_13
1002
{
1000
OWNER
1000
GEN
1002
}
1001
GENIUS_GENCEN_19
1002
{
1040
5.0
1002
}
  0
LINE
  8
DETAIL
  6
DASHED
 62
     5
 10
-584.40030537736857
 20
224.00000054325301
 30
0.0
 11
-579.11613104637399
 21
224.00000054325301
 31
0.0
  0
ARC
  8
DETAIL
  6
DASHED
 62
     5
 10
-582.07269364363856
 20
223.40007113100819
 30
0.0
 40
0.5999294122380519
 50
84.098020120728123
 51
90.0
  0
ARC
  8
DETAIL
  6
DASHED
 62
     5
 10
-584.40030537736857
 20
226.5996946629466
 30
0.0
 40
2.5996941196994379
 50
180.0
 51
270.0
  0
LINE
  8
DETAIL
  6
DASHED
 62
     5
 10
-508.89671705389759
 20
216.000941713407
 30
0.0
 11
-578.88651216044218
 21
223.98677404393041
 31
0.0
  0
ARC
  8
DETAIL
  6
DASHED
 62
     5
 10
-579.11613104637399
 20
222.00023583578971
 30
0.0
 40
1.9997647074607039
 50
83.406586731011785
 51
90.0
  0
LINE
  8
DETAIL
  6
DASHED
 62
     5
 10
-586.99999949706898
 20
413.40021833978432
 30
0.0
 11
-586.99999949706944
 21
226.5996946629466
 31
0.0
  0
LINE
  8
DETAIL
  6
DASHED
 62
     5
 10
-579.00094066722522
 20
227.06243383425411
 30
0.0
 11
-579.00094066722477
 21
412.93747916848412
 31
0.0
  0
LINE
  8
DETAIL
  6
DASHED
 62
     5
 10
-584.40030537736811
 20
415.99991245948507
 30
0.0
 11
-579.11613104637354
 21
415.99991245948507
 31
0.0
  0
ARC
  8
DETAIL
  6
DASHED
 62
     5
 10
-582.0726936436381
 20
416.5998418717154
 30
0.0
 40
0.5999294122385754
 50
270.0
 51
275.90197987927189
  0
ARC
  8
DETAIL
  6
DASHED
 62
     5
 10
-584.40030537736811
 20
413.40021833978432
 30
0.0
 40
2.5996941196988068
 50
90.0
 51
180.0
  0
LINE
  8
DETAIL
  6
DASHED
 62
     5
 10
-508.89671705389759
 20
423.99897128932389
 30
0.0
 11
-578.88651216044173
 21
416.01313895879321
 31
0.0
  0
ARC
  8
DETAIL
  6
DASHED
 62
     5
 10
-579.11613104637354
 20
417.99967716694118
 30
0.0
 40
1.9997647074608631
 50
270.0
 51
276.59341326898817
  0
LINE
  8
BASIS
  6
DASHDOT
 62
     6
 10
-372.5
 20
539.19173409851828
 30
0.0
 11
-372.5
 21
419.69171642108722
 31
0.0
1001
GENIUS_GENODEF_13
1002
{
1000
HIER
1070
     0
1002
}
1002
{
1000
MANEDIT
1070
     0
1002
}
1002
{
1000
NOSEL
1070
     0
1002
}
1002
{
1000
BEHIND
1070
     0
1002
}
1002
{
1000
OTHER
1070
     0
1002
}
1002
{
1000
REACTOR
1002
}
1001
GENIUS_GENOBJ-N-CEN_13
1002
{
1000
OWNER
1000
GEN
1002
}
1001
GENIUS_GENCEN_19
1002
{
1040
5.0
1002
}
  0
LINE
  8
BASIS
  6
DASHDOT
 62
     6
 10
372.49999999999642
 20
539.19173409784889
 30
0.0
 11
372.49999999999642
 21
419.69171642041778
 31
0.0
1001
GENIUS_GENODEF_13
1002
{
1000
HIER
1070
     0
1002
}
1002
{
1000
MANEDIT
1070
     0
1002
}
1002
{
1000
NOSEL
1070
     0
1002
}
1002
{
1000
BEHIND
1070
     0
1002
}
1002
{
1000
OTHER
1070
     0
1002
}
1002
{
1000
REACTOR
1002
}
1001
GENIUS_GENOBJ-N-CEN_13
1002
{
1000
OWNER
1000
GEN
1002
}
1001
GENIUS_GENCEN_19
1002
{
1040
5.0
1002
}
  0
LINE
  8
BASIS
  6
DASHDOT
 62
     6
 10
-372.5
 20
-539.19173409852556
 30
0.0
 11
-372.5
 21
-419.6917164210945
 31
0.0
1001
GENIUS_GENODEF_13
1002
{
1000
HIER
1070
     0
1002
}
1002
{
1000
MANEDIT
1070
     0
1002
}
1002
{
1000
NOSEL
1070
     0
1002
}
1002
{
1000
BEHIND
1070
     0
1002
}
1002
{
1000
OTHER
1070
     0
1002
}
1002
{
1000
REACTOR
1002
}
1001
GENIUS_GENOBJ-N-CEN_13
1002
{
1000
OWNER
1000
GEN
1002
}
1001
GENIUS_GENCEN_19
1002
{
1040
5.0
1002
}
  0
LINE
  8
BASIS
  6
DASHDOT
 62
     6
 10
372.49999999999591
 20
-539.19173409785617
 30
0.0
 11
372.49999999999591
 21
-419.69171642042511
 31
0.0
1001
GENIUS_GENODEF_13
1002
{
1000
HIER
1070
     0
1002
}
1002
{
1000
MANEDIT
1070
     0
1002
}
1002
{
1000
NOSEL
1070
     0
1002
}
1002
{
1000
BEHIND
1070
     0
1002
}
1002
{
1000
OTHER
1070
     0
1002
}
1002
{
1000
REACTOR
1002
}
1001
GENIUS_GENOBJ-N-CEN_13
1002
{
1000
OWNER
1000
GEN
1002
}
1001
GENIUS_GENCEN_19
1002
{
1040
5.0
1002
}
  0
LINE
  8
BASIS
  6
DASHDOT
 62
     6
 10
603.6007525158202
 20
319.99995891034501
 30
0.0
 11
487.75258349351412
 21
319.99995891034501
 31
0.0
1001
GENIUS_GENODEF_13
1002
{
1000
HIER
1070
     0
1002
}
1002
{
1000
MANEDIT
1070
     0
1002
}
1002
{
1000
NOSEL
1070
     0
1002
}
1002
{
1000
BEHIND
1070
     0
1002
}
1002
{
1000
OTHER
1070
     0
1002
}
1002
{
1000
REACTOR
1002
}
1001
GENIUS_GENOBJ-N-CEN_13
1002
{
1000
OWNER
1000
GEN
1002
}
1001
GENIUS_GENCEN_19
1002
{
1040
5.0
1002
}
  0
LINE
  8
DETAIL
  6
DASHED
 62
     5
 10
584.40030537736766
 20
224.00000054325301
 30
0.0
 11
579.11613104637308
 21
224.00000054325301
 31
0.0
  0
ARC
  8
DETAIL
  6
DASHED
 62
     5
 10
582.07269364363856
 20
223.40007113100819
 30
0.0
 40
0.5999294122380519
 50
90.0
 51
95.901979879271877
  0
ARC
  8
DETAIL
  6
DASHED
 62
     5
 10
584.40030537736766
 20
226.5996946629466
 30
0.0
 40
2.5996941196994379
 50
270.0
 51
0.0
  0
LINE
  8
DETAIL
  6
DASHED
 62
     5
 10
508.8967170538981
 20
216.000941713407
 30
0.0
 11
578.88651216044218
 21
223.98677404393041
 31
0.0
  0
ARC
  8
DETAIL
  6
DASHED
 62
     5
 10
579.11613104637308
 20
222.00023583578971
 30
0.0
 40
1.9997647074607039
 50
90.0
 51
96.593413268988215
  0
LINE
  8
DETAIL
  6
DASHED
 62
     5
 10
586.99999949706853
 20
413.40021833978432
 30
0.0
 11
586.99999949706853
 21
226.5996946629466
 31
0.0
  0
LINE
  8
DETAIL
  6
DASHED
 62
     5
 10
579.0009406672234
 20
227.06243383425411
 30
0.0
 11
579.0009406672234
 21
412.93747916848412
 31
0.0
  0
LINE
  8
DETAIL
  6
DASHED
 62
     5
 10
584.40030537736766
 20
415.99991245948507
 30
0.0
 11
579.11613104637308
 21
415.99991245948507
 31
0.0
  0
ARC
  8
DETAIL
  6
DASHED
 62
     5
 10
582.07269364363856
 20
416.5998418717154
 30
0.0
 40
0.5999294122385754
 50
264.09802012072811
 51
270.0
  0
ARC
  8
DETAIL
  6
DASHED
 62
     5
 10
584.40030537736766
 20
413.40021833978432
 30
0.0
 40
2.5996941196988068
 50
0.0
 51
90.0
  0
LINE
  8
DETAIL
  6
DASHED
 62
     5
 10
508.89671705389861
 20
423.99897128932389
 30
0.0
 11
578.88651216044218
 21
416.01313895879321
 31
0.0
  0
ARC
  8
DETAIL
  6
DASHED
 62
     5
 10
579.11613104637308
 20
417.99967716694118
 30
0.0
 40
1.9997647074608631
 50
263.40658673101183
 51
270.0
  0
LINE
  8
SIZE
  6
CONTINUOUS
 62
    30
 10
-372.5
 20
559.19173409851828
 30
0.0
 11
-372.5
 21
737.38227839685624
 31
0.0
  0
LINE
  8
SIZE
  6
CONTINUOUS
 62
    30
 10
372.49999999999642
 20
559.19173409784889
 30
0.0
 11
372.49999999999642
 21
737.38227839685624
 31
0.0
  0
LINE
  8
SIZE
  6
CONTINUOUS
 62
    30
 10
-360.5
 20
717.38227839685624
 30
0.0
 11
360.49999999999642
 21
717.38227839685624
 31
0.0
  0
CIRCLE
  8
SIZE
  6
CONTINUOUS
 62
    30
 10
-372.5
 20
717.38227839685624
 30
0.0
 40
6.0
  0
LINE
  8
SIZE
  6
CONTINUOUS
 62
    30
 10
-372.5
 20
717.38227839685624
 30
0.0
 11
-360.5
 21
717.38227839685624
 31
0.0
  0
CIRCLE
  8
SIZE
  6
CONTINUOUS
 62
    30
 10
372.49999999999642
 20
717.38227839685624
 30
0.0
 40
6.0
  0
LINE
  8
SIZE
  6
CONTINUOUS
 62
    30
 10
372.49999999999642
 20
717.38227839685624
 30
0.0
 11
360.49999999999642
 21
717.38227839685624
 31
0.0
  0
TEXT
  8
SIZE
  6
CONTINUOUS
 62
    30
 10
-80.928000000001816
 20
742.38227839685624
 30
0.0
 40
64.0
  1
745
 50
0.0
 41
0.9
 51
0.0
  7
STANDARD
 71
     0
 72
     1
 11
-0.000000000001819
 21
742.38227839685624
 31
0.0
210
0.0
220
0.0
230
1.0
  0
POINT
  8
DEFPOINTS
  6
CONTINUOUS
 62
    30
 10
-372.5
 20
539.19173409851828
 30
0.0
  0
POINT
  8
DEFPOINTS
  6
CONTINUOUS
 62
    30
 10
372.49999999999642
 20
539.19173409784889
 30
0.0
  0
POINT
  8
DEFPOINTS
  6
CONTINUOUS
 62
    30
 10
372.49999999999642
 20
717.38227839685624
 30
0.0
  0
LINE
  8
SIZE
  6
CONTINUOUS
 62
    30
 10
514.49000000178398
 20
443.99999999999022
 30
0.0
 11
785.67079528897932
 21
443.99999999999028
 31
0.0
  0
LINE
  8
SIZE
  6
CONTINUOUS
 62
    30
 10
623.60075251582043
 20
319.99995891034507
 30
0.0
 11
785.67079528897932
 21
319.99995891034507
 31
0.0
  0
LINE
  8
SIZE
  6
CONTINUOUS
 62
    30
 10
765.67079528897921
 20
331.99995891034507
 30
0.0
 11
765.67079528897921
 21
431.99999999999028
 31
0.0
  0
LINE
  8
SIZE
  6
CONTINUOUS
 62
    30
 10
765.67079528897921
 20
443.99999999999028
 30
0.0
 11
765.67079528897921
 21
699.88463935288326
 31
0.0
  0
CIRCLE
  8
SIZE
  6
CONTINUOUS
 62
    30
 10
765.67079528897921
 20
319.99995891034507
 30
0.0
 40
6.0
  0
LINE
  8
SIZE
  6
CONTINUOUS
 62
    30
 10
765.67079528897921
 20
319.99995891034507
 30
0.0
 11
765.67079528897921
 21
331.99995891034507
 31
0.0
  0
CIRCLE
  8
SIZE
  6
CONTINUOUS
 62
    30
 10
765.67079528897921
 20
443.99999999999028
 30
0.0
 40
6.0
  0
LINE
  8
SIZE
  6
CONTINUOUS
 62
    30
 10
765.67079528897921
 20
443.99999999999028
 30
0.0
 11
765.67079528897921
 21
431.99999999999028
 31
0.0
  0
TEXT
  8
SIZE
  6
CONTINUOUS
 62
    30
 10
740.67079528897921
 20
529.77378221002584
 30
0.0
 40
64.0
  1
124
 50
90.0
 41
0.9
 51
0.0
  7
STANDARD
 71
     0
 72
     1
 11
740.67079528897921
 21
604.94178221002585
 31
0.0
210
0.0
220
0.0
230
1.0
  0
POINT
  8
DEFPOINTS
  6
CONTINUOUS
 62
    30
 10
494.49000000178398
 20
443.99999999999022
 30
0.0
  0
POINT
  8
DEFPOINTS
  6
CONTINUOUS
 62
    30
 10
603.60075251582043
 20
319.99995891034507
 30
0.0
  0
POINT
  8
DEFPOINTS
  6
CONTINUOUS
 62
    30
 10
765.67079528897921
 20
319.99995891034507
 30
0.0
  0
LINE
  8
SIZE
  6
CONTINUOUS
 62
    30
 10
514.49000000178398
 20
443.99999999999022
 30
0.0
 11
1007.244943885117
 21
443.99999999999028
 31
0.0
  0
LINE
  8
SIZE
  6
CONTINUOUS
 62
    30
 10
514.49000000178171
 20
-443.9999999999975
 30
0.0
 11
1007.244943885118
 21
-443.99999999999739
 31
0.0
  0
LINE
  8
SIZE
  6
CONTINUOUS
 62
    30
 10
987.24494388511744
 20
431.99999999999028
 30
0.0
 11
987.24494388511766
 21
-431.99999999999739
 31
0.0
  0
CIRCLE
  8
SIZE
  6
CONTINUOUS
 62
    30
 10
987.24494388511744
 20
443.99999999999028
 30
0.0
 40
6.0
  0
LINE
  8
SIZE
  6
CONTINUOUS
 62
    30
 10
987.24494388511744
 20
443.99999999999028
 30
0.0
 11
987.24494388511744
 21
431.99999999999028
 31
0.0
  0
CIRCLE
  8
SIZE
  6
CONTINUOUS
 62
    30
 10
987.24494388511766
 20
-443.99999999999739
 30
0.0
 40
6.0
  0
LINE
  8
SIZE
  6
CONTINUOUS
 62
    30
 10
987.24494388511766
 20
-443.99999999999739
 30
0.0
 11
987.24494388511766
 21
-431.99999999999739
 31
0.0
  0
TEXT
  8
SIZE
  6
CONTINUOUS
 62
    30
 10
962.24494388511732
 20
-80.352000000003841
 30
0.0
 40
64.0
  1
888
 50
90.0
 41
0.9
 51
0.0
  7
STANDARD
 71
     0
 72
     1
 11
962.24494388511732
 21
-0.000000000003864
 31
0.0
210
0.0
220
0.0
230
1.0
  0
POINT
  8
DEFPOINTS
  6
CONTINUOUS
 62
    30
 10
494.49000000178398
 20
443.99999999999022
 30
0.0
  0
POINT
  8
DEFPOINTS
  6
CONTINUOUS
 62
    30
 10
494.49000000178171
 20
-443.9999999999975
 30
0.0
  0
POINT
  8
DEFPOINTS
  6
CONTINUOUS
 62
    30
 10
987.24494388511766
 20
-443.99999999999739
 30
0.0
  0
LINE
  8
SIZE
  6
CONTINUOUS
 62
    30
 10
514.49000000178171
 20
-443.9999999999975
 30
0.0
 11
1007.244943885111
 21
-443.99999999999739
 31
0.0
  0
LINE
  8
SIZE
  6
CONTINUOUS
 62
    30
 10
487.39999999999668
 20
-523.00000000000205
 30
0.0
 11
1007.244943885111
 21
-523.00000000000193
 31
0.0
  0
LINE
  8
SIZE
  6
CONTINUOUS
 62
    30
 10
987.24494388511118
 20
-455.99999999999739
 30
0.0
 11
987.24494388511118
 21
-511.00000000000188
 31
0.0
  0
LINE
  8
SIZE
  6
CONTINUOUS
 62
    30
 10
987.24494388511118
 20
-523.00000000000193
 30
0.0
 11
987.24494388511118
 21
-675.71428571428703
 31
0.0
  0
CIRCLE
  8
SIZE
  6
CONTINUOUS
 62
    30
 10
987.24494388511118
 20
-443.99999999999739
 30
0.0
 40
6.0
  0
LINE
  8
SIZE
  6
CONTINUOUS
 62
    30
 10
987.24494388511118
 20
-443.99999999999739
 30
0.0
 11
987.24494388511118
 21
-455.99999999999739
 31
0.0
  0
CIRCLE
  8
SIZE
  6
CONTINUOUS
 62
    30
 10
987.24494388511118
 20
-523.00000000000193
 30
0.0
 40
6.0
  0
LINE
  8
SIZE
  6
CONTINUOUS
 62
    30
 10
987.24494388511118
 20
-523.00000000000193
 30
0.0
 11
987.24494388511118
 21
-511.00000000000193
 31
0.0
  0
TEXT
  8
SIZE
  6
CONTINUOUS
 62
    30
 10
962.24494388511084
 20
-659.02514285714437
 30
0.0
 40
64.0
  1
79
 50
90.0
 41
0.9
 51
0.0
  7
STANDARD
 71
     0
 72
     1
 11
962.24494388511084
 21
-605.45714285714439
 31
0.0
210
0.0
220
0.0
230
1.0
  0
POINT
  8
DEFPOINTS
  6
CONTINUOUS
 62
    30
 10
494.49000000178171
 20
-443.9999999999975
 30
0.0
  0
POINT
  8
DEFPOINTS
  6
CONTINUOUS
 62
    30
 10
467.39999999999668
 20
-523.00000000000205
 30
0.0
  0
POINT
  8
DEFPOINTS
  6
CONTINUOUS
 62
    30
 10
987.24494388511118
 20
-523.00000000000193
 30
0.0
  0
LINE
  8
SIZE
  6
CONTINUOUS
 62
    30
 10
514.49000000178398
 20
443.99999999999022
 30
0.0
 11
1007.244943885111
 21
443.99999999999028
 31
0.0
  0
LINE
  8
SIZE
  6
CONTINUOUS
 62
    30
 10
487.39999999999708
 20
522.99999999866327
 30
0.0
 11
1007.244943885111
 21
522.99999999866338
 31
0.0
  0
LINE
  8
SIZE
  6
CONTINUOUS
 62
    30
 10
987.24494388511096
 20
455.99999999999028
 30
0.0
 11
987.24494388511096
 21
510.99999999866338
 31
0.0
  0
LINE
  8
SIZE
  6
CONTINUOUS
 62
    30
 10
987.24494388511096
 20
522.99999999866338
 30
0.0
 11
987.24494388511096
 21
675.71428571294894
 31
0.0
  0
CIRCLE
  8
SIZE
  6
CONTINUOUS
 62
    30
 10
987.24494388511096
 20
443.99999999999028
 30
0.0
 40
6.0
  0
LINE
  8
SIZE
  6
CONTINUOUS
 62
    30
 10
987.24494388511096
 20
443.99999999999028
 30
0.0
 11
987.24494388511096
 21
455.99999999999028
 31
0.0
  0
CIRCLE
  8
SIZE
  6
CONTINUOUS
 62
    30
 10
987.24494388511096
 20
522.99999999866338
 30
0.0
 40
6.0
  0
LINE
  8
SIZE
  6
CONTINUOUS
 62
    30
 10
987.24494388511096
 20
522.99999999866338
 30
0.0
 11
987.24494388511096
 21
510.99999999866338
 31
0.0
  0
TEXT
  8
SIZE
  6
CONTINUOUS
 62
    30
 10
962.24494388511084
 20
551.88914285580563
 30
0.0
 40
64.0
  1
79
 50
90.0
 41
0.9
 51
0.0
  7
STANDARD
 71
     0
 72
     1
 11
962.24494388511084
 21
605.45714285580561
 31
0.0
210
0.0
220
0.0
230
1.0
  0
POINT
  8
DEFPOINTS
  6
CONTINUOUS
 62
    30
 10
494.49000000178398
 20
443.99999999999022
 30
0.0
  0
POINT
  8
DEFPOINTS
  6
CONTINUOUS
 62
    30
 10
467.39999999999708
 20
522.99999999866327
 30
0.0
  0
POINT
  8
DEFPOINTS
  6
CONTINUOUS
 62
    30
 10
987.24494388511096
 20
522.99999999866338
 30
0.0
  0
LINE
  8
SIZE
  6
CONTINUOUS
 62
    30
 10
-623.60075251582043
 20
319.99995891034507
 30
0.0
 11
-817.06456713919249
 21
319.99995891034501
 31
0.0
  0
LINE
  8
SIZE
  6
CONTINUOUS
 62
    30
 10
-514.4900000017858
 20
443.99999999999022
 30
0.0
 11
-817.06456713919249
 21
443.99999999999022
 31
0.0
  0
LINE
  8
SIZE
  6
CONTINUOUS
 62
    30
 10
-797.06456713919249
 20
331.99995891034501
 30
0.0
 11
-797.06456713919249
 21
431.99999999999022
 31
0.0
  0
LINE
  8
SIZE
  6
CONTINUOUS
 62
    30
 10
-797.06456713919249
 20
443.99999999999022
 30
0.0
 11
-797.06456713919249
 21
645.88571428570458
 31
0.0
  0
CIRCLE
  8
SIZE
  6
CONTINUOUS
 62
    30
 10
-797.06456713919249
 20
319.99995891034501
 30
0.0
 40
6.0
  0
LINE
  8
SIZE
  6
CONTINUOUS
 62
    30
 10
-797.06456713919249
 20
319.99995891034501
 30
0.0
 11
-797.06456713919249
 21
331.99995891034501
 31
0.0
  0
CIRCLE
  8
SIZE
  6
CONTINUOUS
 62
    30
 10
-797.06456713919249
 20
443.99999999999022
 30
0.0
 40
6.0
  0
LINE
  8
SIZE
  6
CONTINUOUS
 62
    30
 10
-797.06456713919249
 20
443.99999999999022
 30
0.0
 11
-797.06456713919249
 21
431.99999999999022
 31
0.0
  0
TEXT
  8
SIZE
  6
CONTINUOUS
 62
    30
 10
-822.06456713919215
 20
475.77485714284751
 30
0.0
 40
64.0
  1
124
 50
90.0
 41
0.9
 51
0.0
  7
STANDARD
 71
     0
 72
     1
 11
-822.06456713919215
 21
550.94285714284752
 31
0.0
210
0.0
220
0.0
230
1.0
  0
POINT
  8
DEFPOINTS
  6
CONTINUOUS
 62
    30
 10
-603.60075251582043
 20
319.99995891034507
 30
0.0
  0
POINT
  8
DEFPOINTS
  6
CONTINUOUS
 62
    30
 10
-494.4900000017858
 20
443.99999999999022
 30
0.0
  0
POINT
  8
DEFPOINTS
  6
CONTINUOUS
 62
    30
 10
-797.06456713919249
 20
443.99999999999022
 30
0.0
  0
LINE
  8
SIZE
  6
CONTINUOUS
 62
    30
 10
276.49999999999858
 20
-541.899999999996
 30
0.0
 11
276.49999999999858
 21
-706.56046222679379
 31
0.0
  0
LINE
  8
SIZE
  6
CONTINUOUS
 62
    30
 10
468.49999999999773
 20
-541.899999999996
 30
0.0
 11
468.49999999999773
 21
-706.56046222679379
 31
0.0
  0
LINE
  8
SIZE
  6
CONTINUOUS
 62
    30
 10
288.49999999999858
 20
-686.56046222679379
 30
0.0
 11
456.49999999999773
 21
-686.56046222679379
 31
0.0
  0
LINE
  8
SIZE
  6
CONTINUOUS
 62
    30
 10
468.49999999999773
 20
-686.56046222679379
 30
0.0
 11
765.60627219501987
 21
-686.56046222679379
 31
0.0
  0
CIRCLE
  8
SIZE
  6
CONTINUOUS
 62
    30
 10
276.49999999999858
 20
-686.56046222679379
 30
0.0
 40
6.0
  0
LINE
  8
SIZE
  6
CONTINUOUS
 62
    30
 10
276.49999999999858
 20
-686.56046222679379
 30
0.0
 11
288.49999999999858
 21
-686.56046222679379
 31
0.0
  0
CIRCLE
  8
SIZE
  6
CONTINUOUS
 62
    30
 10
468.49999999999773
 20
-686.56046222679379
 30
0.0
 40
6.0
  0
LINE
  8
SIZE
  6
CONTINUOUS
 62
    30
 10
468.49999999999773
 20
-686.56046222679379
 30
0.0
 11
456.49999999999773
 21
-686.56046222679379
 31
0.0
  0
TEXT
  8
SIZE
  6
CONTINUOUS
 62
    30
 10
536.82570076644834
 20
-661.56046222679379
 30
0.0
 40
64.0
  1
φ192
 50
0.0
 41
0.9
 51
0.0
  7
STANDARD
 71
     0
 72
     1
 11
645.97770076644838
 21
-661.56046222679379
 31
0.0
210
0.0
220
0.0
230
1.0
  0
POINT
  8
DEFPOINTS
  6
CONTINUOUS
 62
    30
 10
276.49999999999858
 20
-521.899999999996
 30
0.0
  0
POINT
  8
DEFPOINTS
  6
CONTINUOUS
 62
    30
 10
468.49999999999773
 20
-521.899999999996
 30
0.0
  0
POINT
  8
DEFPOINTS
  6
CONTINUOUS
 62
    30
 10
468.49999999999773
 20
-686.56046222679379
 30
0.0
  0
LINE
  8
SIZE
  6
CONTINUOUS
 62
    30
 10
476.49999999999773
 20
-465.60000000000309
 30
0.0
 11
476.49999999999773
 21
-838.90061756355044
 31
0.0
  0
LINE
  8
SIZE
  6
CONTINUOUS
 62
    30
 10
268.49999999999591
 20
-465.60000000000309
 30
0.0
 11
268.49999999999591
 21
-838.90061756355044
 31
0.0
  0
LINE
  8
SIZE
  6
CONTINUOUS
 62
    30
 10
280.49999999999591
 20
-818.90061756355044
 30
0.0
 11
464.49999999999773
 21
-818.90061756355044
 31
0.0
  0
LINE
  8
SIZE
  6
CONTINUOUS
 62
    30
 10
476.49999999999773
 20
-818.90061756355044
 30
0.0
 11
775.73518836761036
 21
-818.90061756355044
 31
0.0
  0
CIRCLE
  8
SIZE
  6
CONTINUOUS
 62
    30
 10
268.49999999999591
 20
-818.90061756355044
 30
0.0
 40
6.0
  0
LINE
  8
SIZE
  6
CONTINUOUS
 62
    30
 10
268.49999999999591
 20
-818.90061756355044
 30
0.0
 11
280.49999999999591
 21
-818.90061756355044
 31
0.0
  0
CIRCLE
  8
SIZE
  6
CONTINUOUS
 62
    30
 10
476.49999999999773
 20
-818.90061756355044
 30
0.0
 40
6.0
  0
LINE
  8
SIZE
  6
CONTINUOUS
 62
    30
 10
476.49999999999773
 20
-818.90061756355044
 30
0.0
 11
464.49999999999773
 21
-818.90061756355044
 31
0.0
  0
TEXT
  8
SIZE
  6
CONTINUOUS
 62
    30
 10
535.13290265332466
 20
-793.90061756355044
 30
0.0
 40
64.0
  1
φ208
 50
0.0
 41
0.9
 51
0.0
  7
STANDARD
 71
     0
 72
     1
 11
650.62090265332472
 21
-793.90061756355044
 31
0.0
210
0.0
220
0.0
230
1.0
  0
POINT
  8
DEFPOINTS
  6
CONTINUOUS
 62
    30
 10
476.49999999999773
 20
-445.60000000000309
 30
0.0
  0
POINT
  8
DEFPOINTS
  6
CONTINUOUS
 62
    30
 10
268.49999999999591
 20
-445.60000000000309
 30
0.0
  0
POINT
  8
DEFPOINTS
  6
CONTINUOUS
 62
    30
 10
268.49999999999591
 20
-818.90061756355044
 30
0.0
  0
LINE
  8
SIZE
  6
CONTINUOUS
 62
    30
 10
508.00000000177579
 20
450.48999999999518
 30
0.0
 11
508.00000000177579
 21
869.57853005799279
 31
0.0
  0
LINE
  8
SIZE
  6
CONTINUOUS
 62
    30
 10
-508.00000000177027
 20
450.49000000000979
 30
0.0
 11
-508.00000000177027
 21
869.57853005799279
 31
0.0
  0
LINE
  8
SIZE
  6
CONTINUOUS
 62
    30
 10
496.00000000177579
 20
849.57853005799279
 30
0.0
 11
-496.00000000177027
 21
849.57853005799279
 31
0.0
  0
CIRCLE
  8
SIZE
  6
CONTINUOUS
 62
    30
 10
508.00000000177579
 20
849.57853005799279
 30
0.0
 40
6.0
  0
LINE
  8
SIZE
  6
CONTINUOUS
 62
    30
 10
508.00000000177579
 20
849.57853005799279
 30
0.0
 11
496.00000000177579
 21
849.57853005799279
 31
0.0
  0
CIRCLE
  8
SIZE
  6
CONTINUOUS
 62
    30
 10
-508.00000000177027
 20
849.57853005799279
 30
0.0
 40
6.0
  0
LINE
  8
SIZE
  6
CONTINUOUS
 62
    30
 10
-508.00000000177027
 20
849.57853005799279
 30
0.0
 11
-496.00000000177027
 21
849.57853005799279
 31
0.0
  0
TEXT
  8
SIZE
  6
CONTINUOUS
 62
    30
 10
-96.191999999997279
 20
874.57853005799279
 30
0.0
 40
64.0
  1
1016
 50
0.0
 41
0.9
 51
0.0
  7
STANDARD
 71
     0
 72
     1
 11
0.0000000000027285
 21
874.57853005799279
 31
0.0
210
0.0
220
0.0
230
1.0
  0
POINT
  8
DEFPOINTS
  6
CONTINUOUS
 62
    30
 10
508.00000000177579
 20
430.48999999999518
 30
0.0
  0
POINT
  8
DEFPOINTS
  6
CONTINUOUS
 62
    30
 10
-508.00000000177027
 20
430.49000000000979
 30
0.0
  0
POINT
  8
DEFPOINTS
  6
CONTINUOUS
 62
    30
 10
-508.00000000177027
 20
849.57853005799279
 30
0.0
  0
LINE
  8
SIZE
  6
CONTINUOUS
 62
    30
 10
-616.60000000177388
 20
-391.70000000000442
 30
0.0
 11
-616.60000000177388
 21
-838.90061756355044
 31
0.0
  0
LINE
  8
SIZE
  6
CONTINUOUS
 62
    30
 10
-501.60000000177303
 20
-476.10000000000309
 30
0.0
 11
-501.60000000177303
 21
-838.90061756355044
 31
0.0
  0
LINE
  8
SIZE
  6
CONTINUOUS
 62
    30
 10
-513.60000000177297
 20
-818.90061756355044
 30
0.0
 11
-604.60000000177388
 21
-818.90061756355044
 31
0.0
  0
LINE
  8
SIZE
  6
CONTINUOUS
 62
    30
 10
-616.60000000177388
 20
-818.90061756355044
 30
0.0
 11
-804.77142857320348
 21
-818.90061756355044
 31
0.0
  0
CIRCLE
  8
SIZE
  6
CONTINUOUS
 62
    30
 10
-501.60000000177303
 20
-818.90061756355044
 30
0.0
 40
6.0
  0
LINE
  8
SIZE
  6
CONTINUOUS
 62
    30
 10
-501.60000000177303
 20
-818.90061756355044
 30
0.0
 11
-513.60000000177297
 21
-818.90061756355044
 31
0.0
  0
CIRCLE
  8
SIZE
  6
CONTINUOUS
 62
    30
 10
-616.60000000177388
 20
-818.90061756355044
 30
0.0
 40
6.0
  0
LINE
  8
SIZE
  6
CONTINUOUS
 62
    30
 10
-616.60000000177388
 20
-818.90061756355044
 30
0.0
 11
-604.60000000177388
 21
-818.90061756355044
 31
0.0
  0
TEXT
  8
SIZE
  6
CONTINUOUS
 62
    30
 10
-785.51771428748918
 20
-793.90061756355044
 30
0.0
 40
64.0
  1
115
 50
0.0
 41
0.9
 51
0.0
  7
STANDARD
 71
     0
 72
     1
 11
-716.68571428748919
 21
-793.90061756355044
 31
0.0
210
0.0
220
0.0
230
1.0
  0
POINT
  8
DEFPOINTS
  6
CONTINUOUS
 62
    30
 10
-616.60000000177388
 20
-371.70000000000442
 30
0.0
  0
POINT
  8
DEFPOINTS
  6
CONTINUOUS
 62
    30
 10
-501.60000000177303
 20
-456.10000000000309
 30
0.0
  0
POINT
  8
DEFPOINTS
  6
CONTINUOUS
 62
    30
 10
-501.60000000177303
 20
-818.90061756355044
 30
0.0
  0
LINE
  8
SIZE
  6
CONTINUOUS
 62
    30
 10
-531.50000000177533
 20
-508.43427874224608
 30
0.0
 11
-531.50000000177533
 21
-987.69163234463849
 31
0.0
  0
LINE
  8
SIZE
  6
CONTINUOUS
 62
    30
 10
531.50000000176715
 20
-508.43427874224608
 30
0.0
 11
531.50000000176715
 21
-987.69163234463849
 31
0.0
  0
LINE
  8
SIZE
  6
CONTINUOUS
 62
    30
 10
-519.50000000177533
 20
-967.69163234463849
 30
0.0
 11
519.50000000176715
 21
-967.69163234463849
 31
0.0
  0
CIRCLE
  8
SIZE
  6
CONTINUOUS
 62
    30
 10
-531.50000000177533
 20
-967.69163234463849
 30
0.0
 40
6.0
  0
LINE
  8
SIZE
  6
CONTINUOUS
 62
    30
 10
-531.50000000177533
 20
-967.69163234463849
 30
0.0
 11
-519.50000000177533
 21
-967.69163234463849
 31
0.0
  0
CIRCLE
  8
SIZE
  6
CONTINUOUS
 62
    30
 10
531.50000000176715
 20
-967.69163234463849
 30
0.0
 40
6.0
  0
LINE
  8
SIZE
  6
CONTINUOUS
 62
    30
 10
531.50000000176715
 20
-967.69163234463849
 30
0.0
 11
519.50000000176715
 21
-967.69163234463849
 31
0.0
  0
TEXT
  8
SIZE
  6
CONTINUOUS
 62
    30
 10
-101.95200000000409
 20
-942.69163234463849
 30
0.0
 40
64.0
  1
1063
 50
0.0
 41
0.9
 51
0.0
  7
STANDARD
 71
     0
 72
     1
 11
-0.0000000000040927
 21
-942.69163234463849
 31
0.0
210
0.0
220
0.0
230
1.0
  0
POINT
  8
DEFPOINTS
  6
CONTINUOUS
 62
    30
 10
-531.50000000177533
 20
-488.43427874224608
 30
0.0
  0
POINT
  8
DEFPOINTS
  6
CONTINUOUS
 62
    30
 10
531.50000000176715
 20
-488.43427874224608
 30
0.0
  0
POINT
  8
DEFPOINTS
  6
CONTINUOUS
 62
    30
 10
531.50000000176715
 20
-967.69163234463849
 30
0.0
  0
LINE
  8
SIZE
  6
CONTINUOUS
 62
    30
 10
602.43427874402028
 20
437.50000000000341
 30
0.0
 11
890.70963135851457
 21
437.50000000000352
 31
0.0
  0
LINE
  8
SIZE
  6
CONTINUOUS
 62
    30
 10
602.43427874402028
 20
-437.50000000000341
 30
0.0
 11
890.7096313585148
 21
-437.50000000000341
 31
0.0
  0
LINE
  8
SIZE
  6
CONTINUOUS
 62
    30
 10
870.70963135851457
 20
425.50000000000352
 30
0.0
 11
870.7096313585148
 21
-425.50000000000341
 31
0.0
  0
CIRCLE
  8
SIZE
  6
CONTINUOUS
 62
    30
 10
870.70963135851457
 20
437.50000000000352
 30
0.0
 40
6.0
  0
LINE
  8
SIZE
  6
CONTINUOUS
 62
    30
 10
870.70963135851457
 20
437.50000000000352
 30
0.0
 11
870.70963135851457
 21
425.50000000000352
 31
0.0
  0
CIRCLE
  8
SIZE
  6
CONTINUOUS
 62
    30
 10
870.7096313585148
 20
-437.50000000000341
 30
0.0
 40
6.0
  0
LINE
  8
SIZE
  6
CONTINUOUS
 62
    30
 10
870.7096313585148
 20
-437.50000000000341
 30
0.0
 11
870.7096313585148
 21
-425.50000000000341
 31
0.0
  0
TEXT
  8
SIZE
  6
CONTINUOUS
 62
    30
 10
845.70963135851446
 20
-80.352000000000132
 30
0.0
 40
64.0
  1
875
 50
90.0
 41
0.9
 51
0.0
  7
STANDARD
 71
     0
 72
     1
 11
845.70963135851446
 21
-0.000000000000162
 31
0.0
210
0.0
220
0.0
230
1.0
  0
POINT
  8
DEFPOINTS
  6
CONTINUOUS
 62
    30
 10
582.43427874402028
 20
437.50000000000341
 30
0.0
  0
POINT
  8
DEFPOINTS
  6
CONTINUOUS
 62
    30
 10
582.43427874402028
 20
-437.50000000000341
 30
0.0
  0
POINT
  8
DEFPOINTS
  6
CONTINUOUS
 62
    30
 10
870.7096313585148
 20
-437.50000000000341
 30
0.0
  0
LINE
  8
DETAIL
  6
CONTINUOUS
 62
     5
 10
-551.5000000017717
 20
412.50000000000318
 30
0.0
 11
-551.5000000017717
 21
431.00000000000318
 31
0.0
  0
LINE
  8
DETAIL
  6
CONTINUOUS
 62
     5
 10
-551.5000000017717
 20
444.00000000000318
 30
0.0
 11
-551.5000000017717
 21
456.00000000000318
 31
0.0
  0
LINE
  8
DETAIL
  6
CONTINUOUS
 62
     5
 10
-548.30000000177461
 20
412.50000000000318
 30
0.0
 11
-548.30000000177461
 21
431.00000000000318
 31
0.0
  0
LINE
  8
DETAIL
  6
CONTINUOUS
 62
     5
 10
-501.60000000177251
 20
456.00000000000318
 30
0.0
 11
-501.6000000017716
 21
435.49999999999733
 31
0.0
  0
LINE
  8
DETAIL
  6
CONTINUOUS
 62
     5
 10
-508.00000000177118
 20
412.50000000000318
 30
0.0
 11
-551.5000000017717
 21
412.50000000000318
 31
0.0
  0
LINE
  8
DETAIL
  6
CONTINUOUS
 62
     5
 10
508.00000000177488
 20
412.50000000000318
 30
0.0
 11
551.5000000017767
 21
412.50000000000318
 31
0.0
  0
LINE
  8
DETAIL
  6
CONTINUOUS
 62
     5
 10
-531.50000000176988
 20
431.00000000000318
 30
0.0
 11
-551.5000000017717
 21
431.00000000000318
 31
0.0
  0
LINE
  8
DETAIL
  6
CONTINUOUS
 62
     5
 10
531.50000000177215
 20
431.00000000000318
 30
0.0
 11
551.5000000017767
 21
431.00000000000318
 31
0.0
  0
LINE
  8
DETAIL
  6
CONTINUOUS
 62
     5
 10
-551.5000000017717
 20
444.00000000000318
 30
0.0
 11
-531.50000000176988
 21
444.00000000000318
 31
0.0
  0
LINE
  8
DETAIL
  6
CONTINUOUS
 62
     5
 10
531.50000000177215
 20
444.00000000000318
 30
0.0
 11
551.5000000017767
 21
444.00000000000318
 31
0.0
  0
LINE
  8
DETAIL
  6
CONTINUOUS
 62
     5
 10
-551.5000000017717
 20
456.00000000000318
 30
0.0
 11
-501.60000000177251
 21
456.00000000000318
 31
0.0
  0
LINE
  8
DETAIL
  6
CONTINUOUS
 62
     5
 10
501.60000000177712
 20
456.00000000000318
 30
0.0
 11
501.60000000177621
 21
435.49999999999733
 31
0.0
  0
LINE
  8
DETAIL
  6
CONTINUOUS
 62
     5
 10
548.30000000177142
 20
412.50000000000318
 30
0.0
 11
548.30000000177142
 21
431.00000000000318
 31
0.0
  0
LINE
  8
DETAIL
  6
CONTINUOUS
 62
     5
 10
551.5000000017767
 20
412.50000000000318
 30
0.0
 11
551.5000000017767
 21
431.00000000000318
 31
0.0
  0
LINE
  8
DETAIL
  6
CONTINUOUS
 62
     5
 10
551.5000000017767
 20
444.00000000000318
 30
0.0
 11
551.5000000017767
 21
456.00000000000318
 31
0.0
  0
ARC
  8
DETAIL
  6
CONTINUOUS
 62
     5
 10
-531.50000000176988
 20
437.50000000000318
 30
0.0
 40
6.4999999999999796
 50
270.0
 51
90.0
  0
ARC
  8
DETAIL
  6
CONTINUOUS
 62
     5
 10
531.50000000177215
 20
437.50000000000318
 30
0.0
 40
6.4999999999999796
 50
90.0
 51
270.0
  0
LINE
  8
DETAIL
  6
CONTINUOUS
 62
     5
 10
501.60000000177712
 20
456.00000000000318
 30
0.0
 11
551.5000000017767
 21
456.00000000000318
 31
0.0
  0
LINE
  8
BASIS
  6
DASHDOT
 62
     6
 10
531.50000000176715
 20
488.43427874224608
 30
0.0
 11
531.50000000176715
 21
386.56572125775301
 31
0.0
  0
LINE
  8
BASIS
  6
DASHDOT
 62
     6
 10
582.43427874402005
 20
437.50000000000318
 30
0.0
 11
480.56572125952431
 21
437.50000000000318
 31
0.0
  0
LINE
  8
BASIS
  6
DASHDOT
 62
     6
 10
-531.50000000177488
 20
488.43427874224608
 30
0.0
 11
-531.50000000177488
 21
386.56572125775301
 31
0.0
  0
LINE
  8
BASIS
  6
DASHDOT
 62
     6
 10
-480.56572125952113
 20
437.50000000000318
 30
0.0
 11
-582.43427874401868
 21
437.50000000000318
 31
0.0
  0
CIRCLE
  8
FIX
  6
CONTINUOUS
 62
    11
 10
-531.50000000177488
 20
437.49999999999949
 30
0.0
 40
6.5
  0
CIRCLE
  8
FIX
  6
CONTINUOUS
 62
    11
 10
-531.50000000177533
 20
-437.49999999999949
 30
0.0
 40
6.5
  0
CIRCLE
  8
FIX
  6
CONTINUOUS
 62
    11
 10
531.50000000176715
 20
-437.50000000000318
 30
0.0
 40
6.5
  0
CIRCLE
  8
FIX
  6
CONTINUOUS
 62
    11
 10
531.50000000176715
 20
437.50000000000318
 30
0.0
 40
6.5
  0
LINE
  8
SIZE
  6
CONTINUOUS
 62
    30
 10
-531.50000000177533
 20
-508.43427874224608
 30
0.0
 11
-531.50000000177533
 21
-987.69163234463394
 31
0.0
  0
LINE
  8
SIZE
  6
CONTINUOUS
 62
    30
 10
-551.5000000017717
 20
-476.00000000000318
 30
0.0
 11
-551.5000000017717
 21
-987.69163234463394
 31
0.0
  0
LINE
  8
SIZE
  6
CONTINUOUS
 62
    30
 10
-519.50000000177533
 20
-967.69163234463394
 30
0.0
 11
-507.50000000177528
 21
-967.69163234463394
 31
0.0
  0
LINE
  8
SIZE
  6
CONTINUOUS
 62
    30
 10
-563.5000000017717
 20
-967.69163234463394
 30
0.0
 11
-718.75714285891638
 21
-967.69163234463394
 31
0.0
  0
LINE
  8
SIZE
  6
CONTINUOUS
 62
    30
 10
-531.50000000177533
 20
-967.69163234463394
 30
0.0
 11
-551.5000000017717
 21
-967.69163234463394
 31
0.0
  0
CIRCLE
  8
SIZE
  6
CONTINUOUS
 62
    30
 10
-531.50000000177533
 20
-967.69163234463394
 30
0.0
 40
6.0
  0
LINE
  8
SIZE
  6
CONTINUOUS
 62
    30
 10
-531.50000000177533
 20
-967.69163234463394
 30
0.0
 11
-519.50000000177533
 21
-967.69163234463394
 31
0.0
  0
CIRCLE
  8
SIZE
  6
CONTINUOUS
 62
    30
 10
-551.5000000017717
 20
-967.69163234463394
 30
0.0
 40
6.0
  0
LINE
  8
SIZE
  6
CONTINUOUS
 62
    30
 10
-551.5000000017717
 20
-967.69163234463394
 30
0.0
 11
-563.5000000017717
 21
-967.69163234463394
 31
0.0
  0
TEXT
  8
SIZE
  6
CONTINUOUS
 62
    30
 10
-701.2725714303449
 20
-942.69163234463394
 30
0.0
 40
64.0
  1
20
 50
0.0
 41
0.9
 51
0.0
  7
STANDARD
 71
     0
 72
     1
 11
-647.12857143034489
 21
-942.69163234463394
 31
0.0
210
0.0
220
0.0
230
1.0
  0
POINT
  8
DEFPOINTS
  6
CONTINUOUS
 62
    30
 10
-531.50000000177533
 20
-488.43427874224608
 30
0.0
  0
POINT
  8
DEFPOINTS
  6
CONTINUOUS
 62
    30
 10
-551.5000000017717
 20
-456.00000000000318
 30
0.0
  0
POINT
  8
DEFPOINTS
  6
CONTINUOUS
 62
    30
 10
-551.5000000017717
 20
-967.69163234463394
 30
0.0
  0
LINE
  8
SIZE
  6
CONTINUOUS
 62
    30
 10
-508.00000000177118
 20
450.49000000000251
 30
0.0
 11
-508.00000000177118
 21
869.57853005798916
 31
0.0
  0
LINE
  8
SIZE
  6
CONTINUOUS
 62
    30
 10
-1208.0000293542339
 20
463.99999999999051
 30
0.0
 11
-1208.0000293542339
 21
869.57853005798916
 31
0.0
  0
LINE
  8
SIZE
  6
CONTINUOUS
 62
    30
 10
-520.00000000177124
 20
849.57853005798916
 30
0.0
 11
-1196.0000293542339
 21
849.57853005798916
 31
0.0
  0
CIRCLE
  8
SIZE
  6
CONTINUOUS
 62
    30
 10
-508.00000000177118
 20
849.57853005798916
 30
0.0
 40
6.0
  0
LINE
  8
SIZE
  6
CONTINUOUS
 62
    30
 10
-508.00000000177118
 20
849.57853005798916
 30
0.0
 11
-520.00000000177124
 21
849.57853005798916
 31
0.0
  0
CIRCLE
  8
SIZE
  6
CONTINUOUS
 62
    30
 10
-1208.0000293542339
 20
849.57853005798916
 30
0.0
 40
6.0
  0
LINE
  8
SIZE
  6
CONTINUOUS
 62
    30
 10
-1208.0000293542339
 20
849.57853005798916
 30
0.0
 11
-1196.0000293542339
 21
849.57853005798916
 31
0.0
  0
TEXT
  8
SIZE
  6
CONTINUOUS
 62
    30
 10
-1179.4080146780027
 20
874.57853005798916
 30
0.0
 40
64.0
  1
more than 600
 50
0.0
 41
0.9
 51
0.0
  7
STANDARD
 71
     0
 72
     1
 11
-858.0000146780028
 21
874.57853005798916
 31
0.0
210
0.0
220
0.0
230
1.0
  0
POINT
  8
DEFPOINTS
  6
CONTINUOUS
 62
    30
 10
-508.00000000177118
 20
430.49000000000251
 30
0.0
  0
POINT
  8
DEFPOINTS
  6
CONTINUOUS
 62
    30
 10
-1208.0000293542339
 20
443.99999999999051
 30
0.0
  0
POINT
  8
DEFPOINTS
  6
CONTINUOUS
 62
    30
 10
-1208.0000293542339
 20
849.57853005798916
 30
0.0
  0
LINE
  8
SIZE
  6
CONTINUOUS
 62
    30
 10
-658.00003165324324
 20
245.25004575110231
 30
0.0
 11
-658.00003165324324
 21
737.38227839685715
 31
0.0
  0
LINE
  8
SIZE
  6
CONTINUOUS
 62
    30
 10
-508.00000000177118
 20
450.49000000000251
 30
0.0
 11
-508.00000000177118
 21
737.38227839685715
 31
0.0
  0
LINE
  8
SIZE
  6
CONTINUOUS
 62
    30
 10
-520.00000000177124
 20
717.38227839685715
 30
0.0
 11
-646.00003165324324
 21
717.38227839685715
 31
0.0
  0
LINE
  8
SIZE
  6
CONTINUOUS
 62
    30
 10
-658.00003165324324
 20
717.38227839685715
 30
0.0
 11
-1181.348603081816
 21
717.38227839685715
 31
0.0
  0
CIRCLE
  8
SIZE
  6
CONTINUOUS
 62
    30
 10
-508.00000000177118
 20
717.38227839685715
 30
0.0
 40
6.0
  0
LINE
  8
SIZE
  6
CONTINUOUS
 62
    30
 10
-508.00000000177118
 20
717.38227839685715
 30
0.0
 11
-520.00000000177124
 21
717.38227839685715
 31
0.0
  0
CIRCLE
  8
SIZE
  6
CONTINUOUS
 62
    30
 10
-658.00003165324324
 20
717.38227839685715
 30
0.0
 40
6.0
  0
LINE
  8
SIZE
  6
CONTINUOUS
 62
    30
 10
-658.00003165324324
 20
717.38227839685715
 30
0.0
 11
-646.00003165324324
 21
717.38227839685715
 31
0.0
  0
TEXT
  8
SIZE
  6
CONTINUOUS
 62
    30
 10
-1161.54631736753
 20
742.38227839685715
 30
0.0
 40
64.0
  1
150 to 250
 50
0.0
 41
0.9
 51
0.0
  7
STANDARD
 71
     0
 72
     1
 11
-925.67431736753008
 21
742.38227839685715
 31
0.0
210
0.0
220
0.0
230
1.0
  0
POINT
  8
DEFPOINTS
  6
CONTINUOUS
 62
    30
 10
-658.00003165324324
 20
225.25004575110231
 30
0.0
  0
POINT
  8
DEFPOINTS
  6
CONTINUOUS
 62
    30
 10
-508.00000000177118
 20
430.49000000000251
 30
0.0
  0
POINT
  8
DEFPOINTS
  6
CONTINUOUS
 62
    30
 10
-508.00000000177118
 20
717.38227839685715
 30
0.0
  0
LINE
  8
SERVICESPACE
  6
DASHDOT
 62
     2
 10
-658.00003165324324
 20
225.25004575110231
 30
0.0
 11
-658.00003165324324
 21
-224.74995424889769
 31
0.0
  0
LINE
  8
SERVICESPACE
  6
DASHDOT
 62
     2
 10
-658.00003165324324
 20
-224.74995424889769
 30
0.0
 11
-1108.000031653243
 21
-224.74995424889721
 31
0.0
  0
LINE
  8
SERVICESPACE
  6
DASHDOT
 62
     2
 10
-1108.000031653243
 20
-224.74995424889721
 30
0.0
 11
-1108.000031653243
 21
225.25004575110279
 31
0.0
  0
LINE
  8
SERVICESPACE
  6
DASHDOT
 62
     2
 10
-1108.000031653243
 20
225.25004575110279
 30
0.0
 11
-658.00003165324324
 21
225.25004575110231
 31
0.0
  0
POINT
  8
ARRANGE
  6
CONTINUOUS
 62
     1
 10
0.0
 20
0.0
 30
0.0
 50
270.0
  0
CIRCLE
  8
ARRANGE
  6
CONTINUOUS
 62
     1
 10
0.0
 20
0.0
 30
0.0
 40
40.0
  0
LINE
  8
OUTLINE
  6
CONTINUOUS
 62
     3
 10
508.00000000178261
 20
-412.50000000001091
 30
0.0
 11
551.50000000178443
 21
-412.50000000000091
 31
0.0
  0
LINE
  8
OUTLINE
  6
CONTINUOUS
 62
     3
 10
551.50000000178443
 20
-412.50000000000091
 30
0.0
 11
551.50000000178443
 21
-431.00000000000358
 31
0.0
  0
LINE
  8
OUTLINE
  6
CONTINUOUS
 62
     3
 10
551.50000000178443
 20
-431.00000000000358
 30
0.0
 11
531.50000000177533
 21
-431.00000000001091
 31
0.0
  0
ARC
  8
OUTLINE
  6
CONTINUOUS
 62
     3
 10
531.50000000177533
 20
-437.50000000001091
 30
0.0
 40
6.5
 50
90.0
 51
270.0
  0
LINE
  8
OUTLINE
  6
CONTINUOUS
 62
     3
 10
531.50000000177533
 20
-444.00000000001091
 30
0.0
 11
551.50000000178443
 21
-444.00000000001091
 31
0.0
  0
LINE
  8
OUTLINE
  6
CONTINUOUS
 62
     3
 10
551.50000000178443
 20
-444.00000000001091
 30
0.0
 11
551.50000000178443
 21
-456.00000000000358
 31
0.0
  0
LINE
  8
OUTLINE
  6
CONTINUOUS
 62
     3
 10
551.50000000178443
 20
-456.00000000000358
 30
0.0
 11
501.60000000178479
 21
-456.00000000000358
 31
0.0
  0
LINE
  8
OUTLINE
  6
CONTINUOUS
 62
     3
 10
501.60000000178479
 20
-456.00000000000358
 30
0.0
 11
501.59990296124312
 21
-443.97507912475697
 31
0.0
  0
ARC
  8
OUTLINE
  6
CONTINUOUS
 62
     3
 10
498.40000000177992
 20
-444.00000000000534
 30
0.0
 40
3.2000000000007298
 50
0.4462110647040731
 51
104.76826974240487
  0
LINE
  8
OUTLINE
  6
CONTINUOUS
 62
     3
 10
497.58428705954788
 20
-440.90571294223582
 30
0.0
 11
494.49000000178057
 21
-443.99999999999733
 31
0.0
  0
LINE
  8
OUTLINE
  6
CONTINUOUS
 62
     3
 10
494.49000000178057
 20
-443.99999999999733
 30
0.0
 11
476.49999999999773
 21
-443.99999999999739
 31
0.0
  0
LINE
  8
OUTLINE
  6
CONTINUOUS
 62
     3
 10
476.49999999999773
 20
-443.99999999999739
 30
0.0
 11
476.49999999999773
 21
-445.49999999999778
 31
0.0
  0
LINE
  8
OUTLINE
  6
CONTINUOUS
 62
     3
 10
476.49999999999773
 20
-445.49999999999778
 30
0.0
 11
468.49999999999773
 21
-514.40000000000327
 31
0.0
  0
LINE
  8
OUTLINE
  6
CONTINUOUS
 62
     3
 10
468.49999999999773
 20
-514.40000000000327
 30
0.0
 11
468.49999999999642
 21
-521.899999999996
 31
0.0
  0
ARC
  8
OUTLINE
  6
CONTINUOUS
 62
     3
 10
467.39999999998679
 20
-521.89999999999225
 30
0.0
 40
1.1000000000096049
 50
270.0
 51
0.0
  0
LINE
  8
OUTLINE
  6
CONTINUOUS
 62
     3
 10
467.39999999999651
 20
-523.00000000000182
 30
0.0
 11
277.59999999999633
 21
-523.00000000000182
 31
0.0
  0
ARC
  8
OUTLINE
  6
CONTINUOUS
 62
     3
 10
277.60000000000605
 20
-521.89999999999225
 30
0.0
 40
1.1000000000096046
 50
180.0
 51
270.0
  0
LINE
  8
OUTLINE
  6
CONTINUOUS
 62
     3
 10
276.49999999999642
 20
-521.899999999996
 30
0.0
 11
276.49999999999858
 21
-514.40000000000327
 31
0.0
  0
LINE
  8
OUTLINE
  6
CONTINUOUS
 62
     3
 10
276.49999999999858
 20
-514.40000000000327
 30
0.0
 11
268.49999999999591
 21
-445.50000000000529
 31
0.0
  0
LINE
  8
OUTLINE
  6
CONTINUOUS
 62
     3
 10
268.49999999999591
 20
-445.50000000000529
 30
0.0
 11
268.49999999999591
 21
-443.99999999999898
 31
0.0
  0
LINE
  8
OUTLINE
  6
CONTINUOUS
 62
     3
 10
268.49999999999591
 20
-443.99999999999898
 30
0.0
 11
-268.49999999999909
 21
-444.00000000000279
 31
0.0
  0
LINE
  8
OUTLINE
  6
CONTINUOUS
 62
     3
 10
-268.49999999999909
 20
-444.00000000000279
 30
0.0
 11
-268.49999999999909
 21
-445.60000000000309
 31
0.0
  0
LINE
  8
OUTLINE
  6
CONTINUOUS
 62
     3
 10
-268.49999999999909
 20
-445.60000000000309
 30
0.0
 11
-276.50000000000358
 21
-514.40000000000327
 31
0.0
  0
LINE
  8
OUTLINE
  6
CONTINUOUS
 62
     3
 10
-276.50000000000358
 20
-514.40000000000327
 30
0.0
 11
-276.50000000000358
 21
-521.899999999996
 31
0.0
  0
ARC
  8
OUTLINE
  6
CONTINUOUS
 62
     3
 10
-277.60000000000593
 20
-521.89999999999952
 30
0.0
 40
1.1000000000023273
 50
270.0
 51
0.0
  0
LINE
  8
OUTLINE
  6
CONTINUOUS
 62
     3
 10
-277.59999999999951
 20
-523.00000000000182
 30
0.0
 11
-467.39999999999958
 21
-523.00000000000182
 31
0.0
  0
ARC
  8
OUTLINE
  6
CONTINUOUS
 62
     3
 10
-467.39999999999026
 20
-521.89999999999259
 30
0.0
 40
1.1000000000092167
 50
180.0
 51
270.0
  0
LINE
  8
OUTLINE
  6
CONTINUOUS
 62
     3
 10
-468.49999999999949
 20
-521.899999999996
 30
0.0
 11
-468.5
 21
-514.40000000000327
 31
0.0
  0
LINE
  8
OUTLINE
  6
CONTINUOUS
 62
     3
 10
-468.5
 20
-514.40000000000327
 30
0.0
 11
-476.5
 21
-445.60000000000309
 31
0.0
  0
LINE
  8
OUTLINE
  6
CONTINUOUS
 62
     3
 10
-476.5
 20
-445.60000000000309
 30
0.0
 11
-476.5
 21
-443.99999999999733
 31
0.0
  0
LINE
  8
OUTLINE
  6
CONTINUOUS
 62
     3
 10
-476.5
 20
-443.99999999999733
 30
0.0
 11
-494.49000000175062
 21
-444.00000000000409
 31
0.0
  0
LINE
  8
OUTLINE
  6
CONTINUOUS
 62
     3
 10
-494.49000000175062
 20
-444.00000000000409
 30
0.0
 11
-497.58428705958522
 21
-440.90571294222451
 31
0.0
  0
ARC
  8
OUTLINE
  6
CONTINUOUS
 62
     3
 10
-498.40000000177565
 20
-444.0000000000046
 30
0.0
 40
3.200000000000379
 50
75.231730258363825
 51
179.55378893530201
  0
LINE
  8
OUTLINE
  6
CONTINUOUS
 62
     3
 10
-501.59990296123851
 20
-443.97507912475658
 30
0.0
 11
-501.60000000177303
 21
-456.00000000000318
 31
0.0
  0
LINE
  8
OUTLINE
  6
CONTINUOUS
 62
     3
 10
-501.60000000177303
 20
-456.00000000000318
 30
0.0
 11
-551.50000000177079
 21
-456.00000000000318
 31
0.0
  0
LINE
  8
OUTLINE
  6
CONTINUOUS
 62
     3
 10
-551.50000000177079
 20
-456.00000000000318
 30
0.0
 11
-551.50000000177079
 21
-444.00000000000409
 31
0.0
  0
LINE
  8
OUTLINE
  6
CONTINUOUS
 62
     3
 10
-551.50000000177079
 20
-444.00000000000409
 30
0.0
 11
-531.50000000177079
 21
-444.00000000000318
 31
0.0
  0
ARC
  8
OUTLINE
  6
CONTINUOUS
 62
     3
 10
-531.50000000177079
 20
-437.50000000000318
 30
0.0
 40
6.5
 50
270.0
 51
90.0
  0
LINE
  8
OUTLINE
  6
CONTINUOUS
 62
     3
 10
-531.50000000177079
 20
-431.00000000000318
 30
0.0
 11
-551.50000000177079
 21
-431.00000000000227
 31
0.0
  0
LINE
  8
OUTLINE
  6
CONTINUOUS
 62
     3
 10
-551.50000000177079
 20
-431.00000000000227
 30
0.0
 11
-551.50000000177079
 21
-412.50000000001052
 31
0.0
  0
LINE
  8
OUTLINE
  6
CONTINUOUS
 62
     3
 10
-551.50000000177079
 20
-412.50000000001052
 30
0.0
 11
-508.00000000177079
 21
-412.50000000001052
 31
0.0
  0
LINE
  8
OUTLINE
  6
CONTINUOUS
 62
     3
 10
-508.00000000177079
 20
-412.50000000001052
 30
0.0
 11
-508.00000000177079
 21
-373.30000000000251
 31
0.0
  0
LINE
  8
OUTLINE
  6
CONTINUOUS
 62
     3
 10
-508.00000000177079
 20
-373.30000000000251
 30
0.0
 11
-552.09000000175456
 21
-373.3001000100121
 31
0.0
  0
ARC
  8
OUTLINE
  6
CONTINUOUS
 62
     3
 10
-552.09000000175456
 20
-373.8001000100121
 30
0.0
 40
0.4999999999999902
 50
0.0
 51
90.0
  0
LINE
  8
OUTLINE
  6
CONTINUOUS
 62
     3
 10
-551.59000000175456
 20
-373.8001000100121
 30
0.0
 11
-551.59000000175456
 21
-373.92459981002139
 31
0.0
  0
ARC
  8
OUTLINE
  6
CONTINUOUS
 62
     3
 10
-552.0900000017549
 20
-373.92459980986149
 30
0.0
 40
0.5000000000003736
 50
231.31781256422187
 51
0.0
  0
ARC
  8
OUTLINE
  6
CONTINUOUS
 62
     3
 10
-551.59000000175627
 20
-373.30010001001898
 30
0.0
 40
1.3000000000016756
 50
209.40091418835493
 51
231.3178125534431
  0
LINE
  8
OUTLINE
  6
CONTINUOUS
 62
     3
 10
-552.72256777360872
 20
-373.93829296059539
 30
0.0
 11
-557.90000000177588
 21
-376.8494310026681
 31
0.0
  0
LINE
  8
OUTLINE
  6
CONTINUOUS
 62
     3
 10
-557.90000000177588
 20
-376.8494310026681
 30
0.0
 11
-557.90000000177588
 21
-380.449431002663
 31
0.0
  0
LINE
  8
OUTLINE
  6
CONTINUOUS
 62
     3
 10
-557.90000000177588
 20
-380.449431002663
 30
0.0
 11
-555.90000000177224
 21
-380.449431002663
 31
0.0
  0
LINE
  8
OUTLINE
  6
CONTINUOUS
 62
     3
 10
-555.90000000177224
 20
-380.449431002663
 30
0.0
 11
-555.90000000177224
 21
-384.29943100266519
 31
0.0
  0
LINE
  8
OUTLINE
  6
CONTINUOUS
 62
     3
 10
-555.90000000177224
 20
-384.29943100266519
 30
0.0
 11
-557.60000000177297
 21
-384.29943100266519
 31
0.0
  0
LINE
  8
OUTLINE
  6
CONTINUOUS
 62
     3
 10
-557.60000000177297
 20
-384.29943100266519
 30
0.0
 11
-557.60000000177297
 21
-401.89943100266782
 31
0.0
  0
LINE
  8
OUTLINE
  6
CONTINUOUS
 62
     3
 10
-557.60000000177297
 20
-401.89943100266782
 30
0.0
 11
-565.60000000177297
 21
-401.89943100266782
 31
0.0
  0
LINE
  8
OUTLINE
  6
CONTINUOUS
 62
     3
 10
-565.60000000177297
 20
-401.89943100266782
 30
0.0
 11
-565.60000000177297
 21
-384.29943100266519
 31
0.0
  0
LINE
  8
OUTLINE
  6
CONTINUOUS
 62
     3
 10
-565.60000000177297
 20
-384.29943100266519
 30
0.0
 11
-567.30000000177006
 21
-384.29943100266519
 31
0.0
  0
LINE
  8
OUTLINE
  6
CONTINUOUS
 62
     3
 10
-567.30000000177006
 20
-384.29943100266519
 30
0.0
 11
-567.30000000177006
 21
-380.699431002663
 31
0.0
  0
LINE
  8
OUTLINE
  6
CONTINUOUS
 62
     3
 10
-567.30000000177006
 20
-380.699431002663
 30
0.0
 11
-565.30000000177733
 21
-380.699431002663
 31
0.0
  0
LINE
  8
OUTLINE
  6
CONTINUOUS
 62
     3
 10
-565.30000000177733
 20
-380.699431002663
 30
0.0
 11
-565.30000000177733
 21
-376.39943100266419
 31
0.0
  0
LINE
  8
OUTLINE
  6
CONTINUOUS
 62
     3
 10
-565.30000000177733
 20
-376.39943100266419
 30
0.0
 11
-570.4335652715481
 21
-373.87339094911198
 31
0.0
  0
ARC
  8
OUTLINE
  6
CONTINUOUS
 62
     3
 10
-571.60000000179343
 20
-373.29943100270435
 30
0.0
 40
1.3000000000010892
 50
308.68274796756214
 51
333.79988516739331
  0
ARC
  8
OUTLINE
  6
CONTINUOUS
 62
     3
 10
-571.10000000177513
 20
-373.92393080265879
 30
0.0
 40
0.4999999999996746
 50
180.0
 51
308.68364479664842
  0
LINE
  8
OUTLINE
  6
CONTINUOUS
 62
     3
 10
-571.60000000177479
 20
-373.92393080265862
 30
0.0
 11
-571.60000000177479
 21
-373.79943100265842
 31
0.0
  0
ARC
  8
OUTLINE
  6
CONTINUOUS
 62
     3
 10
-571.10000000177502
 20
-373.7994310026582
 30
0.0
 40
0.4999999999997962
 50
90.0
 51
180.0
  0
LINE
  8
OUTLINE
  6
CONTINUOUS
 62
     3
 10
-571.10000000177479
 20
-373.29943100265842
 30
0.0
 11
-578.80000000179007
 21
-373.30000000000558
 31
0.0
  0
ARC
  8
OUTLINE
  6
CONTINUOUS
 62
     3
 10
-581.80000000178995
 20
-373.30000000000564
 30
0.0
 40
2.9999999999999418
 50
270.0
 51
0.0
  0
LINE
  8
OUTLINE
  6
CONTINUOUS
 62
     3
 10
-581.80000000179007
 20
-376.30000000000558
 30
0.0
 11
-607.80000000179189
 21
-376.30000000000558
 31
0.0
  0
ARC
  8
OUTLINE
  6
CONTINUOUS
 62
     3
 10
-607.80000000179155
 20
-373.30000000000524
 30
0.0
 40
3.00000000000033
 50
180.0
 51
270.0
  0
LINE
  8
OUTLINE
  6
CONTINUOUS
 62
     3
 10
-610.80000000179189
 20
-373.30000000000558
 30
0.0
 11
-615.00000000177624
 21
-373.30000000000109
 31
0.0
  0
ARC
  8
OUTLINE
  6
CONTINUOUS
 62
     3
 10
-615.00000000177647
 20
-371.70000000000101
 30
0.0
 40
1.6000000000000858
 50
180.0
 51
270.0
  0
LINE
  8
OUTLINE
  6
CONTINUOUS
 62
     3
 10
-616.60000000177661
 20
-371.70000000000118
 30
0.0
 11
-616.60000000178024
 21
-369.30000000000251
 31
0.0
  0
LINE
  8
OUTLINE
  6
CONTINUOUS
 62
     3
 10
-616.60000000178024
 20
-369.30000000000251
 30
0.0
 11
-617.20000000177515
 21
-369.30000000000251
 31
0.0
  0
LINE
  8
OUTLINE
  6
CONTINUOUS
 62
     3
 10
-617.20000000177515
 20
-369.30000000000251
 30
0.0
 11
-617.20000000177515
 21
-211.50000000000679
 31
0.0
  0
LINE
  8
OUTLINE
  6
CONTINUOUS
 62
     3
 10
-617.20000000177515
 20
-211.50000000000679
 30
0.0
 11
-617.80000000177733
 21
-211.50000000000679
 31
0.0
  0
LINE
  8
OUTLINE
  6
CONTINUOUS
 62
     3
 10
-617.80000000177733
 20
-211.50000000000679
 30
0.0
 11
-617.80000000177915
 21
-200.10000000000949
 31
0.0
  0
ARC
  8
OUTLINE
  6
CONTINUOUS
 62
     3
 10
-616.60000000177968
 20
-200.10000000000909
 30
0.0
 40
1.1999999999994819
 50
90.0
 51
180.0
  0
LINE
  8
OUTLINE
  6
CONTINUOUS
 62
     3
 10
-616.60000000178024
 20
-198.90000000000961
 30
0.0
 11
-508.00000000177079
 21
-198.900000000001
 31
0.0
  0
LINE
  8
OUTLINE
  6
CONTINUOUS
 62
     3
 10
-508.00000000177079
 20
-198.900000000001
 30
0.0
 11
-508.00000000177079
 21
-179.00000000000409
 31
0.0
  0
LINE
  8
OUTLINE
  6
CONTINUOUS
 62
     3
 10
-508.00000000177079
 20
-179.00000000000409
 30
0.0
 11
-519.60000000176933
 21
-179.00000000000409
 31
0.0
  0
ARC
  8
OUTLINE
  6
CONTINUOUS
 62
     3
 10
-519.60000000176751
 20
-176.60000000000258
 30
0.0
 40
2.4000000000015254
 50
149.94463625953671
 51
270.0
  0
LINE
  8
OUTLINE
  6
CONTINUOUS
 62
     3
 10
-521.67730046523775
 20
-175.39799218618691
 30
0.0
 11
-535.60000000177661
 21
-175.40000000000549
 31
0.0
  0
ARC
  8
OUTLINE
  6
CONTINUOUS
 62
     3
 10
-535.60000000177661
 20
-174.800000000007
 30
0.0
 40
0.5999999999985022
 50
90.0
 51
270.0
  0
LINE
  8
OUTLINE
  6
CONTINUOUS
 62
     3
 10
-535.60000000177661
 20
-174.20000000000849
 30
0.0
 11
-520.56966294443828
 21
-174.20000000000849
 31
0.0
  0
LINE
  8
OUTLINE
  6
CONTINUOUS
 62
     3
 10
-520.56966294443828
 20
-174.20000000000849
 30
0.0
 11
-516.87920730843962
 21
-170.63616841866721
 31
0.0
  0
LINE
  8
OUTLINE
  6
CONTINUOUS
 62
     3
 10
-516.87920730843962
 20
-170.63616841866721
 30
0.0
 11
-516.0456172644399
 21
-171.49937618000379
 31
0.0
  0
LINE
  8
OUTLINE
  6
CONTINUOUS
 62
     3
 10
-516.0456172644399
 20
-171.49937618000379
 30
0.0
 11
-518.84219509644117
 21
-174.20000000000849
 31
0.0
  0
LINE
  8
OUTLINE
  6
CONTINUOUS
 62
     3
 10
-518.84219509644117
 20
-174.20000000000849
 30
0.0
 11
-515.70000000177151
 21
-174.20000000000849
 31
0.0
  0
LINE
  8
OUTLINE
  6
CONTINUOUS
 62
     3
 10
-515.70000000177151
 20
-174.20000000000849
 30
0.0
 11
-515.70000000177333
 21
173.19999999999121
 31
0.0
  0
LINE
  8
OUTLINE
  6
CONTINUOUS
 62
     3
 10
-515.70000000177333
 20
173.19999999999121
 30
0.0
 11
-521.60000000177661
 21
173.19999999999209
 31
0.0
  0
ARC
  8
OUTLINE
  6
CONTINUOUS
 62
     3
 10
-521.60000000178252
 20
172.20000000000297
 30
0.0
 40
0.9999999999891122
 50
90.0
 51
180.0
  0
LINE
  8
OUTLINE
  6
CONTINUOUS
 62
     3
 10
-522.6000000017716
 20
172.19999999999229
 30
0.0
 11
-522.6000000017716
 21
171.69999999999439
 31
0.0
  0
LINE
  8
OUTLINE
  6
CONTINUOUS
 62
     3
 10
-522.6000000017716
 20
171.69999999999439
 30
0.0
 11
-523.70000000177697
 21
171.69999999999251
 31
0.0
  0
LINE
  8
OUTLINE
  6
CONTINUOUS
 62
     3
 10
-523.70000000177697
 20
171.69999999999251
 30
0.0
 11
-523.70000000177697
 21
168.19999999999621
 31
0.0
  0
LINE
  8
OUTLINE
  6
CONTINUOUS
 62
     3
 10
-523.70000000177697
 20
168.19999999999621
 30
0.0
 11
-526.70000000177515
 21
168.19999999999621
 31
0.0
  0
LINE
  8
OUTLINE
  6
CONTINUOUS
 62
     3
 10
-526.70000000177515
 20
168.19999999999621
 30
0.0
 11
-526.70000000177515
 21
171.69999999999251
 31
0.0
  0
LINE
  8
OUTLINE
  6
CONTINUOUS
 62
     3
 10
-526.70000000177515
 20
171.69999999999251
 30
0.0
 11
-527.80000000177415
 21
171.69999999999439
 31
0.0
  0
LINE
  8
OUTLINE
  6
CONTINUOUS
 62
     3
 10
-527.80000000177415
 20
171.69999999999439
 30
0.0
 11
-527.80000000177415
 21
172.19999999999439
 31
0.0
  0
ARC
  8
OUTLINE
  6
CONTINUOUS
 62
     3
 10
-528.80000000176869
 20
172.19999999999754
 30
0.0
 40
0.9999999999945464
 50
0.0
 51
90.0
  0
LINE
  8
OUTLINE
  6
CONTINUOUS
 62
     3
 10
-528.80000000177552
 20
173.19999999999209
 30
0.0
 11
-536.08378488033395
 21
173.19999999999479
 31
0.0
  0
LINE
  8
OUTLINE
  6
CONTINUOUS
 62
     3
 10
-536.08378488033395
 20
173.19999999999479
 30
0.0
 11
-527.29376844225681
 21
161.53525420397139
 31
0.0
  0
ARC
  8
OUTLINE
  6
CONTINUOUS
 62
     3
 10
-530.2869340292051
 20
159.25347101381712
 30
0.0
 40
3.7637182091334083
 50
336.68059969579599
 51
37.319400291599663
  0
LINE
  8
OUTLINE
  6
CONTINUOUS
 62
     3
 10
-526.83066493777096
 20
157.76357882799991
 30
0.0
 11
-535.3119018790976
 21
137.78303671201411
 31
0.0
  0
ARC
  8
OUTLINE
  6
CONTINUOUS
 62
     3
 10
-536.32445721782824
 20
138.21284095335204
 30
0.0
 40
1.0999999999381822
 50
156.9999999986469
 51
336.99999999864826
  0
LINE
  8
OUTLINE
  6
CONTINUOUS
 62
     3
 10
-537.33701255655888
 20
138.64264519469
 30
0.0
 11
-528.8557756151049
 21
158.62318731066401
 31
0.0
  0
ARC
  8
OUTLINE
  6
CONTINUOUS
 62
     3
 10
-530.32858337945424
 20
159.24835711639284
 30
0.0
 40
1.5999999989758238
 50
336.99999997875307
 51
37.000000009780308
  0
LINE
  8
OUTLINE
  6
CONTINUOUS
 62
     3
 10
-529.05076656436086
 20
160.2112611530379
 30
0.0
 11
-532.0564968773424
 21
164.19999999999479
 31
0.0
  0
LINE
  8
OUTLINE
  6
CONTINUOUS
 62
     3
 10
-532.0564968773424
 20
164.19999999999479
 30
0.0
 11
-537.20000000177697
 21
164.199999999993
 31
0.0
  0
LINE
  8
OUTLINE
  6
CONTINUOUS
 62
     3
 10
-537.20000000177697
 20
164.199999999993
 30
0.0
 11
-537.20000000177379
 21
163.09999999999579
 31
0.0
  0
LINE
  8
OUTLINE
  6
CONTINUOUS
 62
     3
 10
-537.20000000177379
 20
163.09999999999579
 30
0.0
 11
-537.70000000177106
 21
163.09999999999579
 31
0.0
  0
ARC
  8
OUTLINE
  6
CONTINUOUS
 62
     3
 10
-537.70000000176947
 20
162.09999999999198
 30
0.0
 40
1.0000000000038134
 50
90.0
 51
180.0
  0
LINE
  8
OUTLINE
  6
CONTINUOUS
 62
     3
 10
-538.70000000177333
 20
162.099999999989
 30
0.0
 11
-538.70000000177697
 21
159.199999999998
 31
0.0
  0
LINE
  8
OUTLINE
  6
CONTINUOUS
 62
     3
 10
-538.70000000177697
 20
159.199999999998
 30
0.0
 11
-543.70000000177515
 21
159.19999999999479
 31
0.0
  0
ARC
  8
OUTLINE
  6
CONTINUOUS
 62
     3
 10
-543.70000000177527
 20
162.19999999999473
 30
0.0
 40
2.9999999999999418
 50
180.0
 51
270.0
  0
LINE
  8
OUTLINE
  6
CONTINUOUS
 62
     3
 10
-546.70000000177515
 20
162.19999999999479
 30
0.0
 11
-546.70000000177515
 21
169.1999999999957
 31
0.0
  0
ARC
  8
OUTLINE
  6
CONTINUOUS
 62
     3
 10
-543.70000000177515
 20
169.1999999999953
 30
0.0
 40
2.9999999999999898
 50
90.0
 51
180.0
  0
LINE
  8
OUTLINE
  6
CONTINUOUS
 62
     3
 10
-543.70000000177515
 20
172.1999999999953
 30
0.0
 11
-539.70000000177333
 21
172.19999999999251
 31
0.0
  0
ARC
  8
OUTLINE
  6
CONTINUOUS
 62
     3
 10
-537.70000000179198
 20
172.20000000000439
 30
0.0
 40
1.9999999999813503
 50
120.19745066640007
 51
180.0
  0
ARC
  8
OUTLINE
  6
CONTINUOUS
 62
     3
 10
-534.89115142725882
 20
174.31751875627069
 30
0.0
 40
3.834585947873792
 50
103.54998164616666
 51
185.82125691649117
  0
LINE
  8
OUTLINE
  6
CONTINUOUS
 62
     3
 10
-535.78957005243774
 20
178.0453724773229
 30
0.0
 11
-528.58445498477613
 21
178.93218153705271
 31
0.0
  0
ARC
  8
OUTLINE
  6
CONTINUOUS
 62
     3
 10
-528.0299517031068
 20
178.09999999999738
 30
0.0
 40
0.9999999999989142
 50
90.0
 51
123.67650887065548
  0
LINE
  8
OUTLINE
  6
CONTINUOUS
 62
     3
 10
-528.02995170310624
 20
179.0999999999963
 30
0.0
 11
-527.20031816843857
 21
179.0999999999963
 31
0.0
  0
LINE
  8
OUTLINE
  6
CONTINUOUS
 62
     3
 10
-527.20031816843857
 20
179.0999999999963
 30
0.0
 11
-523.52814495377334
 21
179.5508861746616
 31
0.0
  0
LINE
  8
OUTLINE
  6
CONTINUOUS
 62
     3
 10
-523.52814495377334
 20
179.5508861746616
 30
0.0
 11
-508.00000000177079
 21
181.4575026346624
 31
0.0
  0
LINE
  8
OUTLINE
  6
CONTINUOUS
 62
     3
 10
-508.00000000177079
 20
181.4575026346624
 30
0.0
 11
-508.00000000177079
 21
412.49999999999642
 31
0.0
  0
LINE
  8
OUTLINE
  6
CONTINUOUS
 62
     3
 10
-508.00000000177079
 20
412.49999999999642
 30
0.0
 11
-551.50000000177079
 21
412.50000000000682
 31
0.0
  0
LINE
  8
OUTLINE
  6
CONTINUOUS
 62
     3
 10
-551.50000000177079
 20
412.50000000000682
 30
0.0
 11
-551.50000000177079
 21
430.99999999999591
 31
0.0
  0
LINE
  8
OUTLINE
  6
CONTINUOUS
 62
     3
 10
-551.50000000177079
 20
430.99999999999591
 30
0.0
 11
-531.50000000177079
 21
430.99999999999773
 31
0.0
  0
ARC
  8
OUTLINE
  6
CONTINUOUS
 62
     3
 10
-531.50000000177079
 20
437.49999999999773
 30
0.0
 40
6.5
 50
270.0
 51
90.0
  0
LINE
  8
OUTLINE
  6
CONTINUOUS
 62
     3
 10
-531.50000000177079
 20
443.99999999999773
 30
0.0
 11
-551.50000000177079
 21
443.99999999999642
 31
0.0
  0
LINE
  8
OUTLINE
  6
CONTINUOUS
 62
     3
 10
-551.50000000177079
 20
443.99999999999642
 30
0.0
 11
-551.50000000177079
 21
455.99999999999642
 31
0.0
  0
LINE
  8
OUTLINE
  6
CONTINUOUS
 62
     3
 10
-551.50000000177079
 20
455.99999999999642
 30
0.0
 11
-501.60000000177303
 21
455.99999999999642
 31
0.0
  0
LINE
  8
OUTLINE
  6
CONTINUOUS
 62
     3
 10
-501.60000000177303
 20
455.99999999999642
 30
0.0
 11
-501.59990296123851
 21
443.97507912473748
 31
0.0
  0
ARC
  8
OUTLINE
  6
CONTINUOUS
 62
     3
 10
-498.40000000177577
 20
443.99999999999034
 30
0.0
 40
3.2000000000002928
 50
180.44621106478451
 51
284.76826974234586
  0
LINE
  8
OUTLINE
  6
CONTINUOUS
 62
     3
 10
-497.58428705954702
 20
440.90571294222042
 30
0.0
 11
-494.49000000177779
 21
443.99999999999051
 31
0.0
  0
LINE
  8
OUTLINE
  6
CONTINUOUS
 62
     3
 10
-494.49000000177779
 20
443.99999999999051
 30
0.0
 11
-476.00000000177261
 21
443.99999999999233
 31
0.0
  0
LINE
  8
OUTLINE
  6
CONTINUOUS
 62
     3
 10
-476.00000000177261
 20
443.99999999999233
 30
0.0
 11
-476.00000000177442
 21
445.49999999999233
 31
0.0
  0
LINE
  8
OUTLINE
  6
CONTINUOUS
 62
     3
 10
-476.00000000177442
 20
445.49999999999233
 30
0.0
 11
-468.5
 21
514.399999999996
 31
0.0
  0
LINE
  8
OUTLINE
  6
CONTINUOUS
 62
     3
 10
-468.5
 20
514.399999999996
 30
0.0
 11
-468.5
 21
521.899999999996
 31
0.0
  0
ARC
  8
OUTLINE
  6
CONTINUOUS
 62
     3
 10
-467.40000000000225
 20
521.89999999999679
 30
0.0
 40
1.0999999999977663
 50
90.0
 51
180.0
  0
LINE
  8
OUTLINE
  6
CONTINUOUS
 62
     3
 10
-467.39999999999958
 20
522.99999999999454
 30
0.0
 11
-277.59999999999951
 21
522.99999999999454
 31
0.0
  0
ARC
  8
OUTLINE
  6
CONTINUOUS
 62
     3
 10
-277.59999999999638
 20
521.8999999999977
 30
0.0
 40
1.0999999999968926
 50
0.0
 51
90.0
  0
LINE
  8
OUTLINE
  6
CONTINUOUS
 62
     3
 10
-276.49999999999949
 20
521.899999999996
 30
0.0
 11
-276.50000000000358
 21
514.399999999996
 31
0.0
  0
LINE
  8
OUTLINE
  6
CONTINUOUS
 62
     3
 10
-276.50000000000358
 20
514.399999999996
 30
0.0
 11
-268.49999999999909
 21
445.49999999999159
 31
0.0
  0
LINE
  8
OUTLINE
  6
CONTINUOUS
 62
     3
 10
-268.49999999999909
 20
445.49999999999159
 30
0.0
 11
-268.49999999999909
 21
443.99999999999159
 31
0.0
  0
LINE
  8
OUTLINE
  6
CONTINUOUS
 62
     3
 10
-268.49999999999909
 20
443.99999999999159
 30
0.0
 11
268.49999999999051
 21
443.99999999998499
 31
0.0
  0
LINE
  8
OUTLINE
  6
CONTINUOUS
 62
     3
 10
268.49999999999051
 20
443.99999999998499
 30
0.0
 11
268.49999999999051
 21
445.49999999998232
 31
0.0
  0
LINE
  8
OUTLINE
  6
CONTINUOUS
 62
     3
 10
268.49999999999051
 20
445.49999999998232
 30
0.0
 11
276.49999999999909
 21
514.399999999996
 31
0.0
  0
LINE
  8
OUTLINE
  6
CONTINUOUS
 62
     3
 10
276.49999999999909
 20
514.399999999996
 30
0.0
 11
276.49999999999682
 21
521.899999999996
 31
0.0
  0
ARC
  8
OUTLINE
  6
CONTINUOUS
 62
     3
 10
277.59999999999593
 20
521.89999999999679
 30
0.0
 40
1.0999999999991243
 50
90.0
 51
180.0
  0
LINE
  8
OUTLINE
  6
CONTINUOUS
 62
     3
 10
277.59999999999673
 20
522.99999999999591
 30
0.0
 11
467.39999999999691
 21
522.99999999866304
 31
0.0
  0
ARC
  8
OUTLINE
  6
CONTINUOUS
 62
     3
 10
467.39999999998685
 20
521.89999999865165
 30
0.0
 40
1.1000000000113515
 50
0.0
 51
90.0
  0
LINE
  8
OUTLINE
  6
CONTINUOUS
 62
     3
 10
468.49999999999818
 20
521.89999999865722
 30
0.0
 11
468.49999999999818
 21
514.3999999986645
 31
0.0
  0
LINE
  8
OUTLINE
  6
CONTINUOUS
 62
     3
 10
468.49999999999818
 20
514.3999999986645
 30
0.0
 11
476.50000000000551
 21
445.49999999999
 31
0.0
  0
LINE
  8
OUTLINE
  6
CONTINUOUS
 62
     3
 10
476.50000000000551
 20
445.49999999999
 30
0.0
 11
476.49999999999818
 21
443.99999999999
 31
0.0
  0
LINE
  8
OUTLINE
  6
CONTINUOUS
 62
     3
 10
476.49999999999818
 20
443.99999999999
 30
0.0
 11
494.49000000176738
 21
443.99999999999773
 31
0.0
  0
LINE
  8
OUTLINE
  6
CONTINUOUS
 62
     3
 10
494.49000000176738
 20
443.99999999999773
 30
0.0
 11
497.58428703486561
 21
440.90571294873422
 31
0.0
  0
ARC
  8
OUTLINE
  6
CONTINUOUS
 62
     3
 10
498.40000000177332
 20
443.9999999999975
 30
0.0
 40
3.1999999999994992
 50
255.23172980067898
 51
359.55378893521845
  0
LINE
  8
OUTLINE
  6
CONTINUOUS
 62
     3
 10
501.59990296123527
 20
443.97507912474481
 30
0.0
 11
501.60000000177712
 21
456.00000000000318
 31
0.0
  0
LINE
  8
OUTLINE
  6
CONTINUOUS
 62
     3
 10
501.60000000177712
 20
456.00000000000318
 30
0.0
 11
551.50000000178034
 21
455.99999999999233
 31
0.0
  0
LINE
  8
OUTLINE
  6
CONTINUOUS
 62
     3
 10
551.50000000178034
 20
455.99999999999233
 30
0.0
 11
551.50000000178034
 21
443.99999999998948
 31
0.0
  0
LINE
  8
OUTLINE
  6
CONTINUOUS
 62
     3
 10
551.50000000178034
 20
443.99999999998948
 30
0.0
 11
531.50000000178215
 21
443.99999999999091
 31
0.0
  0
ARC
  8
OUTLINE
  6
CONTINUOUS
 62
     3
 10
531.50000000178215
 20
437.49999999999091
 30
0.0
 40
6.5
 50
90.0
 51
270.0
  0
LINE
  8
OUTLINE
  6
CONTINUOUS
 62
     3
 10
531.50000000178215
 20
430.99999999999091
 30
0.0
 11
551.50000000178034
 21
430.99999999998909
 31
0.0
  0
LINE
  8
OUTLINE
  6
CONTINUOUS
 62
     3
 10
551.50000000178034
 20
430.99999999998909
 30
0.0
 11
551.50000000178034
 21
412.5
 31
0.0
  0
LINE
  8
OUTLINE
  6
CONTINUOUS
 62
     3
 10
551.50000000178034
 20
412.5
 30
0.0
 11
508.00000000177488
 21
412.50000000000318
 31
0.0
  0
LINE
  8
OUTLINE
  6
CONTINUOUS
 62
     3
 10
508.00000000177488
 20
412.50000000000318
 30
0.0
 11
508.00000000178261
 21
-412.50000000001091
 31
0.0
  0
TEXT
  8
NOTE
  6
CONTINUOUS
 62
     4
 10
-424.62263920041369
 20
-603.66742605412765
 30
0.0
 40
64.065641025638456
  1
SA
 41
0.9
  0
TEXT
  8
NOTE
  6
CONTINUOUS
 62
     4
 10
322.4452790480791
 20
-603.66742605412765
 30
0.0
 40
64.065641025638456
  1
RA
 41
0.9
  0
TEXT
  8
NOTE
  6
CONTINUOUS
 62
     4
 10
-424.62263920041369
 20
539.6017850284893
 30
0.0
 40
64.065641025638456
  1
OA
 41
0.9
  0
TEXT
  8
NOTE
  6
CONTINUOUS
 62
     4
 10
326.97868624618792
 20
539.6017850284893
 30
0.0
 40
64.065641025638456
  1
EA
 41
0.9
  0
TEXT
  8
ETC
  6
CONTINUOUS
 62
    61
 10
902.65766554493894
 20
1262.207687185746
 30
0.0
 40
64.065641025638456
  1
LGH-50RVX3-E_1
 41
0.9
  0
TEXT
  8
ETC
  6
CONTINUOUS
 62
    61
 10
898.46737821775969
 20
1144.1313973657759
 30
0.0
 40
64.065641025638456
  1
LOSSNAY
 41
0.9
  0
TEXT
  8
ETC
  6
CONTINUOUS
 62
    61
 10
949.22077790041476
 20
1035.8717026612098
 30
0.0
 40
40.041025641024042
  1
LGH-50RVX3-E
 50
0.0
 41
0.9
 51
0.0
  7
STANDARD
 71
     0
 11
0.0
 21
0.0
 31
0.0
210
0.0
220
0.0
230
1.0
  0
TEXT
  8
NOTE
  6
CONTINUOUS
 62
     4
 10
-1100.4883627748109
 20
127.83538164840809
 30
0.0
 40
64.0
  1
Inspection
 50
0.0
 41
0.9
 51
0.0
  7
STANDARD
 71
     0
 72
     1
 11
-882.47236277481079
 21
127.83538164840809
 31
0.0
210
0.0
220
0.0
230
1.0
  0
TEXT
  8
NOTE
  6
CONTINUOUS
 62
     4
 10
-1048.0723627748107
 20
22.235381648408094
 30
0.0
 40
64.0
  1
opening
 50
0.0
 41
0.9
 51
0.0
  7
STANDARD
 71
     0
 72
     1
 11
-882.47236277481068
 21
22.235381648408094
 31
0.0
210
0.0
220
0.0
230
1.0
  0
TEXT
  8
NOTE
  6
CONTINUOUS
 62
     4
 10
-1072.8403627748107
 20
-83.364618351591901
 30
0.0
 40
64.0
  1
450X450
 50
0.0
 41
0.9
 51
0.0
  7
STANDARD
 71
     0
 72
     1
 11
-882.47236277481068
 21
-83.364618351591901
 31
0.0
210
0.0
220
0.0
230
1.0
  0
TEXT
  8
NOTE
  6
CONTINUOUS
 62
     4
 10
-1051.8163627748108
 20
-188.96461835159189
 30
0.0
 40
64.0
  1
or more
 50
0.0
 41
0.9
 51
0.0
  7
STANDARD
 71
     0
 72
     1
 11
-882.47236277481079
 21
-188.96461835159189
 31
0.0
210
0.0
220
0.0
230
1.0
  0
TEXT
  8
NOTE
  6
CONTINUOUS
 62
     4
 10
-1317.5541472813802
 20
-550.17170368845291
 30
0.0
 40
69.0
  1
Power supply
 50
0.0
 41
0.9
 51
0.0
  7
STANDARD
 71
     0
 72
     2
 11
-713.32114728138004
 21
-550.17170368845291
 31
0.0
210
0.0
220
0.0
230
1.0
  0
TEXT
  8
NOTE
  6
CONTINUOUS
 62
     4
 10
-1345.4991472813801
 20
-664.02170368845293
 30
0.0
 40
69.0
  1
cable opening
 50
0.0
 41
0.9
 51
0.0
  7
STANDARD
 71
     0
 72
     2
 11
-713.32114728138004
 21
-664.02170368845293
 31
0.0
210
0.0
220
0.0
230
1.0
  0
LINE
  8
NOTE
  6
CONTINUOUS
 62
     4
 10
-703.32114728138004
 20
-688.17170368845291
 30
0.0
 11
-1355.0211472813801
 21
-688.17170368845291
 31
0.0
  0
LINE
  8
NOTE
  6
CONTINUOUS
 62
     4
 10
-614.28568286469635
 20
-406.8493000972054
 30
0.0
 11
-594.80000000179098
 21
-376.30000000000558
 31
0.0
  0
LINE
  8
NOTE
  6
CONTINUOUS
 62
     4
 10
-594.80000000179098
 20
-376.30000000000558
 30
0.0
 11
-596.40039177222684
 21
-412.49931379520922
 31
0.0
  0
LINE
  8
NOTE
  6
CONTINUOUS
 62
     4
 10
-594.80000000179098
 20
-376.30000000000558
 30
0.0
 11
-615.88607463513233
 21
-443.04861389240909
 31
0.0
  0
LINE
  8
NOTE
  6
CONTINUOUS
 62
     4
 10
-615.88607463513233
 20
-443.04861389240909
 30
0.0
 11
-693.32114728138004
 21
-688.17170368845291
 31
0.0
  0
LINE
  8
NOTE
  6
CONTINUOUS
 62
     4
 10
-693.32114728138004
 20
-688.17170368845291
 30
0.0
 11
-703.32114728138004
 21
-688.17170368845291
 31
0.0
  0
TEXT
  8
NOTE
  6
CONTINUOUS
 62
     4
 10
673.00888877846683
 20
887.00919739442315
 30
0.0
 40
69.0
  1
Ceiling suspension fixture
 50
0.0
 41
0.9
 51
0.0
  7
STANDARD
 71
     0
 11
0.0
 21
0.0
 31
0.0
210
0.0
220
0.0
230
1.0
  0
TEXT
  8
NOTE
  6
CONTINUOUS
 62
     4
 10
673.00888877846683
 20
773.15919739442313
 30
0.0
 40
69.0
  1
(4-13X20 oval)
 50
0.0
 41
0.9
 51
0.0
  7
STANDARD
 71
     0
 11
0.0
 21
0.0
 31
0.0
210
0.0
220
0.0
230
1.0
  0
LINE
  8
NOTE
  6
CONTINUOUS
 62
     4
 10
663.00888877846683
 20
735.86634025156536
 30
0.0
 11
1879.5231744927521
 21
735.86634025156536
 31
0.0
  0
LINE
  8
NOTE
  6
CONTINUOUS
 62
     4
 10
553.38656598507441
 20
466.37785429851141
 30
0.0
 11
531.5000157867571
 21
437.49999957418959
 31
0.0
  0
LINE
  8
NOTE
  6
CONTINUOUS
 62
     4
 10
531.5000157867571
 20
437.49999957418959
 30
0.0
 11
536.01534271954802
 21
473.45223727579184
 31
0.0
  0
LINE
  8
NOTE
  6
CONTINUOUS
 62
     4
 10
531.5000157867571
 20
437.49999957418959
 30
0.0
 11
557.90189291786533
 21
502.33009200011372
 31
0.0
  0
LINE
  8
NOTE
  6
CONTINUOUS
 62
     4
 10
557.90189291786521
 20
502.33009200011372
 30
0.0
 11
653.00888877846683
 21
735.86634025156536
 31
0.0
  0
LINE
  8
NOTE
  6
CONTINUOUS
 62
     4
 10
653.00888877846683
 20
735.86634025156536
 30
0.0
 11
663.00888877846683
 21
735.86634025156536
 31
0.0
  0
ENDSEC
  0
EOF
