  0
SECTION
  2
HEADER
  9
$ACADVER
  1
AC1009
  9
$DWGCODEPAGE
  3
dos932
  9
$INSBASE
 10
0.0
 20
0.0
 30
0.0
  9
$EXTMIN
 10
-899.12107750904033
 20
-557.8765753399075
 30
-0.0015258207003583
  9
$EXTMAX
 10
1742.0471315412401
 20
860.6872641955124
 30
0.0000000349246037
  9
$LIMMIN
 10
-2970.0
 20
-2100.0
  9
$LIMMAX
 10
2970.0
 20
2100.0
  9
$ORTHOMODE
 70
     1
  9
$REGENMODE
 70
     1
  9
$FILLMODE
 70
     1
  9
$QTEXTMODE
 70
     0
  9
$MIRRTEXT
 70
     0
  9
$LTSCALE
 40
20.0
  9
$ATTMODE
 70
     1
  9
$TEXTSIZE
 40
64.0
  9
$TRACEWID
 40
0.05
  9
$TEXTSTYLE
  7
STANDARD
  9
$CLAYER
  8
SIZE
  9
$CELTYPE
  6
CONTINUOUS
  9
$CECOLOR
 62
     7
  9
$DIMSCALE
 40
1.0
  9
$DIMASZ
 40
12.0
  9
$DIMEXO
 40
20.0
  9
$DIMDLI
 40
200.0
  9
$DIMRND
 40
0.0
  9
$DIMDLE
 40
0.0
  9
$DIMEXE
 40
20.0
  9
$DIMTP
 40
0.0
  9
$DIMTM
 40
0.0
  9
$DIMTXT
 40
64.0
  9
$DIMCEN
 40
0.09
  9
$DIMTSZ
 40
0.0
  9
$DIMTOL
 70
     0
  9
$DIMLIM
 70
     0
  9
$DIMTIH
 70
     0
  9
$DIMTOH
 70
     0
  9
$DIMSE1
 70
     0
  9
$DIMSE2
 70
     0
  9
$DIMTAD
 70
     1
  9
$DIMZIN
 70
     8
  9
$DIMBLK
  1

  9
$DIMASO
 70
     1
  9
$DIMSHO
 70
     0
  9
$DIMPOST
  1

  9
$DIMAPOST
  1

  9
$DIMALT
 70
     0
  9
$DIMALTD
 70
     2
  9
$DIMALTF
 40
25.399999999999999
  9
$DIMLFAC
 40
1.0
  9
$DIMTOFL
 70
     1
  9
$DIMTVP
 40
0.0
  9
$DIMTIX
 70
     1
  9
$DIMSOXD
 70
     0
  9
$DIMSAH
 70
     0
  9
$DIMBLK1
  1

  9
$DIMBLK2
  1

  9
$DIMSTYLE
  2
STANDARD
  9
$DIMCLRD
 70
     7
  9
$DIMCLRE
 70
     7
  9
$DIMCLRT
 70
     7
  9
$DIMTFAC
 40
1.0
  9
$DIMGAP
 40
25.0
  9
$LUNITS
 70
     2
  9
$LUPREC
 70
     4
  9
$SKETCHINC
 40
0.1
  9
$FILLETRAD
 40
3.0
  9
$AUNITS
 70
     1
  9
$AUPREC
 70
     3
  9
$MENU
  1
ACAD
  9
$ELEVATION
 40
0.0
  9
$PELEVATION
 40
0.0
  9
$THICKNESS
 40
0.0
  9
$LIMCHECK
 70
     0
  9
$CHAMFERA
 40
0.0
  9
$CHAMFERB
 40
0.0
  9
$SKPOLY
 70
     0
  9
$TDCREATE
 40
2453019.62301037
  9
$TDUPDATE
 40
2460045.428462292
  9
$TDINDWG
 40
1.7148076505
  9
$TDUSRTIMER
 40
1.7148076505
  9
$USRTIMER
 70
     1
  9
$ANGBASE
 50
0.0
  9
$ANGDIR
 70
     0
  9
$PDMODE
 70
     3
  9
$PDSIZE
 40
-2.0
  9
$PLINEWID
 40
0.0
  9
$SPLFRAME
 70
     0
  9
$SPLINETYPE
 70
     6
  9
$SPLINESEGS
 70
     8
  9
$SURFTAB1
 70
     6
  9
$SURFTAB2
 70
     6
  9
$SURFTYPE
 70
     6
  9
$SURFU
 70
     6
  9
$SURFV
 70
     6
  9
$UCSNAME
  2

  9
$UCSORG
 10
0.0
 20
0.0
 30
0.0
  9
$UCSXDIR
 10
1.0
 20
0.0
 30
0.0
  9
$UCSYDIR
 10
0.0
 20
1.0
 30
0.0
  9
$PUCSNAME
  2

  9
$PUCSORG
 10
0.0
 20
0.0
 30
0.0
  9
$PUCSXDIR
 10
1.0
 20
0.0
 30
0.0
  9
$PUCSYDIR
 10
0.0
 20
1.0
 30
0.0
  9
$USERI1
 70
     0
  9
$USERI2
 70
     0
  9
$USERI3
 70
     0
  9
$USERI4
 70
     0
  9
$USERI5
 70
     0
  9
$USERR1
 40
20.0
  9
$USERR2
 40
0.0
  9
$USERR3
 40
0.0
  9
$USERR4
 40
0.0
  9
$USERR5
 40
0.0
  9
$WORLDVIEW
 70
     1
  9
$SHADEDGE
 70
     3
  9
$SHADEDIF
 70
    70
  9
$TILEMODE
 70
     1
  9
$MAXACTVP
 70
    48
  9
$PINSBASE
 10
0.0
 20
0.0
 30
0.0
  9
$PLIMCHECK
 70
     0
  9
$PEXTMIN
 10
-100000000000000000000.0
 20
-100000000000000000000.0
 30
-100000000000000000000.0
  9
$PEXTMAX
 10
100000000000000000000.0
 20
100000000000000000000.0
 30
100000000000000000000.0
  9
$PLIMMIN
 10
0.0
 20
0.0
  9
$PLIMMAX
 10
12.0
 20
9.0
  9
$UNITMODE
 70
     0
  9
$VISRETAIN
 70
     0
  9
$PLINEGEN
 70
     0
  9
$PSLTSCALE
 70
     0
  9
$TREEDEPTH
 70
  3020
  9
$ATTDIA
 70
     0
  9
$ATTREQ
 70
     1
  9
$BLIPMODE
 70
     1
  9
$COORDS
 70
     1
  9
$DRAGMODE
 70
     2
  9
$OSMODE
 70
     0
  9
$HANDLING
 70
     0
  9
$HANDSEED
  5
FBF8
  0
ENDSEC
  0
SECTION
  2
TABLES
  0
TABLE
  2
LTYPE
 70
     3
  0
LTYPE
  2
CONTINUOUS
 70
     0
  3
実線
 72
    65
 73
     0
 40
0.0
  0
LTYPE
  2
DASHDOT
 70
     0
  3
____ _ ____ _ ____ _ ____ _ ____ _ ____ _ ____
 72
    65
 73
     4
 40
5.5
 49
4.0
 49
-0.6
 49
0.3
 49
-0.6
  0
LTYPE
  2
DASHED
 70
     0
  3
-- -- -- -- -- -- -- -- -- -- -- -- -- -- --
 72
    65
 73
     2
 40
0.75
 49
0.5
 49
-0.25
  0
ENDTAB
  0
TABLE
  2
LAYER
 70
    12
  0
LAYER
  2
0
 70
     0
 62
     7
  6
CONTINUOUS
  0
LAYER
  2
BASIS
 70
     0
 62
     6
  6
DASHDOT
  0
LAYER
  2
OUTLINE
 70
     0
 62
     3
  6
CONTINUOUS
  0
LAYER
  2
DETAIL
 70
     0
 62
     5
  6
CONTINUOUS
  0
LAYER
  2
SIZE
 70
     0
 62
    30
  6
CONTINUOUS
  0
LAYER
  2
ARRANGE
 70
     0
 62
     1
  6
CONTINUOUS
  0
LAYER
  2
DEFPOINTS
 70
     0
 62
     7
  6
CONTINUOUS
  0
LAYER
  2
ETC
 70
     0
 62
    61
  6
CONTINUOUS
  0
LAYER
  2
FIX
 70
     0
 62
    11
  6
CONTINUOUS
  0
LAYER
  2
NOTE
 70
     0
 62
     4
  6
CONTINUOUS
  0
LAYER
  2
SERVICESPACE
 70
    64
 62
     2
  6
DASHDOT
  0
LAYER
  2
SYMBOLLINE
 70
    64
 62
    15
  6
CONTINUOUS
  0
ENDTAB
  0
TABLE
  2
STYLE
 70
     1
  0
STYLE
  2
STANDARD
 70
     0
 40
64.0
 41
0.9
 50
0.0
 71
     0
 42
64.0
  3
SIMPLEX.shx
  4
BIGFONT.shx
  0
ENDTAB
  0
TABLE
  2
APPID
 70
    22
  0
APPID
  2
ACAD
 70
     0
  0
APPID
  2
AUTOCAD_POSTSCRIPT_FIGURE
 70
     0
  0
APPID
  2
ACAD_EXEMPT_FROM_CAD_STANDARDS
 70
     0
  0
APPID
  2
ACAD_PSEXT
 70
     0
  0
APPID
  2
ACAUTHENVIRON
 70
     0
  0
APPID
  2
GENIUS_GENOENT_13
 70
     0
  0
APPID
  2
GENIUS_GENCFG_13
 70
     0
  0
APPID
  2
GENIUS_GENCFG0_13
 70
     0
  0
APPID
  2
GENIUS_GENCFG1_13
 70
     0
  0
APPID
  2
GENIUS_GENCFG2_13
 70
     0
  0
APPID
  2
GENIUS_GENCFG3_13
 70
     0
  0
APPID
  2
GENIUS_GENCFG4_13
 70
     0
  0
APPID
  2
GENIUS_GEVCFG0_13
 70
     0
  0
APPID
  2
CONTENTBLOCKICON
 70
     0
  0
APPID
  2
CONTENTBLOCKDESCRIPTION
 70
     0
  0
APPID
  2
ACAD_NAV_VCDISPLAY
 70
     0
  0
APPID
  2
ACAD_MLEADERVER
 70
     0
  0
APPID
  2
ACDBDYNAMICBLOCKTRUENAME
 70
     0
  0
APPID
  2
ACDBDYNAMICBLOCKGUID
 70
     0
  0
APPID
  2
GENIUS_GENODEF_13
 70
     0
  0
APPID
  2
GENIUS_GENOBJ-N-CEN_13
 70
     0
  0
APPID
  2
GENIUS_GENCEN_19
 70
     0
  0
ENDTAB
  0
TABLE
  2
DIMSTYLE
 70
     1
  0
DIMSTYLE
  2
STANDARD
 70
     0
  3

  4

  5
_ORIGIN
  6

  7

 40
1.0
 41
12.0
 42
20.0
 43
200.0
 44
20.0
 45
0.0
 46
0.0
 47
0.0
 48
0.0
140
64.0
141
0.09
142
0.0
143
25.399999999999999
144
1.0
145
0.0
146
1.0
147
25.0
 71
     0
 72
     0
 73
     0
 74
     0
 75
     0
 76
     0
 77
     1
 78
     8
170
     0
171
     2
172
     1
173
     0
174
     1
175
     0
176
     7
177
     7
178
     7
  0
ENDTAB
  0
TABLE
  2
VIEW
 70
     1
  0
VIEW
  2
ALL
 70
     0
 40
4282.6198079999986
 10
0.0
 20
41.309904000000003
 41
5940.0
 11
0.0
 21
0.0
 31
1.0
 12
0.0
 22
0.0
 32
0.0
 42
50.0
 43
0.0
 44
0.0
 50
0.0
 71
     0
  0
ENDTAB
  0
TABLE
  2
UCS
 70
     0
  0
ENDTAB
  0
TABLE
  2
VPORT
 70
     1
  0
VPORT
  2
*ACTIVE
 70
     0
 10
0.0
 20
0.0
 11
1.0
 21
1.0
 12
421.46302701609972
 22
151.40534442780239
 13
0.0
 23
0.0
 14
1.0
 24
1.0
 15
0.0
 25
0.0
 16
0.0
 26
0.0
 36
1.0
 17
0.0
 27
0.0
 37
0.0
 40
1488.3560592455731
 41
1.781285231116122
 42
50.0
 43
0.0
 44
0.0
 50
0.0
 51
0.0
 71
     0
 72
  1000
 73
     1
 74
     3
 75
     0
 76
     0
 77
     0
 78
     0
  0
ENDTAB
  0
ENDSEC
  0
SECTION
  2
BLOCKS
  0
BLOCK
  8
0
  2
_ORIGIN
 70
     0
 10
0.0
 20
0.0
 30
0.0
  3
_ORIGIN
  1
_ORIGIN
  0
CIRCLE
  8
0
  6
CONTINUOUS
 62
     7
 10
0.0
 20
0.0
 30
0.0
 40
0.5
  0
LINE
  8
0
  6
CONTINUOUS
 62
     7
 10
0.0
 20
0.0
 30
0.0
 11
-1.0
 21
0.0
 31
0.0
  0
ENDBLK
  8
0
  0
ENDSEC
  0
SECTION
  2
ENTITIES
  0
LINE
  8
DETAIL
  6
CONTINUOUS
 62
     5
 10
-456.09999999999951
 20
-129.9999999999973
 30
0.0
 11
-456.09999999999951
 21
-84.999999999999091
 31
0.0
  0
LINE
  8
DETAIL
  6
CONTINUOUS
 62
     5
 10
-444.09999999999951
 20
-91.999999999995453
 30
0.0
 11
-444.09999999999951
 21
-84.999999999999091
 31
0.0
  0
LINE
  8
DETAIL
  6
CONTINUOUS
 62
     5
 10
-442.59999999999218
 20
-330.04999999999649
 30
0.0
 11
-442.59999999999218
 21
-329.54999999999842
 31
0.0
  0
LINE
  8
DETAIL
  6
CONTINUOUS
 62
     5
 10
-442.59999999999218
 20
-1.149999999995998
 30
0.0
 11
-442.59999999999218
 21
-0.6499999999996362
 31
0.0
  0
LINE
  8
DETAIL
  6
CONTINUOUS
 62
     5
 10
-437.59999999999951
 20
-329.04999999999842
 30
0.0
 11
-437.59999999999951
 21
-107.9999999999955
 31
0.0
  0
LINE
  8
DETAIL
  6
CONTINUOUS
 62
     5
 10
-437.59999999999951
 20
-84.999999999999091
 30
0.0
 11
-437.59999999999951
 21
-1.649999999994179
 31
0.0
  0
LINE
  8
DETAIL
  6
CONTINUOUS
 62
     5
 10
-437.09999999999951
 20
-1.649999999994179
 30
0.0
 11
-437.09999999999951
 21
-2.6499999999978172
 31
0.0
  0
LINE
  8
DETAIL
  6
CONTINUOUS
 62
     5
 10
-437.09999999999951
 20
-329.04999999999842
 30
0.0
 11
-437.09999999999951
 21
-328.04999999999472
 31
0.0
  0
LINE
  8
DETAIL
  6
CONTINUOUS
 62
     5
 10
-435.59999999999951
 20
-330.04999999999649
 30
0.0
 11
-435.59999999999951
 21
-328.04999999999472
 31
0.0
  0
LINE
  8
DETAIL
  6
CONTINUOUS
 62
     5
 10
-435.59999999999951
 20
-2.6499999999978172
 30
0.0
 11
-435.59999999999951
 21
-0.6499999999996362
 31
0.0
  0
LINE
  8
DETAIL
  6
CONTINUOUS
 62
     5
 10
-435.49999999999358
 20
-0.6499999999996362
 30
0.0
 11
-435.49999999999358
 21
0.0
 31
0.0
  0
LINE
  8
DETAIL
  6
CONTINUOUS
 62
     5
 10
-435.09999999999951
 20
-330.04999999999649
 30
0.0
 11
-435.09999999999951
 21
-330.99999999999551
 31
0.0
  0
LINE
  8
DETAIL
  6
CONTINUOUS
 62
     5
 10
-431.09999999999951
 20
-81.19999999999618
 30
0.0
 11
-431.09999999999951
 21
-88.19999999999618
 31
0.0
  0
LINE
  8
DETAIL
  6
CONTINUOUS
 62
     5
 10
-437.06006823866568
 20
-0.9564221293276205
 30
0.0
 11
-436.91189937333638
 21
-2.6499999999978172
 31
0.0
  0
LINE
  8
DETAIL
  6
CONTINUOUS
 62
     5
 10
-436.56197088933641
 20
-0.9128442573273787
 30
0.0
 11
-436.40998945466799
 21
-2.6499999999978172
 31
0.0
  0
LINE
  8
DETAIL
  6
CONTINUOUS
 62
     5
 10
-412.59999999999951
 20
-102.9999999999991
 30
0.0
 11
-412.59999999999951
 21
-81.19999999999618
 31
0.0
  0
LINE
  8
DETAIL
  6
CONTINUOUS
 62
     5
 10
-436.91189937333638
 20
-328.04999999999472
 30
0.0
 11
-437.0361091813329
 21
-329.46972459466178
 31
0.0
  0
LINE
  8
DETAIL
  6
CONTINUOUS
 62
     5
 10
-436.10884350400102
 20
-328.04999999999472
 30
0.0
 11
-436.23915342266349
 21
-329.5394491893303
 31
0.0
  0
LINE
  8
DETAIL
  6
CONTINUOUS
 62
     5
 10
-186.1339745960004
 20
-172.6999999999953
 30
0.0
 11
-186.1339745960004
 21
-185.0999999999967
 31
0.0
  0
LINE
  8
DETAIL
  6
CONTINUOUS
 62
     5
 10
-186.1339745960004
 20
-157.6999999999953
 30
0.0
 11
-186.1339745960004
 21
-145.29999999999751
 31
0.0
  0
LINE
  8
DETAIL
  6
CONTINUOUS
 62
     5
 10
-182.77696574000669
 20
-172.6999999999953
 30
0.0
 11
-182.77696574000669
 21
-185.0999999999967
 31
0.0
  0
LINE
  8
DETAIL
  6
CONTINUOUS
 62
     5
 10
-182.77696574000669
 20
-157.6999999999953
 30
0.0
 11
-182.77696574000669
 21
-145.29999999999751
 31
0.0
  0
LINE
  8
DETAIL
  6
CONTINUOUS
 62
     5
 10
-179.2230342599951
 20
-172.6999999999953
 30
0.0
 11
-179.2230342599951
 21
-185.0999999999967
 31
0.0
  0
LINE
  8
DETAIL
  6
CONTINUOUS
 62
     5
 10
-179.2230342599951
 20
-157.6999999999953
 30
0.0
 11
-179.2230342599951
 21
-145.29999999999751
 31
0.0
  0
LINE
  8
DETAIL
  6
CONTINUOUS
 62
     5
 10
-179.09999999999951
 20
-200.32995170266261
 30
0.0
 11
-179.09999999999951
 21
-194.67004829866161
 31
0.0
  0
LINE
  8
DETAIL
  6
CONTINUOUS
 62
     5
 10
-176.199999999998
 20
-201.49999999999821
 30
0.0
 11
-176.199999999998
 21
-193.49999999999449
 31
0.0
  0
LINE
  8
DETAIL
  6
CONTINUOUS
 62
     5
 10
-175.86602540400139
 20
-172.6999999999953
 30
0.0
 11
-175.86602540400139
 21
-185.0999999999967
 31
0.0
  0
LINE
  8
DETAIL
  6
CONTINUOUS
 62
     5
 10
-175.86602540400139
 20
-157.6999999999953
 30
0.0
 11
-175.86602540400139
 21
-145.29999999999751
 31
0.0
  0
LINE
  8
DETAIL
  6
CONTINUOUS
 62
     5
 10
-175.40000000000239
 20
-5.1499999999996362
 30
0.0
 11
-175.40000000000239
 21
-140.39999937199349
 31
0.0
  0
LINE
  8
DETAIL
  6
CONTINUOUS
 62
     5
 10
-175.40000000000239
 20
-142.5999993719943
 30
0.0
 11
-175.40000000000239
 21
-187.799999371995
 31
0.0
  0
LINE
  8
DETAIL
  6
CONTINUOUS
 62
     5
 10
-175.40000000000239
 20
-189.9999993719957
 30
0.0
 11
-175.40000000000239
 21
-325.24999999999818
 31
0.0
  0
LINE
  8
DETAIL
  6
CONTINUOUS
 62
     5
 10
-174.2000000000053
 20
-3.9499999999970901
 30
0.0
 11
-174.2000000000053
 21
-140.39999937199349
 31
0.0
  0
LINE
  8
DETAIL
  6
CONTINUOUS
 62
     5
 10
-174.2000000000053
 20
-142.5999993719943
 30
0.0
 11
-174.2000000000053
 21
-187.799999371995
 31
0.0
  0
LINE
  8
DETAIL
  6
CONTINUOUS
 62
     5
 10
-174.2000000000053
 20
-326.44999999999709
 30
0.0
 11
-174.2000000000053
 21
-189.9999993719957
 31
0.0
  0
LINE
  8
DETAIL
  6
CONTINUOUS
 62
     5
 10
-431.33000000000271
 20
-330.99999999999551
 30
0.0
 11
-429.07999999998083
 21
-328.74999999997908
 31
0.0
  0
LINE
  8
DETAIL
  6
CONTINUOUS
 62
     5
 10
-431.40000000000242
 20
0.0
 30
0.0
 11
-429.74999999998641
 21
-1.6500000000105499
 31
0.0
  0
LINE
  8
DETAIL
  6
CONTINUOUS
 62
     5
 10
-173.199999999998
 20
-177.49999999999821
 30
0.0
 11
-173.199999999998
 21
-187.799999371995
 31
0.0
  0
LINE
  8
DETAIL
  6
CONTINUOUS
 62
     5
 10
-173.199999999998
 20
-189.9999993719957
 30
0.0
 11
-173.199999999998
 21
-191.5
 31
0.0
  0
LINE
  8
DETAIL
  6
CONTINUOUS
 62
     5
 10
-173.199999999998
 20
-217.49999999999821
 30
0.0
 11
-173.199999999998
 21
-209.29999999999561
 31
0.0
  0
LINE
  8
DETAIL
  6
CONTINUOUS
 62
     5
 10
-172.199999999998
 20
-209.29999999999561
 30
0.0
 11
-172.199999999998
 21
-211.29999999999561
 31
0.0
  0
LINE
  8
DETAIL
  6
CONTINUOUS
 62
     5
 10
-172.199999999998
 20
-191.5
 30
0.0
 11
-172.199999999998
 21
-180.49999999999639
 31
0.0
  0
LINE
  8
DETAIL
  6
CONTINUOUS
 62
     5
 10
-166.2000000000053
 20
-211.29999999999561
 30
0.0
 11
-166.2000000000053
 21
-214.49999999999639
 31
0.0
  0
LINE
  8
DETAIL
  6
CONTINUOUS
 62
     5
 10
-159.199999999998
 20
-180.49999999999639
 30
0.0
 11
-159.199999999998
 21
-211.29999999999561
 31
0.0
  0
LINE
  8
DETAIL
  6
CONTINUOUS
 62
     5
 10
-139.31284095333189
 20
-145.39999937199539
 30
0.0
 11
-139.31284095333189
 21
-184.9999888933271
 31
0.0
  0
LINE
  8
DETAIL
  6
CONTINUOUS
 62
     5
 10
443.25000000000091
 20
-330.99999999999551
 30
0.0
 11
437.83306493867082
 21
-330.99999999999551
 31
0.0
  0
LINE
  8
DETAIL
  6
CONTINUOUS
 62
     5
 10
-443.25000000000091
 20
-330.99999999999551
 30
0.0
 11
-437.83306493867082
 21
-330.99999999999551
 31
0.0
  0
LINE
  8
DETAIL
  6
CONTINUOUS
 62
     5
 10
-435.09999999999951
 20
-330.99999999999551
 30
0.0
 11
435.09999999999951
 21
-330.99999999999551
 31
0.0
  0
LINE
  8
DETAIL
  6
CONTINUOUS
 62
     5
 10
443.25000000000091
 20
-330.19999999999618
 30
0.0
 11
437.83306493867082
 21
-330.19999999999618
 31
0.0
  0
LINE
  8
DETAIL
  6
CONTINUOUS
 62
     5
 10
-443.25000000000091
 20
-330.19999999999618
 30
0.0
 11
-437.83306493867082
 21
-330.19999999999618
 31
0.0
  0
LINE
  8
DETAIL
  6
CONTINUOUS
 62
     5
 10
-430.38000000000562
 20
-330.04999999999649
 30
0.0
 11
-435.59999999999951
 21
-330.04999999999649
 31
0.0
  0
LINE
  8
DETAIL
  6
CONTINUOUS
 62
     5
 10
-438.10000000000667
 20
-330.04999999999649
 30
0.0
 11
-442.59999999999218
 21
-330.04999999999649
 31
0.0
  0
LINE
  8
DETAIL
  6
CONTINUOUS
 62
     5
 10
430.37999999999829
 20
-330.04999999999649
 30
0.0
 11
435.59999999999951
 21
-330.04999999999649
 31
0.0
  0
LINE
  8
DETAIL
  6
CONTINUOUS
 62
     5
 10
438.09999999999951
 20
-330.04999999999649
 30
0.0
 11
442.59999999999951
 21
-330.04999999999649
 31
0.0
  0
LINE
  8
DETAIL
  6
CONTINUOUS
 62
     5
 10
438.09999999999951
 20
-329.54999999999842
 30
0.0
 11
443.17499999999649
 21
-329.55000000000018
 31
0.0
  0
LINE
  8
DETAIL
  6
CONTINUOUS
 62
     5
 10
-437.59999999999951
 20
-328.04999999999472
 30
0.0
 11
-435.59999999999951
 21
-328.04999999999472
 31
0.0
  0
LINE
  8
DETAIL
  6
CONTINUOUS
 62
     5
 10
435.59999999999951
 20
-328.04999999999472
 30
0.0
 11
437.59999999999951
 21
-328.04999999999472
 31
0.0
  0
LINE
  8
DETAIL
  6
CONTINUOUS
 62
     5
 10
174.199999999998
 20
-326.44999999999709
 30
0.0
 11
-174.2000000000053
 21
-326.44999999999709
 31
0.0
  0
LINE
  8
DETAIL
  6
CONTINUOUS
 62
     5
 10
175.40000000000239
 20
-325.24999999999818
 30
0.0
 11
-175.40000000000239
 21
-325.24999999999642
 31
0.0
  0
LINE
  8
DETAIL
  6
CONTINUOUS
 62
     5
 10
200.10000000000221
 20
-316.04999999999751
 30
0.0
 11
211.49999999999639
 21
-316.04999999999751
 31
0.0
  0
LINE
  8
DETAIL
  6
CONTINUOUS
 62
     5
 10
200.10000000000221
 20
-315.44999999999533
 30
0.0
 11
369.29999999999927
 21
-315.44999999999533
 31
0.0
  0
LINE
  8
DETAIL
  6
CONTINUOUS
 62
     5
 10
197.79999999999649
 20
-314.85000000000042
 30
0.0
 11
208.49999999999639
 21
-314.85000000000042
 31
0.0
  0
LINE
  8
DETAIL
  6
CONTINUOUS
 62
     5
 10
371.70000000000073
 20
-314.09999999999491
 30
0.0
 11
369.29999999999927
 21
-314.09999999999491
 31
0.0
  0
LINE
  8
DETAIL
  6
CONTINUOUS
 62
     5
 10
373.29999999999927
 20
-312.49999999999642
 30
0.0
 11
388.29999999999927
 21
-312.49999999999642
 31
0.0
  0
LINE
  8
DETAIL
  6
CONTINUOUS
 62
     5
 10
-137.11284095333491
 20
-145.39999937199539
 30
0.0
 11
-137.11284095333491
 21
-184.9999888933271
 31
0.0
  0
LINE
  8
DETAIL
  6
CONTINUOUS
 62
     5
 10
173.930680475999
 20
-284.64999999999782
 30
0.0
 11
172.72014353066419
 21
-284.64999999999782
 31
0.0
  0
LINE
  8
DETAIL
  6
CONTINUOUS
 62
     5
 10
174.199999999998
 20
-282.64999999999782
 30
0.0
 11
173.06747271600119
 21
-282.64999999999782
 31
0.0
  0
LINE
  8
DETAIL
  6
CONTINUOUS
 62
     5
 10
175.40000000000239
 20
-282.64999999999782
 30
0.0
 11
192.79999999999649
 21
-282.64999999999782
 31
0.0
  0
LINE
  8
DETAIL
  6
CONTINUOUS
 62
     5
 10
368.29999999999927
 20
-263.24999999999449
 30
0.0
 11
368.10000000000218
 21
-263.24999999999449
 31
0.0
  0
LINE
  8
DETAIL
  6
CONTINUOUS
 62
     5
 10
368.29999999999927
 20
-248.24999999999449
 30
0.0
 11
368.10000000000218
 21
-248.24999999999449
 31
0.0
  0
LINE
  8
DETAIL
  6
CONTINUOUS
 62
     5
 10
174.199999999998
 20
-236.64999999999421
 30
0.0
 11
173.06747271600119
 21
-236.64999999999421
 31
0.0
  0
LINE
  8
DETAIL
  6
CONTINUOUS
 62
     5
 10
175.40000000000239
 20
-236.64999999999421
 30
0.0
 11
192.79999999999649
 21
-236.64999999999421
 31
0.0
  0
LINE
  8
DETAIL
  6
CONTINUOUS
 62
     5
 10
173.930680475999
 20
-234.64999999999779
 30
0.0
 11
172.72014353066419
 21
-234.64999999999779
 31
0.0
  0
LINE
  8
DETAIL
  6
CONTINUOUS
 62
     5
 10
388.29999999999927
 20
-230.24999999999639
 30
0.0
 11
380.50000000000358
 21
-230.24999999999639
 31
0.0
  0
LINE
  8
DETAIL
  6
CONTINUOUS
 62
     5
 10
-174.2000000000053
 20
-217.49999999999821
 30
0.0
 11
-169.199999999998
 21
-217.49999999999821
 31
0.0
  0
LINE
  8
DETAIL
  6
CONTINUOUS
 62
     5
 10
-159.199999999998
 20
-211.29999999999561
 30
0.0
 11
-172.199999999998
 21
-211.29999999999561
 31
0.0
  0
LINE
  8
DETAIL
  6
CONTINUOUS
 62
     5
 10
-172.199999999998
 20
-210.29999999999561
 30
0.0
 11
-159.199999999998
 21
-210.29999999999561
 31
0.0
  0
LINE
  8
DETAIL
  6
CONTINUOUS
 62
     5
 10
-172.199999999998
 20
-209.29999999999561
 30
0.0
 11
-174.2000000000053
 21
-209.29999999999561
 31
0.0
  0
LINE
  8
DETAIL
  6
CONTINUOUS
 62
     5
 10
-176.199999999998
 20
-199.99999999999639
 30
0.0
 11
-175.40000000000239
 21
-199.99999999999639
 31
0.0
  0
LINE
  8
DETAIL
  6
CONTINUOUS
 62
     5
 10
-176.199999999998
 20
-201.49999999999821
 30
0.0
 11
-178.1871557426648
 21
-201.32614640000071
 31
0.0
  0
LINE
  8
BASIS
  6
DASHDOT
 62
     6
 10
-0.000000000003638
 20
23.14696973389437
 30
0.0
 11
-0.000000000003638
 21
-358.74580775306998
 31
0.0
  0
LINE
  8
DETAIL
  6
CONTINUOUS
 62
     5
 10
-176.199999999998
 20
-193.49999999999449
 30
0.0
 11
-178.1871557426648
 21
-193.67385359999929
 31
0.0
  0
LINE
  8
DETAIL
  6
CONTINUOUS
 62
     5
 10
-176.199999999998
 20
-194.99999999999821
 30
0.0
 11
-175.40000000000239
 21
-194.99999999999821
 31
0.0
  0
LINE
  8
DETAIL
  6
CONTINUOUS
 62
     5
 10
-172.199999999998
 20
-191.5
 30
0.0
 11
-174.2000000000053
 21
-191.5
 31
0.0
  0
LINE
  8
DETAIL
  6
CONTINUOUS
 62
     5
 10
-141.80280433866659
 20
-189.9999993719957
 30
0.0
 11
-159.199999999998
 21
-189.9999993719957
 31
0.0
  0
LINE
  8
DETAIL
  6
CONTINUOUS
 62
     5
 10
-172.199999999998
 20
-189.9999993719957
 30
0.0
 11
-180.52471029466781
 21
-189.9999993719957
 31
0.0
  0
LINE
  8
DETAIL
  6
CONTINUOUS
 62
     5
 10
-141.80280433866659
 20
-187.799999371995
 30
0.0
 11
-159.199999999998
 21
-187.799999371995
 31
0.0
  0
LINE
  8
DETAIL
  6
CONTINUOUS
 62
     5
 10
-172.199999999998
 20
-187.799999371995
 30
0.0
 11
-180.52471029466781
 21
-187.799999371995
 31
0.0
  0
LINE
  8
DETAIL
  6
CONTINUOUS
 62
     5
 10
-186.1339745960004
 20
-185.0999999999967
 30
0.0
 11
-175.86602540400139
 21
-185.0999999999967
 31
0.0
  0
LINE
  8
DETAIL
  6
CONTINUOUS
 62
     5
 10
-162.199999999998
 20
-177.49999999999821
 30
0.0
 11
-174.2000000000053
 21
-177.49999999999821
 31
0.0
  0
LINE
  8
BASIS
  6
DASHDOT
 62
     6
 10
545.61187250030889
 20
-165.19999999999709
 30
0.0
 11
-554.71171215262257
 21
-165.19999999999709
 31
0.0
  0
LINE
  8
DETAIL
  6
CONTINUOUS
 62
     5
 10
186.80000000000379
 20
-157.24999999999821
 30
0.0
 11
191.79999999999649
 21
-157.24999999999821
 31
0.0
  0
LINE
  8
DETAIL
  6
CONTINUOUS
 62
     5
 10
-186.1339745960004
 20
-145.29999999999751
 30
0.0
 11
-175.86602540400139
 21
-145.29999999999751
 31
0.0
  0
LINE
  8
DETAIL
  6
CONTINUOUS
 62
     5
 10
-180.52471029466781
 20
-142.5999993719943
 30
0.0
 11
-141.80280433866659
 21
-142.5999993719943
 31
0.0
  0
LINE
  8
DETAIL
  6
CONTINUOUS
 62
     5
 10
-180.52471029466781
 20
-140.39999937199349
 30
0.0
 11
-141.80280433866659
 21
-140.39999937199349
 31
0.0
  0
LINE
  8
DETAIL
  6
CONTINUOUS
 62
     5
 10
-437.59999999999951
 20
-134.99999999999909
 30
0.0
 11
-451.09999999999951
 21
-134.99999999999909
 31
0.0
  0
LINE
  8
DETAIL
  6
CONTINUOUS
 62
     5
 10
437.59999999999951
 20
-134.99999999999909
 30
0.0
 11
451.09999999999951
 21
-134.99999999999909
 31
0.0
  0
LINE
  8
DETAIL
  6
CONTINUOUS
 62
     5
 10
186.80000000000379
 20
-129.24999999999639
 30
0.0
 11
191.79999999999649
 21
-129.24999999999639
 31
0.0
  0
LINE
  8
DETAIL
  6
CONTINUOUS
 62
     5
 10
368.29999999999927
 20
-122.2499999999964
 30
0.0
 11
368.10000000000218
 21
-122.2499999999964
 31
0.0
  0
LINE
  8
DETAIL
  6
CONTINUOUS
 62
     5
 10
383.10000000000218
 20
-119.9155069319968
 30
0.0
 11
381.89999999999782
 21
-119.9155069319968
 31
0.0
  0
LINE
  8
DETAIL
  6
CONTINUOUS
 62
     5
 10
-437.62641510933548
 20
-113.9999999999973
 30
0.0
 11
-441.00000000000091
 21
-113.9999999999973
 31
0.0
  0
LINE
  8
DETAIL
  6
CONTINUOUS
 62
     5
 10
437.62641510932832
 20
-113.9999999999973
 30
0.0
 11
441.00000000000091
 21
-113.9999999999973
 31
0.0
  0
LINE
  8
DETAIL
  6
CONTINUOUS
 62
     5
 10
-417.59999999999951
 20
-107.9999999999955
 30
0.0
 11
-441.00000000000091
 21
-107.9999999999955
 31
0.0
  0
LINE
  8
DETAIL
  6
CONTINUOUS
 62
     5
 10
417.59999999999951
 20
-107.9999999999955
 30
0.0
 11
441.00000000000091
 21
-107.9999999999955
 31
0.0
  0
LINE
  8
DETAIL
  6
CONTINUOUS
 62
     5
 10
368.29999999999927
 20
-107.2499999999964
 30
0.0
 11
368.10000000000218
 21
-107.2499999999964
 31
0.0
  0
LINE
  8
DETAIL
  6
CONTINUOUS
 62
     5
 10
388.29999999999927
 20
-105.2499999999982
 30
0.0
 11
383.10000000000218
 21
-105.2499999999982
 31
0.0
  0
LINE
  8
DETAIL
  6
CONTINUOUS
 62
     5
 10
381.89999999999782
 20
-105.2499999999982
 30
0.0
 11
380.50000000000358
 21
-105.2499999999982
 31
0.0
  0
LINE
  8
DETAIL
  6
CONTINUOUS
 62
     5
 10
426.59999999999951
 20
-102.9999999999991
 30
0.0
 11
424.59999999999951
 21
-102.9999999999991
 31
0.0
  0
LINE
  8
DETAIL
  6
CONTINUOUS
 62
     5
 10
-426.59999999999951
 20
-102.9999999999991
 30
0.0
 11
-424.59999999999951
 21
-102.9999999999991
 31
0.0
  0
LINE
  8
DETAIL
  6
CONTINUOUS
 62
     5
 10
-424.59999999999951
 20
-96.999999999997272
 30
0.0
 11
-426.59999999999951
 21
-96.999999999997272
 31
0.0
  0
LINE
  8
DETAIL
  6
CONTINUOUS
 62
     5
 10
424.59999999999951
 20
-96.999999999997272
 30
0.0
 11
426.59999999999951
 21
-96.999999999997272
 31
0.0
  0
LINE
  8
DETAIL
  6
CONTINUOUS
 62
     5
 10
376.29999999999927
 20
-96.249999999996362
 30
0.0
 11
384.29999999999927
 21
-96.249999999996362
 31
0.0
  0
LINE
  8
DETAIL
  6
CONTINUOUS
 62
     5
 10
453.09999999999951
 20
-94.999999999999091
 30
0.0
 11
447.09999999999951
 21
-94.999999999999091
 31
0.0
  0
LINE
  8
DETAIL
  6
CONTINUOUS
 62
     5
 10
-453.10000000000667
 20
-94.999999999999091
 30
0.0
 11
-447.09999999999951
 21
-94.999999999999091
 31
0.0
  0
LINE
  8
DETAIL
  6
CONTINUOUS
 62
     5
 10
173.930680475999
 20
-94.649999999999636
 30
0.0
 11
172.72014353066419
 21
-94.649999999999636
 31
0.0
  0
LINE
  8
DETAIL
  6
CONTINUOUS
 62
     5
 10
174.199999999998
 20
-92.649999999999636
 30
0.0
 11
173.06747271600119
 21
-92.649999999999636
 31
0.0
  0
LINE
  8
DETAIL
  6
CONTINUOUS
 62
     5
 10
175.40000000000239
 20
-92.649999999999636
 30
0.0
 11
192.79999999999649
 21
-92.649999999999636
 31
0.0
  0
LINE
  8
DETAIL
  6
CONTINUOUS
 62
     5
 10
-444.09999999999951
 20
-88.19999999999618
 30
0.0
 11
-412.59999999999951
 21
-88.19999999999618
 31
0.0
  0
LINE
  8
DETAIL
  6
CONTINUOUS
 62
     5
 10
412.59999999999951
 20
-88.19999999999618
 30
0.0
 11
444.09999999999951
 21
-88.19999999999618
 31
0.0
  0
LINE
  8
DETAIL
  6
CONTINUOUS
 62
     5
 10
384.29999999999927
 20
-87.44999999999709
 30
0.0
 11
391.89999999999782
 21
-87.44999999999709
 31
0.0
  0
LINE
  8
DETAIL
  6
CONTINUOUS
 62
     5
 10
376.29999999999927
 20
-86.249999999998181
 30
0.0
 11
391.89999999999782
 21
-86.249999999998181
 31
0.0
  0
LINE
  8
DETAIL
  6
CONTINUOUS
 62
     5
 10
-431.09999999999951
 20
-84.999999999999091
 30
0.0
 11
-456.09999999999951
 21
-84.999999999999091
 31
0.0
  0
LINE
  8
DETAIL
  6
CONTINUOUS
 62
     5
 10
431.09999999999951
 20
-84.999999999999091
 30
0.0
 11
456.09999999999951
 21
-84.999999999999091
 31
0.0
  0
LINE
  8
DETAIL
  6
CONTINUOUS
 62
     5
 10
-415.59999999999951
 20
-78.199999999997999
 30
0.0
 11
-428.09999999999951
 21
-78.199999999997999
 31
0.0
  0
LINE
  8
DETAIL
  6
CONTINUOUS
 62
     5
 10
415.59999999999951
 20
-78.199999999997999
 30
0.0
 11
428.09999999999951
 21
-78.199999999997999
 31
0.0
  0
LINE
  8
DETAIL
  6
CONTINUOUS
 62
     5
 10
373.29999999999927
 20
-57.999999999998181
 30
0.0
 11
388.29999999999927
 21
-57.999999999998181
 31
0.0
  0
LINE
  8
DETAIL
  6
CONTINUOUS
 62
     5
 10
369.29999999999927
 20
-56.399999999999643
 30
0.0
 11
371.70000000000073
 21
-56.399999999999643
 31
0.0
  0
LINE
  8
DETAIL
  6
CONTINUOUS
 62
     5
 10
197.79999999999649
 20
-55.649999999999643
 30
0.0
 11
208.49999999999639
 21
-55.649999999999643
 31
0.0
  0
LINE
  8
DETAIL
  6
CONTINUOUS
 62
     5
 10
369.29999999999927
 20
-55.049999999995627
 30
0.0
 11
200.10000000000221
 21
-55.049999999995627
 31
0.0
  0
LINE
  8
DETAIL
  6
CONTINUOUS
 62
     5
 10
200.10000000000221
 20
-54.449999999998909
 30
0.0
 11
211.49999999999639
 21
-54.449999999998909
 31
0.0
  0
LINE
  8
DETAIL
  6
CONTINUOUS
 62
     5
 10
174.199999999998
 20
-46.649999999995998
 30
0.0
 11
173.06747271600119
 21
-46.649999999995998
 31
0.0
  0
LINE
  8
DETAIL
  6
CONTINUOUS
 62
     5
 10
175.40000000000239
 20
-46.649999999995998
 30
0.0
 11
192.79999999999649
 21
-46.649999999995998
 31
0.0
  0
LINE
  8
DETAIL
  6
CONTINUOUS
 62
     5
 10
173.930680475999
 20
-44.649999999997817
 30
0.0
 11
172.72014353066419
 21
-44.649999999997817
 31
0.0
  0
LINE
  8
DETAIL
  6
CONTINUOUS
 62
     5
 10
195.0679491919955
 20
-234.71410161599849
 30
0.0
 11
196.79999999999649
 21
-237.71410161599491
 31
0.0
  0
LINE
  8
DETAIL
  6
CONTINUOUS
 62
     5
 10
170.63616841866411
 20
-281.64999999999418
 30
0.0
 11
170.63616841866411
 21
-237.64999999999779
 31
0.0
  0
LINE
  8
DETAIL
  6
CONTINUOUS
 62
     5
 10
170.63616841866411
 20
-91.649999999997817
 30
0.0
 11
170.63616841866411
 21
-47.649999999999643
 31
0.0
  0
LINE
  8
DETAIL
  6
CONTINUOUS
 62
     5
 10
173.06747271600119
 20
-44.649999999997817
 30
0.0
 11
173.06747271600119
 21
-46.649999999995998
 31
0.0
  0
LINE
  8
DETAIL
  6
CONTINUOUS
 62
     5
 10
173.06747271600119
 20
-234.64999999999779
 30
0.0
 11
173.06747271600119
 21
-236.64999999999421
 31
0.0
  0
LINE
  8
DETAIL
  6
CONTINUOUS
 62
     5
 10
173.06747271600119
 20
-284.64999999999782
 30
0.0
 11
173.06747271600119
 21
-282.64999999999782
 31
0.0
  0
LINE
  8
DETAIL
  6
CONTINUOUS
 62
     5
 10
173.06747271600119
 20
-94.649999999999636
 30
0.0
 11
173.06747271600119
 21
-92.649999999999636
 31
0.0
  0
LINE
  8
DETAIL
  6
CONTINUOUS
 62
     5
 10
173.930680475999
 20
-44.649999999997817
 30
0.0
 11
173.930680475999
 21
-46.649999999995998
 31
0.0
  0
LINE
  8
DETAIL
  6
CONTINUOUS
 62
     5
 10
173.930680475999
 20
-234.64999999999779
 30
0.0
 11
173.930680475999
 21
-236.64999999999421
 31
0.0
  0
LINE
  8
DETAIL
  6
CONTINUOUS
 62
     5
 10
173.930680475999
 20
-284.64999999999782
 30
0.0
 11
173.930680475999
 21
-282.64999999999782
 31
0.0
  0
LINE
  8
DETAIL
  6
CONTINUOUS
 62
     5
 10
173.930680475999
 20
-94.649999999999636
 30
0.0
 11
173.930680475999
 21
-92.649999999999636
 31
0.0
  0
LINE
  8
DETAIL
  6
CONTINUOUS
 62
     5
 10
174.199999999998
 20
-326.44999999999709
 30
0.0
 11
174.199999999998
 21
-3.9499999999970901
 31
0.0
  0
LINE
  8
DETAIL
  6
CONTINUOUS
 62
     5
 10
175.40000000000239
 20
-325.24999999999818
 30
0.0
 11
175.40000000000239
 21
-5.1499999999996362
 31
0.0
  0
LINE
  8
DETAIL
  6
CONTINUOUS
 62
     5
 10
178.99999999999361
 20
-282.64999999999782
 30
0.0
 11
178.99999999999361
 21
-236.64999999999421
 31
0.0
  0
LINE
  8
DETAIL
  6
CONTINUOUS
 62
     5
 10
178.99999999999361
 20
-92.649999999999636
 30
0.0
 11
178.99999999999361
 21
-46.649999999995998
 31
0.0
  0
LINE
  8
DETAIL
  6
CONTINUOUS
 62
     5
 10
-175.40000000000239
 20
-5.1499999999996362
 30
0.0
 11
175.39999999999509
 21
-5.1500000000014552
 31
0.0
  0
LINE
  8
DETAIL
  6
CONTINUOUS
 62
     5
 10
-174.2000000000053
 20
-3.9499999999970901
 30
0.0
 11
174.199999999998
 21
-3.9499999999970901
 31
0.0
  0
LINE
  8
DETAIL
  6
CONTINUOUS
 62
     5
 10
-437.59999999999951
 20
-2.6499999999978172
 30
0.0
 11
-435.59999999999951
 21
-2.6499999999978172
 31
0.0
  0
LINE
  8
DETAIL
  6
CONTINUOUS
 62
     5
 10
435.59999999999951
 20
-2.6499999999978172
 30
0.0
 11
437.59999999999951
 21
-2.6499999999978172
 31
0.0
  0
LINE
  8
DETAIL
  6
CONTINUOUS
 62
     5
 10
438.09999999999951
 20
-1.149999999995998
 30
0.0
 11
443.17499999999649
 21
-1.149999999995998
 31
0.0
  0
LINE
  8
DETAIL
  6
CONTINUOUS
 62
     5
 10
-442.59999999999218
 20
-0.6499999999996362
 30
0.0
 11
-438.10000000000667
 21
-0.6499999999996362
 31
0.0
  0
LINE
  8
DETAIL
  6
CONTINUOUS
 62
     5
 10
-435.59999999999951
 20
-0.6499999999996362
 30
0.0
 11
-430.75000000000819
 21
-0.6499999999996362
 31
0.0
  0
LINE
  8
DETAIL
  6
CONTINUOUS
 62
     5
 10
430.74999999998641
 20
-0.6499999999996362
 30
0.0
 11
435.59999999999951
 21
-0.6499999999996362
 31
0.0
  0
LINE
  8
DETAIL
  6
CONTINUOUS
 62
     5
 10
438.09999999999951
 20
-0.6499999999996362
 30
0.0
 11
442.59999999999951
 21
-0.6499999999996362
 31
0.0
  0
LINE
  8
DETAIL
  6
CONTINUOUS
 62
     5
 10
-443.17500000000382
 20
-0.5
 30
0.0
 11
-437.55816558666362
 21
-0.499999999998181
 31
0.0
  0
LINE
  8
DETAIL
  6
CONTINUOUS
 62
     5
 10
437.55816558667078
 20
-0.499999999998181
 30
0.0
 11
443.17499999999649
 21
-0.5
 31
0.0
  0
LINE
  8
DETAIL
  6
CONTINUOUS
 62
     5
 10
-443.17499999998932
 20
0.000000000003638
 30
0.0
 11
-437.55816558666362
 21
0.0
 31
0.0
  0
LINE
  8
DETAIL
  6
CONTINUOUS
 62
     5
 10
-435.49999999999358
 20
0.0
 30
0.0
 11
435.49999999999358
 21
0.0
 31
0.0
  0
LINE
  8
DETAIL
  6
CONTINUOUS
 62
     5
 10
437.55816558667078
 20
0.0
 30
0.0
 11
443.17499999998932
 21
0.000000000003638
 31
0.0
  0
LINE
  8
DETAIL
  6
CONTINUOUS
 62
     5
 10
195.0679491919955
 20
-178.71410161599491
 30
0.0
 11
196.79999999999649
 21
-181.7141016159967
 31
0.0
  0
LINE
  8
DETAIL
  6
CONTINUOUS
 62
     5
 10
183.80000000000379
 20
-132.24999999999449
 30
0.0
 11
183.80000000000379
 21
-154.25
 31
0.0
  0
LINE
  8
DETAIL
  6
CONTINUOUS
 62
     5
 10
192.79999999999649
 20
-282.64999999999782
 30
0.0
 11
192.79999999999649
 21
-236.64999999999421
 31
0.0
  0
LINE
  8
DETAIL
  6
CONTINUOUS
 62
     5
 10
192.79999999999649
 20
-92.649999999999636
 30
0.0
 11
192.79999999999649
 21
-46.649999999995998
 31
0.0
  0
LINE
  8
DETAIL
  6
CONTINUOUS
 62
     5
 10
194.80000000000379
 20
-58.649999999997817
 30
0.0
 11
194.80000000000379
 21
-126.2499999999982
 31
0.0
  0
LINE
  8
DETAIL
  6
CONTINUOUS
 62
     5
 10
194.80000000000379
 20
-311.84999999999849
 30
0.0
 11
194.80000000000379
 21
-254.78589838533119
 31
0.0
  0
LINE
  8
DETAIL
  6
CONTINUOUS
 62
     5
 10
194.80000000000379
 20
-233.71410161599491
 30
0.0
 11
194.80000000000379
 21
-198.7858983853275
 31
0.0
  0
LINE
  8
DETAIL
  6
CONTINUOUS
 62
     5
 10
194.80000000000379
 20
-177.71410161599491
 30
0.0
 11
194.80000000000379
 21
-160.24999999999639
 31
0.0
  0
LINE
  8
DETAIL
  6
CONTINUOUS
 62
     5
 10
196.79999999999649
 20
-181.7141016159967
 30
0.0
 11
196.79999999999649
 21
-194.78589838533119
 31
0.0
  0
LINE
  8
DETAIL
  6
CONTINUOUS
 62
     5
 10
196.79999999999649
 20
-237.71410161599491
 30
0.0
 11
196.79999999999649
 21
-250.78589838532929
 31
0.0
  0
LINE
  8
DETAIL
  6
CONTINUOUS
 62
     5
 10
198.89999999999779
 20
-314.85000000000042
 30
0.0
 11
198.89999999999779
 21
-55.649999999999643
 31
0.0
  0
LINE
  8
DETAIL
  6
CONTINUOUS
 62
     5
 10
200.10000000000221
 20
-314.85000000000042
 30
0.0
 11
200.10000000000221
 21
-315.44999999999533
 31
0.0
  0
LINE
  8
DETAIL
  6
CONTINUOUS
 62
     5
 10
200.10000000000221
 20
-55.649999999999643
 30
0.0
 11
200.10000000000221
 21
-55.049999999995627
 31
0.0
  0
LINE
  8
DETAIL
  6
CONTINUOUS
 62
     5
 10
211.49999999999639
 20
-58.649999999997817
 30
0.0
 11
211.49999999999639
 21
-311.84999999999849
 31
0.0
  0
LINE
  8
DETAIL
  6
CONTINUOUS
 62
     5
 10
211.49999999999639
 20
-315.44999999999533
 30
0.0
 11
211.49999999999639
 21
-316.04999999999751
 31
0.0
  0
LINE
  8
DETAIL
  6
CONTINUOUS
 62
     5
 10
211.49999999999639
 20
-55.049999999995627
 30
0.0
 11
211.49999999999639
 21
-54.449999999998909
 31
0.0
  0
LINE
  8
DETAIL
  6
CONTINUOUS
 62
     5
 10
196.79999999999649
 20
-194.78589838533119
 30
0.0
 11
195.0679491919955
 21
-197.78589838532929
 31
0.0
  0
LINE
  8
DETAIL
  6
CONTINUOUS
 62
     5
 10
196.79999999999649
 20
-250.78589838532929
 30
0.0
 11
195.0679491919955
 21
-253.7858983853275
 31
0.0
  0
LINE
  8
DETAIL
  6
CONTINUOUS
 62
     5
 10
431.39999999999509
 20
0.0
 30
0.0
 11
429.74999999998641
 21
-1.6500000000105499
 31
0.0
  0
LINE
  8
DETAIL
  6
CONTINUOUS
 62
     5
 10
431.33000000000271
 20
-330.99999999999551
 30
0.0
 11
429.07999999998083
 21
-328.74999999997908
 31
0.0
  0
LINE
  8
DETAIL
  6
CONTINUOUS
 62
     5
 10
388.29999999999927
 20
-105.2499999999982
 30
0.0
 11
391.29999999999927
 21
-102.2499999999982
 31
0.0
  0
LINE
  8
DETAIL
  6
CONTINUOUS
 62
     5
 10
391.29999999999927
 20
-233.24999999999639
 30
0.0
 11
388.29999999999927
 21
-230.24999999999639
 31
0.0
  0
LINE
  8
DETAIL
  6
CONTINUOUS
 62
     5
 10
391.29999999999927
 20
-60.999999999998181
 30
0.0
 11
388.29999999999927
 21
-57.999999999998181
 31
0.0
  0
LINE
  8
DETAIL
  6
CONTINUOUS
 62
     5
 10
368.10000000000218
 20
-263.24999999999449
 30
0.0
 11
368.10000000000218
 21
-248.24999999999449
 31
0.0
  0
LINE
  8
DETAIL
  6
CONTINUOUS
 62
     5
 10
368.10000000000218
 20
-122.2499999999964
 30
0.0
 11
368.10000000000218
 21
-107.2499999999964
 31
0.0
  0
LINE
  8
DETAIL
  6
CONTINUOUS
 62
     5
 10
369.29999999999927
 20
-315.44999999999533
 30
0.0
 11
369.29999999999927
 21
-264.24999999999818
 31
0.0
  0
LINE
  8
DETAIL
  6
CONTINUOUS
 62
     5
 10
369.29999999999927
 20
-247.24999999999449
 30
0.0
 11
369.29999999999927
 21
-123.2499999999964
 31
0.0
  0
LINE
  8
DETAIL
  6
CONTINUOUS
 62
     5
 10
369.29999999999927
 20
-106.25
 30
0.0
 11
369.29999999999927
 21
-55.049999999995627
 31
0.0
  0
LINE
  8
DETAIL
  6
CONTINUOUS
 62
     5
 10
373.29999999999927
 20
-312.49999999999642
 30
0.0
 11
373.29999999999927
 21
-57.999999999998181
 31
0.0
  0
LINE
  8
DETAIL
  6
CONTINUOUS
 62
     5
 10
374.4244998000031
 20
-90.620367141331371
 30
0.0
 11
374.4244998000031
 21
-89.179632859997582
 31
0.0
  0
LINE
  8
DETAIL
  6
CONTINUOUS
 62
     5
 10
376.29999999999927
 20
-66.399999999997817
 30
0.0
 11
376.29999999999927
 21
-86.399999999999636
 31
0.0
  0
LINE
  8
DETAIL
  6
CONTINUOUS
 62
     5
 10
376.29999999999927
 20
-93.399999999995998
 30
0.0
 11
376.29999999999927
 21
-113.3999999999978
 31
0.0
  0
LINE
  8
DETAIL
  6
CONTINUOUS
 62
     5
 10
376.29999999999927
 20
-264.09999999999673
 30
0.0
 11
376.29999999999927
 21
-284.09999999999849
 31
0.0
  0
LINE
  8
DETAIL
  6
CONTINUOUS
 62
     5
 10
376.39999999999782
 20
-86.249999999998181
 30
0.0
 11
376.39999999999782
 21
-96.249999999996362
 31
0.0
  0
LINE
  8
DETAIL
  6
CONTINUOUS
 62
     5
 10
377.49999999999642
 20
-227.24999999999821
 30
0.0
 11
377.49999999999642
 21
-108.2499999999964
 31
0.0
  0
LINE
  8
DETAIL
  6
CONTINUOUS
 62
     5
 10
380.70000000000073
 20
-96.249999999996362
 30
0.0
 11
380.70000000000073
 21
-86.249999999998181
 31
0.0
  0
LINE
  8
DETAIL
  6
CONTINUOUS
 62
     5
 10
381.89999999999782
 20
-77.44999999999709
 30
0.0
 11
381.89999999999782
 21
-86.249999999998181
 31
0.0
  0
LINE
  8
DETAIL
  6
CONTINUOUS
 62
     5
 10
381.89999999999782
 20
-119.9155069319968
 30
0.0
 11
381.89999999999782
 21
-96.249999999996362
 31
0.0
  0
LINE
  8
DETAIL
  6
CONTINUOUS
 62
     5
 10
383.10000000000218
 20
-77.44999999999709
 30
0.0
 11
383.10000000000218
 21
-86.249999999998181
 31
0.0
  0
LINE
  8
DETAIL
  6
CONTINUOUS
 62
     5
 10
383.10000000000218
 20
-96.249999999996362
 30
0.0
 11
383.10000000000218
 21
-119.9155069319968
 31
0.0
  0
LINE
  8
DETAIL
  6
CONTINUOUS
 62
     5
 10
384.29999999999927
 20
-86.249999999998181
 30
0.0
 11
384.29999999999927
 21
-96.249999999996362
 31
0.0
  0
LINE
  8
DETAIL
  6
CONTINUOUS
 62
     5
 10
391.29999999999927
 20
-60.999999999998181
 30
0.0
 11
391.29999999999927
 21
-67.478730513330447
 31
0.0
  0
LINE
  8
DETAIL
  6
CONTINUOUS
 62
     5
 10
391.29999999999927
 20
-68.682329914663569
 30
0.0
 11
391.29999999999927
 21
-86.249999999998181
 31
0.0
  0
LINE
  8
DETAIL
  6
CONTINUOUS
 62
     5
 10
391.29999999999927
 20
-87.44999999999709
 30
0.0
 11
391.29999999999927
 21
-102.2499999999982
 31
0.0
  0
LINE
  8
DETAIL
  6
CONTINUOUS
 62
     5
 10
391.29999999999927
 20
-233.24999999999639
 30
0.0
 11
391.29999999999927
 21
-309.49999999999449
 31
0.0
  0
LINE
  8
DETAIL
  6
CONTINUOUS
 62
     5
 10
388.29999999999927
 20
-312.49999999999642
 30
0.0
 11
391.29999999999927
 21
-309.49999999999449
 31
0.0
  0
LINE
  8
DETAIL
  6
CONTINUOUS
 62
     5
 10
436.23915342266349
 20
-329.5394491893303
 30
0.0
 11
436.10884350266218
 21
-328.04999999999472
 31
0.0
  0
LINE
  8
DETAIL
  6
CONTINUOUS
 62
     5
 10
437.0361091800014
 20
-329.46972459466178
 30
0.0
 11
436.91189937333638
 21
-328.04999999999472
 31
0.0
  0
LINE
  8
DETAIL
  6
CONTINUOUS
 62
     5
 10
412.59999999999951
 20
-102.9999999999991
 30
0.0
 11
412.59999999999951
 21
-81.19999999999618
 31
0.0
  0
LINE
  8
DETAIL
  6
CONTINUOUS
 62
     5
 10
431.09999999999951
 20
-81.19999999999618
 30
0.0
 11
431.09999999999951
 21
-88.19999999999618
 31
0.0
  0
LINE
  8
DETAIL
  6
CONTINUOUS
 62
     5
 10
436.40998945466799
 20
-2.6499999999978172
 30
0.0
 11
436.56197088933641
 21
-0.9128442573273787
 31
0.0
  0
LINE
  8
DETAIL
  6
CONTINUOUS
 62
     5
 10
436.91189937333638
 20
-2.6499999999978172
 30
0.0
 11
437.06006823733418
 21
-0.9564221293276205
 31
0.0
  0
LINE
  8
DETAIL
  6
CONTINUOUS
 62
     5
 10
435.09999999999951
 20
-330.04999999999649
 30
0.0
 11
435.09999999999951
 21
-330.99999999999551
 31
0.0
  0
LINE
  8
DETAIL
  6
CONTINUOUS
 62
     5
 10
435.49999999999358
 20
0.0
 30
0.0
 11
435.49999999999358
 21
-0.6499999999996362
 31
0.0
  0
LINE
  8
DETAIL
  6
CONTINUOUS
 62
     5
 10
435.59999999999951
 20
-330.04999999999649
 30
0.0
 11
435.59999999999951
 21
-328.04999999999472
 31
0.0
  0
LINE
  8
DETAIL
  6
CONTINUOUS
 62
     5
 10
435.59999999999951
 20
-2.6499999999978172
 30
0.0
 11
435.59999999999951
 21
-0.6499999999996362
 31
0.0
  0
LINE
  8
DETAIL
  6
CONTINUOUS
 62
     5
 10
437.09999999999951
 20
-1.649999999994179
 30
0.0
 11
437.09999999999951
 21
-2.6499999999978172
 31
0.0
  0
LINE
  8
DETAIL
  6
CONTINUOUS
 62
     5
 10
437.09999999999951
 20
-329.04999999999842
 30
0.0
 11
437.09999999999951
 21
-328.04999999999472
 31
0.0
  0
LINE
  8
DETAIL
  6
CONTINUOUS
 62
     5
 10
437.59999999999951
 20
-329.04999999999842
 30
0.0
 11
437.59999999999951
 21
-107.9999999999955
 31
0.0
  0
LINE
  8
DETAIL
  6
CONTINUOUS
 62
     5
 10
437.59999999999951
 20
-84.999999999999091
 30
0.0
 11
437.59999999999951
 21
-1.649999999994179
 31
0.0
  0
LINE
  8
DETAIL
  6
CONTINUOUS
 62
     5
 10
442.59999999999951
 20
-0.6499999999996362
 30
0.0
 11
442.59999999999951
 21
-1.149999999995998
 31
0.0
  0
LINE
  8
DETAIL
  6
CONTINUOUS
 62
     5
 10
442.59999999999951
 20
-329.54999999999842
 30
0.0
 11
442.59999999999951
 21
-330.04999999999649
 31
0.0
  0
LINE
  8
DETAIL
  6
CONTINUOUS
 62
     5
 10
444.09999999999951
 20
-91.999999999995453
 30
0.0
 11
444.09999999999951
 21
-84.999999999999091
 31
0.0
  0
LINE
  8
DETAIL
  6
CONTINUOUS
 62
     5
 10
456.09999999999951
 20
-129.9999999999973
 30
0.0
 11
456.09999999999951
 21
-84.999999999999091
 31
0.0
  0
ARC
  8
DETAIL
  6
CONTINUOUS
 62
     5
 10
-181.00000000000091
 20
-172.6999999999953
 30
0.0
 40
5.1339745959999821
 50
0.0
 51
180.0
  0
CIRCLE
  8
DETAIL
  6
CONTINUOUS
 62
     5
 10
-165.7000000000053
 20
-183.99999999999821
 30
0.0
 40
4.6999999999999842
  0
ARC
  8
DETAIL
  6
CONTINUOUS
 62
     5
 10
-169.199999999998
 20
-214.49999999999639
 30
0.0
 40
2.9999999999999898
 50
270.0
 51
0.0
  0
ARC
  8
DETAIL
  6
CONTINUOUS
 62
     5
 10
-169.199999999998
 20
-180.49999999999639
 30
0.0
 40
2.9999999999999898
 50
90.0
 51
180.0
  0
ARC
  8
DETAIL
  6
CONTINUOUS
 62
     5
 10
-162.199999999998
 20
-180.49999999999639
 30
0.0
 40
2.9999999999999898
 50
0.0
 51
90.0
  0
ARC
  8
DETAIL
  6
CONTINUOUS
 62
     5
 10
-173.60526315733389
 20
-187.49999999999639
 30
0.0
 40
2.5947368426666579
 50
133.84961891521289
 51
186.65103627650871
  0
ARC
  8
DETAIL
  6
CONTINUOUS
 62
     5
 10
-173.60526315733389
 20
-207.5
 30
0.0
 40
2.5947368426666579
 50
133.84961891650391
 51
226.15038108349609
  0
ARC
  8
DETAIL
  6
CONTINUOUS
 62
     5
 10
-181.00000000000091
 20
-190.09999999999849
 30
0.0
 40
1.949999999999994
 50
116.9735301477717
 51
2.943019772792411
  0
ARC
  8
DETAIL
  6
CONTINUOUS
 62
     5
 10
-181.00000000000091
 20
-172.6999999999953
 30
0.0
 40
1.7769657399999941
 50
0.0
 51
180.0
  0
ARC
  8
DETAIL
  6
CONTINUOUS
 62
     5
 10
-437.83306493867082
 20
-329.39999999999509
 30
0.0
 40
1.599999999999995
 50
270.0
 51
355.00000000000028
  0
ARC
  8
DETAIL
  6
CONTINUOUS
 62
     5
 10
-178.09999999999951
 20
-194.67004829866161
 30
0.0
 40
0.9999999999999969
 50
95.000000008081599
 51
180.0
  0
ARC
  8
DETAIL
  6
CONTINUOUS
 62
     5
 10
-178.09999999999951
 20
-200.32995170266261
 30
0.0
 40
0.9999999999999969
 50
180.0
 51
264.9999999919184
  0
ARC
  8
DETAIL
  6
CONTINUOUS
 62
     5
 10
-438.10000000000667
 20
-329.04999999999842
 30
0.0
 40
0.9999999999999969
 50
270.0
 51
0.0
  0
ARC
  8
DETAIL
  6
CONTINUOUS
 62
     5
 10
-437.83306493867082
 20
-329.39999999999509
 30
0.0
 40
0.7999999999999975
 50
270.0
 51
355.00000000010488
  0
ARC
  8
DETAIL
  6
CONTINUOUS
 62
     5
 10
-438.10000000000667
 20
-329.04999999999842
 30
0.0
 40
0.4999999999999984
 50
270.0
 51
0.0
  0
ARC
  8
DETAIL
  6
CONTINUOUS
 62
     5
 10
-181.00000000000091
 20
-157.6999999999953
 30
0.0
 40
5.1339745959999821
 50
180.0
 51
0.0
  0
ARC
  8
DETAIL
  6
CONTINUOUS
 62
     5
 10
-417.59999999999951
 20
-102.9999999999991
 30
0.0
 40
4.999999999999984
 50
270.0
 51
0.0
  0
ARC
  8
DETAIL
  6
CONTINUOUS
 62
     5
 10
-451.09999999999951
 20
-129.9999999999973
 30
0.0
 40
4.999999999999984
 50
180.0
 51
270.0
  0
ARC
  8
DETAIL
  6
CONTINUOUS
 62
     5
 10
-441.00000000000091
 20
-110.9999999999991
 30
0.0
 40
2.9999999999999898
 50
90.0
 51
270.0
  0
ARC
  8
DETAIL
  6
CONTINUOUS
 62
     5
 10
-424.59999999999951
 20
-99.999999999995453
 30
0.0
 40
2.9999999999999898
 50
270.0
 51
90.0
  0
ARC
  8
DETAIL
  6
CONTINUOUS
 62
     5
 10
-415.59999999999951
 20
-81.19999999999618
 30
0.0
 40
2.9999999999999898
 50
0.0
 51
90.0
  0
ARC
  8
DETAIL
  6
CONTINUOUS
 62
     5
 10
-428.09999999999951
 20
-81.19999999999618
 30
0.0
 40
2.9999999999999898
 50
90.0
 51
180.0
  0
ARC
  8
DETAIL
  6
CONTINUOUS
 62
     5
 10
-426.59999999999951
 20
-99.999999999995453
 30
0.0
 40
2.9999999999999898
 50
90.0
 51
270.0
  0
ARC
  8
DETAIL
  6
CONTINUOUS
 62
     5
 10
-447.09999999999951
 20
-91.999999999995453
 30
0.0
 40
2.9999999999999898
 50
270.0
 51
0.0
  0
ARC
  8
DETAIL
  6
CONTINUOUS
 62
     5
 10
-453.10000000000667
 20
-91.999999999995453
 30
0.0
 40
2.9999999999999898
 50
180.0
 51
270.0
  0
CIRCLE
  8
DETAIL
  6
CONTINUOUS
 62
     5
 10
-425.59999999999951
 20
-99.999999999995453
 30
0.0
 40
2.499999999999992
  0
ARC
  8
DETAIL
  6
CONTINUOUS
 62
     5
 10
-181.00000000000091
 20
-140.29999999999561
 30
0.0
 40
1.949999999999994
 50
357.05701709419441
 51
243.0351444587202
  0
ARC
  8
DETAIL
  6
CONTINUOUS
 62
     5
 10
-181.00000000000091
 20
-157.6999999999953
 30
0.0
 40
1.7769657399999941
 50
180.0
 51
0.0
  0
ARC
  8
DETAIL
  6
CONTINUOUS
 62
     5
 10
-437.55816558666362
 20
-0.999999999996362
 30
0.0
 40
0.9999999999999969
 50
4.9999999999997433
 51
90.0
  0
ARC
  8
DETAIL
  6
CONTINUOUS
 62
     5
 10
-438.10000000000667
 20
-1.649999999994179
 30
0.0
 40
0.9999999999999969
 50
0.0
 51
90.0
  0
ARC
  8
DETAIL
  6
CONTINUOUS
 62
     5
 10
-438.10000000000667
 20
-1.649999999994179
 30
0.0
 40
0.4999999999999984
 50
0.0
 51
90.0
  0
ARC
  8
DETAIL
  6
CONTINUOUS
 62
     5
 10
-437.55816558666362
 20
-0.999999999996362
 30
0.0
 40
0.4999999999999984
 50
4.9999999998950679
 51
90.0
  0
CIRCLE
  8
DETAIL
  6
CONTINUOUS
 62
     5
 10
185.79999999999649
 20
-277.149999999996
 30
0.0
 40
4.6999999999999842
  0
ARC
  8
DETAIL
  6
CONTINUOUS
 62
     5
 10
197.79999999999649
 20
-311.84999999999849
 30
0.0
 40
2.9999999999999898
 50
180.0
 51
270.0
  0
ARC
  8
DETAIL
  6
CONTINUOUS
 62
     5
 10
208.49999999999639
 20
-311.84999999999849
 30
0.0
 40
2.9999999999999898
 50
270.0
 51
0.0
  0
ARC
  8
DETAIL
  6
CONTINUOUS
 62
     5
 10
196.79999999999649
 20
-254.78589838533119
 30
0.0
 40
1.999999999999994
 50
150.00000000000389
 51
180.0
  0
ARC
  8
DETAIL
  6
CONTINUOUS
 62
     5
 10
200.10000000000221
 20
-314.85000000000042
 30
0.0
 40
1.199999999999996
 50
180.0
 51
270.0
  0
ARC
  8
DETAIL
  6
CONTINUOUS
 62
     5
 10
200.10000000000221
 20
-314.85000000000042
 30
0.0
 40
0.5999999999999982
 50
180.0
 51
270.0
  0
CIRCLE
  8
DETAIL
  6
CONTINUOUS
 62
     5
 10
185.79999999999649
 20
-252.149999999996
 30
0.0
 40
4.6999999999999842
  0
ARC
  8
DETAIL
  6
CONTINUOUS
 62
     5
 10
196.79999999999649
 20
-233.71410161599491
 30
0.0
 40
1.999999999999994
 50
180.0
 51
209.99999999999611
  0
ARC
  8
DETAIL
  6
CONTINUOUS
 62
     5
 10
196.79999999999649
 20
-198.7858983853275
 30
0.0
 40
1.999999999999994
 50
150.00000000000389
 51
180.0
  0
ARC
  8
DETAIL
  6
CONTINUOUS
 62
     5
 10
196.79999999999649
 20
-177.71410161599491
 30
0.0
 40
1.999999999999994
 50
180.0
 51
209.99999999999611
  0
CIRCLE
  8
DETAIL
  6
CONTINUOUS
 62
     5
 10
383.29999999999927
 20
-285.24999999999642
 30
0.0
 40
4.6999999999999842
  0
CIRCLE
  8
DETAIL
  6
CONTINUOUS
 62
     5
 10
362.49999999999642
 20
-290.24999999999818
 30
0.0
 40
4.6999999999999842
  0
ARC
  8
DETAIL
  6
CONTINUOUS
 62
     5
 10
373.29999999999927
 20
-264.09999999999673
 30
0.0
 40
2.9999999999999898
 50
0.0
 51
90.0
  0
ARC
  8
DETAIL
  6
CONTINUOUS
 62
     5
 10
373.29999999999927
 20
-284.09999999999849
 30
0.0
 40
2.9999999999999898
 50
270.0
 51
0.0
  0
ARC
  8
DETAIL
  6
CONTINUOUS
 62
     5
 10
437.83306493867082
 20
-329.39999999999509
 30
0.0
 40
1.599999999999995
 50
184.99999999999969
 51
270.0
  0
ARC
  8
DETAIL
  6
CONTINUOUS
 62
     5
 10
371.70000000000073
 20
-312.49999999999642
 30
0.0
 40
1.599999999999995
 50
270.0
 51
0.0
  0
ARC
  8
DETAIL
  6
CONTINUOUS
 62
     5
 10
368.29999999999927
 20
-264.24999999999818
 30
0.0
 40
0.9999999999999969
 50
0.0
 51
90.0
  0
ARC
  8
DETAIL
  6
CONTINUOUS
 62
     5
 10
438.09999999999951
 20
-329.04999999999842
 30
0.0
 40
0.9999999999999969
 50
180.0
 51
270.0
  0
ARC
  8
DETAIL
  6
CONTINUOUS
 62
     5
 10
437.83306493867082
 20
-329.39999999999509
 30
0.0
 40
0.7999999999999975
 50
184.9999999998951
 51
269.99999999989569
  0
ARC
  8
DETAIL
  6
CONTINUOUS
 62
     5
 10
438.09999999999951
 20
-329.04999999999842
 30
0.0
 40
0.4999999999999984
 50
180.0
 51
270.0
  0
ARC
  8
DETAIL
  6
CONTINUOUS
 62
     5
 10
380.50000000000358
 20
-227.24999999999821
 30
0.0
 40
2.9999999999999898
 50
180.0
 51
270.0
  0
ARC
  8
DETAIL
  6
CONTINUOUS
 62
     5
 10
368.29999999999927
 20
-247.24999999999449
 30
0.0
 40
0.9999999999999969
 50
270.0
 51
0.0
  0
CIRCLE
  8
DETAIL
  6
CONTINUOUS
 62
     5
 10
185.79999999999649
 20
-87.149999999995998
 30
0.0
 40
4.6999999999999842
  0
CIRCLE
  8
DETAIL
  6
CONTINUOUS
 62
     5
 10
189.79999999999649
 20
-143.24999999999639
 30
0.0
 40
4.6999999999999842
  0
ARC
  8
DETAIL
  6
CONTINUOUS
 62
     5
 10
186.80000000000379
 20
-154.25
 30
0.0
 40
2.9999999999999898
 50
180.0
 51
270.0
  0
ARC
  8
DETAIL
  6
CONTINUOUS
 62
     5
 10
186.80000000000379
 20
-132.24999999999449
 30
0.0
 40
2.9999999999999898
 50
90.0
 51
180.0
  0
ARC
  8
DETAIL
  6
CONTINUOUS
 62
     5
 10
191.79999999999649
 20
-126.2499999999982
 30
0.0
 40
2.9999999999999898
 50
270.0
 51
0.0
  0
ARC
  8
DETAIL
  6
CONTINUOUS
 62
     5
 10
191.79999999999649
 20
-160.24999999999639
 30
0.0
 40
2.9999999999999898
 50
0.0
 51
90.0
  0
CIRCLE
  8
DETAIL
  6
CONTINUOUS
 62
     5
 10
185.79999999999649
 20
-62.149999999997817
 30
0.0
 40
4.6999999999999842
  0
ARC
  8
DETAIL
  6
CONTINUOUS
 62
     5
 10
197.79999999999649
 20
-58.649999999997817
 30
0.0
 40
2.9999999999999898
 50
90.0
 51
180.0
  0
ARC
  8
DETAIL
  6
CONTINUOUS
 62
     5
 10
208.49999999999639
 20
-58.649999999997817
 30
0.0
 40
2.9999999999999898
 50
0.0
 51
90.0
  0
ARC
  8
DETAIL
  6
CONTINUOUS
 62
     5
 10
200.10000000000221
 20
-55.649999999999643
 30
0.0
 40
1.199999999999996
 50
90.0
 51
180.0
  0
ARC
  8
DETAIL
  6
CONTINUOUS
 62
     5
 10
200.10000000000221
 20
-55.649999999999643
 30
0.0
 40
0.5999999999999982
 50
90.0
 51
180.0
  0
ARC
  8
DETAIL
  6
CONTINUOUS
 62
     5
 10
451.09999999999951
 20
-129.9999999999973
 30
0.0
 40
4.999999999999984
 50
270.0
 51
0.0
  0
ARC
  8
DETAIL
  6
CONTINUOUS
 62
     5
 10
417.59999999999951
 20
-102.9999999999991
 30
0.0
 40
4.999999999999984
 50
180.0
 51
270.0
  0
ARC
  8
DETAIL
  6
CONTINUOUS
 62
     5
 10
373.29999999999927
 20
-93.399999999995998
 30
0.0
 40
2.9999999999999898
 50
0.0
 51
90.0
  0
ARC
  8
DETAIL
  6
CONTINUOUS
 62
     5
 10
373.29999999999927
 20
-113.3999999999978
 30
0.0
 40
2.9999999999999898
 50
270.0
 51
0.0
  0
ARC
  8
DETAIL
  6
CONTINUOUS
 62
     5
 10
373.29999999999927
 20
-86.399999999999636
 30
0.0
 40
2.9999999999999898
 50
270.0
 51
0.0
  0
ARC
  8
DETAIL
  6
CONTINUOUS
 62
     5
 10
441.00000000000091
 20
-110.9999999999991
 30
0.0
 40
2.9999999999999898
 50
270.0
 51
90.0
  0
ARC
  8
DETAIL
  6
CONTINUOUS
 62
     5
 10
424.59999999999951
 20
-99.999999999995453
 30
0.0
 40
2.9999999999999898
 50
90.0
 51
270.0
  0
ARC
  8
DETAIL
  6
CONTINUOUS
 62
     5
 10
415.59999999999951
 20
-81.19999999999618
 30
0.0
 40
2.9999999999999898
 50
90.0
 51
180.0
  0
ARC
  8
DETAIL
  6
CONTINUOUS
 62
     5
 10
428.09999999999951
 20
-81.19999999999618
 30
0.0
 40
2.9999999999999898
 50
0.0
 51
90.0
  0
ARC
  8
DETAIL
  6
CONTINUOUS
 62
     5
 10
426.59999999999951
 20
-99.999999999995453
 30
0.0
 40
2.9999999999999898
 50
270.0
 51
90.0
  0
ARC
  8
DETAIL
  6
CONTINUOUS
 62
     5
 10
447.09999999999951
 20
-91.999999999995453
 30
0.0
 40
2.9999999999999898
 50
180.0
 51
270.0
  0
ARC
  8
DETAIL
  6
CONTINUOUS
 62
     5
 10
453.09999999999951
 20
-91.999999999995453
 30
0.0
 40
2.9999999999999898
 50
270.0
 51
0.0
  0
ARC
  8
DETAIL
  6
CONTINUOUS
 62
     5
 10
380.50000000000358
 20
-108.2499999999964
 30
0.0
 40
2.9999999999999898
 50
90.0
 51
180.0
  0
CIRCLE
  8
DETAIL
  6
CONTINUOUS
 62
     5
 10
425.59999999999951
 20
-99.999999999995453
 30
0.0
 40
2.499999999999992
  0
ARC
  8
DETAIL
  6
CONTINUOUS
 62
     5
 10
368.29999999999927
 20
-106.25
 30
0.0
 40
0.9999999999999969
 50
270.0
 51
0.0
  0
ARC
  8
DETAIL
  6
CONTINUOUS
 62
     5
 10
368.29999999999927
 20
-123.2499999999964
 30
0.0
 40
0.9999999999999969
 50
0.0
 51
90.0
  0
ARC
  8
DETAIL
  6
CONTINUOUS
 62
     5
 10
391.89999999999782
 20
-77.44999999999709
 30
0.0
 40
9.999999999999968
 50
270.0
 51
180.0
  0
ARC
  8
DETAIL
  6
CONTINUOUS
 62
     5
 10
391.89999999999782
 20
-77.44999999999709
 30
0.0
 40
8.7999999999999741
 50
270.0
 51
180.0
  0
ARC
  8
DETAIL
  6
CONTINUOUS
 62
     5
 10
383.29999999999927
 20
-77.249999999994543
 30
0.0
 40
5.4999999999999822
 50
131.97416068468169
 51
255.24000878682381
  0
ARC
  8
DETAIL
  6
CONTINUOUS
 62
     5
 10
383.29999999999927
 20
-77.249999999994543
 30
0.0
 40
5.4999999999999822
 50
267.91752440258438
 51
48.025839315318343
  0
ARC
  8
DETAIL
  6
CONTINUOUS
 62
     5
 10
383.29999999999927
 20
-70.249999999998181
 30
0.0
 40
4.6999999999999842
 50
22.833675615710121
 51
257.24802663457677
  0
ARC
  8
DETAIL
  6
CONTINUOUS
 62
     5
 10
383.29999999999927
 20
-70.249999999998181
 30
0.0
 40
4.6999999999999842
 50
272.24859668208552
 51
7.89241666071295
  0
CIRCLE
  8
DETAIL
  6
CONTINUOUS
 62
     5
 10
362.49999999999642
 20
-80.249999999996362
 30
0.0
 40
4.6999999999999842
  0
ARC
  8
DETAIL
  6
CONTINUOUS
 62
     5
 10
373.29999999999927
 20
-66.399999999997817
 30
0.0
 40
2.9999999999999898
 50
0.0
 51
90.0
  0
ARC
  8
DETAIL
  6
CONTINUOUS
 62
     5
 10
371.70000000000073
 20
-57.999999999998181
 30
0.0
 40
1.599999999999995
 50
0.0
 51
90.0
  0
ARC
  8
DETAIL
  6
CONTINUOUS
 62
     5
 10
437.55816558667078
 20
-0.999999999996362
 30
0.0
 40
0.9999999999999969
 50
90.0
 51
175.00000000000031
  0
ARC
  8
DETAIL
  6
CONTINUOUS
 62
     5
 10
438.09999999999951
 20
-1.649999999994179
 30
0.0
 40
0.9999999999999969
 50
90.0
 51
180.0
  0
ARC
  8
DETAIL
  6
CONTINUOUS
 62
     5
 10
438.09999999999951
 20
-1.649999999994179
 30
0.0
 40
0.4999999999999984
 50
90.0
 51
180.0
  0
ARC
  8
DETAIL
  6
CONTINUOUS
 62
     5
 10
437.55816558667078
 20
-0.999999999996362
 30
0.0
 40
0.4999999999999984
 50
90.0
 51
175.0000000001049
  0
LINE
  8
DETAIL
  6
CONTINUOUS
 62
     5
 10
172.72014353066419
 20
-234.64999999999779
 30
0.0
 11
172.32263196688305
 21
-234.70683629795482
 31
0.0
  0
LINE
  8
DETAIL
  6
CONTINUOUS
 62
     5
 10
172.32263196688305
 20
-234.70683629795482
 30
0.0
 11
171.94864502320954
 21
-234.86337297436074
 31
0.0
  0
LINE
  8
DETAIL
  6
CONTINUOUS
 62
     5
 10
171.94864502320954
 20
-234.86337297436074
 30
0.0
 11
171.6221359867466
 21
-235.09876480602378
 31
0.0
  0
LINE
  8
DETAIL
  6
CONTINUOUS
 62
     5
 10
171.6221359867466
 20
-235.09876480602378
 30
0.0
 11
171.34712387101763
 21
-235.39273198947967
 31
0.0
  0
LINE
  8
DETAIL
  6
CONTINUOUS
 62
     5
 10
171.34712387101763
 20
-235.39273198947967
 30
0.0
 11
171.12138026668737
 21
-235.72559720962778
 31
0.0
  0
LINE
  8
DETAIL
  6
CONTINUOUS
 62
     5
 10
171.12138026668737
 20
-235.72559720962778
 30
0.0
 11
170.94217503743144
 21
-236.08458092051785
 31
0.0
  0
LINE
  8
DETAIL
  6
CONTINUOUS
 62
     5
 10
170.94217503743144
 20
-236.08458092051785
 30
0.0
 11
170.80637311996423
 21
-236.46249324815341
 31
0.0
  0
LINE
  8
DETAIL
  6
CONTINUOUS
 62
     5
 10
170.80637311996423
 20
-236.46249324815341
 30
0.0
 11
170.71107303006511
 21
-236.85261705166812
 31
0.0
  0
LINE
  8
DETAIL
  6
CONTINUOUS
 62
     5
 10
170.71107303006511
 20
-236.85261705166812
 30
0.0
 11
170.65470913123468
 21
-237.24993368241167
 31
0.0
  0
LINE
  8
DETAIL
  6
CONTINUOUS
 62
     5
 10
170.65470913123468
 20
-237.24993368241167
 30
0.0
 11
170.63616841866411
 21
-237.64999999999779
 31
0.0
  0
LINE
  8
DETAIL
  6
CONTINUOUS
 62
     5
 10
170.63616841866411
 20
-281.64999999999418
 30
0.0
 11
170.65470913123468
 21
-282.05006631777485
 31
0.0
  0
LINE
  8
DETAIL
  6
CONTINUOUS
 62
     5
 10
170.65470913123468
 20
-282.05006631777485
 30
0.0
 11
170.71107303006508
 21
-282.44738294888663
 31
0.0
  0
LINE
  8
DETAIL
  6
CONTINUOUS
 62
     5
 10
170.71107303006508
 20
-282.44738294888663
 30
0.0
 11
170.80637311996421
 21
-282.83750675262036
 31
0.0
  0
LINE
  8
DETAIL
  6
CONTINUOUS
 62
     5
 10
170.80637311996421
 20
-282.83750675262036
 30
0.0
 11
170.94217503743144
 21
-283.21541908014655
 31
0.0
  0
LINE
  8
DETAIL
  6
CONTINUOUS
 62
     5
 10
170.94217503743144
 20
-283.21541908014655
 30
0.0
 11
171.12138026668737
 21
-283.57440279084307
 31
0.0
  0
LINE
  8
DETAIL
  6
CONTINUOUS
 62
     5
 10
171.12138026668737
 20
-283.57440279084307
 30
0.0
 11
171.34712387101763
 21
-283.90726801102619
 31
0.0
  0
LINE
  8
DETAIL
  6
CONTINUOUS
 62
     5
 10
171.34712387101763
 20
-283.90726801102619
 30
0.0
 11
171.6221359867466
 21
-284.20123519472185
 31
0.0
  0
LINE
  8
DETAIL
  6
CONTINUOUS
 62
     5
 10
171.6221359867466
 20
-284.20123519472185
 30
0.0
 11
171.94864502320954
 21
-284.43662702639102
 31
0.0
  0
LINE
  8
DETAIL
  6
CONTINUOUS
 62
     5
 10
171.94864502320954
 20
-284.43662702639102
 30
0.0
 11
172.32263196688297
 21
-284.59316370235319
 31
0.0
  0
LINE
  8
DETAIL
  6
CONTINUOUS
 62
     5
 10
172.32263196688297
 20
-284.59316370235319
 30
0.0
 11
172.72014353066419
 21
-284.64999999999782
 31
0.0
  0
LINE
  8
DETAIL
  6
CONTINUOUS
 62
     5
 10
172.72014353066419
 20
-44.649999999997817
 30
0.0
 11
172.32263196688305
 21
-44.706836297955242
 31
0.0
  0
LINE
  8
DETAIL
  6
CONTINUOUS
 62
     5
 10
172.32263196688305
 20
-44.706836297955242
 30
0.0
 11
171.94864502320954
 21
-44.863372974361781
 31
0.0
  0
LINE
  8
DETAIL
  6
CONTINUOUS
 62
     5
 10
171.94864502320954
 20
-44.863372974361781
 30
0.0
 11
171.6221359867466
 21
-45.098764806024803
 31
0.0
  0
LINE
  8
DETAIL
  6
CONTINUOUS
 62
     5
 10
171.6221359867466
 20
-45.098764806024803
 30
0.0
 11
171.34712387101763
 21
-45.392731989480083
 31
0.0
  0
LINE
  8
DETAIL
  6
CONTINUOUS
 62
     5
 10
171.34712387101763
 20
-45.392731989480083
 30
0.0
 11
171.12138026668737
 21
-45.725597209627502
 31
0.0
  0
LINE
  8
DETAIL
  6
CONTINUOUS
 62
     5
 10
171.12138026668737
 20
-45.725597209627502
 30
0.0
 11
170.94217503743144
 21
-46.084580920516999
 31
0.0
  0
LINE
  8
DETAIL
  6
CONTINUOUS
 62
     5
 10
170.94217503743144
 20
-46.084580920516999
 30
0.0
 11
170.80637311996423
 21
-46.462493248152391
 31
0.0
  0
LINE
  8
DETAIL
  6
CONTINUOUS
 62
     5
 10
170.80637311996423
 20
-46.462493248152391
 30
0.0
 11
170.71107303006511
 21
-46.852617051667423
 31
0.0
  0
LINE
  8
DETAIL
  6
CONTINUOUS
 62
     5
 10
170.71107303006511
 20
-46.852617051667423
 30
0.0
 11
170.65470913123468
 21
-47.249933682411921
 31
0.0
  0
LINE
  8
DETAIL
  6
CONTINUOUS
 62
     5
 10
170.65470913123468
 20
-47.249933682411921
 30
0.0
 11
170.63616841866411
 21
-47.649999999999643
 31
0.0
  0
LINE
  8
DETAIL
  6
CONTINUOUS
 62
     5
 10
170.63616841866411
 20
-91.649999999997817
 30
0.0
 11
170.65470913123468
 21
-92.050066317776626
 31
0.0
  0
LINE
  8
DETAIL
  6
CONTINUOUS
 62
     5
 10
170.65470913123468
 20
-92.050066317776626
 30
0.0
 11
170.71107303006508
 21
-92.447382948886769
 31
0.0
  0
LINE
  8
DETAIL
  6
CONTINUOUS
 62
     5
 10
170.71107303006508
 20
-92.447382948886769
 30
0.0
 11
170.80637311996421
 21
-92.837506752619291
 31
0.0
  0
LINE
  8
DETAIL
  6
CONTINUOUS
 62
     5
 10
170.80637311996421
 20
-92.837506752619291
 30
0.0
 11
170.94217503743144
 21
-93.215419080144898
 31
0.0
  0
LINE
  8
DETAIL
  6
CONTINUOUS
 62
     5
 10
170.94217503743144
 20
-93.215419080144898
 30
0.0
 11
171.12138026668737
 21
-93.57440279084156
 31
0.0
  0
LINE
  8
DETAIL
  6
CONTINUOUS
 62
     5
 10
171.12138026668737
 20
-93.57440279084156
 30
0.0
 11
171.34712387101763
 21
-93.907268011025465
 31
0.0
  0
LINE
  8
DETAIL
  6
CONTINUOUS
 62
     5
 10
171.34712387101763
 20
-93.907268011025465
 30
0.0
 11
171.6221359867466
 21
-94.201235194722287
 31
0.0
  0
LINE
  8
DETAIL
  6
CONTINUOUS
 62
     5
 10
171.6221359867466
 20
-94.201235194722287
 30
0.0
 11
171.94864502320954
 21
-94.436627026392287
 31
0.0
  0
LINE
  8
DETAIL
  6
CONTINUOUS
 62
     5
 10
171.94864502320954
 20
-94.436627026392287
 30
0.0
 11
172.32263196688297
 21
-94.593163702354971
 31
0.0
  0
LINE
  8
DETAIL
  6
CONTINUOUS
 62
     5
 10
172.32263196688297
 20
-94.593163702354971
 30
0.0
 11
172.72014353066419
 21
-94.649999999999636
 31
0.0
  0
LINE
  8
DETAIL
  6
CONTINUOUS
 62
     5
 10
-137.11284095333491
 20
-184.9999993719957
 30
0.0
 11
-137.16708424635721
 21
-185.75624903893709
 31
0.0
  0
LINE
  8
DETAIL
  6
CONTINUOUS
 62
     5
 10
-137.16708424635721
 20
-185.75624903893709
 30
0.0
 11
-137.32882566334416
 21
-186.49988951449424
 31
0.0
  0
LINE
  8
DETAIL
  6
CONTINUOUS
 62
     5
 10
-137.32882566334416
 20
-186.49988951449424
 30
0.0
 11
-137.59650914740476
 21
-187.21253677653746
 31
0.0
  0
LINE
  8
DETAIL
  6
CONTINUOUS
 62
     5
 10
-137.59650914740476
 20
-187.21253677653746
 30
0.0
 11
-137.96633722028858
 21
-187.87699649085067
 31
0.0
  0
LINE
  8
DETAIL
  6
CONTINUOUS
 62
     5
 10
-137.96633722028858
 20
-187.87699649085067
 30
0.0
 11
-138.4319123075156
 21
-188.47745438638444
 31
0.0
  0
LINE
  8
DETAIL
  6
CONTINUOUS
 62
     5
 10
-138.4319123075156
 20
-188.47745438638444
 30
0.0
 11
-138.98581827152486
 21
-188.99823650266953
 31
0.0
  0
LINE
  8
DETAIL
  6
CONTINUOUS
 62
     5
 10
-138.98581827152486
 20
-188.99823650266953
 30
0.0
 11
-139.61619806135465
 21
-189.42398944822401
 31
0.0
  0
LINE
  8
DETAIL
  6
CONTINUOUS
 62
     5
 10
-139.61619806135465
 20
-189.42398944822401
 30
0.0
 11
-140.3096018134222
 21
-189.73959003745955
 31
0.0
  0
LINE
  8
DETAIL
  6
CONTINUOUS
 62
     5
 10
-140.3096018134222
 20
-189.73959003745955
 30
0.0
 11
-141.04698024144858
 21
-189.93382344940915
 31
0.0
  0
LINE
  8
DETAIL
  6
CONTINUOUS
 62
     5
 10
-141.04698024144858
 20
-189.93382344940915
 30
0.0
 11
-141.802802493331
 21
-189.9999993719957
 31
0.0
  0
LINE
  8
DETAIL
  6
CONTINUOUS
 62
     5
 10
-139.31284095333189
 20
-184.9999993719957
 30
0.0
 11
-139.35481516834625
 21
-185.50937607277208
 31
0.0
  0
LINE
  8
DETAIL
  6
CONTINUOUS
 62
     5
 10
-139.35481516834625
 20
-185.50937607277208
 30
0.0
 11
-139.48093629755974
 21
-186.01149554776433
 31
0.0
  0
LINE
  8
DETAIL
  6
CONTINUOUS
 62
     5
 10
-139.48093629755974
 20
-186.01149554776433
 30
0.0
 11
-139.69150210413594
 21
-186.48668474963807
 31
0.0
  0
LINE
  8
DETAIL
  6
CONTINUOUS
 62
     5
 10
-139.69150210413594
 20
-186.48668474963807
 30
0.0
 11
-139.98681035123835
 21
-186.915270631059
 31
0.0
  0
LINE
  8
DETAIL
  6
CONTINUOUS
 62
     5
 10
-139.98681035123835
 20
-186.915270631059
 30
0.0
 11
-140.36528465915768
 21
-187.27783629241571
 31
0.0
  0
LINE
  8
DETAIL
  6
CONTINUOUS
 62
     5
 10
-140.36528465915768
 20
-187.27783629241571
 30
0.0
 11
-140.81018028191704
 21
-187.55703796445221
 31
0.0
  0
LINE
  8
DETAIL
  6
CONTINUOUS
 62
     5
 10
-140.81018028191704
 20
-187.55703796445221
 30
0.0
 11
-141.29740196991474
 21
-187.73653650503755
 31
0.0
  0
LINE
  8
DETAIL
  6
CONTINUOUS
 62
     5
 10
-141.29740196991474
 20
-187.73653650503755
 30
0.0
 11
-141.80280618400229
 21
-187.799999371995
 31
0.0
  0
LINE
  8
DETAIL
  6
CONTINUOUS
 62
     5
 10
-141.802802493331
 20
-140.39999937199349
 30
0.0
 11
-141.04698041841436
 21
-140.46617527713661
 31
0.0
  0
LINE
  8
DETAIL
  6
CONTINUOUS
 62
     5
 10
-141.04698041841436
 20
-140.46617527713661
 30
0.0
 11
-140.30960217654609
 21
-140.66040863152529
 31
0.0
  0
LINE
  8
DETAIL
  6
CONTINUOUS
 62
     5
 10
-140.30960217654609
 20
-140.66040863152529
 30
0.0
 11
-139.61619854905084
 21
-140.97600911197378
 31
0.0
  0
LINE
  8
DETAIL
  6
CONTINUOUS
 62
     5
 10
-139.61619854905084
 20
-140.97600911197378
 30
0.0
 11
-138.98581877251436
 21
-141.40176188254318
 31
0.0
  0
LINE
  8
DETAIL
  6
CONTINUOUS
 62
     5
 10
-138.98581877251436
 20
-141.40176188254318
 30
0.0
 11
-138.43191278820188
 21
-141.92254381550302
 31
0.0
  0
LINE
  8
DETAIL
  6
CONTINUOUS
 62
     5
 10
-138.43191278820188
 20
-141.92254381550302
 30
0.0
 11
-137.96633771034092
 21
-142.52300156005336
 31
0.0
  0
LINE
  8
DETAIL
  6
CONTINUOUS
 62
     5
 10
-137.96633771034092
 20
-142.52300156005336
 30
0.0
 11
-137.59650962466807
 21
-143.1874611163019
 31
0.0
  0
LINE
  8
DETAIL
  6
CONTINUOUS
 62
     5
 10
-137.59650962466807
 20
-143.1874611163019
 30
0.0
 11
-137.32882603608738
 21
-143.90010816536051
 31
0.0
  0
LINE
  8
DETAIL
  6
CONTINUOUS
 62
     5
 10
-137.32882603608738
 20
-143.90010816536051
 30
0.0
 11
-137.16708444606303
 21
-144.6437484036299
 31
0.0
  0
LINE
  8
DETAIL
  6
CONTINUOUS
 62
     5
 10
-137.16708444606303
 20
-144.6437484036299
 30
0.0
 11
-137.11284095333491
 21
-145.3999978746651
 31
0.0
  0
LINE
  8
DETAIL
  6
CONTINUOUS
 62
     5
 10
-141.80280618400229
 20
-142.5999993719943
 30
0.0
 11
-141.2974020527042
 21
-142.66346220144467
 31
0.0
  0
LINE
  8
DETAIL
  6
CONTINUOUS
 62
     5
 10
-141.2974020527042
 20
-142.66346220144467
 30
0.0
 11
-140.81018042752837
 21
-142.84296064553618
 31
0.0
  0
LINE
  8
DETAIL
  6
CONTINUOUS
 62
     5
 10
-140.81018042752837
 20
-142.84296064553618
 30
0.0
 11
-140.36528484562228
 21
-143.12216218614586
 31
0.0
  0
LINE
  8
DETAIL
  6
CONTINUOUS
 62
     5
 10
-140.36528484562228
 20
-143.12216218614586
 30
0.0
 11
-139.98681055483411
 21
-143.48472770518697
 31
0.0
  0
LINE
  8
DETAIL
  6
CONTINUOUS
 62
     5
 10
-139.98681055483411
 20
-143.48472770518697
 30
0.0
 11
-139.6915023039694
 21
-143.91331345147194
 31
0.0
  0
LINE
  8
DETAIL
  6
CONTINUOUS
 62
     5
 10
-139.6915023039694
 20
-143.91331345147194
 30
0.0
 11
-139.4809364678085
 21
-144.38850252877356
 31
0.0
  0
LINE
  8
DETAIL
  6
CONTINUOUS
 62
     5
 10
-139.4809364678085
 20
-144.38850252877356
 30
0.0
 11
-139.3548152747849
 21
-144.89062189098365
 31
0.0
  0
LINE
  8
DETAIL
  6
CONTINUOUS
 62
     5
 10
-139.3548152747849
 20
-144.89062189098365
 30
0.0
 11
-139.31284095333189
 21
-145.39999849199381
 31
0.0
  0
LINE
  8
DETAIL
  6
CONTINUOUS
 62
     5
 10
-179.89983665066481
 20
-145.29988136133221
 30
0.0
 11
-179.89674045678294
 21
-144.96153066886038
 31
0.0
  0
LINE
  8
DETAIL
  6
CONTINUOUS
 62
     5
 10
-179.89674045678294
 20
-144.96153066886038
 30
0.0
 11
-179.89000130463316
 21
-144.62318175051973
 31
0.0
  0
LINE
  8
DETAIL
  6
CONTINUOUS
 62
     5
 10
-179.89000130463316
 20
-144.62318175051973
 30
0.0
 11
-179.8800224121828
 21
-144.2847157707418
 31
0.0
  0
LINE
  8
DETAIL
  6
CONTINUOUS
 62
     5
 10
-179.8800224121828
 20
-144.2847157707418
 30
0.0
 11
-179.86612707413306
 21
-143.946262172817
 31
0.0
  0
LINE
  8
DETAIL
  6
CONTINUOUS
 62
     5
 10
-179.86612707413306
 20
-143.946262172817
 30
0.0
 11
-179.84702854885759
 21
-143.60809064992975
 31
0.0
  0
LINE
  8
DETAIL
  6
CONTINUOUS
 62
     5
 10
-179.84702854885759
 20
-143.60809064992975
 30
0.0
 11
-179.8214331976553
 21
-143.27047248093041
 31
0.0
  0
LINE
  8
DETAIL
  6
CONTINUOUS
 62
     5
 10
-179.8214331976553
 20
-143.27047248093041
 30
0.0
 11
-179.78804738182512
 21
-142.93367894466948
 31
0.0
  0
LINE
  8
DETAIL
  6
CONTINUOUS
 62
     5
 10
-179.78804738182512
 20
-142.93367894466948
 30
0.0
 11
-179.74557746266601
 21
-142.59798131999739
 31
0.0
  0
LINE
  8
DETAIL
  6
CONTINUOUS
 62
     5
 10
-182.0998477080002
 20
-145.29989652666339
 30
0.0
 11
-182.09510608432834
 21
-144.83393074804363
 31
0.0
  0
LINE
  8
DETAIL
  6
CONTINUOUS
 62
     5
 10
-182.09510608432834
 20
-144.83393074804363
 30
0.0
 11
-182.08349346526893
 21
-144.36806993856572
 31
0.0
  0
LINE
  8
DETAIL
  6
CONTINUOUS
 62
     5
 10
-182.08349346526893
 20
-144.36806993856572
 30
0.0
 11
-182.06467676684539
 21
-143.90236429464582
 31
0.0
  0
LINE
  8
DETAIL
  6
CONTINUOUS
 62
     5
 10
-182.06467676684539
 20
-143.90236429464582
 30
0.0
 11
-182.038300012533
 21
-143.43686889435446
 31
0.0
  0
LINE
  8
DETAIL
  6
CONTINUOUS
 62
     5
 10
-182.038300012533
 20
-143.43686889435446
 30
0.0
 11
-182.00255332650028
 21
-142.97194884826436
 31
0.0
  0
LINE
  8
DETAIL
  6
CONTINUOUS
 62
     5
 10
-182.00255332650028
 20
-142.97194884826436
 30
0.0
 11
-181.95332583396313
 21
-142.50845993673477
 31
0.0
  0
LINE
  8
DETAIL
  6
CONTINUOUS
 62
     5
 10
-181.95332583396313
 20
-142.50845993673477
 30
0.0
 11
-181.88623023689399
 21
-142.04732127333821
 31
0.0
  0
LINE
  8
DETAIL
  6
CONTINUOUS
 62
     5
 10
-181.88623023689399
 20
-142.04732127333821
 30
0.0
 11
-181.79095781206377
 21
-141.59107502571382
 31
0.0
  0
LINE
  8
DETAIL
  6
CONTINUOUS
 62
     5
 10
-181.79095781206377
 20
-141.59107502571382
 30
0.0
 11
-181.6369184484229
 21
-141.15115725544345
 31
0.0
  0
LINE
  8
DETAIL
  6
CONTINUOUS
 62
     5
 10
-181.6369184484229
 20
-141.15115725544345
 30
0.0
 11
-181.37346604609129
 21
-140.76458811686092
 31
0.0
  0
LINE
  8
DETAIL
  6
CONTINUOUS
 62
     5
 10
-181.37346604609129
 20
-140.76458811686092
 30
0.0
 11
-180.9850001904062
 21
-140.49736592602525
 31
0.0
  0
LINE
  8
DETAIL
  6
CONTINUOUS
 62
     5
 10
-180.9850001904062
 20
-140.49736592602525
 30
0.0
 11
-180.5247242386622
 21
-140.39999937199349
 31
0.0
  0
LINE
  8
DETAIL
  6
CONTINUOUS
 62
     5
 10
-179.74577416666671
 20
-187.80060835733269
 30
0.0
 11
-179.78717349037996
 21
-187.46490648868888
 31
0.0
  0
LINE
  8
DETAIL
  6
CONTINUOUS
 62
     5
 10
-179.78717349037996
 20
-187.46490648868888
 30
0.0
 11
-179.81945483074134
 21
-187.12814220188258
 31
0.0
  0
LINE
  8
DETAIL
  6
CONTINUOUS
 62
     5
 10
-179.81945483074134
 20
-187.12814220188258
 30
0.0
 11
-179.8453407702178
 21
-186.79081568562304
 31
0.0
  0
LINE
  8
DETAIL
  6
CONTINUOUS
 62
     5
 10
-179.8453407702178
 20
-186.79081568562304
 30
0.0
 11
-179.86551303686494
 21
-186.45306625784369
 31
0.0
  0
LINE
  8
DETAIL
  6
CONTINUOUS
 62
     5
 10
-179.86551303686494
 20
-186.45306625784369
 30
0.0
 11
-179.88051019379148
 21
-186.11500792156806
 31
0.0
  0
LINE
  8
DETAIL
  6
CONTINUOUS
 62
     5
 10
-179.88051019379148
 20
-186.11500792156806
 30
0.0
 11
-179.89087080410621
 21
-185.77675467981973
 31
0.0
  0
LINE
  8
DETAIL
  6
CONTINUOUS
 62
     5
 10
-179.89087080410621
 20
-185.77675467981973
 30
0.0
 11
-179.89713343091793
 21
-185.43842053562224
 31
0.0
  0
LINE
  8
DETAIL
  6
CONTINUOUS
 62
     5
 10
-179.89713343091793
 20
-185.43842053562224
 30
0.0
 11
-179.89983663733531
 21
-185.1001194919991
 31
0.0
  0
LINE
  8
DETAIL
  6
CONTINUOUS
 62
     5
 10
-180.5247242386622
 20
-189.9999993719957
 30
0.0
 11
-180.98504936264283
 21
-189.90269100889404
 31
0.0
  0
LINE
  8
DETAIL
  6
CONTINUOUS
 62
     5
 10
-180.98504936264283
 20
-189.90269100889404
 30
0.0
 11
-181.37345130761466
 21
-189.63545316713899
 31
0.0
  0
LINE
  8
DETAIL
  6
CONTINUOUS
 62
     5
 10
-181.37345130761466
 20
-189.63545316713899
 30
0.0
 11
-181.6367430224017
 21
-189.24875767634589
 31
0.0
  0
LINE
  8
DETAIL
  6
CONTINUOUS
 62
     5
 10
-181.6367430224017
 20
-189.24875767634589
 30
0.0
 11
-181.79095531602326
 21
-188.80889674245154
 31
0.0
  0
LINE
  8
DETAIL
  6
CONTINUOUS
 62
     5
 10
-181.79095531602326
 20
-188.80889674245154
 30
0.0
 11
-181.88625247817134
 21
-188.35266677314416
 31
0.0
  0
LINE
  8
DETAIL
  6
CONTINUOUS
 62
     5
 10
-181.88625247817134
 20
-188.35266677314416
 30
0.0
 11
-181.95330034779249
 21
-187.89151261037131
 31
0.0
  0
LINE
  8
DETAIL
  6
CONTINUOUS
 62
     5
 10
-181.95330034779249
 20
-187.89151261037131
 30
0.0
 11
-182.00252806632855
 21
-187.42802728504006
 31
0.0
  0
LINE
  8
DETAIL
  6
CONTINUOUS
 62
     5
 10
-182.00252806632855
 20
-187.42802728504006
 30
0.0
 11
-182.03829505164651
 21
-186.96311888650499
 31
0.0
  0
LINE
  8
DETAIL
  6
CONTINUOUS
 62
     5
 10
-182.03829505164651
 20
-186.96311888650499
 30
0.0
 11
-182.06468451766045
 21
-186.49763217037253
 31
0.0
  0
LINE
  8
DETAIL
  6
CONTINUOUS
 62
     5
 10
-182.06468451766045
 20
-186.49763217037253
 30
0.0
 11
-182.08350143071911
 21
-186.03193004043874
 31
0.0
  0
LINE
  8
DETAIL
  6
CONTINUOUS
 62
     5
 10
-182.08350143071911
 20
-186.03193004043874
 30
0.0
 11
-182.09510900196238
 21
-185.56607046772237
 31
0.0
  0
LINE
  8
DETAIL
  6
CONTINUOUS
 62
     5
 10
-182.09510900196238
 20
-185.56607046772237
 30
0.0
 11
-182.0998476440009
 21
-185.10010660132869
 31
0.0
  0
LINE
  8
DETAIL
  6
CONTINUOUS
 62
     5
 10
-439.59999999999951
 20
-1.6500000000105499
 30
0.0
 11
-443.17499999998932
 21
-1.6500000000105499
 31
0.0
  0
LINE
  8
DETAIL
  6
CONTINUOUS
 62
     5
 10
-439.59999999999951
 20
-1.149999999995998
 30
0.0
 11
-439.59999999999951
 21
-1.6500000000105499
 31
0.0
  0
ARC
  8
DETAIL
  6
CONTINUOUS
 62
     5
 10
-443.17500000000382
 20
-0.8249999999989086
 30
0.0
 40
0.3249999999990285
 50
90.0
 51
270.0
  0
ARC
  8
DETAIL
  6
CONTINUOUS
 62
     5
 10
-443.17499999998932
 20
-0.8250000000025466
 30
0.0
 40
0.8250000000070009
 50
90.0
 51
270.0
  0
LINE
  8
DETAIL
  6
CONTINUOUS
 62
     5
 10
-443.17500000000382
 20
-1.149999999995998
 30
0.0
 11
-438.10000000000667
 21
-1.149999999995998
 31
0.0
  0
LINE
  8
DETAIL
  6
CONTINUOUS
 62
     5
 10
439.59999999999951
 20
-1.6500000000105499
 30
0.0
 11
443.17499999998932
 21
-1.6500000000105499
 31
0.0
  0
LINE
  8
DETAIL
  6
CONTINUOUS
 62
     5
 10
439.59999999999951
 20
-1.149999999995998
 30
0.0
 11
439.59999999999951
 21
-1.6500000000105499
 31
0.0
  0
ARC
  8
DETAIL
  6
CONTINUOUS
 62
     5
 10
443.17499999999649
 20
-0.8249999999989086
 30
0.0
 40
0.3249999999990285
 50
270.0
 51
90.0
  0
ARC
  8
DETAIL
  6
CONTINUOUS
 62
     5
 10
443.17499999998932
 20
-0.8250000000025466
 30
0.0
 40
0.8250000000070009
 50
270.0
 51
90.0
  0
LINE
  8
DETAIL
  6
CONTINUOUS
 62
     5
 10
-439.59999999999951
 20
-328.74999999997908
 30
0.0
 11
-443.17499999998199
 21
-328.74999999997908
 31
0.0
  0
ARC
  8
DETAIL
  6
CONTINUOUS
 62
     5
 10
-443.17499999998199
 20
-329.87499999999
 30
0.0
 40
1.1250000000097859
 50
90.0
 51
270.0
  0
ARC
  8
DETAIL
  6
CONTINUOUS
 62
     5
 10
-443.17499999999649
 20
-329.87500000000091
 30
0.0
 40
0.3249999999997035
 50
90.0
 51
270.0
  0
LINE
  8
DETAIL
  6
CONTINUOUS
 62
     5
 10
-439.59999999999951
 20
-329.55000000000018
 30
0.0
 11
-439.59999999999951
 21
-328.74999999997908
 31
0.0
  0
LINE
  8
DETAIL
  6
CONTINUOUS
 62
     5
 10
-438.10000000000667
 20
-329.54999999999842
 30
0.0
 11
-443.17499999999649
 21
-329.55000000000018
 31
0.0
  0
LINE
  8
DETAIL
  6
CONTINUOUS
 62
     5
 10
439.59999999999951
 20
-328.74999999997908
 30
0.0
 11
443.17499999998199
 21
-328.74999999997908
 31
0.0
  0
ARC
  8
DETAIL
  6
CONTINUOUS
 62
     5
 10
443.17499999998199
 20
-329.87499999999
 30
0.0
 40
1.1250000000097859
 50
270.0
 51
90.0
  0
ARC
  8
DETAIL
  6
CONTINUOUS
 62
     5
 10
443.17499999999649
 20
-329.87500000000091
 30
0.0
 40
0.3249999999997035
 50
270.0
 51
90.0
  0
LINE
  8
DETAIL
  6
CONTINUOUS
 62
     5
 10
439.59999999999951
 20
-329.55000000000018
 30
0.0
 11
439.59999999999951
 21
-328.74999999997908
 31
0.0
  0
LINE
  8
DETAIL
  6
CONTINUOUS
 62
     5
 10
429.07999999998083
 20
-328.74999999997908
 30
0.0
 11
-429.07999999998083
 21
-328.74999999997908
 31
0.0
  0
LINE
  8
DETAIL
  6
CONTINUOUS
 62
     5
 10
-429.74999999998641
 20
-1.6500000000105499
 30
0.0
 11
429.74999999998641
 21
-1.6500000000105499
 31
0.0
  0
LINE
  8
DETAIL
  6
CONTINUOUS
 62
     5
 10
514.39999999999964
 20
-291.19999999999982
 30
0.0
 11
445.59999999999951
 21
-299.19999999999618
 31
0.0
  0
LINE
  8
DETAIL
  6
CONTINUOUS
 62
     5
 10
437.59999999999951
 20
-312.69989297466333
 30
0.0
 11
438.199999999998
 21
-312.69989297466333
 31
0.0
  0
LINE
  8
DETAIL
  6
CONTINUOUS
 62
     5
 10
445.59999999999951
 20
-299.19999999999618
 30
0.0
 11
438.199999999998
 21
-299.19999999999618
 31
0.0
  0
LINE
  8
DETAIL
  6
CONTINUOUS
 62
     5
 10
521.89999999999964
 20
-291.19999999999982
 30
0.0
 11
514.39999999999964
 21
-291.19999999999982
 31
0.0
  0
LINE
  8
DETAIL
  6
CONTINUOUS
 62
     5
 10
521.89999999999964
 20
-99.199999999999818
 30
0.0
 11
514.39999999999964
 21
-99.199999999999818
 31
0.0
  0
LINE
  8
DETAIL
  6
CONTINUOUS
 62
     5
 10
438.199999999998
 20
-77.70010702399577
 30
0.0
 11
437.59999999999951
 21
-77.70010702399577
 31
0.0
  0
LINE
  8
DETAIL
  6
CONTINUOUS
 62
     5
 10
514.39999999999964
 20
-99.199999999999818
 30
0.0
 11
456.05033010501347
 21
-92.461655318288194
 31
0.0
  0
LINE
  8
DETAIL
  6
CONTINUOUS
 62
     5
 10
438.199999999998
 20
-312.69897139066319
 30
0.0
 11
438.199999999998
 21
-135.0499999999993
 31
0.0
  0
LINE
  8
DETAIL
  6
CONTINUOUS
 62
     5
 10
438.199999999998
 20
-85.049999999995634
 30
0.0
 11
438.199999999998
 21
-77.701028609330933
 31
0.0
  0
LINE
  8
DETAIL
  6
CONTINUOUS
 62
     5
 10
445.59999999999951
 20
-299.19999999999618
 30
0.0
 11
445.59999999999951
 21
-135.0499999999993
 31
0.0
  0
LINE
  8
DETAIL
  6
CONTINUOUS
 62
     5
 10
514.39999999999964
 20
-291.19999999999982
 30
0.0
 11
514.39999999999964
 21
-99.199999999999818
 31
0.0
  0
LINE
  8
DETAIL
  6
CONTINUOUS
 62
     5
 10
522.99999999999818
 20
-289.87876619599501
 30
0.0
 11
522.99999999999818
 21
-100.2999999999965
 31
0.0
  0
ARC
  8
DETAIL
  6
CONTINUOUS
 62
     5
 10
521.89999999999964
 20
-290.099999999994
 30
0.0
 40
1.099999999999997
 50
270.0
 51
0.0
  0
ARC
  8
DETAIL
  6
CONTINUOUS
 62
     5
 10
521.89999999999964
 20
-100.2999999999965
 30
0.0
 40
1.099999999999997
 50
0.0
 51
90.0
  0
LINE
  8
BASIS
  6
DASHDOT
 62
     6
 10
548.09720595654471
 20
-195.1999830979976
 30
0.0
 11
417.91029191486541
 21
-195.1999830979976
 31
0.0
1001
GENIUS_GENODEF_13
1002
{
1000
HIER
1070
     0
1002
}
1002
{
1000
MANEDIT
1070
     0
1002
}
1002
{
1000
NOSEL
1070
     0
1002
}
1002
{
1000
BEHIND
1070
     0
1002
}
1002
{
1000
OTHER
1070
     0
1002
}
1002
{
1000
REACTOR
1002
}
1001
GENIUS_GENOBJ-N-CEN_13
1002
{
1000
OWNER
1000
GEN
1002
}
1001
GENIUS_GENCEN_19
1002
{
1040
5.0
1002
}
  0
LINE
  8
DETAIL
  6
CONTINUOUS
 62
     5
 10
-514.39999999999964
 20
-291.19999999999982
 30
0.0
 11
-445.59999999999951
 21
-299.19999999999618
 31
0.0
  0
LINE
  8
DETAIL
  6
CONTINUOUS
 62
     5
 10
-437.59999999999951
 20
-312.69989297466333
 30
0.0
 11
-438.199999999998
 21
-312.69989297466333
 31
0.0
  0
LINE
  8
DETAIL
  6
CONTINUOUS
 62
     5
 10
-445.59999999999951
 20
-299.19999999999618
 30
0.0
 11
-438.199999999998
 21
-299.19999999999618
 31
0.0
  0
LINE
  8
DETAIL
  6
CONTINUOUS
 62
     5
 10
-521.89999999999964
 20
-291.19999999999982
 30
0.0
 11
-514.39999999999964
 21
-291.19999999999982
 31
0.0
  0
LINE
  8
DETAIL
  6
CONTINUOUS
 62
     5
 10
-521.89999999999964
 20
-99.199999999999818
 30
0.0
 11
-514.39999999999964
 21
-99.199999999999818
 31
0.0
  0
LINE
  8
DETAIL
  6
CONTINUOUS
 62
     5
 10
-438.199999999998
 20
-77.70010702399577
 30
0.0
 11
-437.59999999999951
 21
-77.70010702399577
 31
0.0
  0
LINE
  8
DETAIL
  6
CONTINUOUS
 62
     5
 10
-514.39999999999964
 20
-99.199999999999818
 30
0.0
 11
-456.09999999999951
 21
-92.417391303998556
 31
0.0
  0
LINE
  8
DETAIL
  6
CONTINUOUS
 62
     5
 10
-438.199999999998
 20
-312.69897139066319
 30
0.0
 11
-438.199999999998
 21
-134.99999999999861
 31
0.0
  0
LINE
  8
DETAIL
  6
CONTINUOUS
 62
     5
 10
-438.19999999999749
 20
-84.999999999999091
 30
0.0
 11
-438.199999999998
 21
-77.701028609330933
 31
0.0
  0
LINE
  8
DETAIL
  6
CONTINUOUS
 62
     5
 10
-445.59999999999951
 20
-299.19999999999618
 30
0.0
 11
-445.59999999999991
 21
-134.99999999999909
 31
0.0
  0
LINE
  8
DETAIL
  6
CONTINUOUS
 62
     5
 10
-514.39999999999964
 20
-291.19999999999982
 30
0.0
 11
-514.39999999999964
 21
-99.199999999999818
 31
0.0
  0
LINE
  8
DETAIL
  6
CONTINUOUS
 62
     5
 10
-522.99999999999818
 20
-290.099999999994
 30
0.0
 11
-522.99999999999818
 21
-100.2999999999965
 31
0.0
  0
ARC
  8
DETAIL
  6
CONTINUOUS
 62
     5
 10
-521.89999999999964
 20
-290.099999999994
 30
0.0
 40
1.099999999999997
 50
180.0
 51
270.0
  0
ARC
  8
DETAIL
  6
CONTINUOUS
 62
     5
 10
-521.89999999999964
 20
-100.2999999999965
 30
0.0
 40
1.099999999999997
 50
90.0
 51
180.0
  0
LINE
  8
BASIS
  6
DASHDOT
 62
     6
 10
-548.09720595654471
 20
-195.1999830979976
 30
0.0
 11
-195.19598156162189
 21
-195.1999830979976
 31
0.0
1001
GENIUS_GENODEF_13
1002
{
1000
HIER
1070
     0
1002
}
1002
{
1000
MANEDIT
1070
     0
1002
}
1002
{
1000
NOSEL
1070
     0
1002
}
1002
{
1000
BEHIND
1070
     0
1002
}
1002
{
1000
OTHER
1070
     0
1002
}
1002
{
1000
REACTOR
1002
}
1001
GENIUS_GENOBJ-N-CEN_13
1002
{
1000
OWNER
1000
GEN
1002
}
1001
GENIUS_GENCEN_19
1002
{
1040
5.0
1002
}
  0
LINE
  8
DETAIL
  6
CONTINUOUS
 62
     5
 10
-430.2999589103415
 20
-135.2129241876564
 30
0.0
 11
-430.2999589103415
 21
-255.21292418765461
 31
0.0
  0
LINE
  8
DETAIL
  6
CONTINUOUS
 62
     5
 10
-430.2999589103415
 20
-255.21292418765461
 30
0.0
 11
-380.29995891034878
 21
-305.21292418765279
 31
0.0
  0
LINE
  8
DETAIL
  6
CONTINUOUS
 62
     5
 10
-380.29995891034878
 20
-85.212924187654608
 30
0.0
 11
-430.2999589103415
 21
-135.2129241876564
 31
0.0
  0
LINE
  8
DETAIL
  6
CONTINUOUS
 62
     5
 10
-210.29995891034881
 20
-255.21292418765461
 30
0.0
 11
-210.29995891034881
 21
-135.2129241876564
 31
0.0
  0
LINE
  8
DETAIL
  6
CONTINUOUS
 62
     5
 10
-380.29995891034878
 20
-305.21292418765279
 30
0.0
 11
-260.2999589103415
 21
-305.21292418765279
 31
0.0
  0
LINE
  8
DETAIL
  6
CONTINUOUS
 62
     5
 10
-210.29995891034881
 20
-135.2129241876564
 30
0.0
 11
-260.2999589103415
 21
-85.212924187654608
 31
0.0
  0
LINE
  8
DETAIL
  6
CONTINUOUS
 62
     5
 10
-260.2999589103415
 20
-305.21292418765279
 30
0.0
 11
-210.29995891034881
 21
-255.21292418765461
 31
0.0
  0
LINE
  8
DETAIL
  6
CONTINUOUS
 62
     5
 10
-260.2999589103415
 20
-85.212924187654608
 30
0.0
 11
-380.29995891034878
 21
-85.212924187654608
 31
0.0
  0
CIRCLE
  8
DETAIL
  6
CONTINUOUS
 62
     5
 10
-399.49591840234598
 20
-274.40888368099058
 30
0.0
 40
4.6999999999999842
  0
CIRCLE
  8
DETAIL
  6
CONTINUOUS
 62
     5
 10
-241.1039994170128
 20
-274.40888368099058
 30
0.0
 40
4.6999999999999842
  0
CIRCLE
  8
DETAIL
  6
CONTINUOUS
 62
     5
 10
-241.1039994170128
 20
-116.0169646943241
 30
0.0
 40
4.6999999999999842
  0
CIRCLE
  8
DETAIL
  6
CONTINUOUS
 62
     5
 10
-399.49591840234598
 20
-116.0169646943241
 30
0.0
 40
4.6999999999999842
  0
CIRCLE
  8
DETAIL
  6
DASHED
 62
     5
 10
-320.29995891034878
 20
-195.1999830979976
 30
0.0
 40
100.0
  0
LINE
  8
BASIS
  6
DASHDOT
 62
     6
 10
-320.29995891034878
 20
-315.71151874680442
 30
0.0
 11
-320.29995891034878
 21
-76.635838484817214
 31
0.0
1001
GENIUS_GENODEF_13
1002
{
1000
HIER
1070
     0
1002
}
1002
{
1000
MANEDIT
1070
     0
1002
}
1002
{
1000
NOSEL
1070
     0
1002
}
1002
{
1000
BEHIND
1070
     0
1002
}
1002
{
1000
OTHER
1070
     0
1002
}
1002
{
1000
REACTOR
1002
}
1001
GENIUS_GENOBJ-N-CEN_13
1002
{
1000
OWNER
1000
GEN
1002
}
1001
GENIUS_GENCEN_19
1002
{
1040
5.0
1002
}
  0
LINE
  8
SIZE
  6
CONTINUOUS
 62
    30
 10
-568.09720595654494
 20
-195.19998309799769
 30
0.0
 11
-719.13958656307682
 21
-195.19998309799769
 31
0.0
  0
LINE
  8
SIZE
  6
CONTINUOUS
 62
    30
 10
-574.71171215262279
 20
-165.19999999999709
 30
0.0
 11
-719.13958656307682
 21
-165.1999999999972
 31
0.0
  0
LINE
  8
SIZE
  6
CONTINUOUS
 62
    30
 10
-699.13958656307682
 20
-207.19998309799769
 30
0.0
 11
-699.13958656307682
 21
-219.19998309799769
 31
0.0
  0
LINE
  8
SIZE
  6
CONTINUOUS
 62
    30
 10
-699.13958656307682
 20
-153.1999999999972
 30
0.0
 11
-699.13958656307682
 21
-141.1999999999972
 31
0.0
  0
LINE
  8
SIZE
  6
CONTINUOUS
 62
    30
 10
-699.13958656307682
 20
-195.19998309799769
 30
0.0
 11
-699.13958656307682
 21
-165.1999999999972
 31
0.0
  0
CIRCLE
  8
SIZE
  6
CONTINUOUS
 62
    30
 10
-699.13958656307682
 20
-195.19998309799769
 30
0.0
 40
6.0
  0
LINE
  8
SIZE
  6
CONTINUOUS
 62
    30
 10
-699.13958656307682
 20
-195.19998309799769
 30
0.0
 11
-699.13958656307682
 21
-207.19998309799769
 31
0.0
  0
CIRCLE
  8
SIZE
  6
CONTINUOUS
 62
    30
 10
-699.13958656307682
 20
-165.1999999999972
 30
0.0
 40
6.0
  0
LINE
  8
SIZE
  6
CONTINUOUS
 62
    30
 10
-699.13958656307682
 20
-165.1999999999972
 30
0.0
 11
-699.13958656307682
 21
-153.1999999999972
 31
0.0
  0
TEXT
  8
SIZE
  6
CONTINUOUS
 62
    30
 10
-724.1395865630767
 20
-234.3439915489972
 30
0.0
 40
64.0
  1
30
 50
90.0
 41
0.9
 51
0.0
  7
STANDARD
 71
     0
 72
     1
 11
-724.1395865630767
 21
-180.19999154899719
 31
0.0
210
0.0
220
0.0
230
1.0
  0
POINT
  8
DEFPOINTS
  6
CONTINUOUS
 62
    30
 10
-548.09720595654494
 20
-195.19998309799769
 30
0.0
  0
POINT
  8
DEFPOINTS
  6
CONTINUOUS
 62
    30
 10
-554.71171215262279
 20
-165.19999999999709
 30
0.0
  0
POINT
  8
DEFPOINTS
  6
CONTINUOUS
 62
    30
 10
-699.13958656307682
 20
-165.1999999999972
 30
0.0
  0
LINE
  8
SIZE
  6
CONTINUOUS
 62
    30
 10
-443.99999999999642
 20
19.17499999999745
 30
0.0
 11
-443.99999999999642
 21
293.07717012887861
 31
0.0
  0
LINE
  8
SIZE
  6
CONTINUOUS
 62
    30
 10
443.99999999999642
 20
19.17499999999745
 30
0.0
 11
443.99999999999642
 21
293.07717012887861
 31
0.0
  0
LINE
  8
SIZE
  6
CONTINUOUS
 62
    30
 10
-431.99999999999642
 20
273.07717012887861
 30
0.0
 11
431.99999999999642
 21
273.07717012887861
 31
0.0
  0
CIRCLE
  8
SIZE
  6
CONTINUOUS
 62
    30
 10
-443.99999999999642
 20
273.07717012887861
 30
0.0
 40
6.0
  0
LINE
  8
SIZE
  6
CONTINUOUS
 62
    30
 10
-443.99999999999642
 20
273.07717012887861
 30
0.0
 11
-431.99999999999642
 21
273.07717012887861
 31
0.0
  0
CIRCLE
  8
SIZE
  6
CONTINUOUS
 62
    30
 10
443.99999999999642
 20
273.07717012887861
 30
0.0
 40
6.0
  0
LINE
  8
SIZE
  6
CONTINUOUS
 62
    30
 10
443.99999999999642
 20
273.07717012887861
 30
0.0
 11
431.99999999999642
 21
273.07717012887861
 31
0.0
  0
TEXT
  8
SIZE
  6
CONTINUOUS
 62
    30
 10
-80.352000000000004
 20
298.07717012887861
 30
0.0
 40
64.0
  1
888
 50
0.0
 41
0.9
 51
0.0
  7
STANDARD
 71
     0
 72
     1
 11
0.0
 21
298.07717012887861
 31
0.0
210
0.0
220
0.0
230
1.0
  0
POINT
  8
DEFPOINTS
  6
CONTINUOUS
 62
    30
 10
-443.99999999999642
 20
-0.8250000000025466
 30
0.0
  0
POINT
  8
DEFPOINTS
  6
CONTINUOUS
 62
    30
 10
443.99999999999642
 20
-0.8250000000025466
 30
0.0
  0
POINT
  8
DEFPOINTS
  6
CONTINUOUS
 62
    30
 10
443.99999999999642
 20
273.07717012887861
 30
0.0
  0
LINE
  8
SIZE
  6
CONTINUOUS
 62
    30
 10
-522.99999999999818
 20
-80.299999999996544
 30
0.0
 11
-522.99999999999818
 21
293.07717012887861
 31
0.0
  0
LINE
  8
SIZE
  6
CONTINUOUS
 62
    30
 10
-443.99999999999642
 20
19.17499999999745
 30
0.0
 11
-443.99999999999642
 21
293.07717012887861
 31
0.0
  0
LINE
  8
SIZE
  6
CONTINUOUS
 62
    30
 10
-534.99999999999818
 20
273.07717012887861
 30
0.0
 11
-546.99999999999818
 21
273.07717012887861
 31
0.0
  0
LINE
  8
SIZE
  6
CONTINUOUS
 62
    30
 10
-431.99999999999642
 20
273.07717012887861
 30
0.0
 11
-419.99999999999642
 21
273.07717012887861
 31
0.0
  0
LINE
  8
SIZE
  6
CONTINUOUS
 62
    30
 10
-522.99999999999818
 20
273.07717012887861
 30
0.0
 11
-443.99999999999642
 21
273.07717012887861
 31
0.0
  0
CIRCLE
  8
SIZE
  6
CONTINUOUS
 62
    30
 10
-522.99999999999818
 20
273.07717012887861
 30
0.0
 40
6.0
  0
LINE
  8
SIZE
  6
CONTINUOUS
 62
    30
 10
-522.99999999999818
 20
273.07717012887861
 30
0.0
 11
-534.99999999999818
 21
273.07717012887861
 31
0.0
  0
CIRCLE
  8
SIZE
  6
CONTINUOUS
 62
    30
 10
-443.99999999999642
 20
273.07717012887861
 30
0.0
 40
6.0
  0
LINE
  8
SIZE
  6
CONTINUOUS
 62
    30
 10
-443.99999999999642
 20
273.07717012887861
 30
0.0
 11
-431.99999999999642
 21
273.07717012887861
 31
0.0
  0
TEXT
  8
SIZE
  6
CONTINUOUS
 62
    30
 10
-537.06799999999737
 20
298.07717012887861
 30
0.0
 40
64.0
  1
79
 50
0.0
 41
0.9
 51
0.0
  7
STANDARD
 71
     0
 72
     1
 11
-483.49999999999739
 21
298.07717012887861
 31
0.0
210
0.0
220
0.0
230
1.0
  0
POINT
  8
DEFPOINTS
  6
CONTINUOUS
 62
    30
 10
-522.99999999999818
 20
-100.2999999999965
 30
0.0
  0
POINT
  8
DEFPOINTS
  6
CONTINUOUS
 62
    30
 10
-443.99999999999642
 20
-0.8250000000025466
 30
0.0
  0
POINT
  8
DEFPOINTS
  6
CONTINUOUS
 62
    30
 10
-443.99999999999642
 20
273.07717012887861
 30
0.0
  0
LINE
  8
SIZE
  6
CONTINUOUS
 62
    30
 10
443.99999999999642
 20
19.17499999999745
 30
0.0
 11
443.99999999999642
 21
293.07717012887861
 31
0.0
  0
LINE
  8
SIZE
  6
CONTINUOUS
 62
    30
 10
522.99999999999818
 20
-80.299999999996544
 30
0.0
 11
522.99999999999818
 21
293.07717012887861
 31
0.0
  0
LINE
  8
SIZE
  6
CONTINUOUS
 62
    30
 10
431.99999999999642
 20
273.07717012887861
 30
0.0
 11
419.99999999999642
 21
273.07717012887861
 31
0.0
  0
LINE
  8
SIZE
  6
CONTINUOUS
 62
    30
 10
534.99999999999818
 20
273.07717012887861
 30
0.0
 11
546.99999999999818
 21
273.07717012887861
 31
0.0
  0
LINE
  8
SIZE
  6
CONTINUOUS
 62
    30
 10
443.99999999999642
 20
273.07717012887861
 30
0.0
 11
522.99999999999818
 21
273.07717012887861
 31
0.0
  0
CIRCLE
  8
SIZE
  6
CONTINUOUS
 62
    30
 10
443.99999999999642
 20
273.07717012887861
 30
0.0
 40
6.0
  0
LINE
  8
SIZE
  6
CONTINUOUS
 62
    30
 10
443.99999999999642
 20
273.07717012887861
 30
0.0
 11
431.99999999999642
 21
273.07717012887861
 31
0.0
  0
CIRCLE
  8
SIZE
  6
CONTINUOUS
 62
    30
 10
522.99999999999818
 20
273.07717012887861
 30
0.0
 40
6.0
  0
LINE
  8
SIZE
  6
CONTINUOUS
 62
    30
 10
522.99999999999818
 20
273.07717012887861
 30
0.0
 11
534.99999999999818
 21
273.07717012887861
 31
0.0
  0
TEXT
  8
SIZE
  6
CONTINUOUS
 62
    30
 10
429.93199999999734
 20
298.07717012887861
 30
0.0
 40
64.0
  1
79
 50
0.0
 41
0.9
 51
0.0
  7
STANDARD
 71
     0
 72
     1
 11
483.49999999999733
 21
298.07717012887861
 31
0.0
210
0.0
220
0.0
230
1.0
  0
POINT
  8
DEFPOINTS
  6
CONTINUOUS
 62
    30
 10
443.99999999999642
 20
-0.8250000000025466
 30
0.0
  0
POINT
  8
DEFPOINTS
  6
CONTINUOUS
 62
    30
 10
522.99999999999818
 20
-100.2999999999965
 30
0.0
  0
POINT
  8
DEFPOINTS
  6
CONTINUOUS
 62
    30
 10
522.99999999999818
 20
273.07717012887861
 30
0.0
  0
LINE
  8
SIZE
  6
CONTINUOUS
 62
    30
 10
-444.299999999992
 20
-349.87499999999
 30
0.0
 11
-444.299999999992
 21
-478.25449310093518
 31
0.0
  0
LINE
  8
SIZE
  6
CONTINUOUS
 62
    30
 10
-320.29995891034878
 20
-335.71151874680442
 30
0.0
 11
-320.29995891034878
 21
-478.25449310093518
 31
0.0
  0
LINE
  8
SIZE
  6
CONTINUOUS
 62
    30
 10
-332.29995891034878
 20
-458.25449310093518
 30
0.0
 11
-432.299999999992
 21
-458.25449310093518
 31
0.0
  0
LINE
  8
SIZE
  6
CONTINUOUS
 62
    30
 10
-444.299999999992
 20
-458.25449310093518
 30
0.0
 11
-646.18571428570635
 21
-458.25449310093518
 31
0.0
  0
CIRCLE
  8
SIZE
  6
CONTINUOUS
 62
    30
 10
-320.29995891034878
 20
-458.25449310093518
 30
0.0
 40
6.0
  0
LINE
  8
SIZE
  6
CONTINUOUS
 62
    30
 10
-320.29995891034878
 20
-458.25449310093518
 30
0.0
 11
-332.29995891034878
 21
-458.25449310093518
 31
0.0
  0
CIRCLE
  8
SIZE
  6
CONTINUOUS
 62
    30
 10
-444.299999999992
 20
-458.25449310093518
 30
0.0
 40
6.0
  0
LINE
  8
SIZE
  6
CONTINUOUS
 62
    30
 10
-444.299999999992
 20
-458.25449310093518
 30
0.0
 11
-432.299999999992
 21
-458.25449310093518
 31
0.0
  0
TEXT
  8
SIZE
  6
CONTINUOUS
 62
    30
 10
-626.41085714284918
 20
-433.25449310093518
 30
0.0
 40
64.0
  1
124
 50
0.0
 41
0.9
 51
0.0
  7
STANDARD
 71
     0
 72
     1
 11
-551.24285714284918
 21
-433.25449310093518
 31
0.0
210
0.0
220
0.0
230
1.0
  0
POINT
  8
DEFPOINTS
  6
CONTINUOUS
 62
    30
 10
-444.299999999992
 20
-329.87499999999
 30
0.0
  0
POINT
  8
DEFPOINTS
  6
CONTINUOUS
 62
    30
 10
-320.29995891034878
 20
-315.71151874680442
 30
0.0
  0
POINT
  8
DEFPOINTS
  6
CONTINUOUS
 62
    30
 10
-320.29995891034878
 20
-458.25449310093518
 30
0.0
  0
LINE
  8
SIZE
  6
CONTINUOUS
 62
    30
 10
541.89999999999986
 20
-291.19999999999987
 30
0.0
 11
913.91073806442762
 21
-291.19999999999982
 31
0.0
  0
LINE
  8
SIZE
  6
CONTINUOUS
 62
    30
 10
541.89999999999986
 20
-99.199999999999875
 30
0.0
 11
913.91073806442751
 21
-99.199999999999818
 31
0.0
  0
LINE
  8
SIZE
  6
CONTINUOUS
 62
    30
 10
893.91073806442762
 20
-279.19999999999987
 30
0.0
 11
893.91073806442751
 21
-111.1999999999998
 31
0.0
  0
LINE
  8
SIZE
  6
CONTINUOUS
 62
    30
 10
893.91073806442751
 20
-99.199999999999818
 30
0.0
 11
893.91073806442751
 21
152.05714285714311
 31
0.0
  0
CIRCLE
  8
SIZE
  6
CONTINUOUS
 62
    30
 10
893.91073806442762
 20
-291.19999999999987
 30
0.0
 40
6.0
  0
LINE
  8
SIZE
  6
CONTINUOUS
 62
    30
 10
893.91073806442762
 20
-291.19999999999987
 30
0.0
 11
893.91073806442762
 21
-279.19999999999987
 31
0.0
  0
CIRCLE
  8
SIZE
  6
CONTINUOUS
 62
    30
 10
893.91073806442751
 20
-99.199999999999818
 30
0.0
 40
6.0
  0
LINE
  8
SIZE
  6
CONTINUOUS
 62
    30
 10
893.91073806442751
 20
-99.199999999999818
 30
0.0
 11
893.91073806442751
 21
-111.19999999999982
 31
0.0
  0
TEXT
  8
SIZE
  6
CONTINUOUS
 62
    30
 10
868.91073806442728
 20
-76.723428571428641
 30
0.0
 40
64.0
  1
φ192
 50
90.0
 41
0.9
 51
0.0
  7
STANDARD
 71
     0
 72
     1
 11
868.91073806442728
 21
32.428571428571402
 31
0.0
210
0.0
220
0.0
230
1.0
  0
POINT
  8
DEFPOINTS
  6
CONTINUOUS
 62
    30
 10
521.89999999999986
 20
-291.19999999999987
 30
0.0
  0
POINT
  8
DEFPOINTS
  6
CONTINUOUS
 62
    30
 10
521.89999999999986
 20
-99.199999999999875
 30
0.0
  0
POINT
  8
DEFPOINTS
  6
CONTINUOUS
 62
    30
 10
893.91073806442751
 20
-99.199999999999818
 30
0.0
  0
LINE
  8
SIZE
  6
CONTINUOUS
 62
    30
 10
465.59999999999968
 20
-299.19999999999629
 30
0.0
 11
1037.2918766208879
 21
-299.19999999999618
 31
0.0
  0
LINE
  8
SIZE
  6
CONTINUOUS
 62
    30
 10
465.59999999999968
 20
-91.24999999999639
 30
0.0
 11
1037.2918766208879
 21
-91.249999999996305
 31
0.0
  0
LINE
  8
SIZE
  6
CONTINUOUS
 62
    30
 10
1017.291876620888
 20
-287.19999999999618
 30
0.0
 11
1017.291876620888
 21
-103.24999999999631
 31
0.0
  0
LINE
  8
SIZE
  6
CONTINUOUS
 62
    30
 10
1017.291876620888
 20
-91.249999999996291
 30
0.0
 11
1017.291876620888
 21
170.97857142857521
 31
0.0
  0
CIRCLE
  8
SIZE
  6
CONTINUOUS
 62
    30
 10
1017.291876620888
 20
-299.19999999999618
 30
0.0
 40
6.0
  0
LINE
  8
SIZE
  6
CONTINUOUS
 62
    30
 10
1017.291876620888
 20
-299.19999999999618
 30
0.0
 11
1017.291876620888
 21
-287.19999999999618
 31
0.0
  0
CIRCLE
  8
SIZE
  6
CONTINUOUS
 62
    30
 10
1017.291876620888
 20
-91.249999999996291
 30
0.0
 40
6.0
  0
LINE
  8
SIZE
  6
CONTINUOUS
 62
    30
 10
1017.291876620888
 20
-91.249999999996291
 30
0.0
 11
1017.291876620888
 21
-103.24999999999629
 31
0.0
  0
TEXT
  8
SIZE
  6
CONTINUOUS
 62
    30
 10
992.29187662088771
 20
-69.623714285710918
 30
0.0
 40
64.0
  1
φ208
 50
90.0
 41
0.9
 51
0.0
  7
STANDARD
 71
     0
 72
     1
 11
992.29187662088771
 21
45.864285714289139
 31
0.0
210
0.0
220
0.0
230
1.0
  0
POINT
  8
DEFPOINTS
  6
CONTINUOUS
 62
    30
 10
445.59999999999968
 20
-299.19999999999629
 30
0.0
  0
POINT
  8
DEFPOINTS
  6
CONTINUOUS
 62
    30
 10
445.59999999999968
 20
-91.24999999999639
 30
0.0
  0
POINT
  8
DEFPOINTS
  6
CONTINUOUS
 62
    30
 10
1017.291876620888
 20
-91.249999999996291
 30
0.0
  0
LINE
  8
BASIS
  6
DASHDOT
 62
     6
 10
488.43427874224432
 20
-84.999999999999091
 30
0.0
 11
386.56572125775119
 21
-84.999999999999091
 31
0.0
  0
LINE
  8
BASIS
  6
DASHDOT
 62
     6
 10
437.50000000000142
 20
-34.065721257746191
 30
0.0
 11
437.50000000000142
 21
-135.93427874224199
 31
0.0
  0
LINE
  8
SIZE
  6
CONTINUOUS
 62
    30
 10
-437.500000000005
 20
-14.065721257746191
 30
0.0
 11
-437.500000000005
 21
183.35951938046949
 31
0.0
  0
LINE
  8
SIZE
  6
CONTINUOUS
 62
    30
 10
437.50000000000142
 20
-14.065721257746191
 30
0.0
 11
437.50000000000142
 21
183.35951938046949
 31
0.0
  0
LINE
  8
SIZE
  6
CONTINUOUS
 62
    30
 10
-425.500000000005
 20
163.35951938046949
 30
0.0
 11
425.50000000000142
 21
163.35951938046949
 31
0.0
  0
CIRCLE
  8
SIZE
  6
CONTINUOUS
 62
    30
 10
-437.500000000005
 20
163.35951938046949
 30
0.0
 40
6.0
  0
LINE
  8
SIZE
  6
CONTINUOUS
 62
    30
 10
-437.500000000005
 20
163.35951938046949
 30
0.0
 11
-425.500000000005
 21
163.35951938046949
 31
0.0
  0
CIRCLE
  8
SIZE
  6
CONTINUOUS
 62
    30
 10
437.50000000000142
 20
163.35951938046949
 30
0.0
 40
6.0
  0
LINE
  8
SIZE
  6
CONTINUOUS
 62
    30
 10
437.50000000000142
 20
163.35951938046949
 30
0.0
 11
425.50000000000142
 21
163.35951938046949
 31
0.0
  0
TEXT
  8
SIZE
  6
CONTINUOUS
 62
    30
 10
-80.352000000001823
 20
188.35951938046949
 30
0.0
 40
64.0
  1
875
 50
0.0
 41
0.9
 51
0.0
  7
STANDARD
 71
     0
 72
     1
 11
-0.000000000001819
 21
188.35951938046949
 31
0.0
210
0.0
220
0.0
230
1.0
  0
POINT
  8
DEFPOINTS
  6
CONTINUOUS
 62
    30
 10
-437.500000000005
 20
-34.065721257746191
 30
0.0
  0
POINT
  8
DEFPOINTS
  6
CONTINUOUS
 62
    30
 10
437.50000000000142
 20
-34.065721257746191
 30
0.0
  0
POINT
  8
DEFPOINTS
  6
CONTINUOUS
 62
    30
 10
437.50000000000142
 20
163.35951938046949
 30
0.0
  0
LINE
  8
BASIS
  6
DASHDOT
 62
     6
 10
-488.4342787422479
 20
-84.999999999999091
 30
0.0
 11
-386.56572125775477
 21
-84.999999999999091
 31
0.0
  0
LINE
  8
BASIS
  6
DASHDOT
 62
     6
 10
-437.500000000005
 20
-34.065721257746191
 30
0.0
 11
-437.500000000005
 21
-135.93427874224199
 31
0.0
  0
CIRCLE
  8
FIX
  6
CONTINUOUS
 62
    11
 10
437.50000000000142
 20
-84.999999999999091
 30
0.0
 40
6.5
  0
CIRCLE
  8
FIX
  6
CONTINUOUS
 62
    11
 10
-437.500000000005
 20
-84.999999999999091
 30
0.0
 40
6.5
  0
LINE
  8
SIZE
  6
CONTINUOUS
 62
    30
 10
-463.1749999999895
 20
0.0000000000036348
 30
0.0
 11
-719.13958656307852
 21
0.0000000000035936
 31
0.0
  0
LINE
  8
SIZE
  6
CONTINUOUS
 62
    30
 10
-508.43427874224813
 20
-84.999999999999119
 30
0.0
 11
-719.13958656307852
 21
-84.999999999999147
 31
0.0
  0
LINE
  8
SIZE
  6
CONTINUOUS
 62
    30
 10
-699.13958656307852
 20
-72.999999999999147
 30
0.0
 11
-699.13958656307852
 21
-11.999999999996399
 31
0.0
  0
LINE
  8
SIZE
  6
CONTINUOUS
 62
    30
 10
-699.13958656307852
 20
0.0000000000035968
 30
0.0
 11
-699.13958656307852
 21
156.1341666041034
 31
0.0
  0
CIRCLE
  8
SIZE
  6
CONTINUOUS
 62
    30
 10
-699.13958656307852
 20
-84.999999999999147
 30
0.0
 40
6.0
  0
LINE
  8
SIZE
  6
CONTINUOUS
 62
    30
 10
-699.13958656307852
 20
-84.999999999999147
 30
0.0
 11
-699.13958656307852
 21
-72.999999999999147
 31
0.0
  0
CIRCLE
  8
SIZE
  6
CONTINUOUS
 62
    30
 10
-699.13958656307852
 20
0.0000000000035968
 30
0.0
 40
6.0
  0
LINE
  8
SIZE
  6
CONTINUOUS
 62
    30
 10
-699.13958656307852
 20
0.0000000000035968
 30
0.0
 11
-699.13958656307852
 21
-11.999999999996403
 31
0.0
  0
TEXT
  8
SIZE
  6
CONTINUOUS
 62
    30
 10
-724.13958656307841
 20
30.937595175532124
 30
0.0
 40
64.0
  1
85
 50
90.0
 41
0.9
 51
0.0
  7
STANDARD
 71
     0
 72
     1
 11
-724.13958656307841
 21
84.505595175532108
 31
0.0
210
0.0
220
0.0
230
1.0
  0
POINT
  8
DEFPOINTS
  6
CONTINUOUS
 62
    30
 10
-443.1749999999895
 20
0.000000000003638
 30
0.0
  0
POINT
  8
DEFPOINTS
  6
CONTINUOUS
 62
    30
 10
-488.43427874224813
 20
-84.999999999999119
 30
0.0
  0
POINT
  8
DEFPOINTS
  6
CONTINUOUS
 62
    30
 10
-699.13958656307852
 20
-84.999999999999147
 30
0.0
  0
LINE
  8
SIZE
  6
CONTINUOUS
 62
    30
 10
463.1749999999895
 20
0.0000000000045507
 30
0.0
 11
763.91653489120301
 21
0.0000000000045991
 31
0.0
  0
LINE
  8
SIZE
  6
CONTINUOUS
 62
    30
 10
508.43427874224449
 20
-84.999999999999119
 30
0.0
 11
763.91653489120301
 21
-84.999999999999076
 31
0.0
  0
LINE
  8
SIZE
  6
CONTINUOUS
 62
    30
 10
743.91653489120301
 20
-72.999999999999076
 30
0.0
 11
743.91653489120301
 21
-11.99999999999541
 31
0.0
  0
LINE
  8
SIZE
  6
CONTINUOUS
 62
    30
 10
743.91653489120301
 20
0.0000000000045958
 30
0.0
 11
743.91653489120301
 21
155.2571428571475
 31
0.0
  0
CIRCLE
  8
SIZE
  6
CONTINUOUS
 62
    30
 10
743.91653489120301
 20
-84.999999999999076
 30
0.0
 40
6.0
  0
LINE
  8
SIZE
  6
CONTINUOUS
 62
    30
 10
743.91653489120301
 20
-84.999999999999076
 30
0.0
 11
743.91653489120301
 21
-72.999999999999076
 31
0.0
  0
CIRCLE
  8
SIZE
  6
CONTINUOUS
 62
    30
 10
743.91653489120301
 20
0.0000000000045958
 30
0.0
 40
6.0
  0
LINE
  8
SIZE
  6
CONTINUOUS
 62
    30
 10
743.91653489120301
 20
0.0000000000045958
 30
0.0
 11
743.91653489120301
 21
-11.999999999995405
 31
0.0
  0
TEXT
  8
SIZE
  6
CONTINUOUS
 62
    30
 10
718.9165348912029
 20
30.060571428575841
 30
0.0
 40
64.0
  1
85
 50
90.0
 41
0.9
 51
0.0
  7
STANDARD
 71
     0
 72
     1
 11
718.9165348912029
 21
83.628571428575825
 31
0.0
210
0.0
220
0.0
230
1.0
  0
POINT
  8
DEFPOINTS
  6
CONTINUOUS
 62
    30
 10
443.1749999999895
 20
0.0000000000045475
 30
0.0
  0
POINT
  8
DEFPOINTS
  6
CONTINUOUS
 62
    30
 10
488.43427874224449
 20
-84.999999999999119
 30
0.0
  0
POINT
  8
DEFPOINTS
  6
CONTINUOUS
 62
    30
 10
743.91653489120301
 20
-84.999999999999076
 30
0.0
  0
LINE
  8
SIZE
  6
CONTINUOUS
 62
    30
 10
-463.1749999999895
 20
0.0000000000036348
 30
0.0
 11
-829.87867156147593
 21
0.0000000000035758
 31
0.0
  0
LINE
  8
SIZE
  6
CONTINUOUS
 62
    30
 10
-463.17499999998222
 20
-331.00000000000011
 30
0.0
 11
-829.87867156147581
 21
-331.00000000000023
 31
0.0
  0
LINE
  8
SIZE
  6
CONTINUOUS
 62
    30
 10
-809.87867156147593
 20
-11.999999999996421
 30
0.0
 11
-809.87867156147581
 21
-319.00000000000023
 31
0.0
  0
CIRCLE
  8
SIZE
  6
CONTINUOUS
 62
    30
 10
-809.87867156147593
 20
0.000000000003579
 30
0.0
 40
6.0
  0
LINE
  8
SIZE
  6
CONTINUOUS
 62
    30
 10
-809.87867156147593
 20
0.000000000003579
 30
0.0
 11
-809.87867156147593
 21
-11.999999999996421
 31
0.0
  0
CIRCLE
  8
SIZE
  6
CONTINUOUS
 62
    30
 10
-809.87867156147581
 20
-331.00000000000023
 30
0.0
 40
6.0
  0
LINE
  8
SIZE
  6
CONTINUOUS
 62
    30
 10
-809.87867156147581
 20
-331.00000000000023
 30
0.0
 11
-809.87867156147581
 21
-319.00000000000023
 31
0.0
  0
TEXT
  8
SIZE
  6
CONTINUOUS
 62
    30
 10
-834.8786715614757
 20
-240.091999999998
 30
0.0
 40
64.0
  1
331
 50
90.0
 41
0.9
 51
0.0
  7
STANDARD
 71
     0
 72
     1
 11
-834.8786715614757
 21
-165.49999999999801
 31
0.0
210
0.0
220
0.0
230
1.0
  0
POINT
  8
DEFPOINTS
  6
CONTINUOUS
 62
    30
 10
-443.1749999999895
 20
0.000000000003638
 30
0.0
  0
POINT
  8
DEFPOINTS
  6
CONTINUOUS
 62
    30
 10
-443.17499999998222
 20
-331.00000000000011
 30
0.0
  0
POINT
  8
DEFPOINTS
  6
CONTINUOUS
 62
    30
 10
-809.87867156147581
 20
-331.00000000000023
 30
0.0
  0
POINT
  8
ARRANGE
  6
CONTINUOUS
 62
     1
 10
0.0
 20
0.0
 30
0.0
  0
CIRCLE
  8
ARRANGE
  6
CONTINUOUS
 62
     1
 10
0.0
 20
0.0
 30
0.0
 40
40.0
  0
LINE
  8
OUTLINE
  6
CONTINUOUS
 62
     3
 10
-438.199999999998
 20
-299.19999999999618
 30
0.0
 11
-445.59999999999951
 21
-299.19999999999618
 31
0.0
  0
LINE
  8
OUTLINE
  6
CONTINUOUS
 62
     3
 10
-445.59999999999951
 20
-299.19999999999618
 30
0.0
 11
-514.39999999999964
 21
-291.19999999999982
 31
0.0
  0
LINE
  8
OUTLINE
  6
CONTINUOUS
 62
     3
 10
-514.39999999999964
 20
-291.19999999999982
 30
0.0
 11
-521.89999999999964
 21
-291.19999999999982
 31
0.0
  0
ARC
  8
OUTLINE
  6
CONTINUOUS
 62
     3
 10
-521.89999999999191
 20
-290.09999999999349
 30
0.0
 40
1.1000000000063055
 50
180.0
 51
270.0
  0
LINE
  8
OUTLINE
  6
CONTINUOUS
 62
     3
 10
-522.99999999999818
 20
-290.099999999994
 30
0.0
 11
-522.99999999999818
 21
-100.2999999999965
 31
0.0
  0
ARC
  8
OUTLINE
  6
CONTINUOUS
 62
     3
 10
-521.90000000000748
 20
-100.29999999999055
 30
0.0
 40
1.0999999999907311
 50
90.0
 51
180.0
  0
LINE
  8
OUTLINE
  6
CONTINUOUS
 62
     3
 10
-521.89999999999964
 20
-99.199999999999818
 30
0.0
 11
-514.39999999999964
 21
-99.199999999999818
 31
0.0
  0
LINE
  8
OUTLINE
  6
CONTINUOUS
 62
     3
 10
-514.39999999999964
 20
-99.199999999999818
 30
0.0
 11
-456.09999999999951
 21
-92.417391303998556
 31
0.0
  0
LINE
  8
OUTLINE
  6
CONTINUOUS
 62
     3
 10
-456.09999999999951
 20
-92.417391303998556
 30
0.0
 11
-456.10000000001043
 21
-85.000000000000455
 31
0.0
  0
LINE
  8
OUTLINE
  6
CONTINUOUS
 62
     3
 10
-456.10000000001043
 20
-85.000000000000455
 30
0.0
 11
-438.19999999999749
 21
-85.000000000000455
 31
0.0
  0
LINE
  8
OUTLINE
  6
CONTINUOUS
 62
     3
 10
-438.19999999999749
 20
-85.000000000000455
 30
0.0
 11
-438.199999999998
 21
-77.70010702399577
 31
0.0
  0
LINE
  8
OUTLINE
  6
CONTINUOUS
 62
     3
 10
-438.199999999998
 20
-77.70010702399577
 30
0.0
 11
-437.59999999999951
 21
-77.70010702399577
 31
0.0
  0
LINE
  8
OUTLINE
  6
CONTINUOUS
 62
     3
 10
-437.59999999999951
 20
-77.70010702399577
 30
0.0
 11
-437.60000000000667
 21
-1.649999999996453
 31
0.0
  0
ARC
  8
OUTLINE
  6
CONTINUOUS
 62
     3
 10
-438.10000000000531
 20
-1.649999999996449
 30
0.0
 40
0.4999999999986322
 50
0.0
 51
90.0
  0
LINE
  8
OUTLINE
  6
CONTINUOUS
 62
     3
 10
-438.10000000001043
 20
-1.149999999997817
 30
0.0
 11
-439.60000000000667
 21
-1.149999999998272
 31
0.0
  0
LINE
  8
OUTLINE
  6
CONTINUOUS
 62
     3
 10
-439.60000000000667
 20
-1.149999999998272
 30
0.0
 11
-439.60000000000667
 21
-1.6500000000110051
 31
0.0
  0
LINE
  8
OUTLINE
  6
CONTINUOUS
 62
     3
 10
-439.60000000000667
 20
-1.6500000000110051
 30
0.0
 11
-443.17499999999649
 21
-1.6500000000110051
 31
0.0
  0
ARC
  8
OUTLINE
  6
CONTINUOUS
 62
     3
 10
-443.17499999999649
 20
-0.8250000000039112
 30
0.0
 40
0.825000000007094
 50
90.0
 51
270.0
  0
LINE
  8
OUTLINE
  6
CONTINUOUS
 62
     3
 10
-443.17499999999649
 20
0.0000000000031832
 30
0.0
 11
-437.55816558667078
 21
-0.0000000000013642
 31
0.0
  0
ARC
  8
OUTLINE
  6
CONTINUOUS
 62
     3
 10
-437.55816558609411
 20
-0.9999999985302993
 30
0.0
 40
0.9999999985289351
 50
4.9999999183982027
 51
90.0
  0
LINE
  8
OUTLINE
  6
CONTINUOUS
 62
     3
 10
-436.56197088934368
 20
-0.9128442573296525
 30
0.0
 11
-436.40998945467533
 21
-2.649999999999181
 31
0.0
  0
LINE
  8
OUTLINE
  6
CONTINUOUS
 62
     3
 10
-436.40998945467533
 20
-2.649999999999181
 30
0.0
 11
-435.60000000000667
 21
-2.649999999999181
 31
0.0
  0
LINE
  8
OUTLINE
  6
CONTINUOUS
 62
     3
 10
-435.60000000000667
 20
-2.649999999999181
 30
0.0
 11
-435.60000000000667
 21
-0.650000000000091
 31
0.0
  0
LINE
  8
OUTLINE
  6
CONTINUOUS
 62
     3
 10
-435.60000000000667
 20
-0.650000000000091
 30
0.0
 11
-435.50000000000091
 21
-0.650000000000091
 31
0.0
  0
LINE
  8
OUTLINE
  6
CONTINUOUS
 62
     3
 10
-435.50000000000091
 20
-0.650000000000091
 30
0.0
 11
-435.50000000000091
 21
-0.0000000000013642
 31
0.0
  0
LINE
  8
OUTLINE
  6
CONTINUOUS
 62
     3
 10
-435.50000000000091
 20
-0.0000000000013642
 30
0.0
 11
435.49999999999181
 21
-0.0000000000013642
 31
0.0
  0
LINE
  8
OUTLINE
  6
CONTINUOUS
 62
     3
 10
435.49999999999181
 20
-0.0000000000013642
 30
0.0
 11
435.49999999999909
 21
-0.650000000000091
 31
0.0
  0
LINE
  8
OUTLINE
  6
CONTINUOUS
 62
     3
 10
435.49999999999909
 20
-0.650000000000091
 30
0.0
 11
435.59999999999758
 21
-0.650000000000091
 31
0.0
  0
LINE
  8
OUTLINE
  6
CONTINUOUS
 62
     3
 10
435.59999999999758
 20
-0.650000000000091
 30
0.0
 11
435.59999999999758
 21
-2.649999999999181
 31
0.0
  0
LINE
  8
OUTLINE
  6
CONTINUOUS
 62
     3
 10
435.59999999999758
 20
-2.649999999999181
 30
0.0
 11
436.4099894546589
 21
-2.649999999999181
 31
0.0
  0
LINE
  8
OUTLINE
  6
CONTINUOUS
 62
     3
 10
436.4099894546589
 20
-2.649999999999181
 30
0.0
 11
436.56197088932731
 21
-0.9128442573296525
 31
0.0
  0
ARC
  8
OUTLINE
  6
CONTINUOUS
 62
     3
 10
437.55816558609013
 20
-0.9999999985438494
 30
0.0
 40
0.9999999985424852
 50
90.0
 51
175.00000008089023
  0
LINE
  8
OUTLINE
  6
CONTINUOUS
 62
     3
 10
437.55816558666169
 20
-0.0000000000013642
 30
0.0
 11
443.24999999999181
 21
-0.000000000001819
 31
0.0
  0
ARC
  8
OUTLINE
  6
CONTINUOUS
 62
     3
 10
443.17321428570068
 20
-0.8232142857204482
 30
0.0
 40
0.8267876427054497
 50
270.12374879097456
 51
84.671126803247944
  0
LINE
  8
OUTLINE
  6
CONTINUOUS
 62
     3
 10
443.17499999998017
 20
-1.6500000000110051
 30
0.0
 11
439.599999999994
 21
-1.6500000000110051
 31
0.0
  0
LINE
  8
OUTLINE
  6
CONTINUOUS
 62
     3
 10
439.599999999994
 20
-1.6500000000110051
 30
0.0
 11
439.599999999994
 21
-1.149999999998272
 31
0.0
  0
LINE
  8
OUTLINE
  6
CONTINUOUS
 62
     3
 10
439.599999999994
 20
-1.149999999998272
 30
0.0
 11
438.09999999999042
 21
-1.149999999998272
 31
0.0
  0
ARC
  8
OUTLINE
  6
CONTINUOUS
 62
     3
 10
438.09999999998718
 20
-1.6499999999950599
 30
0.0
 40
0.499999999996788
 50
90.0
 51
180.0
  0
LINE
  8
OUTLINE
  6
CONTINUOUS
 62
     3
 10
437.59999999999042
 20
-1.649999999996453
 30
0.0
 11
437.59999999999951
 21
-77.70010702399577
 31
0.0
  0
LINE
  8
OUTLINE
  6
CONTINUOUS
 62
     3
 10
437.59999999999951
 20
-77.70010702399577
 30
0.0
 11
438.199999999998
 21
-77.70010702399577
 31
0.0
  0
LINE
  8
OUTLINE
  6
CONTINUOUS
 62
     3
 10
438.199999999998
 20
-77.70010702399577
 30
0.0
 11
438.199999999998
 21
-85.049999999995634
 31
0.0
  0
LINE
  8
OUTLINE
  6
CONTINUOUS
 62
     3
 10
438.199999999998
 20
-85.049999999995634
 30
0.0
 11
456.09999999999042
 21
-85.000000000000455
 31
0.0
  0
LINE
  8
OUTLINE
  6
CONTINUOUS
 62
     3
 10
456.09999999999042
 20
-85.000000000000455
 30
0.0
 11
456.05033010501347
 21
-92.461655318288194
 31
0.0
  0
LINE
  8
OUTLINE
  6
CONTINUOUS
 62
     3
 10
456.05033010501347
 20
-92.461655318288194
 30
0.0
 11
514.39999999999964
 21
-99.199999999999818
 31
0.0
  0
LINE
  8
OUTLINE
  6
CONTINUOUS
 62
     3
 10
514.39999999999964
 20
-99.199999999999818
 30
0.0
 11
521.89999999999964
 21
-99.199999999999818
 31
0.0
  0
ARC
  8
OUTLINE
  6
CONTINUOUS
 62
     3
 10
521.90000000000748
 20
-100.29999999999055
 30
0.0
 40
1.0999999999907311
 50
0.0
 51
90.0
  0
LINE
  8
OUTLINE
  6
CONTINUOUS
 62
     3
 10
522.99999999999818
 20
-100.2999999999965
 30
0.0
 11
522.99999999999818
 21
-289.87876619599501
 31
0.0
  0
ARC
  8
OUTLINE
  6
CONTINUOUS
 62
     3
 10
521.88828936069842
 20
-290.07172801578798
 30
0.0
 40
1.1283327565173746
 50
270.5946669986804
 51
9.846838196385022
  0
LINE
  8
OUTLINE
  6
CONTINUOUS
 62
     3
 10
521.89999999999964
 20
-291.19999999999982
 30
0.0
 11
514.39999999999964
 21
-291.19999999999982
 31
0.0
  0
LINE
  8
OUTLINE
  6
CONTINUOUS
 62
     3
 10
514.39999999999964
 20
-291.19999999999982
 30
0.0
 11
445.59999999999951
 21
-299.19999999999618
 31
0.0
  0
LINE
  8
OUTLINE
  6
CONTINUOUS
 62
     3
 10
445.59999999999951
 20
-299.19999999999618
 30
0.0
 11
438.199999999998
 21
-299.19999999999618
 31
0.0
  0
LINE
  8
OUTLINE
  6
CONTINUOUS
 62
     3
 10
438.199999999998
 20
-299.19999999999618
 30
0.0
 11
438.199999999998
 21
-312.69897139066319
 31
0.0
  0
LINE
  8
OUTLINE
  6
CONTINUOUS
 62
     3
 10
438.199999999998
 20
-312.69897139066319
 30
0.0
 11
437.59999999999951
 21
-312.69897139332988
 31
0.0
  0
LINE
  8
OUTLINE
  6
CONTINUOUS
 62
     3
 10
437.59999999999951
 20
-312.69897139332988
 30
0.0
 11
437.59999999999042
 21
-329.05000000000058
 31
0.0
  0
ARC
  8
OUTLINE
  6
CONTINUOUS
 62
     3
 10
438.09999999999042
 20
-329.05000000000058
 30
0.0
 40
0.4999999999999902
 50
180.0
 51
270.0
  0
LINE
  8
OUTLINE
  6
CONTINUOUS
 62
     3
 10
438.09999999999042
 20
-329.55000000000058
 30
0.0
 11
439.59999999999042
 21
-329.54999999999927
 31
0.0
  0
LINE
  8
OUTLINE
  6
CONTINUOUS
 62
     3
 10
439.59999999999042
 20
-329.54999999999927
 30
0.0
 11
439.59999999999042
 21
-328.7499999999809
 31
0.0
  0
LINE
  8
OUTLINE
  6
CONTINUOUS
 62
     3
 10
439.59999999999042
 20
-328.7499999999809
 30
0.0
 11
443.17499999998017
 21
-328.7499999999809
 31
0.0
  0
ARC
  8
OUTLINE
  6
CONTINUOUS
 62
     3
 10
443.17499999998017
 20
-329.87499999999091
 30
0.0
 40
1.1250000000100044
 50
270.0
 51
90.0
  0
LINE
  8
OUTLINE
  6
CONTINUOUS
 62
     3
 10
443.17499999998017
 20
-331.00000000000091
 30
0.0
 11
437.83306493866172
 21
-330.99999999999551
 31
0.0
  0
ARC
  8
OUTLINE
  6
CONTINUOUS
 62
     3
 10
437.83306493865956
 20
-329.39999999999878
 30
0.0
 40
1.5999999999967094
 50
184.99999999994145
 51
270.0
  0
LINE
  8
OUTLINE
  6
CONTINUOUS
 62
     3
 10
436.23915342171591
 20
-329.53944918839312
 30
0.0
 11
436.10884350265309
 21
-328.04999999999751
 31
0.0
  0
LINE
  8
OUTLINE
  6
CONTINUOUS
 62
     3
 10
436.10884350265309
 20
-328.04999999999751
 30
0.0
 11
435.59999999999758
 21
-328.04999999999751
 31
0.0
  0
LINE
  8
OUTLINE
  6
CONTINUOUS
 62
     3
 10
435.59999999999758
 20
-328.04999999999751
 30
0.0
 11
435.59999999999758
 21
-330.04999999999649
 31
0.0
  0
LINE
  8
OUTLINE
  6
CONTINUOUS
 62
     3
 10
435.59999999999758
 20
-330.04999999999649
 30
0.0
 11
435.09999999999042
 21
-330.04999999999649
 31
0.0
  0
LINE
  8
OUTLINE
  6
CONTINUOUS
 62
     3
 10
435.09999999999042
 20
-330.04999999999649
 30
0.0
 11
435.09999999999042
 21
-330.99999999999551
 31
0.0
  0
LINE
  8
OUTLINE
  6
CONTINUOUS
 62
     3
 10
435.09999999999042
 20
-330.99999999999551
 30
0.0
 11
-435.09999999999951
 21
-330.99999999999551
 31
0.0
  0
LINE
  8
OUTLINE
  6
CONTINUOUS
 62
     3
 10
-435.09999999999951
 20
-330.99999999999551
 30
0.0
 11
-435.09999999999951
 21
-330.04999999999649
 31
0.0
  0
LINE
  8
OUTLINE
  6
CONTINUOUS
 62
     3
 10
-435.09999999999951
 20
-330.04999999999649
 30
0.0
 11
-435.60000000000667
 21
-330.04999999999518
 31
0.0
  0
LINE
  8
OUTLINE
  6
CONTINUOUS
 62
     3
 10
-435.60000000000667
 20
-330.04999999999518
 30
0.0
 11
-435.60000000000667
 21
-328.04999999999751
 31
0.0
  0
LINE
  8
OUTLINE
  6
CONTINUOUS
 62
     3
 10
-435.60000000000667
 20
-328.04999999999751
 30
0.0
 11
-436.10884350400102
 21
-328.04999999999751
 31
0.0
  0
LINE
  8
OUTLINE
  6
CONTINUOUS
 62
     3
 10
-436.10884350400102
 20
-328.04999999999751
 30
0.0
 11
-436.23915342267082
 21
-329.5394491893303
 31
0.0
  0
ARC
  8
OUTLINE
  6
CONTINUOUS
 62
     3
 10
-437.83306493803059
 20
-329.40000000163786
 30
0.0
 40
1.5999999983576423
 50
270.0
 51
355.00000002015452
  0
LINE
  8
OUTLINE
  6
CONTINUOUS
 62
     3
 10
-437.83306493867082
 20
-330.99999999999551
 30
0.0
 11
-443.17499999998932
 21
-330.99999999999591
 31
0.0
  0
ARC
  8
OUTLINE
  6
CONTINUOUS
 62
     3
 10
-443.17499999998932
 20
-329.8749999999884
 30
0.0
 40
1.1250000000075033
 50
90.0
 51
270.0
  0
LINE
  8
OUTLINE
  6
CONTINUOUS
 62
     3
 10
-443.17499999998932
 20
-328.7499999999809
 30
0.0
 11
-439.59999999999951
 21
-328.7499999999809
 31
0.0
  0
LINE
  8
OUTLINE
  6
CONTINUOUS
 62
     3
 10
-439.59999999999951
 20
-328.7499999999809
 30
0.0
 11
-439.60000000000309
 21
-329.54999999999791
 31
0.0
  0
LINE
  8
OUTLINE
  6
CONTINUOUS
 62
     3
 10
-439.60000000000309
 20
-329.54999999999791
 30
0.0
 11
-438.10000000000309
 21
-329.54999999999842
 31
0.0
  0
ARC
  8
OUTLINE
  6
CONTINUOUS
 62
     3
 10
-438.10000000000286
 20
-329.04999999999865
 30
0.0
 40
0.4999999999997962
 50
270.0
 51
0.0
  0
LINE
  8
OUTLINE
  6
CONTINUOUS
 62
     3
 10
-437.60000000000309
 20
-329.04999999999842
 30
0.0
 11
-437.59999999999951
 21
-312.69897139466502
 31
0.0
  0
LINE
  8
OUTLINE
  6
CONTINUOUS
 62
     3
 10
-437.59999999999951
 20
-312.69897139466502
 30
0.0
 11
-438.199999999998
 21
-312.69897139066319
 31
0.0
  0
LINE
  8
OUTLINE
  6
CONTINUOUS
 62
     3
 10
-438.199999999998
 20
-312.69897139066319
 30
0.0
 11
-438.199999999998
 21
-299.19999999999618
 31
0.0
  0
TEXT
  8
NOTE
  6
CONTINUOUS
 62
     4
 10
562.61424623225321
 20
-220.08815761414641
 30
0.0
 40
64.065641025638456
  1
SA
 41
0.9
  0
TEXT
  8
NOTE
  6
CONTINUOUS
 62
     4
 10
-655.37589343825857
 20
-223.9840681703017
 30
0.0
 40
64.065641025638456
  1
OA
 41
0.9
  0
TEXT
  8
ETC
  6
CONTINUOUS
 62
    61
 10
830.95780286282752
 20
796.32210213816961
 30
0.0
 40
64.065641025638456
  1
LGH-50RVX3-E_5
 41
0.9
  0
TEXT
  8
ETC
  6
CONTINUOUS
 62
    61
 10
826.76751553564827
 20
678.24581231819911
 30
0.0
 40
64.065641025638456
  1
LOSSNAY
 41
0.9
  0
TEXT
  8
ETC
  6
CONTINUOUS
 62
    61
 10
877.52091521830334
 20
569.98611761363293
 30
0.0
 40
40.041025641024042
  1
LGH-50RVX3-E
 50
0.0
 41
0.9
 51
0.0
  7
STANDARD
 71
     0
 11
0.0
 21
0.0
 31
0.0
210
0.0
220
0.0
230
1.0
  0
TEXT
  8
NOTE
  6
CONTINUOUS
 62
     4
 10
496.26303322684907
 20
-419.76626031273457
 30
0.0
 40
69.0
  1
Power supply
 50
0.0
 41
0.9
 51
0.0
  7
STANDARD
 71
     0
 11
0.0
 21
0.0
 31
0.0
210
0.0
220
0.0
230
1.0
  0
TEXT
  8
NOTE
  6
CONTINUOUS
 62
     4
 10
496.26303322684907
 20
-533.61626031273454
 30
0.0
 40
69.0
  1
cable opening
 50
0.0
 41
0.9
 51
0.0
  7
STANDARD
 71
     0
 11
0.0
 21
0.0
 31
0.0
210
0.0
220
0.0
230
1.0
  0
LINE
  8
NOTE
  6
CONTINUOUS
 62
     4
 10
486.26303322684907
 20
-557.76626031273463
 30
0.0
 11
1137.9630332268489
 21
-557.76626031273463
 31
0.0
  0
LINE
  8
NOTE
  6
CONTINUOUS
 62
     4
 10
379.08760843098355
 20
-310.2272862570361
 30
0.0
 11
376.29999999999927
 21
-274.09999999999758
 31
0.0
  0
LINE
  8
NOTE
  6
CONTINUOUS
 62
     4
 10
376.29999999999927
 20
-274.09999999999758
 30
0.0
 11
396.777827893118
 21
-303.9933125939927
 31
0.0
  0
LINE
  8
NOTE
  6
CONTINUOUS
 62
     4
 10
376.29999999999927
 20
-274.09999999999758
 30
0.0
 11
399.56543632410228
 21
-340.12059885103127
 31
0.0
  0
LINE
  8
NOTE
  6
CONTINUOUS
 62
     4
 10
399.56543632410222
 20
-340.12059885103127
 30
0.0
 11
476.26303322684907
 21
-557.76626031273463
 31
0.0
  0
LINE
  8
NOTE
  6
CONTINUOUS
 62
     4
 10
476.26303322684907
 20
-557.76626031273463
 30
0.0
 11
486.26303322684907
 21
-557.76626031273463
 31
0.0
  0
TEXT
  8
NOTE
  6
CONTINUOUS
 62
     4
 10
579.00885902790969
 20
364.50920208469921
 30
0.0
 40
69.0
  1
Ceiling suspension fixture
 50
0.0
 41
0.9
 51
0.0
  7
STANDARD
 71
     0
 11
0.0
 21
0.0
 31
0.0
210
0.0
220
0.0
230
1.0
  0
TEXT
  8
NOTE
  6
CONTINUOUS
 62
     4
 10
579.00885902790969
 20
250.65920208469922
 30
0.0
 40
69.0
  1
(4-13X20 oval)
 50
0.0
 41
0.9
 51
0.0
  7
STANDARD
 71
     0
 11
0.0
 21
0.0
 31
0.0
210
0.0
220
0.0
230
1.0
  0
LINE
  8
NOTE
  6
CONTINUOUS
 62
     4
 10
569.00885902790969
 20
213.36634494184179
 30
0.0
 11
1785.523144742195
 21
213.36634494184179
 31
0.0
  0
LINE
  8
NOTE
  6
CONTINUOUS
 62
     4
 10
459.38653623451734
 20
-56.122141011212108
 30
0.0
 11
437.49998603620003
 21
-84.999995735533957
 31
0.0
  0
LINE
  8
NOTE
  6
CONTINUOUS
 62
     4
 10
437.49998603620003
 20
-84.999995735533957
 30
0.0
 11
442.01531296899094
 21
-49.047758033931672
 31
0.0
  0
LINE
  8
NOTE
  6
CONTINUOUS
 62
     4
 10
437.49998603620003
 20
-84.999995735533957
 30
0.0
 11
463.90186316730825
 21
-20.169903309609822
 31
0.0
  0
LINE
  8
NOTE
  6
CONTINUOUS
 62
     4
 10
463.90186316730808
 20
-20.16990330960979
 30
0.0
 11
559.00885902790969
 21
213.36634494184179
 31
0.0
  0
LINE
  8
NOTE
  6
CONTINUOUS
 62
     4
 10
559.00885902790969
 20
213.36634494184179
 30
0.0
 11
569.00885902790969
 21
213.36634494184179
 31
0.0
  0
ENDSEC
  0
EOF
