  0
SECTION
  2
HEADER
  9
$ACADVER
  1
AC1009
  9
$DWGCODEPAGE
  3
dos932
  9
$INSBASE
 10
0.0
 20
0.0
 30
0.0
  9
$EXTMIN
 10
-965.73942475456352
 20
-478.40880180989552
 30
-0.0015258207003583
  9
$EXTMAX
 10
1742.0471315412401
 20
860.6872641955124
 30
0.0000000349246037
  9
$LIMMIN
 10
-2970.0
 20
-2100.0
  9
$LIMMAX
 10
2970.0
 20
2100.0
  9
$ORTHOMODE
 70
     1
  9
$REGENMODE
 70
     1
  9
$FILLMODE
 70
     1
  9
$QTEXTMODE
 70
     0
  9
$MIRRTEXT
 70
     0
  9
$LTSCALE
 40
20.0
  9
$ATTMODE
 70
     1
  9
$TEXTSIZE
 40
64.0
  9
$TRACEWID
 40
0.05
  9
$TEXTSTYLE
  7
STANDARD
  9
$CLAYER
  8
SIZE
  9
$CELTYPE
  6
CONTINUOUS
  9
$CECOLOR
 62
     7
  9
$DIMSCALE
 40
1.0
  9
$DIMASZ
 40
12.0
  9
$DIMEXO
 40
20.0
  9
$DIMDLI
 40
200.0
  9
$DIMRND
 40
0.0
  9
$DIMDLE
 40
0.0
  9
$DIMEXE
 40
20.0
  9
$DIMTP
 40
0.0
  9
$DIMTM
 40
0.0
  9
$DIMTXT
 40
64.0
  9
$DIMCEN
 40
0.09
  9
$DIMTSZ
 40
0.0
  9
$DIMTOL
 70
     0
  9
$DIMLIM
 70
     0
  9
$DIMTIH
 70
     0
  9
$DIMTOH
 70
     0
  9
$DIMSE1
 70
     0
  9
$DIMSE2
 70
     0
  9
$DIMTAD
 70
     1
  9
$DIMZIN
 70
     8
  9
$DIMBLK
  1

  9
$DIMASO
 70
     1
  9
$DIMSHO
 70
     0
  9
$DIMPOST
  1

  9
$DIMAPOST
  1

  9
$DIMALT
 70
     0
  9
$DIMALTD
 70
     2
  9
$DIMALTF
 40
25.399999999999999
  9
$DIMLFAC
 40
1.0
  9
$DIMTOFL
 70
     1
  9
$DIMTVP
 40
0.0
  9
$DIMTIX
 70
     1
  9
$DIMSOXD
 70
     0
  9
$DIMSAH
 70
     0
  9
$DIMBLK1
  1

  9
$DIMBLK2
  1

  9
$DIMSTYLE
  2
STANDARD
  9
$DIMCLRD
 70
     7
  9
$DIMCLRE
 70
     7
  9
$DIMCLRT
 70
     7
  9
$DIMTFAC
 40
1.0
  9
$DIMGAP
 40
25.0
  9
$LUNITS
 70
     2
  9
$LUPREC
 70
     4
  9
$SKETCHINC
 40
0.1
  9
$FILLETRAD
 40
3.0
  9
$AUNITS
 70
     1
  9
$AUPREC
 70
     3
  9
$MENU
  1
ACAD
  9
$ELEVATION
 40
0.0
  9
$PELEVATION
 40
0.0
  9
$THICKNESS
 40
0.0
  9
$LIMCHECK
 70
     0
  9
$CHAMFERA
 40
0.0
  9
$CHAMFERB
 40
0.0
  9
$SKPOLY
 70
     0
  9
$TDCREATE
 40
2453019.62301037
  9
$TDUPDATE
 40
2460045.428422141
  9
$TDINDWG
 40
1.7161618171
  9
$TDUSRTIMER
 40
1.7161618171
  9
$USRTIMER
 70
     1
  9
$ANGBASE
 50
0.0
  9
$ANGDIR
 70
     0
  9
$PDMODE
 70
     3
  9
$PDSIZE
 40
-2.0
  9
$PLINEWID
 40
0.0
  9
$SPLFRAME
 70
     0
  9
$SPLINETYPE
 70
     6
  9
$SPLINESEGS
 70
     8
  9
$SURFTAB1
 70
     6
  9
$SURFTAB2
 70
     6
  9
$SURFTYPE
 70
     6
  9
$SURFU
 70
     6
  9
$SURFV
 70
     6
  9
$UCSNAME
  2

  9
$UCSORG
 10
0.0
 20
0.0
 30
0.0
  9
$UCSXDIR
 10
1.0
 20
0.0
 30
0.0
  9
$UCSYDIR
 10
0.0
 20
1.0
 30
0.0
  9
$PUCSNAME
  2

  9
$PUCSORG
 10
0.0
 20
0.0
 30
0.0
  9
$PUCSXDIR
 10
1.0
 20
0.0
 30
0.0
  9
$PUCSYDIR
 10
0.0
 20
1.0
 30
0.0
  9
$USERI1
 70
     0
  9
$USERI2
 70
     0
  9
$USERI3
 70
     0
  9
$USERI4
 70
     0
  9
$USERI5
 70
     0
  9
$USERR1
 40
20.0
  9
$USERR2
 40
0.0
  9
$USERR3
 40
0.0
  9
$USERR4
 40
0.0
  9
$USERR5
 40
0.0
  9
$WORLDVIEW
 70
     1
  9
$SHADEDGE
 70
     3
  9
$SHADEDIF
 70
    70
  9
$TILEMODE
 70
     1
  9
$MAXACTVP
 70
    48
  9
$PINSBASE
 10
0.0
 20
0.0
 30
0.0
  9
$PLIMCHECK
 70
     0
  9
$PEXTMIN
 10
-100000000000000000000.0
 20
-100000000000000000000.0
 30
-100000000000000000000.0
  9
$PEXTMAX
 10
100000000000000000000.0
 20
100000000000000000000.0
 30
100000000000000000000.0
  9
$PLIMMIN
 10
0.0
 20
0.0
  9
$PLIMMAX
 10
12.0
 20
9.0
  9
$UNITMODE
 70
     0
  9
$VISRETAIN
 70
     0
  9
$PLINEGEN
 70
     0
  9
$PSLTSCALE
 70
     0
  9
$TREEDEPTH
 70
  3020
  9
$ATTDIA
 70
     0
  9
$ATTREQ
 70
     1
  9
$BLIPMODE
 70
     1
  9
$COORDS
 70
     1
  9
$DRAGMODE
 70
     2
  9
$OSMODE
 70
     0
  9
$HANDLING
 70
     0
  9
$HANDSEED
  5
FD11
  0
ENDSEC
  0
SECTION
  2
TABLES
  0
TABLE
  2
LTYPE
 70
     3
  0
LTYPE
  2
CONTINUOUS
 70
     0
  3
実線
 72
    65
 73
     0
 40
0.0
  0
LTYPE
  2
DASHDOT
 70
     0
  3
____ _ ____ _ ____ _ ____ _ ____ _ ____ _ ____
 72
    65
 73
     4
 40
5.5
 49
4.0
 49
-0.6
 49
0.3
 49
-0.6
  0
LTYPE
  2
DASHED
 70
     0
  3
-- -- -- -- -- -- -- -- -- -- -- -- -- -- --
 72
    65
 73
     2
 40
0.75
 49
0.5
 49
-0.25
  0
ENDTAB
  0
TABLE
  2
LAYER
 70
    12
  0
LAYER
  2
0
 70
     0
 62
     7
  6
CONTINUOUS
  0
LAYER
  2
BASIS
 70
     0
 62
     6
  6
DASHDOT
  0
LAYER
  2
OUTLINE
 70
     0
 62
     3
  6
CONTINUOUS
  0
LAYER
  2
DETAIL
 70
     0
 62
     5
  6
CONTINUOUS
  0
LAYER
  2
SIZE
 70
     0
 62
    30
  6
CONTINUOUS
  0
LAYER
  2
ARRANGE
 70
     0
 62
     1
  6
CONTINUOUS
  0
LAYER
  2
DEFPOINTS
 70
     0
 62
     7
  6
CONTINUOUS
  0
LAYER
  2
ETC
 70
     0
 62
    61
  6
CONTINUOUS
  0
LAYER
  2
FIX
 70
     0
 62
    11
  6
CONTINUOUS
  0
LAYER
  2
NOTE
 70
     0
 62
     4
  6
CONTINUOUS
  0
LAYER
  2
SERVICESPACE
 70
    64
 62
     2
  6
DASHDOT
  0
LAYER
  2
SYMBOLLINE
 70
    64
 62
    15
  6
CONTINUOUS
  0
ENDTAB
  0
TABLE
  2
STYLE
 70
     1
  0
STYLE
  2
STANDARD
 70
     0
 40
64.0
 41
0.9
 50
0.0
 71
     0
 42
64.0
  3
SIMPLEX.shx
  4
BIGFONT.shx
  0
ENDTAB
  0
TABLE
  2
APPID
 70
    22
  0
APPID
  2
ACAD
 70
     0
  0
APPID
  2
AUTOCAD_POSTSCRIPT_FIGURE
 70
     0
  0
APPID
  2
ACAD_EXEMPT_FROM_CAD_STANDARDS
 70
     0
  0
APPID
  2
ACAD_PSEXT
 70
     0
  0
APPID
  2
ACAUTHENVIRON
 70
     0
  0
APPID
  2
GENIUS_GENOENT_13
 70
     0
  0
APPID
  2
GENIUS_GENCFG_13
 70
     0
  0
APPID
  2
GENIUS_GENCFG0_13
 70
     0
  0
APPID
  2
GENIUS_GENCFG1_13
 70
     0
  0
APPID
  2
GENIUS_GENCFG2_13
 70
     0
  0
APPID
  2
GENIUS_GENCFG3_13
 70
     0
  0
APPID
  2
GENIUS_GENCFG4_13
 70
     0
  0
APPID
  2
GENIUS_GEVCFG0_13
 70
     0
  0
APPID
  2
CONTENTBLOCKICON
 70
     0
  0
APPID
  2
CONTENTBLOCKDESCRIPTION
 70
     0
  0
APPID
  2
ACAD_NAV_VCDISPLAY
 70
     0
  0
APPID
  2
ACAD_MLEADERVER
 70
     0
  0
APPID
  2
ACDBDYNAMICBLOCKTRUENAME
 70
     0
  0
APPID
  2
ACDBDYNAMICBLOCKGUID
 70
     0
  0
APPID
  2
GENIUS_GENODEF_13
 70
     0
  0
APPID
  2
GENIUS_GENOBJ-N-CEN_13
 70
     0
  0
APPID
  2
GENIUS_GENCEN_19
 70
     0
  0
ENDTAB
  0
TABLE
  2
DIMSTYLE
 70
     1
  0
DIMSTYLE
  2
STANDARD
 70
     0
  3

  4

  5
_ORIGIN
  6

  7

 40
1.0
 41
12.0
 42
20.0
 43
200.0
 44
20.0
 45
0.0
 46
0.0
 47
0.0
 48
0.0
140
64.0
141
0.09
142
0.0
143
25.399999999999999
144
1.0
145
0.0
146
1.0
147
25.0
 71
     0
 72
     0
 73
     0
 74
     0
 75
     0
 76
     0
 77
     1
 78
     8
170
     0
171
     2
172
     1
173
     0
174
     1
175
     0
176
     7
177
     7
178
     7
  0
ENDTAB
  0
TABLE
  2
VIEW
 70
     1
  0
VIEW
  2
ALL
 70
     0
 40
4282.6198079999986
 10
0.0
 20
41.309904000000003
 41
5940.0
 11
0.0
 21
0.0
 31
1.0
 12
0.0
 22
0.0
 32
0.0
 42
50.0
 43
0.0
 44
0.0
 50
0.0
 71
     0
  0
ENDTAB
  0
TABLE
  2
UCS
 70
     0
  0
ENDTAB
  0
TABLE
  2
VPORT
 70
     1
  0
VPORT
  2
*ACTIVE
 70
     0
 10
0.0
 20
0.0
 11
1.0
 21
1.0
 12
388.15385339333818
 22
191.13923119280841
 13
0.0
 23
0.0
 14
1.0
 24
1.0
 15
0.0
 25
0.0
 16
0.0
 26
0.0
 36
1.0
 17
0.0
 27
0.0
 37
0.0
 40
1525.8969551415801
 41
1.781285231116122
 42
50.0
 43
0.0
 44
0.0
 50
0.0
 51
0.0
 71
     0
 72
  1000
 73
     1
 74
     3
 75
     0
 76
     0
 77
     0
 78
     0
  0
ENDTAB
  0
ENDSEC
  0
SECTION
  2
BLOCKS
  0
BLOCK
  8
0
  2
_ORIGIN
 70
     0
 10
0.0
 20
0.0
 30
0.0
  3
_ORIGIN
  1
_ORIGIN
  0
CIRCLE
  8
0
  6
CONTINUOUS
 62
     7
 10
0.0
 20
0.0
 30
0.0
 40
0.5
  0
LINE
  8
0
  6
CONTINUOUS
 62
     7
 10
0.0
 20
0.0
 30
0.0
 11
-1.0
 21
0.0
 31
0.0
  0
ENDBLK
  8
0
  0
ENDSEC
  0
SECTION
  2
ENTITIES
  0
LINE
  8
DETAIL
  6
CONTINUOUS
 62
     5
 10
456.09999999999218
 20
-129.9999999999973
 30
0.0
 11
456.09999999999218
 21
-84.999999999999091
 31
0.0
  0
LINE
  8
DETAIL
  6
CONTINUOUS
 62
     5
 10
444.09999999999218
 20
-91.999999999995453
 30
0.0
 11
444.09999999999218
 21
-84.999999999999091
 31
0.0
  0
LINE
  8
DETAIL
  6
CONTINUOUS
 62
     5
 10
442.5999999999849
 20
-330.04999999999649
 30
0.0
 11
442.5999999999849
 21
-329.54999999999842
 31
0.0
  0
LINE
  8
DETAIL
  6
CONTINUOUS
 62
     5
 10
442.5999999999849
 20
-1.149999999995998
 30
0.0
 11
442.5999999999849
 21
-0.6499999999996362
 31
0.0
  0
LINE
  8
DETAIL
  6
CONTINUOUS
 62
     5
 10
437.59999999999218
 20
-329.04999999999842
 30
0.0
 11
437.59999999999218
 21
-107.9999999999955
 31
0.0
  0
LINE
  8
DETAIL
  6
CONTINUOUS
 62
     5
 10
437.59999999999218
 20
-84.999999999999091
 30
0.0
 11
437.59999999999218
 21
-1.649999999994179
 31
0.0
  0
LINE
  8
DETAIL
  6
CONTINUOUS
 62
     5
 10
437.09999999999218
 20
-1.649999999994179
 30
0.0
 11
437.09999999999218
 21
-2.6499999999978172
 31
0.0
  0
LINE
  8
DETAIL
  6
CONTINUOUS
 62
     5
 10
437.09999999999218
 20
-329.04999999999842
 30
0.0
 11
437.09999999999218
 21
-328.04999999999472
 31
0.0
  0
LINE
  8
DETAIL
  6
CONTINUOUS
 62
     5
 10
435.59999999999218
 20
-330.04999999999649
 30
0.0
 11
435.59999999999218
 21
-328.04999999999472
 31
0.0
  0
LINE
  8
DETAIL
  6
CONTINUOUS
 62
     5
 10
435.59999999999218
 20
-2.6499999999978172
 30
0.0
 11
435.59999999999218
 21
-0.6499999999996362
 31
0.0
  0
LINE
  8
DETAIL
  6
CONTINUOUS
 62
     5
 10
435.49999999998641
 20
-0.6499999999996362
 30
0.0
 11
435.49999999998641
 21
0.0
 31
0.0
  0
LINE
  8
DETAIL
  6
CONTINUOUS
 62
     5
 10
435.09999999999218
 20
-330.04999999999649
 30
0.0
 11
435.09999999999218
 21
-330.99999999999551
 31
0.0
  0
LINE
  8
DETAIL
  6
CONTINUOUS
 62
     5
 10
431.09999999999218
 20
-81.19999999999618
 30
0.0
 11
431.09999999999218
 21
-88.19999999999618
 31
0.0
  0
LINE
  8
DETAIL
  6
CONTINUOUS
 62
     5
 10
437.06006823865852
 20
-0.9564221293276205
 30
0.0
 11
436.91189937332911
 21
-2.6499999999978172
 31
0.0
  0
LINE
  8
DETAIL
  6
CONTINUOUS
 62
     5
 10
436.56197088932907
 20
-0.9128442573273787
 30
0.0
 11
436.40998945466072
 21
-2.6499999999978172
 31
0.0
  0
LINE
  8
DETAIL
  6
CONTINUOUS
 62
     5
 10
412.59999999999218
 20
-102.9999999999991
 30
0.0
 11
412.59999999999218
 21
-81.19999999999618
 31
0.0
  0
LINE
  8
DETAIL
  6
CONTINUOUS
 62
     5
 10
436.91189937332911
 20
-328.04999999999472
 30
0.0
 11
437.03610918132563
 21
-329.46972459466178
 31
0.0
  0
LINE
  8
DETAIL
  6
CONTINUOUS
 62
     5
 10
436.10884350399368
 20
-328.04999999999472
 30
0.0
 11
436.23915342265627
 21
-329.5394491893303
 31
0.0
  0
LINE
  8
DETAIL
  6
CONTINUOUS
 62
     5
 10
431.32999999999538
 20
-330.99999999999551
 30
0.0
 11
429.07999999997361
 21
-328.74999999997908
 31
0.0
  0
LINE
  8
DETAIL
  6
CONTINUOUS
 62
     5
 10
431.39999999999509
 20
0.0
 30
0.0
 11
429.74999999997908
 21
-1.6500000000105499
 31
0.0
  0
LINE
  8
DETAIL
  6
CONTINUOUS
 62
     5
 10
-443.25000000000819
 20
-330.99999999999551
 30
0.0
 11
-437.83306493867798
 21
-330.99999999999551
 31
0.0
  0
LINE
  8
DETAIL
  6
CONTINUOUS
 62
     5
 10
443.24999999999358
 20
-330.99999999999551
 30
0.0
 11
437.83306493866348
 21
-330.99999999999551
 31
0.0
  0
LINE
  8
DETAIL
  6
CONTINUOUS
 62
     5
 10
435.09999999999218
 20
-330.99999999999551
 30
0.0
 11
-435.10000000000667
 21
-330.99999999999551
 31
0.0
  0
LINE
  8
DETAIL
  6
CONTINUOUS
 62
     5
 10
-443.25000000000819
 20
-330.19999999999618
 30
0.0
 11
-437.83306493867798
 21
-330.19999999999618
 31
0.0
  0
LINE
  8
DETAIL
  6
CONTINUOUS
 62
     5
 10
443.24999999999358
 20
-330.19999999999618
 30
0.0
 11
437.83306493866348
 21
-330.19999999999618
 31
0.0
  0
LINE
  8
DETAIL
  6
CONTINUOUS
 62
     5
 10
430.37999999999829
 20
-330.04999999999649
 30
0.0
 11
435.59999999999218
 21
-330.04999999999649
 31
0.0
  0
LINE
  8
DETAIL
  6
CONTINUOUS
 62
     5
 10
438.09999999999951
 20
-330.04999999999649
 30
0.0
 11
442.5999999999849
 21
-330.04999999999649
 31
0.0
  0
LINE
  8
DETAIL
  6
CONTINUOUS
 62
     5
 10
-430.38000000000562
 20
-330.04999999999649
 30
0.0
 11
-435.60000000000667
 21
-330.04999999999649
 31
0.0
  0
LINE
  8
DETAIL
  6
CONTINUOUS
 62
     5
 10
-438.10000000000667
 20
-330.04999999999649
 30
0.0
 11
-442.60000000000667
 21
-330.04999999999649
 31
0.0
  0
LINE
  8
DETAIL
  6
CONTINUOUS
 62
     5
 10
-438.10000000000667
 20
-329.54999999999842
 30
0.0
 11
-443.17500000000382
 21
-329.55000000000018
 31
0.0
  0
LINE
  8
DETAIL
  6
CONTINUOUS
 62
     5
 10
437.59999999999218
 20
-328.04999999999472
 30
0.0
 11
435.59999999999218
 21
-328.04999999999472
 31
0.0
  0
LINE
  8
DETAIL
  6
CONTINUOUS
 62
     5
 10
-435.60000000000667
 20
-328.04999999999472
 30
0.0
 11
-437.60000000000667
 21
-328.04999999999472
 31
0.0
  0
LINE
  8
BASIS
  6
DASHDOT
 62
     6
 10
-0.000000000003638
 20
23.14696973389437
 30
0.0
 11
-0.000000000003638
 21
-358.74580775306998
 31
0.0
  0
LINE
  8
BASIS
  6
DASHDOT
 62
     6
 10
-545.61187250031617
 20
-165.19999999999709
 30
0.0
 11
554.71171215261529
 21
-165.19999999999709
 31
0.0
  0
LINE
  8
DETAIL
  6
CONTINUOUS
 62
     5
 10
437.59999999999218
 20
-134.99999999999909
 30
0.0
 11
451.09999999999218
 21
-134.99999999999909
 31
0.0
  0
LINE
  8
DETAIL
  6
CONTINUOUS
 62
     5
 10
-437.60000000000667
 20
-134.99999999999909
 30
0.0
 11
-451.10000000000667
 21
-134.99999999999909
 31
0.0
  0
LINE
  8
DETAIL
  6
CONTINUOUS
 62
     5
 10
437.62641510932832
 20
-113.9999999999973
 30
0.0
 11
440.99999999999358
 21
-113.9999999999973
 31
0.0
  0
LINE
  8
DETAIL
  6
CONTINUOUS
 62
     5
 10
-437.62641510933548
 20
-113.9999999999973
 30
0.0
 11
-441.00000000000819
 21
-113.9999999999973
 31
0.0
  0
LINE
  8
DETAIL
  6
CONTINUOUS
 62
     5
 10
417.59999999999218
 20
-107.9999999999955
 30
0.0
 11
440.99999999999358
 21
-107.9999999999955
 31
0.0
  0
LINE
  8
DETAIL
  6
CONTINUOUS
 62
     5
 10
-417.60000000000667
 20
-107.9999999999955
 30
0.0
 11
-441.00000000000819
 21
-107.9999999999955
 31
0.0
  0
LINE
  8
DETAIL
  6
CONTINUOUS
 62
     5
 10
-426.60000000000667
 20
-102.9999999999991
 30
0.0
 11
-424.60000000000667
 21
-102.9999999999991
 31
0.0
  0
LINE
  8
DETAIL
  6
CONTINUOUS
 62
     5
 10
426.59999999999218
 20
-102.9999999999991
 30
0.0
 11
424.59999999999218
 21
-102.9999999999991
 31
0.0
  0
LINE
  8
DETAIL
  6
CONTINUOUS
 62
     5
 10
424.59999999999218
 20
-96.999999999997272
 30
0.0
 11
426.59999999999218
 21
-96.999999999997272
 31
0.0
  0
LINE
  8
DETAIL
  6
CONTINUOUS
 62
     5
 10
-424.60000000000667
 20
-96.999999999997272
 30
0.0
 11
-426.60000000000667
 21
-96.999999999997272
 31
0.0
  0
LINE
  8
DETAIL
  6
CONTINUOUS
 62
     5
 10
-453.10000000000667
 20
-94.999999999999091
 30
0.0
 11
-447.10000000000667
 21
-94.999999999999091
 31
0.0
  0
LINE
  8
DETAIL
  6
CONTINUOUS
 62
     5
 10
453.09999999999951
 20
-94.999999999999091
 30
0.0
 11
447.09999999999218
 21
-94.999999999999091
 31
0.0
  0
LINE
  8
DETAIL
  6
CONTINUOUS
 62
     5
 10
444.09999999999218
 20
-88.19999999999618
 30
0.0
 11
412.59999999999218
 21
-88.19999999999618
 31
0.0
  0
LINE
  8
DETAIL
  6
CONTINUOUS
 62
     5
 10
-412.60000000000667
 20
-88.19999999999618
 30
0.0
 11
-444.10000000000667
 21
-88.19999999999618
 31
0.0
  0
LINE
  8
DETAIL
  6
CONTINUOUS
 62
     5
 10
431.09999999999218
 20
-84.999999999999091
 30
0.0
 11
456.09999999999218
 21
-84.999999999999091
 31
0.0
  0
LINE
  8
DETAIL
  6
CONTINUOUS
 62
     5
 10
-431.10000000000667
 20
-84.999999999999091
 30
0.0
 11
-456.10000000000667
 21
-84.999999999999091
 31
0.0
  0
LINE
  8
DETAIL
  6
CONTINUOUS
 62
     5
 10
415.59999999999218
 20
-78.199999999997999
 30
0.0
 11
428.09999999999218
 21
-78.199999999997999
 31
0.0
  0
LINE
  8
DETAIL
  6
CONTINUOUS
 62
     5
 10
-415.60000000000667
 20
-78.199999999997999
 30
0.0
 11
-428.10000000000667
 21
-78.199999999997999
 31
0.0
  0
LINE
  8
DETAIL
  6
CONTINUOUS
 62
     5
 10
437.59999999999218
 20
-2.6499999999978172
 30
0.0
 11
435.59999999999218
 21
-2.6499999999978172
 31
0.0
  0
LINE
  8
DETAIL
  6
CONTINUOUS
 62
     5
 10
-435.60000000000667
 20
-2.6499999999978172
 30
0.0
 11
-437.60000000000667
 21
-2.6499999999978172
 31
0.0
  0
LINE
  8
DETAIL
  6
CONTINUOUS
 62
     5
 10
-438.10000000000667
 20
-1.149999999995998
 30
0.0
 11
-443.17500000000382
 21
-1.149999999995998
 31
0.0
  0
LINE
  8
DETAIL
  6
CONTINUOUS
 62
     5
 10
442.5999999999849
 20
-0.6499999999996362
 30
0.0
 11
438.09999999999951
 21
-0.6499999999996362
 31
0.0
  0
LINE
  8
DETAIL
  6
CONTINUOUS
 62
     5
 10
435.59999999999218
 20
-0.6499999999996362
 30
0.0
 11
430.75000000000091
 21
-0.6499999999996362
 31
0.0
  0
LINE
  8
DETAIL
  6
CONTINUOUS
 62
     5
 10
-430.74999999999358
 20
-0.6499999999996362
 30
0.0
 11
-435.60000000000667
 21
-0.6499999999996362
 31
0.0
  0
LINE
  8
DETAIL
  6
CONTINUOUS
 62
     5
 10
-438.10000000000667
 20
-0.6499999999996362
 30
0.0
 11
-442.60000000000667
 21
-0.6499999999996362
 31
0.0
  0
LINE
  8
DETAIL
  6
CONTINUOUS
 62
     5
 10
443.17499999999649
 20
-0.5
 30
0.0
 11
437.55816558665629
 21
-0.499999999998181
 31
0.0
  0
LINE
  8
DETAIL
  6
CONTINUOUS
 62
     5
 10
-437.55816558667811
 20
-0.499999999998181
 30
0.0
 11
-443.17500000000382
 21
-0.5
 31
0.0
  0
LINE
  8
DETAIL
  6
CONTINUOUS
 62
     5
 10
443.17499999998199
 20
0.000000000003638
 30
0.0
 11
437.55816558665629
 21
0.0
 31
0.0
  0
LINE
  8
DETAIL
  6
CONTINUOUS
 62
     5
 10
435.49999999998641
 20
0.0
 30
0.0
 11
-435.50000000000091
 21
0.0
 31
0.0
  0
LINE
  8
DETAIL
  6
CONTINUOUS
 62
     5
 10
-437.55816558667811
 20
0.0
 30
0.0
 11
-443.17499999999649
 21
0.000000000003638
 31
0.0
  0
LINE
  8
DETAIL
  6
CONTINUOUS
 62
     5
 10
-431.40000000000242
 20
0.0
 30
0.0
 11
-429.74999999999358
 21
-1.6500000000105499
 31
0.0
  0
LINE
  8
DETAIL
  6
CONTINUOUS
 62
     5
 10
-431.33000000000987
 20
-330.99999999999551
 30
0.0
 11
-429.0799999999881
 21
-328.74999999997908
 31
0.0
  0
LINE
  8
DETAIL
  6
CONTINUOUS
 62
     5
 10
-436.23915342267082
 20
-329.5394491893303
 30
0.0
 11
-436.10884350266952
 21
-328.04999999999472
 31
0.0
  0
LINE
  8
DETAIL
  6
CONTINUOUS
 62
     5
 10
-437.03610918000868
 20
-329.46972459466178
 30
0.0
 11
-436.91189937334372
 21
-328.04999999999472
 31
0.0
  0
LINE
  8
DETAIL
  6
CONTINUOUS
 62
     5
 10
-412.60000000000667
 20
-102.9999999999991
 30
0.0
 11
-412.60000000000667
 21
-81.19999999999618
 31
0.0
  0
LINE
  8
DETAIL
  6
CONTINUOUS
 62
     5
 10
-431.10000000000667
 20
-81.19999999999618
 30
0.0
 11
-431.10000000000667
 21
-88.19999999999618
 31
0.0
  0
LINE
  8
DETAIL
  6
CONTINUOUS
 62
     5
 10
-436.40998945467533
 20
-2.6499999999978172
 30
0.0
 11
-436.56197088934368
 21
-0.9128442573273787
 31
0.0
  0
LINE
  8
DETAIL
  6
CONTINUOUS
 62
     5
 10
-436.91189937334372
 20
-2.6499999999978172
 30
0.0
 11
-437.06006823734151
 21
-0.9564221293276205
 31
0.0
  0
LINE
  8
DETAIL
  6
CONTINUOUS
 62
     5
 10
-435.10000000000667
 20
-330.04999999999649
 30
0.0
 11
-435.10000000000667
 21
-330.99999999999551
 31
0.0
  0
LINE
  8
DETAIL
  6
CONTINUOUS
 62
     5
 10
-435.50000000000091
 20
0.0
 30
0.0
 11
-435.50000000000091
 21
-0.6499999999996362
 31
0.0
  0
LINE
  8
DETAIL
  6
CONTINUOUS
 62
     5
 10
-435.60000000000667
 20
-330.04999999999649
 30
0.0
 11
-435.60000000000667
 21
-328.04999999999472
 31
0.0
  0
LINE
  8
DETAIL
  6
CONTINUOUS
 62
     5
 10
-435.60000000000667
 20
-2.6499999999978172
 30
0.0
 11
-435.60000000000667
 21
-0.6499999999996362
 31
0.0
  0
LINE
  8
DETAIL
  6
CONTINUOUS
 62
     5
 10
-437.10000000000667
 20
-1.649999999994179
 30
0.0
 11
-437.10000000000667
 21
-2.6499999999978172
 31
0.0
  0
LINE
  8
DETAIL
  6
CONTINUOUS
 62
     5
 10
-437.10000000000667
 20
-329.04999999999842
 30
0.0
 11
-437.10000000000667
 21
-328.04999999999472
 31
0.0
  0
LINE
  8
DETAIL
  6
CONTINUOUS
 62
     5
 10
-437.60000000000667
 20
-329.04999999999842
 30
0.0
 11
-437.60000000000667
 21
-107.9999999999955
 31
0.0
  0
LINE
  8
DETAIL
  6
CONTINUOUS
 62
     5
 10
-437.60000000000667
 20
-84.999999999999091
 30
0.0
 11
-437.60000000000667
 21
-1.649999999994179
 31
0.0
  0
LINE
  8
DETAIL
  6
CONTINUOUS
 62
     5
 10
-442.60000000000667
 20
-0.6499999999996362
 30
0.0
 11
-442.60000000000667
 21
-1.149999999995998
 31
0.0
  0
LINE
  8
DETAIL
  6
CONTINUOUS
 62
     5
 10
-442.60000000000667
 20
-329.54999999999842
 30
0.0
 11
-442.60000000000667
 21
-330.04999999999649
 31
0.0
  0
LINE
  8
DETAIL
  6
CONTINUOUS
 62
     5
 10
-444.10000000000667
 20
-91.999999999995453
 30
0.0
 11
-444.10000000000667
 21
-84.999999999999091
 31
0.0
  0
LINE
  8
DETAIL
  6
CONTINUOUS
 62
     5
 10
-456.10000000000667
 20
-129.9999999999973
 30
0.0
 11
-456.10000000000667
 21
-84.999999999999091
 31
0.0
  0
ARC
  8
DETAIL
  6
CONTINUOUS
 62
     5
 10
437.83306493866348
 20
-329.39999999999509
 30
0.0
 40
1.599999999999995
 50
184.99999999999969
 51
270.0
  0
ARC
  8
DETAIL
  6
CONTINUOUS
 62
     5
 10
438.09999999999951
 20
-329.04999999999842
 30
0.0
 40
0.9999999999999969
 50
180.0
 51
270.0
  0
ARC
  8
DETAIL
  6
CONTINUOUS
 62
     5
 10
437.83306493866348
 20
-329.39999999999509
 30
0.0
 40
0.7999999999999975
 50
184.9999999998951
 51
270.0
  0
ARC
  8
DETAIL
  6
CONTINUOUS
 62
     5
 10
438.09999999999951
 20
-329.04999999999842
 30
0.0
 40
0.4999999999999984
 50
180.0
 51
270.0
  0
ARC
  8
DETAIL
  6
CONTINUOUS
 62
     5
 10
417.59999999999218
 20
-102.9999999999991
 30
0.0
 40
4.999999999999984
 50
180.0
 51
270.0
  0
ARC
  8
DETAIL
  6
CONTINUOUS
 62
     5
 10
451.09999999999218
 20
-129.9999999999973
 30
0.0
 40
4.999999999999984
 50
270.0
 51
0.000000000000007
  0
ARC
  8
DETAIL
  6
CONTINUOUS
 62
     5
 10
440.99999999999358
 20
-110.9999999999991
 30
0.0
 40
2.9999999999999898
 50
270.0
 51
90.000000000000014
  0
ARC
  8
DETAIL
  6
CONTINUOUS
 62
     5
 10
424.59999999999218
 20
-99.999999999995453
 30
0.0
 40
2.9999999999999898
 50
90.000000000000014
 51
270.0
  0
ARC
  8
DETAIL
  6
CONTINUOUS
 62
     5
 10
415.59999999999218
 20
-81.19999999999618
 30
0.0
 40
2.9999999999999898
 50
90.000000000000014
 51
180.0
  0
ARC
  8
DETAIL
  6
CONTINUOUS
 62
     5
 10
428.09999999999218
 20
-81.19999999999618
 30
0.0
 40
2.9999999999999898
 50
0.000000000000007
 51
90.000000000000014
  0
ARC
  8
DETAIL
  6
CONTINUOUS
 62
     5
 10
426.59999999999218
 20
-99.999999999995453
 30
0.0
 40
2.9999999999999898
 50
270.0
 51
90.000000000000014
  0
ARC
  8
DETAIL
  6
CONTINUOUS
 62
     5
 10
447.09999999999218
 20
-91.999999999995453
 30
0.0
 40
2.9999999999999898
 50
180.0
 51
270.0
  0
ARC
  8
DETAIL
  6
CONTINUOUS
 62
     5
 10
453.09999999999951
 20
-91.999999999995453
 30
0.0
 40
2.9999999999999898
 50
270.0
 51
0.000000000000007
  0
CIRCLE
  8
DETAIL
  6
CONTINUOUS
 62
     5
 10
425.59999999999218
 20
-99.999999999995453
 30
0.0
 40
2.499999999999992
  0
ARC
  8
DETAIL
  6
CONTINUOUS
 62
     5
 10
437.55816558665629
 20
-0.999999999996362
 30
0.0
 40
0.9999999999999969
 50
90.000000000000014
 51
175.00000000000031
  0
ARC
  8
DETAIL
  6
CONTINUOUS
 62
     5
 10
438.09999999999951
 20
-1.649999999994179
 30
0.0
 40
0.9999999999999969
 50
90.000000000000014
 51
180.0
  0
ARC
  8
DETAIL
  6
CONTINUOUS
 62
     5
 10
438.09999999999951
 20
-1.649999999994179
 30
0.0
 40
0.4999999999999984
 50
90.000000000000014
 51
180.0
  0
ARC
  8
DETAIL
  6
CONTINUOUS
 62
     5
 10
437.55816558665629
 20
-0.999999999996362
 30
0.0
 40
0.4999999999999984
 50
90.000000000000014
 51
175.0000000001049
  0
ARC
  8
DETAIL
  6
CONTINUOUS
 62
     5
 10
-437.83306493867798
 20
-329.39999999999509
 30
0.0
 40
1.599999999999995
 50
270.0
 51
355.00000000000028
  0
ARC
  8
DETAIL
  6
CONTINUOUS
 62
     5
 10
-438.10000000000667
 20
-329.04999999999842
 30
0.0
 40
0.9999999999999969
 50
270.0
 51
0.000000000000007
  0
ARC
  8
DETAIL
  6
CONTINUOUS
 62
     5
 10
-437.83306493867798
 20
-329.39999999999509
 30
0.0
 40
0.7999999999999975
 50
270.00000000010431
 51
355.00000000010488
  0
ARC
  8
DETAIL
  6
CONTINUOUS
 62
     5
 10
-438.10000000000667
 20
-329.04999999999842
 30
0.0
 40
0.4999999999999984
 50
270.0
 51
0.000000000000007
  0
ARC
  8
DETAIL
  6
CONTINUOUS
 62
     5
 10
-451.10000000000667
 20
-129.9999999999973
 30
0.0
 40
4.999999999999984
 50
180.0
 51
270.0
  0
ARC
  8
DETAIL
  6
CONTINUOUS
 62
     5
 10
-417.60000000000667
 20
-102.9999999999991
 30
0.0
 40
4.999999999999984
 50
270.0
 51
0.000000000000007
  0
ARC
  8
DETAIL
  6
CONTINUOUS
 62
     5
 10
-441.00000000000819
 20
-110.9999999999991
 30
0.0
 40
2.9999999999999898
 50
90.000000000000014
 51
270.0
  0
ARC
  8
DETAIL
  6
CONTINUOUS
 62
     5
 10
-424.60000000000667
 20
-99.999999999995453
 30
0.0
 40
2.9999999999999898
 50
270.0
 51
90.000000000000014
  0
ARC
  8
DETAIL
  6
CONTINUOUS
 62
     5
 10
-415.60000000000667
 20
-81.19999999999618
 30
0.0
 40
2.9999999999999898
 50
0.000000000000007
 51
90.000000000000014
  0
ARC
  8
DETAIL
  6
CONTINUOUS
 62
     5
 10
-428.10000000000667
 20
-81.19999999999618
 30
0.0
 40
2.9999999999999898
 50
90.000000000000014
 51
180.0
  0
ARC
  8
DETAIL
  6
CONTINUOUS
 62
     5
 10
-426.60000000000667
 20
-99.999999999995453
 30
0.0
 40
2.9999999999999898
 50
90.000000000000014
 51
270.0
  0
ARC
  8
DETAIL
  6
CONTINUOUS
 62
     5
 10
-447.10000000000667
 20
-91.999999999995453
 30
0.0
 40
2.9999999999999898
 50
270.0
 51
0.000000000000007
  0
ARC
  8
DETAIL
  6
CONTINUOUS
 62
     5
 10
-453.10000000000667
 20
-91.999999999995453
 30
0.0
 40
2.9999999999999898
 50
180.0
 51
270.0
  0
CIRCLE
  8
DETAIL
  6
CONTINUOUS
 62
     5
 10
-425.60000000000667
 20
-99.999999999995453
 30
0.0
 40
2.499999999999992
  0
ARC
  8
DETAIL
  6
CONTINUOUS
 62
     5
 10
-437.55816558667811
 20
-0.999999999996362
 30
0.0
 40
0.9999999999999969
 50
4.9999999999997469
 51
90.000000000000014
  0
ARC
  8
DETAIL
  6
CONTINUOUS
 62
     5
 10
-438.10000000000667
 20
-1.649999999994179
 30
0.0
 40
0.9999999999999969
 50
0.000000000000007
 51
90.000000000000014
  0
ARC
  8
DETAIL
  6
CONTINUOUS
 62
     5
 10
-438.10000000000667
 20
-1.649999999994179
 30
0.0
 40
0.4999999999999984
 50
0.000000000000007
 51
90.000000000000014
  0
ARC
  8
DETAIL
  6
CONTINUOUS
 62
     5
 10
-437.55816558667811
 20
-0.999999999996362
 30
0.0
 40
0.4999999999999984
 50
4.9999999998950679
 51
90.000000000000014
  0
LINE
  8
DETAIL
  6
CONTINUOUS
 62
     5
 10
439.59999999999218
 20
-1.6500000000105499
 30
0.0
 11
443.17499999998199
 21
-1.6500000000105499
 31
0.0
  0
LINE
  8
DETAIL
  6
CONTINUOUS
 62
     5
 10
439.59999999999218
 20
-1.149999999995998
 30
0.0
 11
439.59999999999218
 21
-1.6500000000105499
 31
0.0
  0
ARC
  8
DETAIL
  6
CONTINUOUS
 62
     5
 10
443.17499999999649
 20
-0.8249999999989086
 30
0.0
 40
0.3249999999990285
 50
270.0
 51
90.000000000000014
  0
ARC
  8
DETAIL
  6
CONTINUOUS
 62
     5
 10
443.17499999998199
 20
-0.8250000000025466
 30
0.0
 40
0.8250000000070009
 50
270.0
 51
90.000000000000014
  0
LINE
  8
DETAIL
  6
CONTINUOUS
 62
     5
 10
443.17499999999649
 20
-1.149999999995998
 30
0.0
 11
438.09999999999951
 21
-1.149999999995998
 31
0.0
  0
LINE
  8
DETAIL
  6
CONTINUOUS
 62
     5
 10
-439.60000000000667
 20
-1.6500000000105499
 30
0.0
 11
-443.17499999999649
 21
-1.6500000000105499
 31
0.0
  0
LINE
  8
DETAIL
  6
CONTINUOUS
 62
     5
 10
-439.60000000000667
 20
-1.149999999995998
 30
0.0
 11
-439.60000000000667
 21
-1.6500000000105499
 31
0.0
  0
ARC
  8
DETAIL
  6
CONTINUOUS
 62
     5
 10
-443.17500000000382
 20
-0.8249999999989086
 30
0.0
 40
0.3249999999990285
 50
90.000000000000014
 51
270.0
  0
ARC
  8
DETAIL
  6
CONTINUOUS
 62
     5
 10
-443.17499999999649
 20
-0.8250000000025466
 30
0.0
 40
0.8250000000070009
 50
90.000000000000014
 51
270.0
  0
LINE
  8
DETAIL
  6
CONTINUOUS
 62
     5
 10
439.59999999999218
 20
-328.74999999997908
 30
0.0
 11
443.17499999997472
 21
-328.74999999997908
 31
0.0
  0
ARC
  8
DETAIL
  6
CONTINUOUS
 62
     5
 10
443.17499999997472
 20
-329.87499999999
 30
0.0
 40
1.1250000000097859
 50
270.0
 51
90.000000000000014
  0
ARC
  8
DETAIL
  6
CONTINUOUS
 62
     5
 10
443.17499999998932
 20
-329.87500000000091
 30
0.0
 40
0.3249999999997035
 50
270.0
 51
90.000000000000014
  0
LINE
  8
DETAIL
  6
CONTINUOUS
 62
     5
 10
439.59999999999218
 20
-329.55000000000018
 30
0.0
 11
439.59999999999218
 21
-328.74999999997908
 31
0.0
  0
LINE
  8
DETAIL
  6
CONTINUOUS
 62
     5
 10
438.09999999999951
 20
-329.54999999999842
 30
0.0
 11
443.17499999998932
 21
-329.55000000000018
 31
0.0
  0
LINE
  8
DETAIL
  6
CONTINUOUS
 62
     5
 10
-439.60000000000667
 20
-328.74999999997908
 30
0.0
 11
-443.17499999998932
 21
-328.74999999997908
 31
0.0
  0
ARC
  8
DETAIL
  6
CONTINUOUS
 62
     5
 10
-443.17499999998932
 20
-329.87499999999
 30
0.0
 40
1.1250000000097859
 50
90.000000000000014
 51
270.0
  0
ARC
  8
DETAIL
  6
CONTINUOUS
 62
     5
 10
-443.17500000000382
 20
-329.87500000000091
 30
0.0
 40
0.3249999999997035
 50
90.000000000000014
 51
270.0
  0
LINE
  8
DETAIL
  6
CONTINUOUS
 62
     5
 10
-439.60000000000667
 20
-329.55000000000018
 30
0.0
 11
-439.60000000000667
 21
-328.74999999997908
 31
0.0
  0
LINE
  8
DETAIL
  6
CONTINUOUS
 62
     5
 10
-429.0799999999881
 20
-328.74999999997908
 30
0.0
 11
429.07999999997361
 21
-328.74999999997908
 31
0.0
  0
LINE
  8
DETAIL
  6
CONTINUOUS
 62
     5
 10
429.74999999997908
 20
-1.6500000000105499
 30
0.0
 11
-429.74999999999358
 21
-1.6500000000105499
 31
0.0
  0
LINE
  8
DETAIL
  6
CONTINUOUS
 62
     5
 10
-514.40000000000691
 20
-291.19999999999982
 30
0.0
 11
-445.60000000000667
 21
-299.19999999999618
 31
0.0
  0
LINE
  8
DETAIL
  6
CONTINUOUS
 62
     5
 10
-437.60000000000667
 20
-312.69989297466333
 30
0.0
 11
-438.20000000000528
 21
-312.69989297466333
 31
0.0
  0
LINE
  8
DETAIL
  6
CONTINUOUS
 62
     5
 10
-445.60000000000667
 20
-299.19999999999618
 30
0.0
 11
-438.20000000000528
 21
-299.19999999999618
 31
0.0
  0
LINE
  8
DETAIL
  6
CONTINUOUS
 62
     5
 10
-521.90000000000691
 20
-291.19999999999982
 30
0.0
 11
-514.40000000000691
 21
-291.19999999999982
 31
0.0
  0
LINE
  8
DETAIL
  6
CONTINUOUS
 62
     5
 10
-521.90000000000691
 20
-99.199999999999818
 30
0.0
 11
-514.40000000000691
 21
-99.199999999999818
 31
0.0
  0
LINE
  8
DETAIL
  6
CONTINUOUS
 62
     5
 10
-438.20000000000528
 20
-77.70010702399577
 30
0.0
 11
-437.60000000000667
 21
-77.70010702399577
 31
0.0
  0
LINE
  8
DETAIL
  6
CONTINUOUS
 62
     5
 10
-514.40000000000691
 20
-99.199999999999818
 30
0.0
 11
-456.05033010502069
 21
-92.461655318288194
 31
0.0
  0
LINE
  8
DETAIL
  6
CONTINUOUS
 62
     5
 10
-438.20000000000528
 20
-312.69897139066319
 30
0.0
 11
-438.20000000000528
 21
-135.0499999999993
 31
0.0
  0
LINE
  8
DETAIL
  6
CONTINUOUS
 62
     5
 10
-438.20000000000528
 20
-85.049999999995634
 30
0.0
 11
-438.20000000000528
 21
-77.701028609330933
 31
0.0
  0
LINE
  8
DETAIL
  6
CONTINUOUS
 62
     5
 10
-445.60000000000667
 20
-299.19999999999618
 30
0.0
 11
-445.60000000000667
 21
-135.0499999999993
 31
0.0
  0
LINE
  8
DETAIL
  6
CONTINUOUS
 62
     5
 10
-514.40000000000691
 20
-291.19999999999982
 30
0.0
 11
-514.40000000000691
 21
-99.199999999999818
 31
0.0
  0
LINE
  8
DETAIL
  6
CONTINUOUS
 62
     5
 10
-523.00000000000546
 20
-289.87876619599501
 30
0.0
 11
-523.00000000000546
 21
-100.2999999999965
 31
0.0
  0
ARC
  8
DETAIL
  6
CONTINUOUS
 62
     5
 10
-521.90000000000691
 20
-290.099999999994
 30
0.0
 40
1.099999999999997
 50
180.0
 51
270.0
  0
ARC
  8
DETAIL
  6
CONTINUOUS
 62
     5
 10
-521.90000000000691
 20
-100.2999999999965
 30
0.0
 40
1.099999999999997
 50
90.000000000000014
 51
180.0
  0
LINE
  8
BASIS
  6
DASHDOT
 62
     6
 10
-548.09720595655199
 20
-195.1999830979976
 30
0.0
 11
-417.91029191487269
 21
-195.1999830979976
 31
0.0
1001
GENIUS_GENODEF_13
1002
{
1000
HIER
1070
     0
1002
}
1002
{
1000
MANEDIT
1070
     0
1002
}
1002
{
1000
NOSEL
1070
     0
1002
}
1002
{
1000
BEHIND
1070
     0
1002
}
1002
{
1000
OTHER
1070
     0
1002
}
1002
{
1000
REACTOR
1002
}
1001
GENIUS_GENOBJ-N-CEN_13
1002
{
1000
OWNER
1000
GEN
1002
}
1001
GENIUS_GENCEN_19
1002
{
1040
5.0
1002
}
  0
LINE
  8
DETAIL
  6
CONTINUOUS
 62
     5
 10
514.39999999999236
 20
-291.19999999999982
 30
0.0
 11
445.59999999999218
 21
-299.19999999999618
 31
0.0
  0
LINE
  8
DETAIL
  6
CONTINUOUS
 62
     5
 10
437.59999999999218
 20
-312.69989297466333
 30
0.0
 11
438.19999999999072
 21
-312.69989297466333
 31
0.0
  0
LINE
  8
DETAIL
  6
CONTINUOUS
 62
     5
 10
445.59999999999218
 20
-299.19999999999618
 30
0.0
 11
438.19999999999072
 21
-299.19999999999618
 31
0.0
  0
LINE
  8
DETAIL
  6
CONTINUOUS
 62
     5
 10
521.89999999999236
 20
-291.19999999999982
 30
0.0
 11
514.39999999999236
 21
-291.19999999999982
 31
0.0
  0
LINE
  8
DETAIL
  6
CONTINUOUS
 62
     5
 10
521.89999999999236
 20
-99.199999999999818
 30
0.0
 11
514.39999999999236
 21
-99.199999999999818
 31
0.0
  0
LINE
  8
DETAIL
  6
CONTINUOUS
 62
     5
 10
438.19999999999072
 20
-77.70010702399577
 30
0.0
 11
437.59999999999218
 21
-77.70010702399577
 31
0.0
  0
LINE
  8
DETAIL
  6
CONTINUOUS
 62
     5
 10
514.39999999999236
 20
-99.199999999999818
 30
0.0
 11
456.09999999999218
 21
-92.417391303998556
 31
0.0
  0
LINE
  8
DETAIL
  6
CONTINUOUS
 62
     5
 10
438.19999999999072
 20
-312.69897139066319
 30
0.0
 11
438.19999999999072
 21
-134.99999999999861
 31
0.0
  0
LINE
  8
DETAIL
  6
CONTINUOUS
 62
     5
 10
438.19999999999033
 20
-84.999999999999091
 30
0.0
 11
438.19999999999072
 21
-77.701028609330933
 31
0.0
  0
LINE
  8
DETAIL
  6
CONTINUOUS
 62
     5
 10
445.59999999999218
 20
-299.19999999999618
 30
0.0
 11
445.59999999999258
 21
-134.99999999999909
 31
0.0
  0
LINE
  8
DETAIL
  6
CONTINUOUS
 62
     5
 10
514.39999999999236
 20
-291.19999999999982
 30
0.0
 11
514.39999999999236
 21
-99.199999999999818
 31
0.0
  0
LINE
  8
DETAIL
  6
CONTINUOUS
 62
     5
 10
522.99999999999091
 20
-290.099999999994
 30
0.0
 11
522.99999999999091
 21
-100.2999999999965
 31
0.0
  0
ARC
  8
DETAIL
  6
CONTINUOUS
 62
     5
 10
521.89999999999236
 20
-290.099999999994
 30
0.0
 40
1.099999999999997
 50
270.0
 51
0.000000000000007
  0
ARC
  8
DETAIL
  6
CONTINUOUS
 62
     5
 10
521.89999999999236
 20
-100.2999999999965
 30
0.0
 40
1.099999999999997
 50
0.000000000000007
 51
90.000000000000014
  0
LINE
  8
BASIS
  6
DASHDOT
 62
     6
 10
548.09720595653744
 20
-195.1999830979976
 30
0.0
 11
195.19598156161459
 21
-195.1999830979976
 31
0.0
1001
GENIUS_GENODEF_13
1002
{
1000
HIER
1070
     0
1002
}
1002
{
1000
MANEDIT
1070
     0
1002
}
1002
{
1000
NOSEL
1070
     0
1002
}
1002
{
1000
BEHIND
1070
     0
1002
}
1002
{
1000
OTHER
1070
     0
1002
}
1002
{
1000
REACTOR
1002
}
1001
GENIUS_GENOBJ-N-CEN_13
1002
{
1000
OWNER
1000
GEN
1002
}
1001
GENIUS_GENCEN_19
1002
{
1040
5.0
1002
}
  0
LINE
  8
DETAIL
  6
CONTINUOUS
 62
     5
 10
430.29995891033423
 20
-135.2129241876564
 30
0.0
 11
430.29995891033423
 21
-255.21292418765461
 31
0.0
  0
LINE
  8
DETAIL
  6
CONTINUOUS
 62
     5
 10
430.29995891033423
 20
-255.21292418765461
 30
0.0
 11
380.2999589103415
 21
-305.21292418765279
 31
0.0
  0
LINE
  8
DETAIL
  6
CONTINUOUS
 62
     5
 10
380.2999589103415
 20
-85.212924187654608
 30
0.0
 11
430.29995891033423
 21
-135.2129241876564
 31
0.0
  0
LINE
  8
DETAIL
  6
CONTINUOUS
 62
     5
 10
210.2999589103415
 20
-255.21292418765461
 30
0.0
 11
210.2999589103415
 21
-135.2129241876564
 31
0.0
  0
LINE
  8
DETAIL
  6
CONTINUOUS
 62
     5
 10
380.2999589103415
 20
-305.21292418765279
 30
0.0
 11
260.29995891033423
 21
-305.21292418765279
 31
0.0
  0
LINE
  8
DETAIL
  6
CONTINUOUS
 62
     5
 10
210.2999589103415
 20
-135.2129241876564
 30
0.0
 11
260.29995891033423
 21
-85.212924187654608
 31
0.0
  0
LINE
  8
DETAIL
  6
CONTINUOUS
 62
     5
 10
260.29995891033423
 20
-305.21292418765279
 30
0.0
 11
210.2999589103415
 21
-255.21292418765461
 31
0.0
  0
LINE
  8
DETAIL
  6
CONTINUOUS
 62
     5
 10
260.29995891033423
 20
-85.212924187654608
 30
0.0
 11
380.2999589103415
 21
-85.212924187654608
 31
0.0
  0
CIRCLE
  8
DETAIL
  6
CONTINUOUS
 62
     5
 10
399.4959184023387
 20
-274.40888368099058
 30
0.0
 40
4.6999999999999842
  0
CIRCLE
  8
DETAIL
  6
CONTINUOUS
 62
     5
 10
241.1039994170055
 20
-274.40888368099058
 30
0.0
 40
4.6999999999999842
  0
CIRCLE
  8
DETAIL
  6
CONTINUOUS
 62
     5
 10
241.1039994170055
 20
-116.0169646943241
 30
0.0
 40
4.6999999999999842
  0
CIRCLE
  8
DETAIL
  6
CONTINUOUS
 62
     5
 10
399.4959184023387
 20
-116.0169646943241
 30
0.0
 40
4.6999999999999842
  0
CIRCLE
  8
DETAIL
  6
DASHED
 62
     5
 10
320.2999589103415
 20
-195.1999830979976
 30
0.0
 40
100.0
  0
LINE
  8
BASIS
  6
DASHDOT
 62
     6
 10
320.2999589103415
 20
-315.71151874680442
 30
0.0
 11
320.2999589103415
 21
-76.635838484817214
 31
0.0
1001
GENIUS_GENODEF_13
1002
{
1000
HIER
1070
     0
1002
}
1002
{
1000
MANEDIT
1070
     0
1002
}
1002
{
1000
NOSEL
1070
     0
1002
}
1002
{
1000
BEHIND
1070
     0
1002
}
1002
{
1000
OTHER
1070
     0
1002
}
1002
{
1000
REACTOR
1002
}
1001
GENIUS_GENOBJ-N-CEN_13
1002
{
1000
OWNER
1000
GEN
1002
}
1001
GENIUS_GENCEN_19
1002
{
1040
5.0
1002
}
  0
LINE
  8
SIZE
  6
CONTINUOUS
 62
    30
 10
568.09720595653766
 20
-195.19998309799769
 30
0.0
 11
806.16106049807991
 21
-195.19998309799769
 31
0.0
  0
LINE
  8
SIZE
  6
CONTINUOUS
 62
    30
 10
574.71171215261552
 20
-165.19999999999709
 30
0.0
 11
806.16106049807991
 21
-165.19999999999709
 31
0.0
  0
LINE
  8
SIZE
  6
CONTINUOUS
 62
    30
 10
786.16106049807991
 20
-153.19999999999709
 30
0.0
 11
786.16106049807991
 21
-141.19999999999709
 31
0.0
  0
LINE
  8
SIZE
  6
CONTINUOUS
 62
    30
 10
786.16106049807991
 20
-207.19998309799769
 30
0.0
 11
786.16106049808002
 21
-465.48270407529111
 31
0.0
  0
LINE
  8
SIZE
  6
CONTINUOUS
 62
    30
 10
786.16106049807991
 20
-165.19999999999709
 30
0.0
 11
786.16106049807991
 21
-195.19998309799769
 31
0.0
  0
CIRCLE
  8
SIZE
  6
CONTINUOUS
 62
    30
 10
786.16106049807991
 20
-165.19999999999709
 30
0.0
 40
6.0
  0
LINE
  8
SIZE
  6
CONTINUOUS
 62
    30
 10
786.16106049807991
 20
-165.19999999999709
 30
0.0
 11
786.16106049807991
 21
-153.19999999999709
 31
0.0
  0
CIRCLE
  8
SIZE
  6
CONTINUOUS
 62
    30
 10
786.16106049807991
 20
-195.19998309799769
 30
0.0
 40
6.0
  0
LINE
  8
SIZE
  6
CONTINUOUS
 62
    30
 10
786.16106049807991
 20
-195.19998309799769
 30
0.0
 11
786.16106049807991
 21
-207.19998309799769
 31
0.0
  0
TEXT
  8
SIZE
  6
CONTINUOUS
 62
    30
 10
761.16106049807968
 20
-447.9981326467198
 30
0.0
 40
64.0
  1
30
 50
90.0
 41
0.9
 51
0.0
  7
STANDARD
 71
     0
 72
     1
 11
761.16106049807968
 21
-393.85413264671979
 31
0.0
210
0.0
220
0.0
230
1.0
  0
POINT
  8
DEFPOINTS
  6
CONTINUOUS
 62
    30
 10
548.09720595653766
 20
-195.19998309799769
 30
0.0
  0
POINT
  8
DEFPOINTS
  6
CONTINUOUS
 62
    30
 10
554.71171215261552
 20
-165.19999999999709
 30
0.0
  0
POINT
  8
DEFPOINTS
  6
CONTINUOUS
 62
    30
 10
786.16106049807991
 20
-165.19999999999709
 30
0.0
  0
LINE
  8
SIZE
  6
CONTINUOUS
 62
    30
 10
443.99999999998909
 20
19.17499999999745
 30
0.0
 11
443.99999999998909
 21
293.07717012887861
 31
0.0
  0
LINE
  8
SIZE
  6
CONTINUOUS
 62
    30
 10
-444.00000000000358
 20
19.17499999999745
 30
0.0
 11
-444.00000000000358
 21
293.07717012887861
 31
0.0
  0
LINE
  8
SIZE
  6
CONTINUOUS
 62
    30
 10
431.99999999998909
 20
273.07717012887861
 30
0.0
 11
-432.00000000000358
 21
273.07717012887861
 31
0.0
  0
CIRCLE
  8
SIZE
  6
CONTINUOUS
 62
    30
 10
443.99999999998909
 20
273.07717012887861
 30
0.0
 40
6.0
  0
LINE
  8
SIZE
  6
CONTINUOUS
 62
    30
 10
443.99999999998909
 20
273.07717012887861
 30
0.0
 11
431.99999999998909
 21
273.07717012887861
 31
0.0
  0
CIRCLE
  8
SIZE
  6
CONTINUOUS
 62
    30
 10
-444.00000000000358
 20
273.07717012887861
 30
0.0
 40
6.0
  0
LINE
  8
SIZE
  6
CONTINUOUS
 62
    30
 10
-444.00000000000358
 20
273.07717012887861
 30
0.0
 11
-432.00000000000358
 21
273.07717012887861
 31
0.0
  0
TEXT
  8
SIZE
  6
CONTINUOUS
 62
    30
 10
-80.35200000000728
 20
298.07717012887861
 30
0.0
 40
64.0
  1
888
 50
0.0
 41
0.9
 51
0.0
  7
STANDARD
 71
     0
 72
     1
 11
-0.000000000007276
 21
298.07717012887861
 31
0.0
210
0.0
220
0.0
230
1.0
  0
POINT
  8
DEFPOINTS
  6
CONTINUOUS
 62
    30
 10
443.99999999998909
 20
-0.8250000000025466
 30
0.0
  0
POINT
  8
DEFPOINTS
  6
CONTINUOUS
 62
    30
 10
-444.00000000000358
 20
-0.8250000000025466
 30
0.0
  0
POINT
  8
DEFPOINTS
  6
CONTINUOUS
 62
    30
 10
-444.00000000000358
 20
273.07717012887861
 30
0.0
  0
LINE
  8
SIZE
  6
CONTINUOUS
 62
    30
 10
522.99999999999091
 20
-80.299999999996544
 30
0.0
 11
522.99999999999091
 21
293.07717012887861
 31
0.0
  0
LINE
  8
SIZE
  6
CONTINUOUS
 62
    30
 10
443.99999999998909
 20
19.17499999999745
 30
0.0
 11
443.99999999998909
 21
293.07717012887861
 31
0.0
  0
LINE
  8
SIZE
  6
CONTINUOUS
 62
    30
 10
534.99999999999091
 20
273.07717012887861
 30
0.0
 11
546.99999999999091
 21
273.07717012887861
 31
0.0
  0
LINE
  8
SIZE
  6
CONTINUOUS
 62
    30
 10
431.99999999998909
 20
273.07717012887861
 30
0.0
 11
419.99999999998909
 21
273.07717012887861
 31
0.0
  0
LINE
  8
SIZE
  6
CONTINUOUS
 62
    30
 10
522.99999999999091
 20
273.07717012887861
 30
0.0
 11
443.99999999998909
 21
273.07717012887861
 31
0.0
  0
CIRCLE
  8
SIZE
  6
CONTINUOUS
 62
    30
 10
522.99999999999091
 20
273.07717012887861
 30
0.0
 40
6.0
  0
LINE
  8
SIZE
  6
CONTINUOUS
 62
    30
 10
522.99999999999091
 20
273.07717012887861
 30
0.0
 11
534.99999999999091
 21
273.07717012887861
 31
0.0
  0
CIRCLE
  8
SIZE
  6
CONTINUOUS
 62
    30
 10
443.99999999998909
 20
273.07717012887861
 30
0.0
 40
6.0
  0
LINE
  8
SIZE
  6
CONTINUOUS
 62
    30
 10
443.99999999998909
 20
273.07717012887861
 30
0.0
 11
431.99999999998909
 21
273.07717012887861
 31
0.0
  0
TEXT
  8
SIZE
  6
CONTINUOUS
 62
    30
 10
429.93199999999001
 20
298.07717012887861
 30
0.0
 40
64.0
  1
79
 50
0.0
 41
0.9
 51
0.0
  7
STANDARD
 71
     0
 72
     1
 11
483.49999999999
 21
298.07717012887861
 31
0.0
210
0.0
220
0.0
230
1.0
  0
POINT
  8
DEFPOINTS
  6
CONTINUOUS
 62
    30
 10
522.99999999999091
 20
-100.2999999999965
 30
0.0
  0
POINT
  8
DEFPOINTS
  6
CONTINUOUS
 62
    30
 10
443.99999999998909
 20
-0.8250000000025466
 30
0.0
  0
POINT
  8
DEFPOINTS
  6
CONTINUOUS
 62
    30
 10
443.99999999998909
 20
273.07717012887861
 30
0.0
  0
LINE
  8
SIZE
  6
CONTINUOUS
 62
    30
 10
-444.00000000000358
 20
19.17499999999745
 30
0.0
 11
-444.00000000000358
 21
293.07717012887861
 31
0.0
  0
LINE
  8
SIZE
  6
CONTINUOUS
 62
    30
 10
-523.00000000000546
 20
-80.299999999996544
 30
0.0
 11
-523.00000000000546
 21
293.07717012887861
 31
0.0
  0
LINE
  8
SIZE
  6
CONTINUOUS
 62
    30
 10
-432.00000000000358
 20
273.07717012887861
 30
0.0
 11
-420.00000000000358
 21
273.07717012887861
 31
0.0
  0
LINE
  8
SIZE
  6
CONTINUOUS
 62
    30
 10
-535.00000000000546
 20
273.07717012887861
 30
0.0
 11
-547.00000000000546
 21
273.07717012887861
 31
0.0
  0
LINE
  8
SIZE
  6
CONTINUOUS
 62
    30
 10
-444.00000000000358
 20
273.07717012887861
 30
0.0
 11
-523.00000000000546
 21
273.07717012887861
 31
0.0
  0
CIRCLE
  8
SIZE
  6
CONTINUOUS
 62
    30
 10
-444.00000000000358
 20
273.07717012887861
 30
0.0
 40
6.0
  0
LINE
  8
SIZE
  6
CONTINUOUS
 62
    30
 10
-444.00000000000358
 20
273.07717012887861
 30
0.0
 11
-432.00000000000358
 21
273.07717012887861
 31
0.0
  0
CIRCLE
  8
SIZE
  6
CONTINUOUS
 62
    30
 10
-523.00000000000546
 20
273.07717012887861
 30
0.0
 40
6.0
  0
LINE
  8
SIZE
  6
CONTINUOUS
 62
    30
 10
-523.00000000000546
 20
273.07717012887861
 30
0.0
 11
-535.00000000000546
 21
273.07717012887861
 31
0.0
  0
TEXT
  8
SIZE
  6
CONTINUOUS
 62
    30
 10
-537.06800000000453
 20
298.07717012887861
 30
0.0
 40
64.0
  1
79
 50
0.0
 41
0.9
 51
0.0
  7
STANDARD
 71
     0
 72
     1
 11
-483.50000000000455
 21
298.07717012887861
 31
0.0
210
0.0
220
0.0
230
1.0
  0
POINT
  8
DEFPOINTS
  6
CONTINUOUS
 62
    30
 10
-444.00000000000358
 20
-0.8250000000025466
 30
0.0
  0
POINT
  8
DEFPOINTS
  6
CONTINUOUS
 62
    30
 10
-523.00000000000546
 20
-100.2999999999965
 30
0.0
  0
POINT
  8
DEFPOINTS
  6
CONTINUOUS
 62
    30
 10
-523.00000000000546
 20
273.07717012887861
 30
0.0
  0
LINE
  8
SIZE
  6
CONTINUOUS
 62
    30
 10
444.29999999998472
 20
-349.87499999999
 30
0.0
 11
444.29999999998472
 21
-478.25449310093518
 31
0.0
  0
LINE
  8
SIZE
  6
CONTINUOUS
 62
    30
 10
320.2999589103415
 20
-335.71151874680442
 30
0.0
 11
320.2999589103415
 21
-478.25449310093518
 31
0.0
  0
LINE
  8
SIZE
  6
CONTINUOUS
 62
    30
 10
332.2999589103415
 20
-458.25449310093518
 30
0.0
 11
432.29999999998472
 21
-458.25449310093518
 31
0.0
  0
LINE
  8
SIZE
  6
CONTINUOUS
 62
    30
 10
444.29999999998472
 20
-458.25449310093518
 30
0.0
 11
646.18571428569908
 21
-458.25449310093518
 31
0.0
  0
CIRCLE
  8
SIZE
  6
CONTINUOUS
 62
    30
 10
320.2999589103415
 20
-458.25449310093518
 30
0.0
 40
6.0
  0
LINE
  8
SIZE
  6
CONTINUOUS
 62
    30
 10
320.2999589103415
 20
-458.25449310093518
 30
0.0
 11
332.2999589103415
 21
-458.25449310093518
 31
0.0
  0
CIRCLE
  8
SIZE
  6
CONTINUOUS
 62
    30
 10
444.29999999998472
 20
-458.25449310093518
 30
0.0
 40
6.0
  0
LINE
  8
SIZE
  6
CONTINUOUS
 62
    30
 10
444.29999999998472
 20
-458.25449310093518
 30
0.0
 11
432.29999999998472
 21
-458.25449310093518
 31
0.0
  0
TEXT
  8
SIZE
  6
CONTINUOUS
 62
    30
 10
476.07485714284189
 20
-433.25449310093518
 30
0.0
 40
64.0
  1
124
 50
0.0
 41
0.9
 51
0.0
  7
STANDARD
 71
     0
 72
     1
 11
551.2428571428419
 21
-433.25449310093518
 31
0.0
210
0.0
220
0.0
230
1.0
  0
POINT
  8
DEFPOINTS
  6
CONTINUOUS
 62
    30
 10
444.29999999998472
 20
-329.87499999999
 30
0.0
  0
POINT
  8
DEFPOINTS
  6
CONTINUOUS
 62
    30
 10
320.2999589103415
 20
-315.71151874680442
 30
0.0
  0
POINT
  8
DEFPOINTS
  6
CONTINUOUS
 62
    30
 10
320.2999589103415
 20
-458.25449310093518
 30
0.0
  0
LINE
  8
SIZE
  6
CONTINUOUS
 62
    30
 10
-541.90000000000714
 20
-291.19999999999987
 30
0.0
 11
-772.9359558389898
 21
-291.19999999999999
 31
0.0
  0
LINE
  8
SIZE
  6
CONTINUOUS
 62
    30
 10
-541.90000000000714
 20
-99.199999999999875
 30
0.0
 11
-772.93595583898991
 21
-99.199999999999918
 31
0.0
  0
LINE
  8
SIZE
  6
CONTINUOUS
 62
    30
 10
-752.93595583898968
 20
-279.19999999999999
 30
0.0
 11
-752.9359558389898
 21
-111.1999999999999
 31
0.0
  0
LINE
  8
SIZE
  6
CONTINUOUS
 62
    30
 10
-752.9359558389898
 20
-99.199999999999918
 30
0.0
 11
-752.9359558389898
 21
152.05714285714299
 31
0.0
  0
CIRCLE
  8
SIZE
  6
CONTINUOUS
 62
    30
 10
-752.93595583898968
 20
-291.19999999999999
 30
0.0
 40
6.0
  0
LINE
  8
SIZE
  6
CONTINUOUS
 62
    30
 10
-752.93595583898968
 20
-291.19999999999999
 30
0.0
 11
-752.93595583898968
 21
-279.19999999999999
 31
0.0
  0
CIRCLE
  8
SIZE
  6
CONTINUOUS
 62
    30
 10
-752.9359558389898
 20
-99.199999999999918
 30
0.0
 40
6.0
  0
LINE
  8
SIZE
  6
CONTINUOUS
 62
    30
 10
-752.9359558389898
 20
-99.199999999999918
 30
0.0
 11
-752.9359558389898
 21
-111.19999999999992
 31
0.0
  0
TEXT
  8
SIZE
  6
CONTINUOUS
 62
    30
 10
-777.93595583898968
 20
-76.723428571428258
 30
0.0
 40
64.0
  1
φ192
 50
90.0
 41
0.9
 51
0.0
  7
STANDARD
 71
     0
 72
     1
 11
-777.93595583898968
 21
32.428571428571793
 31
0.0
210
0.0
220
0.0
230
1.0
  0
POINT
  8
DEFPOINTS
  6
CONTINUOUS
 62
    30
 10
-521.90000000000714
 20
-291.19999999999987
 30
0.0
  0
POINT
  8
DEFPOINTS
  6
CONTINUOUS
 62
    30
 10
-521.90000000000714
 20
-99.199999999999875
 30
0.0
  0
POINT
  8
DEFPOINTS
  6
CONTINUOUS
 62
    30
 10
-752.9359558389898
 20
-99.199999999999918
 30
0.0
  0
LINE
  8
SIZE
  6
CONTINUOUS
 62
    30
 10
-465.60000000000701
 20
-299.19999999999629
 30
0.0
 11
-896.31709439545023
 21
-299.19999999999641
 31
0.0
  0
LINE
  8
SIZE
  6
CONTINUOUS
 62
    30
 10
-465.60000000000701
 20
-91.24999999999639
 30
0.0
 11
-896.31709439545034
 21
-91.249999999996461
 31
0.0
  0
LINE
  8
SIZE
  6
CONTINUOUS
 62
    30
 10
-876.31709439545023
 20
-287.19999999999641
 30
0.0
 11
-876.31709439545034
 21
-103.2499999999965
 31
0.0
  0
LINE
  8
SIZE
  6
CONTINUOUS
 62
    30
 10
-876.31709439545034
 20
-91.249999999996461
 30
0.0
 11
-876.31709439545034
 21
170.97857142857501
 31
0.0
  0
CIRCLE
  8
SIZE
  6
CONTINUOUS
 62
    30
 10
-876.31709439545023
 20
-299.19999999999641
 30
0.0
 40
6.0
  0
LINE
  8
SIZE
  6
CONTINUOUS
 62
    30
 10
-876.31709439545023
 20
-299.19999999999641
 30
0.0
 11
-876.31709439545023
 21
-287.19999999999641
 31
0.0
  0
CIRCLE
  8
SIZE
  6
CONTINUOUS
 62
    30
 10
-876.31709439545034
 20
-91.249999999996461
 30
0.0
 40
6.0
  0
LINE
  8
SIZE
  6
CONTINUOUS
 62
    30
 10
-876.31709439545034
 20
-91.249999999996461
 30
0.0
 11
-876.31709439545034
 21
-103.24999999999646
 31
0.0
  0
TEXT
  8
SIZE
  6
CONTINUOUS
 62
    30
 10
-901.31709439545011
 20
-69.623714285710534
 30
0.0
 40
64.0
  1
φ208
 50
90.0
 41
0.9
 51
0.0
  7
STANDARD
 71
     0
 72
     1
 11
-901.31709439545011
 21
45.864285714289522
 31
0.0
210
0.0
220
0.0
230
1.0
  0
POINT
  8
DEFPOINTS
  6
CONTINUOUS
 62
    30
 10
-445.60000000000701
 20
-299.19999999999629
 30
0.0
  0
POINT
  8
DEFPOINTS
  6
CONTINUOUS
 62
    30
 10
-445.60000000000701
 20
-91.24999999999639
 30
0.0
  0
POINT
  8
DEFPOINTS
  6
CONTINUOUS
 62
    30
 10
-876.31709439545034
 20
-91.249999999996461
 30
0.0
  0
LINE
  8
BASIS
  6
DASHDOT
 62
     6
 10
-488.43427874225148
 20
-84.999999999999091
 30
0.0
 11
-386.56572125775853
 21
-84.999999999999091
 31
0.0
  0
LINE
  8
BASIS
  6
DASHDOT
 62
     6
 10
-437.50000000000858
 20
-34.065721257746191
 30
0.0
 11
-437.50000000000858
 21
-135.93427874224199
 31
0.0
  0
LINE
  8
SIZE
  6
CONTINUOUS
 62
    30
 10
437.49999999999773
 20
-14.065721257746191
 30
0.0
 11
437.49999999999773
 21
183.35951938046949
 31
0.0
  0
LINE
  8
SIZE
  6
CONTINUOUS
 62
    30
 10
-437.50000000000858
 20
-14.065721257746191
 30
0.0
 11
-437.50000000000858
 21
183.35951938046949
 31
0.0
  0
LINE
  8
SIZE
  6
CONTINUOUS
 62
    30
 10
425.49999999999773
 20
163.35951938046949
 30
0.0
 11
-425.50000000000858
 21
163.35951938046949
 31
0.0
  0
CIRCLE
  8
SIZE
  6
CONTINUOUS
 62
    30
 10
437.49999999999773
 20
163.35951938046949
 30
0.0
 40
6.0
  0
LINE
  8
SIZE
  6
CONTINUOUS
 62
    30
 10
437.49999999999773
 20
163.35951938046949
 30
0.0
 11
425.49999999999773
 21
163.35951938046949
 31
0.0
  0
CIRCLE
  8
SIZE
  6
CONTINUOUS
 62
    30
 10
-437.50000000000858
 20
163.35951938046949
 30
0.0
 40
6.0
  0
LINE
  8
SIZE
  6
CONTINUOUS
 62
    30
 10
-437.50000000000858
 20
163.35951938046949
 30
0.0
 11
-425.50000000000858
 21
163.35951938046949
 31
0.0
  0
TEXT
  8
SIZE
  6
CONTINUOUS
 62
    30
 10
-80.352000000005461
 20
188.35951938046949
 30
0.0
 40
64.0
  1
875
 50
0.0
 41
0.9
 51
0.0
  7
STANDARD
 71
     0
 72
     1
 11
-0.000000000005457
 21
188.35951938046949
 31
0.0
210
0.0
220
0.0
230
1.0
  0
POINT
  8
DEFPOINTS
  6
CONTINUOUS
 62
    30
 10
437.49999999999773
 20
-34.065721257746191
 30
0.0
  0
POINT
  8
DEFPOINTS
  6
CONTINUOUS
 62
    30
 10
-437.50000000000858
 20
-34.065721257746191
 30
0.0
  0
POINT
  8
DEFPOINTS
  6
CONTINUOUS
 62
    30
 10
-437.50000000000858
 20
163.35951938046949
 30
0.0
  0
LINE
  8
BASIS
  6
DASHDOT
 62
     6
 10
488.43427874224062
 20
-84.999999999999091
 30
0.0
 11
386.56572125774761
 21
-84.999999999999091
 31
0.0
  0
LINE
  8
BASIS
  6
DASHDOT
 62
     6
 10
437.49999999999773
 20
-34.065721257746191
 30
0.0
 11
437.49999999999773
 21
-135.93427874224199
 31
0.0
  0
CIRCLE
  8
FIX
  6
CONTINUOUS
 62
    11
 10
-437.50000000000858
 20
-84.999999999999091
 30
0.0
 40
6.5
  0
CIRCLE
  8
FIX
  6
CONTINUOUS
 62
    11
 10
437.49999999999773
 20
-84.999999999999091
 30
0.0
 40
6.5
  0
LINE
  8
SIZE
  6
CONTINUOUS
 62
    30
 10
463.17499999998222
 20
0.0000000000036412
 30
0.0
 11
806.16106049807991
 21
0.0000000000036964
 31
0.0
  0
LINE
  8
SIZE
  6
CONTINUOUS
 62
    30
 10
508.43427874224079
 20
-84.999999999999119
 30
0.0
 11
806.16106049807991
 21
-84.999999999999062
 31
0.0
  0
LINE
  8
SIZE
  6
CONTINUOUS
 62
    30
 10
786.16106049807991
 20
-72.999999999999076
 30
0.0
 11
786.16106049807991
 21
-11.999999999996311
 31
0.0
  0
LINE
  8
SIZE
  6
CONTINUOUS
 62
    30
 10
786.16106049807991
 20
0.0000000000036931
 30
0.0
 11
786.16106049807991
 21
156.1341666041038
 31
0.0
  0
CIRCLE
  8
SIZE
  6
CONTINUOUS
 62
    30
 10
786.16106049807991
 20
-84.999999999999076
 30
0.0
 40
6.0
  0
LINE
  8
SIZE
  6
CONTINUOUS
 62
    30
 10
786.16106049807991
 20
-84.999999999999076
 30
0.0
 11
786.16106049807991
 21
-72.999999999999076
 31
0.0
  0
CIRCLE
  8
SIZE
  6
CONTINUOUS
 62
    30
 10
786.16106049807991
 20
0.0000000000036931
 30
0.0
 40
6.0
  0
LINE
  8
SIZE
  6
CONTINUOUS
 62
    30
 10
786.16106049807991
 20
0.0000000000036931
 30
0.0
 11
786.16106049807991
 21
-11.999999999996307
 31
0.0
  0
TEXT
  8
SIZE
  6
CONTINUOUS
 62
    30
 10
761.16106049807968
 20
30.937595175532124
 30
0.0
 40
64.0
  1
85
 50
90.0
 41
0.9
 51
0.0
  7
STANDARD
 71
     0
 72
     1
 11
761.16106049807968
 21
84.505595175532108
 31
0.0
210
0.0
220
0.0
230
1.0
  0
POINT
  8
DEFPOINTS
  6
CONTINUOUS
 62
    30
 10
443.17499999998222
 20
0.000000000003638
 30
0.0
  0
POINT
  8
DEFPOINTS
  6
CONTINUOUS
 62
    30
 10
488.43427874224079
 20
-84.999999999999119
 30
0.0
  0
POINT
  8
DEFPOINTS
  6
CONTINUOUS
 62
    30
 10
786.16106049807991
 20
-84.999999999999076
 30
0.0
  0
LINE
  8
SIZE
  6
CONTINUOUS
 62
    30
 10
-463.17499999999683
 20
0.0000000000045443
 30
0.0
 11
-642.18488371688181
 21
0.0000000000045155
 31
0.0
  0
LINE
  8
SIZE
  6
CONTINUOUS
 62
    30
 10
-508.43427874225182
 20
-84.999999999999119
 30
0.0
 11
-642.18488371688181
 21
-84.999999999999133
 31
0.0
  0
LINE
  8
SIZE
  6
CONTINUOUS
 62
    30
 10
-622.18488371688181
 20
-72.999999999999133
 30
0.0
 11
-622.18488371688181
 21
-11.999999999995479
 31
0.0
  0
LINE
  8
SIZE
  6
CONTINUOUS
 62
    30
 10
-622.18488371688181
 20
0.0000000000045187
 30
0.0
 11
-622.18488371688181
 21
155.25714285714739
 31
0.0
  0
CIRCLE
  8
SIZE
  6
CONTINUOUS
 62
    30
 10
-622.18488371688181
 20
-84.999999999999133
 30
0.0
 40
6.0
  0
LINE
  8
SIZE
  6
CONTINUOUS
 62
    30
 10
-622.18488371688181
 20
-84.999999999999133
 30
0.0
 11
-622.18488371688181
 21
-72.999999999999133
 31
0.0
  0
CIRCLE
  8
SIZE
  6
CONTINUOUS
 62
    30
 10
-622.18488371688181
 20
0.0000000000045187
 30
0.0
 40
6.0
  0
LINE
  8
SIZE
  6
CONTINUOUS
 62
    30
 10
-622.18488371688181
 20
0.0000000000045187
 30
0.0
 11
-622.18488371688181
 21
-11.999999999995481
 31
0.0
  0
TEXT
  8
SIZE
  6
CONTINUOUS
 62
    30
 10
-647.1848837168817
 20
30.060571428576154
 30
0.0
 40
64.0
  1
85
 50
90.0
 41
0.9
 51
0.0
  7
STANDARD
 71
     0
 72
     1
 11
-647.1848837168817
 21
83.628571428576137
 31
0.0
210
0.0
220
0.0
230
1.0
  0
POINT
  8
DEFPOINTS
  6
CONTINUOUS
 62
    30
 10
-443.17499999999683
 20
0.0000000000045475
 30
0.0
  0
POINT
  8
DEFPOINTS
  6
CONTINUOUS
 62
    30
 10
-488.43427874225182
 20
-84.999999999999119
 30
0.0
  0
POINT
  8
DEFPOINTS
  6
CONTINUOUS
 62
    30
 10
-622.18488371688181
 20
-84.999999999999133
 30
0.0
  0
LINE
  8
SIZE
  6
CONTINUOUS
 62
    30
 10
463.17499999998222
 20
0.0000000000036412
 30
0.0
 11
947.98314823167539
 21
0.0000000000037192
 31
0.0
  0
LINE
  8
SIZE
  6
CONTINUOUS
 62
    30
 10
463.17499999997489
 20
-331.00000000000011
 30
0.0
 11
947.9831482316755
 21
-331.00000000000011
 31
0.0
  0
LINE
  8
SIZE
  6
CONTINUOUS
 62
    30
 10
927.98314823167539
 20
-11.999999999996289
 30
0.0
 11
927.9831482316755
 21
-319.00000000000011
 31
0.0
  0
CIRCLE
  8
SIZE
  6
CONTINUOUS
 62
    30
 10
927.98314823167539
 20
0.0000000000037159
 30
0.0
 40
6.0
  0
LINE
  8
SIZE
  6
CONTINUOUS
 62
    30
 10
927.98314823167539
 20
0.0000000000037159
 30
0.0
 11
927.98314823167539
 21
-11.999999999996284
 31
0.0
  0
CIRCLE
  8
SIZE
  6
CONTINUOUS
 62
    30
 10
927.9831482316755
 20
-331.00000000000011
 30
0.0
 40
6.0
  0
LINE
  8
SIZE
  6
CONTINUOUS
 62
    30
 10
927.9831482316755
 20
-331.00000000000011
 30
0.0
 11
927.9831482316755
 21
-319.00000000000011
 31
0.0
  0
TEXT
  8
SIZE
  6
CONTINUOUS
 62
    30
 10
902.98314823167516
 20
-240.09199999999839
 30
0.0
 40
64.0
  1
331
 50
90.0
 41
0.9
 51
0.0
  7
STANDARD
 71
     0
 72
     1
 11
902.98314823167516
 21
-165.49999999999841
 31
0.0
210
0.0
220
0.0
230
1.0
  0
POINT
  8
DEFPOINTS
  6
CONTINUOUS
 62
    30
 10
443.17499999998222
 20
0.000000000003638
 30
0.0
  0
POINT
  8
DEFPOINTS
  6
CONTINUOUS
 62
    30
 10
443.17499999997489
 20
-331.00000000000011
 30
0.0
  0
POINT
  8
DEFPOINTS
  6
CONTINUOUS
 62
    30
 10
927.9831482316755
 20
-331.00000000000011
 30
0.0
  0
POINT
  8
ARRANGE
  6
CONTINUOUS
 62
     1
 10
-0.000000000007276
 20
0.0
 30
0.0
 50
180.0
  0
CIRCLE
  8
ARRANGE
  6
CONTINUOUS
 62
     1
 10
-0.000000000007276
 20
0.0
 30
0.0
 40
40.0
  0
LINE
  8
OUTLINE
  6
CONTINUOUS
 62
     3
 10
438.19999999999072
 20
-299.19999999999618
 30
0.0
 11
445.59999999999218
 21
-299.19999999999618
 31
0.0
  0
LINE
  8
OUTLINE
  6
CONTINUOUS
 62
     3
 10
445.59999999999218
 20
-299.19999999999618
 30
0.0
 11
514.39999999999236
 21
-291.19999999999982
 31
0.0
  0
LINE
  8
OUTLINE
  6
CONTINUOUS
 62
     3
 10
514.39999999999236
 20
-291.19999999999982
 30
0.0
 11
521.89999999999236
 21
-291.19999999999982
 31
0.0
  0
ARC
  8
OUTLINE
  6
CONTINUOUS
 62
     3
 10
521.89999999998463
 20
-290.09999999999349
 30
0.0
 40
1.1000000000063055
 50
270.0
 51
0.0
  0
LINE
  8
OUTLINE
  6
CONTINUOUS
 62
     3
 10
522.99999999999091
 20
-290.099999999994
 30
0.0
 11
522.99999999999091
 21
-100.2999999999965
 31
0.0
  0
ARC
  8
OUTLINE
  6
CONTINUOUS
 62
     3
 10
521.9000000000002
 20
-100.29999999999055
 30
0.0
 40
1.0999999999907311
 50
0.0
 51
90.0
  0
LINE
  8
OUTLINE
  6
CONTINUOUS
 62
     3
 10
521.89999999999236
 20
-99.199999999999818
 30
0.0
 11
514.39999999999236
 21
-99.199999999999818
 31
0.0
  0
LINE
  8
OUTLINE
  6
CONTINUOUS
 62
     3
 10
514.39999999999236
 20
-99.199999999999818
 30
0.0
 11
456.09999999999218
 21
-92.417391303998556
 31
0.0
  0
LINE
  8
OUTLINE
  6
CONTINUOUS
 62
     3
 10
456.09999999999218
 20
-92.417391303998556
 30
0.0
 11
456.10000000000309
 21
-85.000000000000455
 31
0.0
  0
LINE
  8
OUTLINE
  6
CONTINUOUS
 62
     3
 10
456.10000000000309
 20
-85.000000000000455
 30
0.0
 11
438.19999999999033
 21
-85.000000000000455
 31
0.0
  0
LINE
  8
OUTLINE
  6
CONTINUOUS
 62
     3
 10
438.19999999999033
 20
-85.000000000000455
 30
0.0
 11
438.19999999999072
 21
-77.70010702399577
 31
0.0
  0
LINE
  8
OUTLINE
  6
CONTINUOUS
 62
     3
 10
438.19999999999072
 20
-77.70010702399577
 30
0.0
 11
437.59999999999218
 21
-77.70010702399577
 31
0.0
  0
LINE
  8
OUTLINE
  6
CONTINUOUS
 62
     3
 10
437.59999999999218
 20
-77.70010702399577
 30
0.0
 11
437.59999999999951
 21
-1.649999999996453
 31
0.0
  0
ARC
  8
OUTLINE
  6
CONTINUOUS
 62
     3
 10
438.09999999999803
 20
-1.6499999999963522
 30
0.0
 40
0.499999999998535
 50
90.0
 51
180.0
  0
LINE
  8
OUTLINE
  6
CONTINUOUS
 62
     3
 10
438.10000000000309
 20
-1.149999999997817
 30
0.0
 11
439.59999999999951
 21
-1.149999999998272
 31
0.0
  0
LINE
  8
OUTLINE
  6
CONTINUOUS
 62
     3
 10
439.59999999999951
 20
-1.149999999998272
 30
0.0
 11
439.59999999999951
 21
-1.6500000000110051
 31
0.0
  0
LINE
  8
OUTLINE
  6
CONTINUOUS
 62
     3
 10
439.59999999999951
 20
-1.6500000000110051
 30
0.0
 11
443.17499999998932
 21
-1.6500000000110051
 31
0.0
  0
ARC
  8
OUTLINE
  6
CONTINUOUS
 62
     3
 10
443.17499999998932
 20
-0.8250000000039112
 30
0.0
 40
0.825000000007094
 50
270.0
 51
90.0
  0
LINE
  8
OUTLINE
  6
CONTINUOUS
 62
     3
 10
443.17499999998932
 20
0.0000000000031832
 30
0.0
 11
437.55816558666362
 21
-0.0000000000013642
 31
0.0
  0
ARC
  8
OUTLINE
  6
CONTINUOUS
 62
     3
 10
437.55816558608683
 20
-0.9999999985302989
 30
0.0
 40
0.9999999985289346
 50
90.0
 51
175.00000008160191
  0
LINE
  8
OUTLINE
  6
CONTINUOUS
 62
     3
 10
436.56197088933641
 20
-0.9128442573296525
 30
0.0
 11
436.40998945466799
 21
-2.649999999999181
 31
0.0
  0
LINE
  8
OUTLINE
  6
CONTINUOUS
 62
     3
 10
436.40998945466799
 20
-2.649999999999181
 30
0.0
 11
435.59999999999951
 21
-2.649999999999181
 31
0.0
  0
LINE
  8
OUTLINE
  6
CONTINUOUS
 62
     3
 10
435.59999999999951
 20
-2.649999999999181
 30
0.0
 11
435.59999999999951
 21
-0.650000000000091
 31
0.0
  0
LINE
  8
OUTLINE
  6
CONTINUOUS
 62
     3
 10
435.59999999999951
 20
-0.650000000000091
 30
0.0
 11
435.49999999999358
 21
-0.650000000000091
 31
0.0
  0
LINE
  8
OUTLINE
  6
CONTINUOUS
 62
     3
 10
435.49999999999358
 20
-0.650000000000091
 30
0.0
 11
435.49999999999358
 21
-0.0000000000013642
 31
0.0
  0
LINE
  8
OUTLINE
  6
CONTINUOUS
 62
     3
 10
435.49999999999358
 20
-0.0000000000013642
 30
0.0
 11
-435.49999999999909
 21
-0.0000000000013642
 31
0.0
  0
LINE
  8
OUTLINE
  6
CONTINUOUS
 62
     3
 10
-435.49999999999909
 20
-0.0000000000013642
 30
0.0
 11
-435.50000000000642
 21
-0.650000000000091
 31
0.0
  0
LINE
  8
OUTLINE
  6
CONTINUOUS
 62
     3
 10
-435.50000000000642
 20
-0.650000000000091
 30
0.0
 11
-435.60000000000491
 21
-0.650000000000091
 31
0.0
  0
LINE
  8
OUTLINE
  6
CONTINUOUS
 62
     3
 10
-435.60000000000491
 20
-0.650000000000091
 30
0.0
 11
-435.60000000000491
 21
-2.649999999999181
 31
0.0
  0
LINE
  8
OUTLINE
  6
CONTINUOUS
 62
     3
 10
-435.60000000000491
 20
-2.649999999999181
 30
0.0
 11
-436.40998945466617
 21
-2.649999999999181
 31
0.0
  0
LINE
  8
OUTLINE
  6
CONTINUOUS
 62
     3
 10
-436.40998945466617
 20
-2.649999999999181
 30
0.0
 11
-436.56197088933459
 21
-0.9128442573296525
 31
0.0
  0
ARC
  8
OUTLINE
  6
CONTINUOUS
 62
     3
 10
-437.5581655860974
 20
-0.9999999985438494
 30
0.0
 40
0.9999999985424853
 50
4.9999999191097118
 51
90.0
  0
LINE
  8
OUTLINE
  6
CONTINUOUS
 62
     3
 10
-437.55816558666902
 20
-0.0000000000013642
 30
0.0
 11
-443.24999999999909
 21
-0.000000000001819
 31
0.0
  0
ARC
  8
OUTLINE
  6
CONTINUOUS
 62
     3
 10
-443.17321428570796
 20
-0.8232142857204482
 30
0.0
 40
0.8267876427054494
 50
95.328873196752056
 51
269.87625120902931
  0
LINE
  8
OUTLINE
  6
CONTINUOUS
 62
     3
 10
-443.17499999998739
 20
-1.6500000000110051
 30
0.0
 11
-439.60000000000127
 21
-1.6500000000110051
 31
0.0
  0
LINE
  8
OUTLINE
  6
CONTINUOUS
 62
     3
 10
-439.60000000000127
 20
-1.6500000000110051
 30
0.0
 11
-439.60000000000127
 21
-1.149999999998272
 31
0.0
  0
LINE
  8
OUTLINE
  6
CONTINUOUS
 62
     3
 10
-439.60000000000127
 20
-1.149999999998272
 30
0.0
 11
-438.09999999999758
 21
-1.149999999998272
 31
0.0
  0
ARC
  8
OUTLINE
  6
CONTINUOUS
 62
     3
 10
-438.09999999999434
 20
-1.6499999999950599
 30
0.0
 40
0.499999999996788
 50
0.0
 51
90.0
  0
LINE
  8
OUTLINE
  6
CONTINUOUS
 62
     3
 10
-437.59999999999758
 20
-1.649999999996453
 30
0.0
 11
-437.60000000000667
 21
-77.70010702399577
 31
0.0
  0
LINE
  8
OUTLINE
  6
CONTINUOUS
 62
     3
 10
-437.60000000000667
 20
-77.70010702399577
 30
0.0
 11
-438.20000000000528
 21
-77.70010702399577
 31
0.0
  0
LINE
  8
OUTLINE
  6
CONTINUOUS
 62
     3
 10
-438.20000000000528
 20
-77.70010702399577
 30
0.0
 11
-438.20000000000528
 21
-85.049999999995634
 31
0.0
  0
LINE
  8
OUTLINE
  6
CONTINUOUS
 62
     3
 10
-438.20000000000528
 20
-85.049999999995634
 30
0.0
 11
-456.09999999999758
 21
-85.000000000000455
 31
0.0
  0
LINE
  8
OUTLINE
  6
CONTINUOUS
 62
     3
 10
-456.09999999999758
 20
-85.000000000000455
 30
0.0
 11
-456.05033010502069
 21
-92.461655318288194
 31
0.0
  0
LINE
  8
OUTLINE
  6
CONTINUOUS
 62
     3
 10
-456.05033010502069
 20
-92.461655318288194
 30
0.0
 11
-514.40000000000691
 21
-99.199999999999818
 31
0.0
  0
LINE
  8
OUTLINE
  6
CONTINUOUS
 62
     3
 10
-514.40000000000691
 20
-99.199999999999818
 30
0.0
 11
-521.90000000000691
 21
-99.199999999999818
 31
0.0
  0
ARC
  8
OUTLINE
  6
CONTINUOUS
 62
     3
 10
-521.90000000001476
 20
-100.29999999999055
 30
0.0
 40
1.0999999999907311
 50
90.0
 51
180.0
  0
LINE
  8
OUTLINE
  6
CONTINUOUS
 62
     3
 10
-523.00000000000546
 20
-100.2999999999965
 30
0.0
 11
-523.00000000000546
 21
-289.87876619599501
 31
0.0
  0
ARC
  8
OUTLINE
  6
CONTINUOUS
 62
     3
 10
-521.8882893607057
 20
-290.07172801578798
 30
0.0
 40
1.1283327565173746
 50
170.15316180361492
 51
269.4053330013196
  0
LINE
  8
OUTLINE
  6
CONTINUOUS
 62
     3
 10
-521.90000000000691
 20
-291.19999999999982
 30
0.0
 11
-514.40000000000691
 21
-291.19999999999982
 31
0.0
  0
LINE
  8
OUTLINE
  6
CONTINUOUS
 62
     3
 10
-514.40000000000691
 20
-291.19999999999982
 30
0.0
 11
-445.60000000000667
 21
-299.19999999999618
 31
0.0
  0
LINE
  8
OUTLINE
  6
CONTINUOUS
 62
     3
 10
-445.60000000000667
 20
-299.19999999999618
 30
0.0
 11
-438.20000000000528
 21
-299.19999999999618
 31
0.0
  0
LINE
  8
OUTLINE
  6
CONTINUOUS
 62
     3
 10
-438.20000000000528
 20
-299.19999999999618
 30
0.0
 11
-438.20000000000528
 21
-312.69897139066319
 31
0.0
  0
LINE
  8
OUTLINE
  6
CONTINUOUS
 62
     3
 10
-438.20000000000528
 20
-312.69897139066319
 30
0.0
 11
-437.60000000000667
 21
-312.69897139332988
 31
0.0
  0
LINE
  8
OUTLINE
  6
CONTINUOUS
 62
     3
 10
-437.60000000000667
 20
-312.69897139332988
 30
0.0
 11
-437.59999999999758
 21
-329.05000000000058
 31
0.0
  0
ARC
  8
OUTLINE
  6
CONTINUOUS
 62
     3
 10
-438.09999999999758
 20
-329.05000000000058
 30
0.0
 40
0.4999999999999902
 50
270.0
 51
0.0
  0
LINE
  8
OUTLINE
  6
CONTINUOUS
 62
     3
 10
-438.09999999999758
 20
-329.55000000000058
 30
0.0
 11
-439.59999999999758
 21
-329.54999999999927
 31
0.0
  0
LINE
  8
OUTLINE
  6
CONTINUOUS
 62
     3
 10
-439.59999999999758
 20
-329.54999999999927
 30
0.0
 11
-439.59999999999758
 21
-328.7499999999809
 31
0.0
  0
LINE
  8
OUTLINE
  6
CONTINUOUS
 62
     3
 10
-439.59999999999758
 20
-328.7499999999809
 30
0.0
 11
-443.17499999998739
 21
-328.7499999999809
 31
0.0
  0
ARC
  8
OUTLINE
  6
CONTINUOUS
 62
     3
 10
-443.17499999998739
 20
-329.87499999999091
 30
0.0
 40
1.1250000000100044
 50
90.0
 51
270.0
  0
LINE
  8
OUTLINE
  6
CONTINUOUS
 62
     3
 10
-443.17499999998739
 20
-331.00000000000091
 30
0.0
 11
-437.83306493866888
 21
-330.99999999999551
 31
0.0
  0
ARC
  8
OUTLINE
  6
CONTINUOUS
 62
     3
 10
-437.83306493866672
 20
-329.39999999999878
 30
0.0
 40
1.5999999999967094
 50
270.0
 51
355.00000000005855
  0
LINE
  8
OUTLINE
  6
CONTINUOUS
 62
     3
 10
-436.23915342172307
 20
-329.53944918839312
 30
0.0
 11
-436.10884350266042
 21
-328.04999999999751
 31
0.0
  0
LINE
  8
OUTLINE
  6
CONTINUOUS
 62
     3
 10
-436.10884350266042
 20
-328.04999999999751
 30
0.0
 11
-435.60000000000491
 21
-328.04999999999751
 31
0.0
  0
LINE
  8
OUTLINE
  6
CONTINUOUS
 62
     3
 10
-435.60000000000491
 20
-328.04999999999751
 30
0.0
 11
-435.60000000000491
 21
-330.04999999999649
 31
0.0
  0
LINE
  8
OUTLINE
  6
CONTINUOUS
 62
     3
 10
-435.60000000000491
 20
-330.04999999999649
 30
0.0
 11
-435.09999999999758
 21
-330.04999999999649
 31
0.0
  0
LINE
  8
OUTLINE
  6
CONTINUOUS
 62
     3
 10
-435.09999999999758
 20
-330.04999999999649
 30
0.0
 11
-435.09999999999758
 21
-330.99999999999551
 31
0.0
  0
LINE
  8
OUTLINE
  6
CONTINUOUS
 62
     3
 10
-435.09999999999758
 20
-330.99999999999551
 30
0.0
 11
435.09999999999218
 21
-330.99999999999551
 31
0.0
  0
LINE
  8
OUTLINE
  6
CONTINUOUS
 62
     3
 10
435.09999999999218
 20
-330.99999999999551
 30
0.0
 11
435.09999999999218
 21
-330.04999999999649
 31
0.0
  0
LINE
  8
OUTLINE
  6
CONTINUOUS
 62
     3
 10
435.09999999999218
 20
-330.04999999999649
 30
0.0
 11
435.59999999999951
 21
-330.04999999999518
 31
0.0
  0
LINE
  8
OUTLINE
  6
CONTINUOUS
 62
     3
 10
435.59999999999951
 20
-330.04999999999518
 30
0.0
 11
435.59999999999951
 21
-328.04999999999751
 31
0.0
  0
LINE
  8
OUTLINE
  6
CONTINUOUS
 62
     3
 10
435.59999999999951
 20
-328.04999999999751
 30
0.0
 11
436.10884350399368
 21
-328.04999999999751
 31
0.0
  0
LINE
  8
OUTLINE
  6
CONTINUOUS
 62
     3
 10
436.10884350399368
 20
-328.04999999999751
 30
0.0
 11
436.23915342266349
 21
-329.5394491893303
 31
0.0
  0
ARC
  8
OUTLINE
  6
CONTINUOUS
 62
     3
 10
437.83306493802331
 20
-329.40000000163775
 30
0.0
 40
1.5999999983577502
 50
184.99999997984935
 51
270.0
  0
LINE
  8
OUTLINE
  6
CONTINUOUS
 62
     3
 10
437.83306493866348
 20
-330.99999999999551
 30
0.0
 11
443.17499999998199
 21
-330.99999999999591
 31
0.0
  0
ARC
  8
OUTLINE
  6
CONTINUOUS
 62
     3
 10
443.17499999998199
 20
-329.8749999999884
 30
0.0
 40
1.1250000000075033
 50
270.0
 51
90.0
  0
LINE
  8
OUTLINE
  6
CONTINUOUS
 62
     3
 10
443.17499999998199
 20
-328.7499999999809
 30
0.0
 11
439.59999999999218
 21
-328.7499999999809
 31
0.0
  0
LINE
  8
OUTLINE
  6
CONTINUOUS
 62
     3
 10
439.59999999999218
 20
-328.7499999999809
 30
0.0
 11
439.59999999999582
 21
-329.54999999999791
 31
0.0
  0
LINE
  8
OUTLINE
  6
CONTINUOUS
 62
     3
 10
439.59999999999582
 20
-329.54999999999791
 30
0.0
 11
438.09999999999582
 21
-329.54999999999842
 31
0.0
  0
ARC
  8
OUTLINE
  6
CONTINUOUS
 62
     3
 10
438.09999999999559
 20
-329.04999999999865
 30
0.0
 40
0.4999999999997962
 50
180.0
 51
270.0
  0
LINE
  8
OUTLINE
  6
CONTINUOUS
 62
     3
 10
437.59999999999582
 20
-329.04999999999842
 30
0.0
 11
437.59999999999218
 21
-312.69897139466502
 31
0.0
  0
LINE
  8
OUTLINE
  6
CONTINUOUS
 62
     3
 10
437.59999999999218
 20
-312.69897139466502
 30
0.0
 11
438.19999999999072
 21
-312.69897139066319
 31
0.0
  0
LINE
  8
OUTLINE
  6
CONTINUOUS
 62
     3
 10
438.19999999999072
 20
-312.69897139066319
 30
0.0
 11
438.19999999999072
 21
-299.19999999999618
 31
0.0
  0
TEXT
  8
NOTE
  6
CONTINUOUS
 62
     4
 10
-661.45837810038836
 20
-220.08815761414641
 30
0.0
 40
64.065641025638456
  1
RA
 41
0.9
  0
TEXT
  8
NOTE
  6
CONTINUOUS
 62
     4
 10
551.04042091078293
 20
-223.9840681703017
 30
0.0
 40
64.065641025638456
  1
EA
 41
0.9
  0
TEXT
  8
ETC
  6
CONTINUOUS
 62
    61
 10
830.95780286282752
 20
796.32210213816961
 30
0.0
 40
64.065641025638456
  1
LGH-50RVX3-E_4
 41
0.9
  0
TEXT
  8
ETC
  6
CONTINUOUS
 62
    61
 10
826.76751553564827
 20
678.24581231819911
 30
0.0
 40
64.065641025638456
  1
LOSSNAY
 41
0.9
  0
TEXT
  8
ETC
  6
CONTINUOUS
 62
    61
 10
877.52091521830334
 20
569.98611761363293
 30
0.0
 40
40.041025641024042
  1
LGH-50RVX3-E
 50
0.0
 41
0.9
 51
0.0
  7
STANDARD
 71
     0
 11
0.0
 21
0.0
 31
0.0
210
0.0
220
0.0
230
1.0
  0
TEXT
  8
NOTE
  6
CONTINUOUS
 62
     4
 10
579.00885902790969
 20
364.50920208469921
 30
0.0
 40
69.0
  1
Ceiling suspension fixture
 50
0.0
 41
0.9
 51
0.0
  7
STANDARD
 71
     0
 11
0.0
 21
0.0
 31
0.0
210
0.0
220
0.0
230
1.0
  0
TEXT
  8
NOTE
  6
CONTINUOUS
 62
     4
 10
579.00885902790969
 20
250.65920208469922
 30
0.0
 40
69.0
  1
(4-13X20 oval)
 50
0.0
 41
0.9
 51
0.0
  7
STANDARD
 71
     0
 11
0.0
 21
0.0
 31
0.0
210
0.0
220
0.0
230
1.0
  0
LINE
  8
NOTE
  6
CONTINUOUS
 62
     4
 10
569.00885902790969
 20
213.36634494184179
 30
0.0
 11
1785.523144742195
 21
213.36634494184179
 31
0.0
  0
LINE
  8
NOTE
  6
CONTINUOUS
 62
     4
 10
459.38653623451734
 20
-56.122141011212108
 30
0.0
 11
437.49998603620003
 21
-84.999995735533957
 31
0.0
  0
LINE
  8
NOTE
  6
CONTINUOUS
 62
     4
 10
437.49998603620003
 20
-84.999995735533957
 30
0.0
 11
442.01531296899094
 21
-49.047758033931672
 31
0.0
  0
LINE
  8
NOTE
  6
CONTINUOUS
 62
     4
 10
437.49998603620003
 20
-84.999995735533957
 30
0.0
 11
463.90186316730825
 21
-20.169903309609822
 31
0.0
  0
LINE
  8
NOTE
  6
CONTINUOUS
 62
     4
 10
463.90186316730808
 20
-20.16990330960979
 30
0.0
 11
559.00885902790969
 21
213.36634494184179
 31
0.0
  0
LINE
  8
NOTE
  6
CONTINUOUS
 62
     4
 10
559.00885902790969
 20
213.36634494184179
 30
0.0
 11
569.00885902790969
 21
213.36634494184179
 31
0.0
  0
ENDSEC
  0
EOF
