  0
SECTION
  2
HEADER
  9
$ACADVER
  1
AC1009
  9
$DWGCODEPAGE
  3
dos932
  9
$INSBASE
 10
0.0
 20
0.0
 30
0.0
  9
$EXTMIN
 10
-1285.235579911661
 20
-665.54259109024679
 30
-0.0000000349181948
  9
$EXTMAX
 10
1805.0399905012889
 20
892.73072126406441
 30
0.0000000814935746
  9
$LIMMIN
 10
-2970.0
 20
-2100.0
  9
$LIMMAX
 10
2970.0
 20
2100.0
  9
$ORTHOMODE
 70
     1
  9
$REGENMODE
 70
     1
  9
$FILLMODE
 70
     1
  9
$QTEXTMODE
 70
     0
  9
$MIRRTEXT
 70
     0
  9
$LTSCALE
 40
20.0
  9
$ATTMODE
 70
     1
  9
$TEXTSIZE
 40
64.0
  9
$TRACEWID
 40
0.05
  9
$TEXTSTYLE
  7
STANDARD
  9
$CLAYER
  8
SIZE
  9
$CELTYPE
  6
CONTINUOUS
  9
$CECOLOR
 62
     7
  9
$DIMSCALE
 40
1.0
  9
$DIMASZ
 40
12.0
  9
$DIMEXO
 40
20.0
  9
$DIMDLI
 40
200.0
  9
$DIMRND
 40
0.0
  9
$DIMDLE
 40
0.0
  9
$DIMEXE
 40
20.0
  9
$DIMTP
 40
0.0
  9
$DIMTM
 40
0.0
  9
$DIMTXT
 40
64.0
  9
$DIMCEN
 40
0.09
  9
$DIMTSZ
 40
0.0
  9
$DIMTOL
 70
     0
  9
$DIMLIM
 70
     0
  9
$DIMTIH
 70
     0
  9
$DIMTOH
 70
     0
  9
$DIMSE1
 70
     0
  9
$DIMSE2
 70
     0
  9
$DIMTAD
 70
     1
  9
$DIMZIN
 70
     8
  9
$DIMBLK
  1

  9
$DIMASO
 70
     1
  9
$DIMSHO
 70
     0
  9
$DIMPOST
  1

  9
$DIMAPOST
  1

  9
$DIMALT
 70
     0
  9
$DIMALTD
 70
     2
  9
$DIMALTF
 40
25.399999999999999
  9
$DIMLFAC
 40
1.0
  9
$DIMTOFL
 70
     1
  9
$DIMTVP
 40
0.0
  9
$DIMTIX
 70
     1
  9
$DIMSOXD
 70
     0
  9
$DIMSAH
 70
     0
  9
$DIMBLK1
  1

  9
$DIMBLK2
  1

  9
$DIMSTYLE
  2
STANDARD
  9
$DIMCLRD
 70
     7
  9
$DIMCLRE
 70
     7
  9
$DIMCLRT
 70
     7
  9
$DIMTFAC
 40
1.0
  9
$DIMGAP
 40
25.0
  9
$LUNITS
 70
     2
  9
$LUPREC
 70
     4
  9
$SKETCHINC
 40
0.1
  9
$FILLETRAD
 40
3.0
  9
$AUNITS
 70
     1
  9
$AUPREC
 70
     3
  9
$MENU
  1
ACAD
  9
$ELEVATION
 40
0.0
  9
$PELEVATION
 40
0.0
  9
$THICKNESS
 40
0.0
  9
$LIMCHECK
 70
     0
  9
$CHAMFERA
 40
0.0
  9
$CHAMFERB
 40
0.0
  9
$SKPOLY
 70
     0
  9
$TDCREATE
 40
2453019.62301037
  9
$TDUPDATE
 40
2460045.428578021
  9
$TDINDWG
 40
1.7129789468
  9
$TDUSRTIMER
 40
1.7129789468
  9
$USRTIMER
 70
     1
  9
$ANGBASE
 50
0.0
  9
$ANGDIR
 70
     0
  9
$PDMODE
 70
     3
  9
$PDSIZE
 40
-2.0
  9
$PLINEWID
 40
0.0
  9
$SPLFRAME
 70
     0
  9
$SPLINETYPE
 70
     6
  9
$SPLINESEGS
 70
     8
  9
$SURFTAB1
 70
     6
  9
$SURFTAB2
 70
     6
  9
$SURFTYPE
 70
     6
  9
$SURFU
 70
     6
  9
$SURFV
 70
     6
  9
$UCSNAME
  2

  9
$UCSORG
 10
0.0
 20
0.0
 30
0.0
  9
$UCSXDIR
 10
1.0
 20
0.0
 30
0.0
  9
$UCSYDIR
 10
0.0
 20
1.0
 30
0.0
  9
$PUCSNAME
  2

  9
$PUCSORG
 10
0.0
 20
0.0
 30
0.0
  9
$PUCSXDIR
 10
1.0
 20
0.0
 30
0.0
  9
$PUCSYDIR
 10
0.0
 20
1.0
 30
0.0
  9
$USERI1
 70
     0
  9
$USERI2
 70
     0
  9
$USERI3
 70
     0
  9
$USERI4
 70
     0
  9
$USERI5
 70
     0
  9
$USERR1
 40
20.0
  9
$USERR2
 40
0.0
  9
$USERR3
 40
0.0
  9
$USERR4
 40
0.0
  9
$USERR5
 40
0.0
  9
$WORLDVIEW
 70
     1
  9
$SHADEDGE
 70
     3
  9
$SHADEDIF
 70
    70
  9
$TILEMODE
 70
     1
  9
$MAXACTVP
 70
    48
  9
$PINSBASE
 10
0.0
 20
0.0
 30
0.0
  9
$PLIMCHECK
 70
     0
  9
$PEXTMIN
 10
-100000000000000000000.0
 20
-100000000000000000000.0
 30
-100000000000000000000.0
  9
$PEXTMAX
 10
100000000000000000000.0
 20
100000000000000000000.0
 30
100000000000000000000.0
  9
$PLIMMIN
 10
0.0
 20
0.0
  9
$PLIMMAX
 10
12.0
 20
9.0
  9
$UNITMODE
 70
     0
  9
$VISRETAIN
 70
     0
  9
$PLINEGEN
 70
     0
  9
$PSLTSCALE
 70
     0
  9
$TREEDEPTH
 70
  3020
  9
$ATTDIA
 70
     0
  9
$ATTREQ
 70
     1
  9
$BLIPMODE
 70
     1
  9
$COORDS
 70
     1
  9
$DRAGMODE
 70
     2
  9
$OSMODE
 70
     0
  9
$HANDLING
 70
     0
  9
$HANDSEED
  5
F08C
  0
ENDSEC
  0
SECTION
  2
TABLES
  0
TABLE
  2
LTYPE
 70
     2
  0
LTYPE
  2
CONTINUOUS
 70
     0
  3
実線
 72
    65
 73
     0
 40
0.0
  0
LTYPE
  2
DASHDOT
 70
     0
  3
____ _ ____ _ ____ _ ____ _ ____ _ ____ _ ____
 72
    65
 73
     4
 40
5.5
 49
4.0
 49
-0.6
 49
0.3
 49
-0.6
  0
ENDTAB
  0
TABLE
  2
LAYER
 70
    12
  0
LAYER
  2
0
 70
     0
 62
     7
  6
CONTINUOUS
  0
LAYER
  2
BASIS
 70
     0
 62
     6
  6
DASHDOT
  0
LAYER
  2
OUTLINE
 70
     0
 62
     3
  6
CONTINUOUS
  0
LAYER
  2
DETAIL
 70
     0
 62
     5
  6
CONTINUOUS
  0
LAYER
  2
SIZE
 70
     0
 62
    30
  6
CONTINUOUS
  0
LAYER
  2
ARRANGE
 70
     0
 62
     1
  6
CONTINUOUS
  0
LAYER
  2
DEFPOINTS
 70
     0
 62
     7
  6
CONTINUOUS
  0
LAYER
  2
ETC
 70
     0
 62
    61
  6
CONTINUOUS
  0
LAYER
  2
FIX
 70
     0
 62
    11
  6
CONTINUOUS
  0
LAYER
  2
NOTE
 70
     0
 62
     4
  6
CONTINUOUS
  0
LAYER
  2
SERVICESPACE
 70
    64
 62
     2
  6
DASHDOT
  0
LAYER
  2
SYMBOLLINE
 70
    64
 62
    15
  6
CONTINUOUS
  0
ENDTAB
  0
TABLE
  2
STYLE
 70
     1
  0
STYLE
  2
STANDARD
 70
     0
 40
64.0
 41
0.9
 50
0.0
 71
     0
 42
64.0
  3
SIMPLEX.shx
  4
BIGFONT.shx
  0
ENDTAB
  0
TABLE
  2
APPID
 70
    20
  0
APPID
  2
ACAD
 70
     0
  0
APPID
  2
AUTOCAD_POSTSCRIPT_FIGURE
 70
     0
  0
APPID
  2
ACAD_EXEMPT_FROM_CAD_STANDARDS
 70
     0
  0
APPID
  2
ACAD_PSEXT
 70
     0
  0
APPID
  2
ACAUTHENVIRON
 70
     0
  0
APPID
  2
GENIUS_GENOENT_13
 70
     0
  0
APPID
  2
GENIUS_GENCFG_13
 70
     0
  0
APPID
  2
GENIUS_GENCFG0_13
 70
     0
  0
APPID
  2
GENIUS_GENCFG1_13
 70
     0
  0
APPID
  2
GENIUS_GENCFG2_13
 70
     0
  0
APPID
  2
GENIUS_GENCFG3_13
 70
     0
  0
APPID
  2
GENIUS_GENCFG4_13
 70
     0
  0
APPID
  2
GENIUS_GEVCFG0_13
 70
     0
  0
APPID
  2
CONTENTBLOCKICON
 70
     0
  0
APPID
  2
CONTENTBLOCKDESCRIPTION
 70
     0
  0
APPID
  2
ACAD_NAV_VCDISPLAY
 70
     0
  0
APPID
  2
ACAD_MLEADERVER
 70
     0
  0
APPID
  2
ACDBDYNAMICBLOCKTRUENAME
 70
     0
  0
APPID
  2
ACDBDYNAMICBLOCKGUID
 70
     0
  0
APPID
  2
ACAD_DSTYLE_DIMRADIAL_EXTENSION
 70
     0
  0
ENDTAB
  0
TABLE
  2
DIMSTYLE
 70
     1
  0
DIMSTYLE
  2
STANDARD
 70
     0
  3

  4

  5
_ORIGIN
  6

  7

 40
1.0
 41
12.0
 42
20.0
 43
200.0
 44
20.0
 45
0.0
 46
0.0
 47
0.0
 48
0.0
140
64.0
141
0.09
142
0.0
143
25.399999999999999
144
1.0
145
0.0
146
1.0
147
25.0
 71
     0
 72
     0
 73
     0
 74
     0
 75
     0
 76
     0
 77
     1
 78
     8
170
     0
171
     2
172
     1
173
     0
174
     1
175
     0
176
     7
177
     7
178
     7
  0
ENDTAB
  0
TABLE
  2
VIEW
 70
     1
  0
VIEW
  2
ALL
 70
     0
 40
4282.6198079999986
 10
0.0
 20
41.309904000000003
 41
5940.0
 11
0.0
 21
0.0
 31
1.0
 12
0.0
 22
0.0
 32
0.0
 42
50.0
 43
0.0
 44
0.0
 50
0.0
 71
     0
  0
ENDTAB
  0
TABLE
  2
UCS
 70
     0
  0
ENDTAB
  0
TABLE
  2
VPORT
 70
     1
  0
VPORT
  2
*ACTIVE
 70
     0
 10
0.0
 20
0.0
 11
1.0
 21
1.0
 12
259.90220529481388
 22
113.5940650869088
 13
0.0
 23
0.0
 14
1.0
 24
1.0
 15
0.0
 25
0.0
 16
0.0
 26
0.0
 36
1.0
 17
0.0
 27
0.0
 37
0.0
 40
1741.4378812383791
 41
1.781285231116122
 42
50.0
 43
0.0
 44
0.0
 50
0.0
 51
0.0
 71
     0
 72
  1000
 73
     1
 74
     3
 75
     0
 76
     0
 77
     0
 78
     0
  0
ENDTAB
  0
ENDSEC
  0
SECTION
  2
BLOCKS
  0
BLOCK
  8
0
  2
_ORIGIN
 70
     0
 10
0.0
 20
0.0
 30
0.0
  3
_ORIGIN
  1
_ORIGIN
  0
CIRCLE
  8
0
  6
CONTINUOUS
 62
     7
 10
0.0
 20
0.0
 30
0.0
 40
0.5
  0
LINE
  8
0
  6
CONTINUOUS
 62
     7
 10
0.0
 20
0.0
 30
0.0
 11
-1.0
 21
0.0
 31
0.0
  0
ENDBLK
  8
0
  0
ENDSEC
  0
SECTION
  2
ENTITIES
  0
LINE
  8
DETAIL
  6
CONTINUOUS
 62
     5
 10
-586.90000000008877
 20
-88.100000000003092
 30
0.0
 11
-586.90000000008877
 21
-347.30000000004378
 31
0.0
  0
LINE
  8
DETAIL
  6
CONTINUOUS
 62
     5
 10
-586.30000000009022
 20
-346.50000000004093
 30
0.0
 11
-586.30000000008931
 21
-88.900000000006003
 31
0.0
  0
LINE
  8
DETAIL
  6
CONTINUOUS
 62
     5
 10
-586.30000000008931
 20
-88.100000000003092
 30
0.0
 11
-586.30000000008931
 21
-88.801866672006327
 31
0.0
  0
LINE
  8
DETAIL
  6
CONTINUOUS
 62
     5
 10
-586.30000000009022
 20
-346.59813333004882
 30
0.0
 11
-586.30000000009022
 21
-347.30000000004378
 31
0.0
  0
LINE
  8
DETAIL
  6
CONTINUOUS
 62
     5
 10
-585.70000000008349
 20
-86.899999999998727
 30
0.0
 11
-585.70000000008349
 21
-87.752055014007965
 31
0.0
  0
LINE
  8
DETAIL
  6
CONTINUOUS
 62
     5
 10
-585.70000000008349
 20
-347.64794498603902
 30
0.0
 11
-585.70000000008349
 21
-348.50000000004093
 31
0.0
  0
LINE
  8
DETAIL
  6
CONTINUOUS
 62
     5
 10
-540.70000000007985
 20
-128.65000000001601
 30
0.0
 11
-540.70000000007985
 21
-118.6500000000087
 31
0.0
  0
LINE
  8
DETAIL
  6
CONTINUOUS
 62
     5
 10
-539.53356527007782
 20
-128.65000000001601
 30
0.0
 11
-539.53356527007782
 21
-118.6500000000087
 31
0.0
  0
LINE
  8
DETAIL
  6
CONTINUOUS
 62
     5
 10
-536.40000000007694
 20
-118.6500000000087
 30
0.0
 11
-536.40000000007694
 21
-128.65000000001601
 31
0.0
  0
LINE
  8
DETAIL
  6
CONTINUOUS
 62
     5
 10
-534.70000000007894
 20
-119.85000000000581
 30
0.0
 11
-534.70000000007894
 21
-99.850568998008384
 31
0.0
  0
LINE
  8
DETAIL
  6
CONTINUOUS
 62
     5
 10
-534.70000000007894
 20
-128.65000000001601
 30
0.0
 11
-534.70000000007894
 21
-146.01807637001909
 31
0.0
  0
LINE
  8
DETAIL
  6
CONTINUOUS
 62
     5
 10
-526.70000000007076
 20
-119.85000000000581
 30
0.0
 11
-526.70000000007076
 21
-99.850568998008384
 31
0.0
  0
LINE
  8
DETAIL
  6
CONTINUOUS
 62
     5
 10
-526.70000000007076
 20
-128.65000000001601
 30
0.0
 11
-526.70000000007076
 21
-146.01550693200991
 31
0.0
  0
LINE
  8
DETAIL
  6
CONTINUOUS
 62
     5
 10
-525.00000000007367
 20
-118.6500000000087
 30
0.0
 11
-525.00000000007367
 21
-128.65000000001601
 31
0.0
  0
LINE
  8
DETAIL
  6
CONTINUOUS
 62
     5
 10
-521.83256777207134
 20
-128.65000000001601
 30
0.0
 11
-521.83256777207134
 21
-118.6500000000087
 31
0.0
  0
LINE
  8
DETAIL
  6
CONTINUOUS
 62
     5
 10
-520.50000000007731
 20
-63.200000000004373
 30
0.0
 11
-520.50000000007731
 21
-66.80000000000291
 31
0.0
  0
LINE
  8
DETAIL
  6
CONTINUOUS
 62
     5
 10
-520.50000000007731
 20
-76.400000000008731
 30
0.0
 11
-520.50000000007731
 21
-80.0
 31
0.0
  0
LINE
  8
DETAIL
  6
CONTINUOUS
 62
     5
 10
-520.70000000007713
 20
-118.6500000000087
 30
0.0
 11
-520.70000000007713
 21
-128.65000000001601
 31
0.0
  0
LINE
  8
DETAIL
  6
CONTINUOUS
 62
     5
 10
-517.30000000007203
 20
-63.200000000004373
 30
0.0
 11
-517.30000000007203
 21
-66.80000000000291
 31
0.0
  0
LINE
  8
DETAIL
  6
CONTINUOUS
 62
     5
 10
-517.30000000007203
 20
-76.400000000008731
 30
0.0
 11
-517.30000000007203
 21
-80.0
 31
0.0
  0
LINE
  8
DETAIL
  6
CONTINUOUS
 62
     5
 10
-515.80000000007567
 20
-357.15000000003778
 30
0.0
 11
-515.80000000007567
 21
-358.15000000003778
 31
0.0
  0
LINE
  8
DETAIL
  6
CONTINUOUS
 62
     5
 10
-508.80000000006658
 20
-356.15000000003778
 30
0.0
 11
-508.80000000006658
 21
-348.50000000004093
 31
0.0
  0
LINE
  8
DETAIL
  6
CONTINUOUS
 62
     5
 10
-508.39722442207682
 20
-73.200000000011642
 30
0.0
 11
-508.39722442207682
 21
-86.899999999998727
 31
0.0
  0
LINE
  8
DETAIL
  6
CONTINUOUS
 62
     5
 10
-507.80000000007391
 20
-356.15000000003778
 30
0.0
 11
-507.80000000007391
 21
-348.50000000004093
 31
0.0
  0
LINE
  8
DETAIL
  6
CONTINUOUS
 62
     5
 10
-506.80000000007391
 20
-361.35000000004948
 30
0.0
 11
-506.80000000007391
 21
-356.15000000003778
 31
0.0
  0
LINE
  8
DETAIL
  6
CONTINUOUS
 62
     5
 10
-506.1972244220724
 20
-73.200000000011642
 30
0.0
 11
-506.1972244220724
 21
-86.899999999998727
 31
0.0
  0
LINE
  8
DETAIL
  6
CONTINUOUS
 62
     5
 10
-505.20000000007531
 20
-356.49192597404908
 30
0.0
 11
-505.20000000007531
 21
-348.50000000004093
 31
0.0
  0
LINE
  8
DETAIL
  6
CONTINUOUS
 62
     5
 10
-505.2000000000744
 20
-86.899999999998727
 30
0.0
 11
-505.2000000000744
 21
-73.200000000011642
 31
0.0
  0
LINE
  8
DETAIL
  6
CONTINUOUS
 62
     5
 10
-505.2000000000744
 20
-70.0
 30
0.0
 11
-505.2000000000744
 21
-47.608074492003652
 31
0.0
  0
LINE
  8
DETAIL
  6
CONTINUOUS
 62
     5
 10
-497.2000000000744
 20
-86.899999999998727
 30
0.0
 11
-497.2000000000744
 21
-77.80000000000291
 31
0.0
  0
LINE
  8
DETAIL
  6
CONTINUOUS
 62
     5
 10
-497.2000000000744
 20
-59.750000000007283
 30
0.0
 11
-497.2000000000744
 21
-44.75
 31
0.0
  0
LINE
  8
DETAIL
  6
CONTINUOUS
 62
     5
 10
-528.2576078340735
 20
-150.92079685201321
 30
0.0
 11
-526.70000000007076
 21
-146.01550693200991
 31
0.0
  0
LINE
  8
DETAIL
  6
CONTINUOUS
 62
     5
 10
-491.40000000007058
 20
-44.75
 30
0.0
 11
-491.40000000007058
 21
-59.750000000007283
 31
0.0
  0
LINE
  8
DETAIL
  6
CONTINUOUS
 62
     5
 10
-491.10000000007398
 20
-86.899999999998727
 30
0.0
 11
-491.10000000007398
 21
-78.300000000010186
 31
0.0
  0
LINE
  8
DETAIL
  6
CONTINUOUS
 62
     5
 10
-488.70000000007258
 20
-75.80000000000291
 30
0.0
 11
-488.70000000007258
 21
-78.300000000010186
 31
0.0
  0
LINE
  8
DETAIL
  6
CONTINUOUS
 62
     5
 10
-483.80000000006288
 20
-70.0
 30
0.0
 11
-483.80000000006288
 21
-32.400000000001462
 31
0.0
  0
LINE
  8
DETAIL
  6
CONTINUOUS
 62
     5
 10
-480.30000000007021
 20
-32.400000000001462
 30
0.0
 11
-480.30000000007021
 21
-70.0
 31
0.0
  0
LINE
  8
DETAIL
  6
CONTINUOUS
 62
     5
 10
-479.60000000007312
 20
-399.20000000004802
 30
0.0
 11
-479.60000000007312
 21
-398.60000000004948
 31
0.0
  0
LINE
  8
DETAIL
  6
CONTINUOUS
 62
     5
 10
-479.60000000007312
 20
-4.8999999999869033
 30
0.0
 11
-479.60000000007312
 21
-5.5
 31
0.0
  0
LINE
  8
DETAIL
  6
CONTINUOUS
 62
     5
 10
-476.0000000000673
 20
-347.8956253240367
 30
0.0
 11
-476.0000000000673
 21
-347.30000000004378
 31
0.0
  0
LINE
  8
DETAIL
  6
CONTINUOUS
 62
     5
 10
-476.0000000000673
 20
-87.500000000004547
 30
0.0
 11
-476.0000000000673
 21
-86.899999999998727
 31
0.0
  0
LINE
  8
DETAIL
  6
CONTINUOUS
 62
     5
 10
-476.0000000000673
 20
-87.504374678003842
 30
0.0
 11
-476.0000000000673
 21
-88.100000000003092
 31
0.0
  0
LINE
  8
DETAIL
  6
CONTINUOUS
 62
     5
 10
-476.0000000000673
 20
-347.90000000004238
 30
0.0
 11
-476.0000000000673
 21
-348.50000000004093
 31
0.0
  0
LINE
  8
DETAIL
  6
CONTINUOUS
 62
     5
 10
-475.70000000006979
 20
-403.15000000005062
 30
0.0
 11
-475.70000000006979
 21
-402.65000000004329
 31
0.0
  0
LINE
  8
DETAIL
  6
CONTINUOUS
 62
     5
 10
-475.70000000006979
 20
-1.3499999999912691
 30
0.0
 11
-475.70000000006979
 21
-0.8499999999912689
 31
0.0
  0
LINE
  8
DETAIL
  6
CONTINUOUS
 62
     5
 10
-473.90000000006779
 20
-120.0000000000073
 30
0.0
 11
-473.90000000006779
 21
-76.400000000008731
 31
0.0
  0
LINE
  8
DETAIL
  6
CONTINUOUS
 62
     5
 10
-473.70000000007082
 20
-400.95000000005348
 30
0.0
 11
-473.70000000007082
 21
-347.30000000004378
 31
0.0
  0
LINE
  8
DETAIL
  6
CONTINUOUS
 62
     5
 10
-473.70000000007082
 20
-70.985376524004096
 30
0.0
 11
-473.70000000007082
 21
-3.049999999995634
 31
0.0
  0
LINE
  8
DETAIL
  6
CONTINUOUS
 62
     5
 10
-471.50000000007373
 20
-346.58360070203798
 30
0.0
 11
-471.50000000007373
 21
-347.30000000004378
 31
0.0
  0
LINE
  8
DETAIL
  6
CONTINUOUS
 62
     5
 10
-470.70000000007082
 20
-402.15000000005062
 30
0.0
 11
-470.70000000007082
 21
-1.8499999999912691
 31
0.0
  0
LINE
  8
DETAIL
  6
CONTINUOUS
 62
     5
 10
-470.20000000006979
 20
-402.15000000005062
 30
0.0
 11
-470.20000000006979
 21
-401.15000000005779
 31
0.0
  0
LINE
  8
DETAIL
  6
CONTINUOUS
 62
     5
 10
-470.20000000006979
 20
-1.8499999999912691
 30
0.0
 11
-470.20000000006979
 21
-2.8499999999912689
 31
0.0
  0
LINE
  8
DETAIL
  6
CONTINUOUS
 62
     5
 10
-468.70000000006979
 20
-403.15000000005062
 30
0.0
 11
-468.70000000006979
 21
-401.15000000005779
 31
0.0
  0
LINE
  8
DETAIL
  6
CONTINUOUS
 62
     5
 10
-468.70000000006979
 20
-0.8499999999912689
 30
0.0
 11
-468.70000000006979
 21
-2.8499999999912689
 31
0.0
  0
LINE
  8
DETAIL
  6
CONTINUOUS
 62
     5
 10
-467.80000000006839
 20
-0.8499999999912689
 30
0.0
 11
-467.80000000006839
 21
0.0
 31
0.0
  0
LINE
  8
DETAIL
  6
CONTINUOUS
 62
     5
 10
-467.80000000006839
 20
-403.15000000005062
 30
0.0
 11
-467.80000000006839
 21
-404.00000000005639
 31
0.0
  0
LINE
  8
DETAIL
  6
CONTINUOUS
 62
     5
 10
-470.13610918206632
 20
-1.5302754059885051
 30
0.0
 11
-470.02064824006902
 21
-2.8499999999912689
 31
0.0
  0
LINE
  8
DETAIL
  6
CONTINUOUS
 62
     5
 10
-469.33915342207268
 20
-1.460550811993016
 30
0.0
 11
-469.21759237007058
 21
-2.8499999999912689
 31
0.0
  0
LINE
  8
DETAIL
  6
CONTINUOUS
 62
     5
 10
-453.00000000006821
 20
-193.49898680802559
 30
0.0
 11
-453.00000000006821
 21
-290.60121319403243
 31
0.0
  0
LINE
  8
DETAIL
  6
CONTINUOUS
 62
     5
 10
-450.70000000006797
 20
-115.0000000000073
 30
0.0
 11
-450.70000000006797
 21
-108.5021363240012
 31
0.0
  0
LINE
  8
DETAIL
  6
CONTINUOUS
 62
     5
 10
-470.02064824006902
 20
-401.15000000005779
 30
0.0
 11
-470.13610918206717
 21
-402.46972459404611
 31
0.0
  0
LINE
  8
DETAIL
  6
CONTINUOUS
 62
     5
 10
-469.21759237007058
 20
-401.15000000005779
 30
0.0
 11
-469.33915342207371
 21
-402.5394491880561
 31
0.0
  0
LINE
  8
DETAIL
  6
CONTINUOUS
 62
     5
 10
475.95000000006621
 20
0.0
 30
0.0
 11
470.93306493806631
 21
0.0
 31
0.0
  0
LINE
  8
DETAIL
  6
CONTINUOUS
 62
     5
 10
-475.95000000007082
 20
0.0
 30
0.0
 11
-470.9330649400672
 21
0.0
 31
0.0
  0
LINE
  8
DETAIL
  6
CONTINUOUS
 62
     5
 10
-467.80000000006839
 20
0.0
 30
0.0
 11
467.8000000000693
 21
0.0
 31
0.0
  0
LINE
  8
DETAIL
  6
CONTINUOUS
 62
     5
 10
475.95000000006621
 20
-0.7999999999883585
 30
0.0
 11
470.93306493806631
 21
-0.7999999999883585
 31
0.0
  0
LINE
  8
DETAIL
  6
CONTINUOUS
 62
     5
 10
-475.95000000007082
 20
-0.7999999999883585
 30
0.0
 11
-470.9330649400672
 21
-0.7999999999883585
 31
0.0
  0
LINE
  8
DETAIL
  6
CONTINUOUS
 62
     5
 10
-468.70000000006979
 20
-0.8499999999912689
 30
0.0
 11
-463.41730091805772
 21
-0.8499999999912689
 31
0.0
  0
LINE
  8
DETAIL
  6
CONTINUOUS
 62
     5
 10
-475.70000000006979
 20
-0.8499999999912689
 30
0.0
 11
-471.20000000007082
 21
-0.8499999999912689
 31
0.0
  0
LINE
  8
DETAIL
  6
CONTINUOUS
 62
     5
 10
463.4173009180704
 20
-0.8499999999912689
 30
0.0
 11
468.70000000007258
 21
-0.8499999999912689
 31
0.0
  0
LINE
  8
DETAIL
  6
CONTINUOUS
 62
     5
 10
471.20000000007349
 20
-0.8499999999912689
 30
0.0
 11
475.70000000006621
 21
-0.8499999999912689
 31
0.0
  0
LINE
  8
DETAIL
  6
CONTINUOUS
 62
     5
 10
471.20000000007349
 20
-1.3499999999912691
 30
0.0
 11
475.92500000006748
 21
-1.3499999999912691
 31
0.0
  0
LINE
  8
DETAIL
  6
CONTINUOUS
 62
     5
 10
470.70000000006439
 20
-1.8499999999912691
 30
0.0
 11
471.20000000007349
 21
-1.8499999999912691
 31
0.0
  0
LINE
  8
DETAIL
  6
CONTINUOUS
 62
     5
 10
-470.70000000007082
 20
-2.8499999999912689
 30
0.0
 11
-468.70000000006979
 21
-2.8499999999912689
 31
0.0
  0
LINE
  8
DETAIL
  6
CONTINUOUS
 62
     5
 10
468.70000000007258
 20
-2.8499999999912689
 30
0.0
 11
470.70000000006439
 21
-2.8499999999912689
 31
0.0
  0
LINE
  8
DETAIL
  6
CONTINUOUS
 62
     5
 10
-473.70000000007082
 20
-3.049999999995634
 30
0.0
 11
-470.70000000007082
 21
-3.049999999995634
 31
0.0
  0
LINE
  8
DETAIL
  6
CONTINUOUS
 62
     5
 10
-474.90000000006881
 20
-4.2999999999956344
 30
0.0
 11
-484.10000000006681
 21
-4.2999999999956344
 31
0.0
  0
LINE
  8
DETAIL
  6
CONTINUOUS
 62
     5
 10
-474.90000000006881
 20
-4.8999999999869033
 30
0.0
 11
-484.10000000006681
 21
-4.8999999999869033
 31
0.0
  0
LINE
  8
DETAIL
  6
CONTINUOUS
 62
     5
 10
464.43000000007032
 20
-404.00000000004911
 30
0.0
 11
462.28000000006608
 21
-401.85000000004771
 31
0.0
  0
LINE
  8
DETAIL
  6
CONTINUOUS
 62
     5
 10
-239.00000000003089
 20
-193.49910116402589
 30
0.0
 11
-239.00000000003089
 21
-290.60109883603133
 31
0.0
  0
LINE
  8
DETAIL
  6
CONTINUOUS
 62
     5
 10
-484.70000000007258
 20
-398.60000000004948
 30
0.0
 11
-485.08091743207018
 21
-399.06357514004782
 31
0.0
  0
LINE
  8
DETAIL
  6
CONTINUOUS
 62
     5
 10
-484.70000000007258
 20
-5.5
 30
0.0
 11
-473.70000000007082
 21
-5.5
 31
0.0
  0
LINE
  8
DETAIL
  6
CONTINUOUS
 62
     5
 10
-464.43000000005122
 20
-404.00000000004911
 30
0.0
 11
-462.28000000005977
 21
-401.85000000004771
 31
0.0
  0
LINE
  8
DETAIL
  6
CONTINUOUS
 62
     5
 10
-517.30000000007203
 20
-63.200000000004373
 30
0.0
 11
-520.50000000007731
 21
-63.200000000004373
 31
0.0
  0
LINE
  8
DETAIL
  6
CONTINUOUS
 62
     5
 10
517.30000000007385
 20
-63.200000000004373
 30
0.0
 11
520.50000000007094
 21
-63.200000000004373
 31
0.0
  0
LINE
  8
DETAIL
  6
CONTINUOUS
 62
     5
 10
-505.2000000000744
 20
-69.200000000004366
 30
0.0
 11
-505.52593763807641
 21
-69.200000000004366
 31
0.0
  0
LINE
  8
DETAIL
  6
CONTINUOUS
 62
     5
 10
514.10000000007039
 20
-70.0
 30
0.0
 11
477.10000000006858
 21
-70.0
 31
0.0
  0
LINE
  8
DETAIL
  6
CONTINUOUS
 62
     5
 10
-514.10000000007494
 20
-70.0
 30
0.0
 11
-477.10000000007221
 21
-70.0
 31
0.0
  0
LINE
  8
DETAIL
  6
CONTINUOUS
 62
     5
 10
514.10000000007039
 20
-73.200000000011642
 30
0.0
 11
477.10000000006858
 21
-73.200000000011642
 31
0.0
  0
LINE
  8
DETAIL
  6
CONTINUOUS
 62
     5
 10
-514.10000000007494
 20
-73.200000000011642
 30
0.0
 11
-477.10000000007221
 21
-73.200000000011642
 31
0.0
  0
LINE
  8
DETAIL
  6
CONTINUOUS
 62
     5
 10
-492.70000000007349
 20
-75.80000000000291
 30
0.0
 11
-488.70000000007258
 21
-75.80000000000291
 31
0.0
  0
LINE
  8
DETAIL
  6
CONTINUOUS
 62
     5
 10
-497.2000000000744
 20
-77.80000000000291
 30
0.0
 11
-494.70000000007349
 21
-77.80000000000291
 31
0.0
  0
LINE
  8
DETAIL
  6
CONTINUOUS
 62
     5
 10
-473.90000000006779
 20
-78.300000000010186
 30
0.0
 11
-491.09998262406953
 21
-78.300000000010186
 31
0.0
  0
LINE
  8
DETAIL
  6
CONTINUOUS
 62
     5
 10
-517.30000000007203
 20
-80.0
 30
0.0
 11
-520.50000000007731
 21
-80.0
 31
0.0
  0
LINE
  8
DETAIL
  6
CONTINUOUS
 62
     5
 10
517.30000000007385
 20
-80.0
 30
0.0
 11
520.50000000007094
 21
-80.0
 31
0.0
  0
LINE
  8
DETAIL
  6
CONTINUOUS
 62
     5
 10
-150.9000000000224
 20
-404.00000000005639
 30
0.0
 11
-150.9000000000224
 21
-404.2000000000462
 31
0.0
  0
LINE
  8
DETAIL
  6
CONTINUOUS
 62
     5
 10
-147.9000000000224
 20
-404.00000000005639
 30
0.0
 11
-147.9000000000224
 21
-404.2000000000462
 31
0.0
  0
LINE
  8
DETAIL
  6
CONTINUOUS
 62
     5
 10
-585.70000000008349
 20
-86.899999999998727
 30
0.0
 11
-476.0000000000673
 21
-86.899999999998727
 31
0.0
  0
LINE
  8
DETAIL
  6
CONTINUOUS
 62
     5
 10
-476.0000000000673
 20
-87.500000000004547
 30
0.0
 11
-584.90000000008058
 21
-87.500000000004547
 31
0.0
  0
LINE
  8
DETAIL
  6
CONTINUOUS
 62
     5
 10
-584.99813333008115
 20
-87.500000000004547
 30
0.0
 11
-585.70000000008349
 21
-87.500000000004547
 31
0.0
  0
LINE
  8
DETAIL
  6
CONTINUOUS
 62
     5
 10
-473.90000000006779
 20
-88.100000000003092
 30
0.0
 11
-476.0000000000673
 21
-88.100000000003092
 31
0.0
  0
LINE
  8
DETAIL
  6
CONTINUOUS
 62
     5
 10
-586.90000000008877
 20
-88.100000000003092
 30
0.0
 11
-586.047943058089
 21
-88.100000000003092
 31
0.0
  0
LINE
  8
DETAIL
  6
CONTINUOUS
 62
     5
 10
-468.08087488806632
 20
-99.000000000014552
 30
0.0
 11
-468.61355287206328
 21
-99.000000000014552
 31
0.0
  0
LINE
  8
DETAIL
  6
CONTINUOUS
 62
     5
 10
468.08087488806899
 20
-99.000000000014552
 30
0.0
 11
468.61355287206521
 21
-99.000000000014552
 31
0.0
  0
LINE
  8
DETAIL
  6
CONTINUOUS
 62
     5
 10
-526.70000000007076
 20
-99.850000000005821
 30
0.0
 11
-534.70000000007894
 21
-99.850000000005821
 31
0.0
  0
LINE
  8
DETAIL
  6
CONTINUOUS
 62
     5
 10
-540.70000000007985
 20
-118.6500000000087
 30
0.0
 11
-534.70000000007894
 21
-118.6500000000087
 31
0.0
  0
LINE
  8
DETAIL
  6
CONTINUOUS
 62
     5
 10
-526.70000000007076
 20
-118.6500000000087
 30
0.0
 11
-520.70000000007713
 21
-118.6500000000087
 31
0.0
  0
LINE
  8
DETAIL
  6
CONTINUOUS
 62
     5
 10
-526.70000000007076
 20
-119.85000000000581
 30
0.0
 11
-534.70000000007894
 21
-119.85000000000581
 31
0.0
  0
LINE
  8
DETAIL
  6
CONTINUOUS
 62
     5
 10
-473.90000000006779
 20
-120.0000000000073
 30
0.0
 11
-455.69999996726978
 21
-120.0000000345681
 31
0.0
  0
LINE
  8
DETAIL
  6
CONTINUOUS
 62
     5
 10
455.70000000026812
 20
-119.9999999995707
 30
0.0
 11
473.90000000006239
 21
-120.0000000000073
 31
0.0
  0
LINE
  8
DETAIL
  6
CONTINUOUS
 62
     5
 10
-540.70000000007985
 20
-128.65000000001601
 30
0.0
 11
-520.70000000007713
 21
-128.65000000001601
 31
0.0
  0
LINE
  8
DETAIL
  6
CONTINUOUS
 62
     5
 10
-530.16381456807903
 20
-152.3155069320201
 30
0.0
 11
-531.23711192007795
 21
-152.3155069320201
 31
0.0
  0
LINE
  8
BASIS
  6
DASHDOT
 62
     6
 10
-508.83497718603212
 20
-202.05000000001749
 30
0.0
 11
512.49885115514371
 21
-202.05000000001749
 31
0.0
  0
LINE
  8
BASIS
  6
DASHDOT
 62
     6
 10
-0.0000000000027285
 20
40.288394209594117
 30
0.0
 11
-0.000000000003638
 21
-445.69739163768833
 31
0.0
  0
LINE
  8
DETAIL
  6
CONTINUOUS
 62
     5
 10
-453.99128468406622
 20
-103.8031692060031
 30
0.0
 11
-466.37215957406352
 21
-99.301032884010056
 31
0.0
  0
LINE
  8
DETAIL
  6
CONTINUOUS
 62
     5
 10
453.99128468406712
 20
-103.8031692060031
 30
0.0
 11
466.37215957206632
 21
-99.301032884010056
 31
0.0
  0
LINE
  8
DETAIL
  6
CONTINUOUS
 62
     5
 10
-586.90000000008877
 20
-347.30000000004378
 30
0.0
 11
-586.047943058089
 21
-347.30000000004378
 31
0.0
  0
LINE
  8
DETAIL
  6
CONTINUOUS
 62
     5
 10
-476.0000000000673
 20
-347.30000000004378
 30
0.0
 11
-471.50000000007373
 21
-347.30000000004378
 31
0.0
  0
LINE
  8
DETAIL
  6
CONTINUOUS
 62
     5
 10
-585.70000000008349
 20
-347.90000000004238
 30
0.0
 11
-584.99813333008115
 21
-347.90000000004238
 31
0.0
  0
LINE
  8
DETAIL
  6
CONTINUOUS
 62
     5
 10
-584.90000000008149
 20
-347.90000000004238
 30
0.0
 11
-476.0000000000673
 21
-347.90000000004238
 31
0.0
  0
LINE
  8
DETAIL
  6
CONTINUOUS
 62
     5
 10
-585.70000000008349
 20
-348.50000000004093
 30
0.0
 11
-476.0000000000673
 21
-348.50000000004093
 31
0.0
  0
LINE
  8
DETAIL
  6
CONTINUOUS
 62
     5
 10
-507.80000000007391
 20
-356.15000000003778
 30
0.0
 11
-506.80000000007391
 21
-356.15000000003778
 31
0.0
  0
LINE
  8
DETAIL
  6
CONTINUOUS
 62
     5
 10
-515.80000000007567
 20
-357.15000000003778
 30
0.0
 11
-509.80000000007391
 21
-357.15000000003778
 31
0.0
  0
LINE
  8
DETAIL
  6
CONTINUOUS
 62
     5
 10
-509.80000000007391
 20
-358.15000000003778
 30
0.0
 11
-515.80000000007567
 21
-358.15000000003778
 31
0.0
  0
LINE
  8
DETAIL
  6
CONTINUOUS
 62
     5
 10
-484.70000000007258
 20
-398.60000000004948
 30
0.0
 11
-473.70000000007082
 21
-398.60000000004948
 31
0.0
  0
LINE
  8
DETAIL
  6
CONTINUOUS
 62
     5
 10
-484.10000000006681
 20
-399.20000000004802
 30
0.0
 11
-474.90000000006881
 21
-399.20000000004802
 31
0.0
  0
LINE
  8
DETAIL
  6
CONTINUOUS
 62
     5
 10
-484.10000000006681
 20
-399.80000000005379
 30
0.0
 11
-474.90000000006881
 21
-399.80000000005379
 31
0.0
  0
LINE
  8
DETAIL
  6
CONTINUOUS
 62
     5
 10
-473.70000000007082
 20
-400.95000000005348
 30
0.0
 11
-470.70000000007082
 21
-400.95000000005348
 31
0.0
  0
LINE
  8
DETAIL
  6
CONTINUOUS
 62
     5
 10
-470.70000000007082
 20
-401.15000000005779
 30
0.0
 11
-468.70000000006979
 21
-401.15000000005779
 31
0.0
  0
LINE
  8
DETAIL
  6
CONTINUOUS
 62
     5
 10
468.70000000007258
 20
-401.15000000005779
 30
0.0
 11
470.70000000006439
 21
-401.15000000005779
 31
0.0
  0
LINE
  8
DETAIL
  6
CONTINUOUS
 62
     5
 10
470.70000000006439
 20
-402.15000000005062
 30
0.0
 11
471.20000000007349
 21
-402.15000000005062
 31
0.0
  0
LINE
  8
DETAIL
  6
CONTINUOUS
 62
     5
 10
471.20000000007349
 20
-402.65000000004329
 30
0.0
 11
475.92500000006748
 21
-402.65000000004329
 31
0.0
  0
LINE
  8
DETAIL
  6
CONTINUOUS
 62
     5
 10
-471.20000000007082
 20
-403.15000000005062
 30
0.0
 11
-475.70000000006979
 21
-403.15000000005062
 31
0.0
  0
LINE
  8
DETAIL
  6
CONTINUOUS
 62
     5
 10
-468.70000000006979
 20
-403.15000000005062
 30
0.0
 11
-463.58000000006001
 21
-403.15000000006512
 31
0.0
  0
LINE
  8
DETAIL
  6
CONTINUOUS
 62
     5
 10
463.58000000007809
 20
-403.15000000005062
 30
0.0
 11
468.70000000007258
 21
-403.15000000005062
 31
0.0
  0
LINE
  8
DETAIL
  6
CONTINUOUS
 62
     5
 10
471.20000000007349
 20
-403.15000000005062
 30
0.0
 11
475.70000000006621
 21
-403.15000000005062
 31
0.0
  0
LINE
  8
DETAIL
  6
CONTINUOUS
 62
     5
 10
475.95000000006621
 20
-403.2000000000462
 30
0.0
 11
470.93306493806631
 21
-403.2000000000462
 31
0.0
  0
LINE
  8
DETAIL
  6
CONTINUOUS
 62
     5
 10
-475.95000000007082
 20
-403.2000000000462
 30
0.0
 11
-470.9330649400672
 21
-403.2000000000462
 31
0.0
  0
LINE
  8
DETAIL
  6
CONTINUOUS
 62
     5
 10
475.95000000006621
 20
-404.00000000005639
 30
0.0
 11
470.93306493806631
 21
-404.00000000005639
 31
0.0
  0
LINE
  8
DETAIL
  6
CONTINUOUS
 62
     5
 10
-475.95000000007082
 20
-404.00000000005639
 30
0.0
 11
-470.9330649400672
 21
-404.00000000005639
 31
0.0
  0
LINE
  8
DETAIL
  6
CONTINUOUS
 62
     5
 10
-467.80000000006839
 20
-404.00000000005639
 30
0.0
 11
467.8000000000693
 21
-404.00000000005639
 31
0.0
  0
LINE
  8
DETAIL
  6
CONTINUOUS
 62
     5
 10
-147.9053018640243
 20
-404.2000000000462
 30
0.0
 11
-150.89469813601951
 21
-404.2000000000462
 31
0.0
  0
LINE
  8
DETAIL
  6
CONTINUOUS
 62
     5
 10
-464.26730091806348
 20
0.0
 30
0.0
 11
-462.11730091806658
 21
-2.1499999999941788
 31
0.0
  0
LINE
  8
DETAIL
  6
CONTINUOUS
 62
     5
 10
464.26730091806888
 20
0.0
 30
0.0
 11
462.11730091806112
 21
-2.1499999999941788
 31
0.0
  0
LINE
  8
DETAIL
  6
CONTINUOUS
 62
     5
 10
-484.70000000007258
 20
-5.5
 30
0.0
 11
-485.08091743207018
 21
-5.0364248600017163
 31
0.0
  0
LINE
  8
DETAIL
  6
CONTINUOUS
 62
     5
 10
-534.70000000007894
 20
-146.01807637001909
 30
0.0
 11
-533.14333105607693
 21
-150.9207577900161
 31
0.0
  0
LINE
  8
DETAIL
  6
CONTINUOUS
 62
     5
 10
469.33915342206728
 20
-402.5394491880561
 30
0.0
 11
469.21759237006609
 21
-401.15000000005779
 31
0.0
  0
LINE
  8
DETAIL
  6
CONTINUOUS
 62
     5
 10
470.13610918006731
 20
-402.46972459404611
 30
0.0
 11
470.02064824006987
 21
-401.15000000005779
 31
0.0
  0
LINE
  8
DETAIL
  6
CONTINUOUS
 62
     5
 10
450.70000000006172
 20
-115.0000000000073
 30
0.0
 11
450.70000000006172
 21
-108.5021363240012
 31
0.0
  0
LINE
  8
DETAIL
  6
CONTINUOUS
 62
     5
 10
467.8000000000693
 20
-0.8499999999912689
 30
0.0
 11
467.8000000000693
 21
0.0
 31
0.0
  0
LINE
  8
DETAIL
  6
CONTINUOUS
 62
     5
 10
467.8000000000693
 20
-403.15000000005062
 30
0.0
 11
467.8000000000693
 21
-404.00000000005639
 31
0.0
  0
LINE
  8
DETAIL
  6
CONTINUOUS
 62
     5
 10
468.70000000007258
 20
-403.15000000005062
 30
0.0
 11
468.70000000007258
 21
-401.15000000005779
 31
0.0
  0
LINE
  8
DETAIL
  6
CONTINUOUS
 62
     5
 10
468.70000000007258
 20
-2.8499999999912689
 30
0.0
 11
468.70000000007258
 21
-0.8499999999912689
 31
0.0
  0
LINE
  8
DETAIL
  6
CONTINUOUS
 62
     5
 10
470.20000000006621
 20
-402.15000000005062
 30
0.0
 11
470.20000000006621
 21
-401.15000000005779
 31
0.0
  0
LINE
  8
DETAIL
  6
CONTINUOUS
 62
     5
 10
470.20000000006621
 20
-1.8499999999912691
 30
0.0
 11
470.20000000006621
 21
-2.8499999999912689
 31
0.0
  0
LINE
  8
DETAIL
  6
CONTINUOUS
 62
     5
 10
470.70000000006439
 20
-1.8499999999912691
 30
0.0
 11
470.70000000006439
 21
-402.15000000005062
 31
0.0
  0
LINE
  8
DETAIL
  6
CONTINUOUS
 62
     5
 10
471.20000000007349
 20
-402.15000000005062
 30
0.0
 11
471.20000000007349
 21
-120.0000000000073
 31
0.0
  0
LINE
  8
DETAIL
  6
CONTINUOUS
 62
     5
 10
471.20000000007349
 20
-73.923726160006481
 30
0.0
 11
471.20000000007349
 21
-1.8499999999912691
 31
0.0
  0
LINE
  8
DETAIL
  6
CONTINUOUS
 62
     5
 10
473.90000000006239
 20
-120.0000000000073
 30
0.0
 11
473.90000000006239
 21
-76.400000000008731
 31
0.0
  0
LINE
  8
DETAIL
  6
CONTINUOUS
 62
     5
 10
469.21759237006609
 20
-2.8499999999912689
 30
0.0
 11
469.33915342206728
 21
-1.460550811993016
 31
0.0
  0
LINE
  8
DETAIL
  6
CONTINUOUS
 62
     5
 10
470.02064824006987
 20
-2.8499999999912689
 30
0.0
 11
470.13610918006731
 21
-1.5302754059885051
 31
0.0
  0
LINE
  8
DETAIL
  6
CONTINUOUS
 62
     5
 10
475.70000000006621
 20
-0.8499999999912689
 30
0.0
 11
475.70000000006621
 21
-1.3499999999912691
 31
0.0
  0
LINE
  8
DETAIL
  6
CONTINUOUS
 62
     5
 10
475.70000000006621
 20
-402.65000000004329
 30
0.0
 11
475.70000000006621
 21
-403.15000000005062
 31
0.0
  0
LINE
  8
DETAIL
  6
CONTINUOUS
 62
     5
 10
517.30000000007385
 20
-63.200000000004373
 30
0.0
 11
517.30000000007385
 21
-66.80000000000291
 31
0.0
  0
LINE
  8
DETAIL
  6
CONTINUOUS
 62
     5
 10
517.30000000007385
 20
-76.400000000008731
 30
0.0
 11
517.30000000007385
 21
-80.0
 31
0.0
  0
LINE
  8
DETAIL
  6
CONTINUOUS
 62
     5
 10
520.50000000007094
 20
-63.200000000004373
 30
0.0
 11
520.50000000007094
 21
-66.80000000000291
 31
0.0
  0
LINE
  8
DETAIL
  6
CONTINUOUS
 62
     5
 10
520.50000000007094
 20
-76.400000000008731
 30
0.0
 11
520.50000000007094
 21
-80.0
 31
0.0
  0
ARC
  8
DETAIL
  6
CONTINUOUS
 62
     5
 10
-514.10000000007494
 20
-66.80000000000291
 30
0.0
 40
6.4000000000009249
 50
180.0
 51
228.6564551521264
  0
ARC
  8
DETAIL
  6
CONTINUOUS
 62
     5
 10
-514.10000000007494
 20
-76.400000000008731
 30
0.0
 40
6.4000000000009249
 50
90.0
 51
180.0
  0
ARC
  8
DETAIL
  6
CONTINUOUS
 62
     5
 10
-514.10000000007494
 20
-76.400000000008731
 30
0.0
 40
3.200000000000462
 50
90.0
 51
180.0
  0
ARC
  8
DETAIL
  6
CONTINUOUS
 62
     5
 10
-514.10000000007494
 20
-66.80000000000291
 30
0.0
 40
3.200000000000462
 50
180.0
 51
270.0
  0
ARC
  8
DETAIL
  6
CONTINUOUS
 62
     5
 10
-584.90000000008058
 20
-88.900000000006003
 30
0.0
 40
1.4000000000002031
 50
90.0
 51
180.0
  0
ARC
  8
DETAIL
  6
CONTINUOUS
 62
     5
 10
-450.10000000006221
 20
-47.608075235999422
 30
0.0
 40
55.100000000007931
 50
129.40977859101051
 51
179.99999922621549
  0
ARC
  8
DETAIL
  6
CONTINUOUS
 62
     5
 10
-477.10000000007221
 20
-76.400000000008731
 30
0.0
 40
6.4000000000009249
 50
0.0
 51
90.0
  0
ARC
  8
DETAIL
  6
CONTINUOUS
 62
     5
 10
-477.10000000007221
 20
-76.400000000008731
 30
0.0
 40
3.200000000000462
 50
0.0
 51
90.0
  0
ARC
  8
DETAIL
  6
CONTINUOUS
 62
     5
 10
-494.30000000007198
 20
-59.750000000007283
 30
0.0
 40
2.9000000000004178
 50
180.0
 51
0.0
  0
ARC
  8
DETAIL
  6
CONTINUOUS
 62
     5
 10
-494.30000000007198
 20
-44.75
 30
0.0
 40
2.9000000000004178
 50
0.0
 51
180.0
  0
ARC
  8
DETAIL
  6
CONTINUOUS
 62
     5
 10
-482.05000000007112
 20
-71.850000000005821
 30
0.0
 40
1.7500000000002529
 50
230.5322423024933
 51
309.46775769750673
  0
ARC
  8
DETAIL
  6
CONTINUOUS
 62
     5
 10
-482.05000000007112
 20
-32.400000000001462
 30
0.0
 40
1.7500000000002529
 50
0.0
 51
180.0
  0
ARC
  8
DETAIL
  6
CONTINUOUS
 62
     5
 10
-470.9330649400672
 20
-1.599999999998545
 30
0.0
 40
1.6000000000002319
 50
4.9999999999735039
 51
90.0
  0
ARC
  8
DETAIL
  6
CONTINUOUS
 62
     5
 10
-474.90000000006881
 20
-5.5
 30
0.0
 40
1.200000000000174
 50
0.0
 51
90.0
  0
ARC
  8
DETAIL
  6
CONTINUOUS
 62
     5
 10
-471.20000000007082
 20
-1.8499999999912691
 30
0.0
 40
1.0000000000001441
 50
0.0
 51
90.0
  0
ARC
  8
DETAIL
  6
CONTINUOUS
 62
     5
 10
-494.70000000007349
 20
-76.800000000010186
 30
0.0
 40
1.0000000000001441
 50
270.0
 51
0.0
  0
ARC
  8
DETAIL
  6
CONTINUOUS
 62
     5
 10
-492.70000000007349
 20
-76.800000000010186
 30
0.0
 40
1.0000000000001441
 50
90.0
 51
180.0
  0
ARC
  8
DETAIL
  6
CONTINUOUS
 62
     5
 10
-470.9330649400672
 20
-1.599999999998545
 30
0.0
 40
0.8000000000001152
 50
4.9999999999735039
 51
90.0
  0
ARC
  8
DETAIL
  6
CONTINUOUS
 62
     5
 10
-474.90000000006881
 20
-5.5
 30
0.0
 40
0.6000000000000859
 50
0.0
 51
90.0
  0
ARC
  8
DETAIL
  6
CONTINUOUS
 62
     5
 10
-484.10000000006681
 20
-4.8999999999869033
 30
0.0
 40
0.6000000000000859
 50
90.0
 51
270.0
  0
ARC
  8
DETAIL
  6
CONTINUOUS
 62
     5
 10
-471.20000000007082
 20
-1.8499999999912691
 30
0.0
 40
0.5000000000000722
 50
0.0
 51
90.0
  0
CIRCLE
  8
DETAIL
  6
CONTINUOUS
 62
     5
 10
-566.90000000008149
 20
-135.80000000001749
 30
0.0
 40
13.000000000001879
  0
CIRCLE
  8
DETAIL
  6
CONTINUOUS
 62
     5
 10
-566.90000000008149
 20
-108.8000000000029
 30
0.0
 40
13.000000000001879
  0
CIRCLE
  8
DETAIL
  6
CONTINUOUS
 62
     5
 10
-530.70000000007894
 20
-145.3155069320128
 30
0.0
 40
2.700000000000391
  0
ARC
  8
DETAIL
  6
CONTINUOUS
 62
     5
 10
-531.23711192007795
 20
-150.3155069320128
 30
0.0
 40
2.0000000000002891
 50
197.6153608890952
 51
270.0
  0
ARC
  8
DETAIL
  6
CONTINUOUS
 62
     5
 10
-530.16381456807903
 20
-150.3155069320128
 30
0.0
 40
2.0000000000002891
 50
270.0
 51
342.38346499349279
  0
CIRCLE
  8
DETAIL
  6
CONTINUOUS
 62
     5
 10
-459.70000000006979
 20
-111.00000000001459
 30
0.0
 40
7.0000000000010107
  0
ARC
  8
DETAIL
  6
CONTINUOUS
 62
     5
 10
-455.70000000006888
 20
-108.5021363240012
 30
0.0
 40
5.0000000000007221
 50
0.0
 51
70.01689347813452
  0
ARC
  8
DETAIL
  6
CONTINUOUS
 62
     5
 10
-468.08087488806632
 20
-104.0000000000073
 30
0.0
 40
5.0000000000007221
 50
70.01689347813452
 51
90.0
  0
CIRCLE
  8
DETAIL
  6
CONTINUOUS
 62
     5
 10
-445.20000000006712
 20
-99.000000000014552
 30
0.0
 40
4.700000000000677
  0
CIRCLE
  8
DETAIL
  6
CONTINUOUS
 62
     5
 10
-560.90000000008058
 20
-306.5000000000291
 30
0.0
 40
13.000000000001879
  0
ARC
  8
DETAIL
  6
CONTINUOUS
 62
     5
 10
-509.80000000007391
 20
-356.15000000003778
 30
0.0
 40
2.0000000000002891
 50
270.0
 51
0.0
  0
ARC
  8
DETAIL
  6
CONTINUOUS
 62
     5
 10
-584.90000000008149
 20
-346.50000000004093
 30
0.0
 40
1.4000000000002031
 50
180.0
 51
270.0
  0
ARC
  8
DETAIL
  6
CONTINUOUS
 62
     5
 10
-509.80000000007391
 20
-356.15000000003778
 30
0.0
 40
1.0000000000001441
 50
270.0
 51
0.0
  0
ARC
  8
DETAIL
  6
CONTINUOUS
 62
     5
 10
-450.10000000006221
 20
-356.49192476604372
 30
0.0
 40
55.100000000007931
 50
180.00000125580391
 51
230.59022140898949
  0
ARC
  8
DETAIL
  6
CONTINUOUS
 62
     5
 10
-503.80000000006658
 20
-361.35000000004948
 30
0.0
 40
3.000000000000433
 50
180.0
 51
253.501433112315
  0
ARC
  8
DETAIL
  6
CONTINUOUS
 62
     5
 10
-470.9330649400672
 20
-402.40000000005779
 30
0.0
 40
1.6000000000002319
 50
270.0
 51
355.00000000002649
  0
ARC
  8
DETAIL
  6
CONTINUOUS
 62
     5
 10
-474.90000000006881
 20
-398.60000000004948
 30
0.0
 40
1.200000000000174
 50
270.0
 51
0.0
  0
ARC
  8
DETAIL
  6
CONTINUOUS
 62
     5
 10
-471.20000000007082
 20
-402.15000000005062
 30
0.0
 40
1.0000000000001441
 50
270.00000000010431
 51
0.0
  0
ARC
  8
DETAIL
  6
CONTINUOUS
 62
     5
 10
-470.9330649400672
 20
-402.40000000005779
 30
0.0
 40
0.8000000000001152
 50
270.0
 51
355.00000000002649
  0
ARC
  8
DETAIL
  6
CONTINUOUS
 62
     5
 10
-474.90000000006881
 20
-398.60000000004948
 30
0.0
 40
0.6000000000000859
 50
270.0
 51
0.0
  0
ARC
  8
DETAIL
  6
CONTINUOUS
 62
     5
 10
-484.10000000006681
 20
-399.20000000004802
 30
0.0
 40
0.6000000000000859
 50
90.0
 51
270.0
  0
ARC
  8
DETAIL
  6
CONTINUOUS
 62
     5
 10
-471.20000000007082
 20
-402.15000000005062
 30
0.0
 40
0.5000000000000722
 50
270.0
 51
0.0
  0
ARC
  8
DETAIL
  6
CONTINUOUS
 62
     5
 10
-345.99999999805192
 20
-242.05015135203121
 30
0.0
 40
117.499944326017
 50
24.406082693662949
 51
155.59386652840789
  0
ARC
  8
DETAIL
  6
CONTINUOUS
 62
     5
 10
-345.99999999805192
 20
-242.05004865001959
 30
0.0
 40
117.499944326017
 50
204.40613347159211
 51
335.59391730633712
  0
CIRCLE
  8
DETAIL
  6
CONTINUOUS
 62
     5
 10
-346.00000000005281
 20
-242.05010000002491
 30
0.0
 40
104.00000000001501
  0
CIRCLE
  8
DETAIL
  6
CONTINUOUS
 62
     5
 10
-346.00000000005281
 20
-242.05010000002491
 30
0.0
 40
96.000000000013841
  0
ARC
  8
DETAIL
  6
CONTINUOUS
 62
     5
 10
477.10000000006858
 20
-76.400000000008731
 30
0.0
 40
6.4000000000009249
 50
90.0
 51
180.0
  0
ARC
  8
DETAIL
  6
CONTINUOUS
 62
     5
 10
477.10000000006858
 20
-76.400000000008731
 30
0.0
 40
3.200000000000462
 50
90.0
 51
180.0
  0
ARC
  8
DETAIL
  6
CONTINUOUS
 62
     5
 10
470.93306493806631
 20
-1.599999999998545
 30
0.0
 40
1.6000000000002319
 50
90.0
 51
175.00000000002649
  0
ARC
  8
DETAIL
  6
CONTINUOUS
 62
     5
 10
471.20000000007349
 20
-1.8499999999912691
 30
0.0
 40
1.0000000000001441
 50
90.0
 51
180.0
  0
ARC
  8
DETAIL
  6
CONTINUOUS
 62
     5
 10
470.93306493806631
 20
-1.599999999998545
 30
0.0
 40
0.8000000000001152
 50
90.0
 51
175.00000000002649
  0
ARC
  8
DETAIL
  6
CONTINUOUS
 62
     5
 10
471.20000000007349
 20
-1.8499999999912691
 30
0.0
 40
0.5000000000000722
 50
90.0
 51
180.0
  0
ARC
  8
DETAIL
  6
CONTINUOUS
 62
     5
 10
514.10000000007039
 20
-66.80000000000291
 30
0.0
 40
6.4000000000009249
 50
311.34354484787372
 51
0.0
  0
ARC
  8
DETAIL
  6
CONTINUOUS
 62
     5
 10
514.10000000007039
 20
-76.400000000008731
 30
0.0
 40
6.4000000000009249
 50
0.0
 51
90.0
  0
ARC
  8
DETAIL
  6
CONTINUOUS
 62
     5
 10
514.10000000007039
 20
-76.400000000008731
 30
0.0
 40
3.200000000000462
 50
0.0
 51
90.0
  0
ARC
  8
DETAIL
  6
CONTINUOUS
 62
     5
 10
514.10000000007039
 20
-66.80000000000291
 30
0.0
 40
3.200000000000462
 50
270.0
 51
0.0
  0
CIRCLE
  8
DETAIL
  6
CONTINUOUS
 62
     5
 10
459.70000000006348
 20
-111.00000000001459
 30
0.0
 40
7.0000000000010107
  0
ARC
  8
DETAIL
  6
CONTINUOUS
 62
     5
 10
468.08087488806899
 20
-104.0000000000073
 30
0.0
 40
5.0000000000007221
 50
89.999999999895778
 51
109.98310652186549
  0
ARC
  8
DETAIL
  6
CONTINUOUS
 62
     5
 10
455.70000000006348
 20
-108.5021363240012
 30
0.0
 40
5.0000000000007221
 50
109.98310652186549
 51
180.0
  0
CIRCLE
  8
DETAIL
  6
CONTINUOUS
 62
     5
 10
445.20000000006081
 20
-99.000000000014552
 30
0.0
 40
4.700000000000677
  0
ARC
  8
DETAIL
  6
CONTINUOUS
 62
     5
 10
470.93306493806631
 20
-402.40000000005779
 30
0.0
 40
1.6000000000002319
 50
184.99999999997351
 51
270.0
  0
ARC
  8
DETAIL
  6
CONTINUOUS
 62
     5
 10
471.20000000007349
 20
-402.15000000005062
 30
0.0
 40
1.0000000000001441
 50
180.0
 51
269.99999999989569
  0
ARC
  8
DETAIL
  6
CONTINUOUS
 62
     5
 10
470.93306493806631
 20
-402.40000000005779
 30
0.0
 40
0.8000000000001152
 50
184.99999999997351
 51
270.0
  0
ARC
  8
DETAIL
  6
CONTINUOUS
 62
     5
 10
471.20000000007349
 20
-402.15000000005062
 30
0.0
 40
0.5000000000000722
 50
180.0
 51
270.0
  0
LINE
  8
DETAIL
  6
CONTINUOUS
 62
     5
 10
468.61355287206521
 20
-99.000000000014552
 30
0.0
 11
468.98509349253493
 21
-98.997391446558453
 31
0.0
  0
LINE
  8
DETAIL
  6
CONTINUOUS
 62
     5
 10
468.98509349253493
 20
-98.997391446558453
 30
0.0
 11
469.35593275271401
 21
-98.976482820702046
 31
0.0
  0
LINE
  8
DETAIL
  6
CONTINUOUS
 62
     5
 10
469.35593275271401
 20
-98.976482820702046
 30
0.0
 11
469.72267086470021
 21
-98.917648591106456
 31
0.0
  0
LINE
  8
DETAIL
  6
CONTINUOUS
 62
     5
 10
469.72267086470021
 20
-98.917648591106456
 30
0.0
 11
470.07238506416735
 21
-98.792771977070927
 31
0.0
  0
LINE
  8
DETAIL
  6
CONTINUOUS
 62
     5
 10
470.07238506416735
 20
-98.792771977070927
 30
0.0
 11
470.35994981024351
 21
-98.557928747605473
 31
0.0
  0
LINE
  8
DETAIL
  6
CONTINUOUS
 62
     5
 10
470.35994981024351
 20
-98.557928747605473
 30
0.0
 11
470.54252968578243
 21
-98.239078377214554
 31
0.0
  0
LINE
  8
DETAIL
  6
CONTINUOUS
 62
     5
 10
470.54252968578243
 20
-98.239078377214554
 30
0.0
 11
470.63418821883556
 21
-97.874922915857184
 31
0.0
  0
LINE
  8
DETAIL
  6
CONTINUOUS
 62
     5
 10
470.63418821883556
 20
-97.874922915857184
 30
0.0
 11
470.67467561412008
 21
-97.496775618176684
 31
0.0
  0
LINE
  8
DETAIL
  6
CONTINUOUS
 62
     5
 10
470.67467561412008
 20
-97.496775618176684
 30
0.0
 11
470.69322956342165
 21
-97.124329842086766
 31
0.0
  0
LINE
  8
DETAIL
  6
CONTINUOUS
 62
     5
 10
470.69322956342165
 20
-97.124329842086766
 30
0.0
 11
470.69923542162485
 21
-96.755684201505986
 31
0.0
  0
LINE
  8
DETAIL
  6
CONTINUOUS
 62
     5
 10
470.69923542162485
 20
-96.755684201505986
 30
0.0
 11
470.69990884606699
 21
-96.386577182005567
 31
0.0
  0
LINE
  8
DETAIL
  6
CONTINUOUS
 62
     5
 10
-468.61355287206328
 20
-99.000000000014552
 30
0.0
 11
-468.98509349396051
 21
-98.997391446558453
 31
0.0
  0
LINE
  8
DETAIL
  6
CONTINUOUS
 62
     5
 10
-468.98509349396051
 20
-98.997391446558453
 30
0.0
 11
-469.35593275464873
 21
-98.976482820702046
 31
0.0
  0
LINE
  8
DETAIL
  6
CONTINUOUS
 62
     5
 10
-469.35593275464873
 20
-98.976482820702046
 30
0.0
 11
-469.72267086669859
 21
-98.917648591106456
 31
0.0
  0
LINE
  8
DETAIL
  6
CONTINUOUS
 62
     5
 10
-469.72267086669859
 20
-98.917648591106456
 30
0.0
 11
-470.07238506598264
 21
-98.792771977070927
 31
0.0
  0
LINE
  8
DETAIL
  6
CONTINUOUS
 62
     5
 10
-470.07238506598264
 20
-98.792771977070927
 30
0.0
 11
-470.35994981117699
 21
-98.557928747605473
 31
0.0
  0
LINE
  8
DETAIL
  6
CONTINUOUS
 62
     5
 10
-470.35994981117699
 20
-98.557928747605473
 30
0.0
 11
-470.54252968603248
 21
-98.239078377214554
 31
0.0
  0
LINE
  8
DETAIL
  6
CONTINUOUS
 62
     5
 10
-470.54252968603248
 20
-98.239078377214554
 30
0.0
 11
-470.63418821898819
 21
-97.874922915857184
 31
0.0
  0
LINE
  8
DETAIL
  6
CONTINUOUS
 62
     5
 10
-470.63418821898819
 20
-97.874922915857184
 30
0.0
 11
-470.6746756146286
 21
-97.496775618176684
 31
0.0
  0
LINE
  8
DETAIL
  6
CONTINUOUS
 62
     5
 10
-470.6746756146286
 20
-97.496775618176684
 30
0.0
 11
-470.69322956443727
 21
-97.124329842086766
 31
0.0
  0
LINE
  8
DETAIL
  6
CONTINUOUS
 62
     5
 10
-470.69322956443727
 20
-97.124329842086766
 30
0.0
 11
-470.69923542268629
 21
-96.755684201505986
 31
0.0
  0
LINE
  8
DETAIL
  6
CONTINUOUS
 62
     5
 10
-470.69923542268629
 20
-96.755684201505986
 30
0.0
 11
-470.69990884606608
 21
-96.386577182005567
 31
0.0
  0
ARC
  8
DETAIL
  6
CONTINUOUS
 62
     5
 10
455.70000000026812
 20
-114.9999999998181
 30
0.0
 40
4.9999999997510862
 50
180.0
 51
270.0
  0
LINE
  8
BASIS
  6
DASHDOT
 62
     6
 10
-490.44585385751537
 20
-242.05004865001959
 30
0.0
 11
489.71509071152008
 21
-242.05004865001959
 31
0.0
  0
LINE
  8
BASIS
  6
DASHDOT
 62
     6
 10
-345.99999999805192
 20
-104.41962538479039
 30
0.0
 11
-345.99999999805192
 21
-379.68047191524869
 31
0.0
  0
LINE
  8
BASIS
  6
DASHDOT
 62
     6
 10
346.00001101762518
 20
-104.44578213073601
 30
0.0
 11
346.00001101762427
 21
-379.7066286611871
 31
0.0
  0
CIRCLE
  8
DETAIL
  6
CONTINUOUS
 62
     5
 10
-266.80404050803742
 20
-162.85414050802049
 30
0.0
 40
4.700000000000677
  0
CIRCLE
  8
DETAIL
  6
CONTINUOUS
 62
     5
 10
-266.80404050803742
 20
-321.24605949403758
 30
0.0
 40
4.700000000000677
  0
CIRCLE
  8
DETAIL
  6
CONTINUOUS
 62
     5
 10
-425.19595949406272
 20
-321.24605949403758
 30
0.0
 40
4.700000000000677
  0
CIRCLE
  8
DETAIL
  6
CONTINUOUS
 62
     5
 10
-425.19595949406272
 20
-162.85414050802049
 30
0.0
 40
4.700000000000677
  0
LINE
  8
DETAIL
  6
CONTINUOUS
 62
     5
 10
452.9768486500725
 20
-193.49910116402589
 30
0.0
 11
452.9768486500725
 21
-290.60109883603133
 31
0.0
  0
ARC
  8
DETAIL
  6
CONTINUOUS
 62
     5
 10
345.97684865204968
 20
-242.05015135203121
 30
0.0
 40
117.499944326017
 50
24.406082693662949
 51
155.59386652840789
  0
ARC
  8
DETAIL
  6
CONTINUOUS
 62
     5
 10
345.97684865204968
 20
-242.05004865001959
 30
0.0
 40
117.499944326017
 50
204.40613347159211
 51
335.59391730633712
  0
CIRCLE
  8
DETAIL
  6
CONTINUOUS
 62
     5
 10
345.97684865004891
 20
-242.05010000002491
 30
0.0
 40
104.00000000001501
  0
CIRCLE
  8
DETAIL
  6
CONTINUOUS
 62
     5
 10
345.97684865004891
 20
-242.05010000002491
 30
0.0
 40
96.000000000013841
  0
CIRCLE
  8
DETAIL
  6
CONTINUOUS
 62
     5
 10
425.17280814206418
 20
-162.85414050802049
 30
0.0
 40
4.700000000000677
  0
CIRCLE
  8
DETAIL
  6
CONTINUOUS
 62
     5
 10
425.17280814206418
 20
-321.24605949403758
 30
0.0
 40
4.700000000000677
  0
CIRCLE
  8
DETAIL
  6
CONTINUOUS
 62
     5
 10
266.78088915603888
 20
-321.24605949403758
 30
0.0
 40
4.700000000000677
  0
CIRCLE
  8
DETAIL
  6
CONTINUOUS
 62
     5
 10
266.78088915603888
 20
-162.85414050802049
 30
0.0
 40
4.700000000000677
  0
ARC
  8
DETAIL
  6
CONTINUOUS
 62
     5
 10
-455.69999996726978
 20
-115.0000000348155
 30
0.0
 40
4.9999999997510862
 50
270.0
 51
0.0
  0
LINE
  8
DETAIL
  6
CONTINUOUS
 62
     5
 10
472.70000000006621
 20
-2.1499999999941788
 30
0.0
 11
475.9250000000693
 21
-2.1499999999941788
 31
0.0
  0
LINE
  8
DETAIL
  6
CONTINUOUS
 62
     5
 10
472.70000000006621
 20
-1.3499999999912691
 30
0.0
 11
472.70000000006621
 21
-2.1499999999941788
 31
0.0
  0
ARC
  8
DETAIL
  6
CONTINUOUS
 62
     5
 10
475.92500000006748
 20
-1.0749999999970901
 30
0.0
 40
0.2749999999978477
 50
270.0
 51
90.0
  0
ARC
  8
DETAIL
  6
CONTINUOUS
 62
     5
 10
475.9250000000693
 20
-1.0749999999970901
 30
0.0
 40
1.07499999999942
 50
270.0
 51
90.0
  0
LINE
  8
DETAIL
  6
CONTINUOUS
 62
     5
 10
472.70000000006621
 20
-401.85000000004771
 30
0.0
 11
475.9250000000693
 21
-401.85000000004771
 31
0.0
  0
LINE
  8
DETAIL
  6
CONTINUOUS
 62
     5
 10
472.70000000006621
 20
-402.65000000004329
 30
0.0
 11
472.70000000006621
 21
-401.85000000004771
 31
0.0
  0
ARC
  8
DETAIL
  6
CONTINUOUS
 62
     5
 10
475.92500000006748
 20
-402.92500000004469
 30
0.0
 40
0.2749999999978477
 50
270.0
 51
90.0
  0
ARC
  8
DETAIL
  6
CONTINUOUS
 62
     5
 10
475.9250000000693
 20
-402.92500000004469
 30
0.0
 40
1.07499999999942
 50
270.0
 51
90.0
  0
LINE
  8
DETAIL
  6
CONTINUOUS
 62
     5
 10
-472.70000000006979
 20
-401.85000000004771
 30
0.0
 11
-475.92500000007573
 21
-401.85000000004771
 31
0.0
  0
LINE
  8
DETAIL
  6
CONTINUOUS
 62
     5
 10
-472.70000000006979
 20
-402.65000000004329
 30
0.0
 11
-472.70000000006979
 21
-401.85000000004771
 31
0.0
  0
ARC
  8
DETAIL
  6
CONTINUOUS
 62
     5
 10
-475.92500000007391
 20
-402.92500000004469
 30
0.0
 40
0.2749999999978477
 50
90.0
 51
270.0
  0
ARC
  8
DETAIL
  6
CONTINUOUS
 62
     5
 10
-475.92500000007573
 20
-402.92500000004469
 30
0.0
 40
1.07499999999942
 50
90.0
 51
270.0
  0
LINE
  8
DETAIL
  6
CONTINUOUS
 62
     5
 10
-471.20000000007082
 20
-402.65000000004329
 30
0.0
 11
-475.92500000007391
 21
-402.65000000004329
 31
0.0
  0
LINE
  8
DETAIL
  6
CONTINUOUS
 62
     5
 10
-472.70000000006979
 20
-2.1499999999941788
 30
0.0
 11
-475.92500000007482
 21
-2.1499999999941788
 31
0.0
  0
LINE
  8
DETAIL
  6
CONTINUOUS
 62
     5
 10
-472.70000000006979
 20
-1.3499999999912691
 30
0.0
 11
-472.70000000006979
 21
-2.1499999999941788
 31
0.0
  0
ARC
  8
DETAIL
  6
CONTINUOUS
 62
     5
 10
-475.92500000007391
 20
-1.0749999999970901
 30
0.0
 40
0.2749999999978477
 50
90.0
 51
270.0
  0
ARC
  8
DETAIL
  6
CONTINUOUS
 62
     5
 10
-475.92500000007482
 20
-1.0749999999970901
 30
0.0
 40
1.07499999999942
 50
90.0
 51
270.0
  0
LINE
  8
DETAIL
  6
CONTINUOUS
 62
     5
 10
-471.20000000007082
 20
-1.3499999999912691
 30
0.0
 11
-475.92500000007391
 21
-1.3499999999912691
 31
0.0
  0
LINE
  8
DETAIL
  6
CONTINUOUS
 62
     5
 10
-462.11730091806658
 20
-2.1499999999941788
 30
0.0
 11
462.11730091806112
 21
-2.1499999999941788
 31
0.0
  0
LINE
  8
DETAIL
  6
CONTINUOUS
 62
     5
 10
-462.28000000005977
 20
-401.85000000004771
 30
0.0
 11
462.28000000006608
 21
-401.85000000004771
 31
0.0
  0
LINE
  8
DETAIL
  6
CONTINUOUS
 62
     5
 10
238.9768486540288
 20
-193.49910116402589
 30
0.0
 11
238.9768486540288
 21
-290.60109883603133
 31
0.0
  0
ARC
  8
DETAIL
  6
CONTINUOUS
 62
     5
 10
-503.63170319530849
 20
-70.63383005043579
 30
0.0
 40
2.3757088916139359
 50
142.87630571705341
 51
164.46639332617161
  0
ARC
  8
DETAIL
  6
CONTINUOUS
 62
     5
 10
-504.97504941826719
 20
-70.150243733478419
 30
0.0
 40
3.22153249403202
 50
94.004061958045625
 51
177.29408327305541
  0
LINE
  8
SIZE
  6
CONTINUOUS
 62
    30
 10
-345.99999999805192
 20
-84.419625384790379
 30
0.0
 11
-345.99999999805192
 21
101.98117603408539
 31
0.0
  0
LINE
  8
SIZE
  6
CONTINUOUS
 62
    30
 10
346.00001101762518
 20
-84.445782130736006
 30
0.0
 11
346.00001101762518
 21
101.98117603408539
 31
0.0
  0
LINE
  8
SIZE
  6
CONTINUOUS
 62
    30
 10
-333.99999999805192
 20
81.981176034085365
 30
0.0
 11
334.00001101762518
 21
81.981176034085365
 31
0.0
  0
CIRCLE
  8
SIZE
  6
CONTINUOUS
 62
    30
 10
-345.99999999805192
 20
81.981176034085365
 30
0.0
 40
6.0
  0
LINE
  8
SIZE
  6
CONTINUOUS
 62
    30
 10
-345.99999999805192
 20
81.981176034085365
 30
0.0
 11
-333.99999999805192
 21
81.981176034085365
 31
0.0
  0
CIRCLE
  8
SIZE
  6
CONTINUOUS
 62
    30
 10
346.00001101762518
 20
81.981176034085365
 30
0.0
 40
6.0
  0
LINE
  8
SIZE
  6
CONTINUOUS
 62
    30
 10
346.00001101762518
 20
81.981176034085365
 30
0.0
 11
334.00001101762518
 21
81.981176034085365
 31
0.0
  0
TEXT
  8
SIZE
  6
CONTINUOUS
 62
    30
 10
-80.351994490213343
 20
106.98117603408539
 30
0.0
 40
64.0
  1
692
 50
0.0
 41
0.9
 51
0.0
  7
STANDARD
 71
     0
 72
     1
 11
0.0000055097866607
 21
106.98117603408539
 31
0.0
210
0.0
220
0.0
230
1.0
  0
POINT
  8
DEFPOINTS
  6
CONTINUOUS
 62
    30
 10
-345.99999999805192
 20
-104.41962538479039
 30
0.0
  0
POINT
  8
DEFPOINTS
  6
CONTINUOUS
 62
    30
 10
346.00001101762518
 20
-104.44578213073601
 30
0.0
  0
POINT
  8
DEFPOINTS
  6
CONTINUOUS
 62
    30
 10
346.00001101762518
 20
81.981176034085365
 30
0.0
  0
LINE
  8
SIZE
  6
CONTINUOUS
 62
    30
 10
683.98889229367262
 20
-394.30768994790952
 30
0.0
 11
444.65990257928519
 21
-286.43069792587642
 31
0.0
  0
LINE
  8
SIZE
  6
CONTINUOUS
 62
    30
 10
247.7399947208136
 20
-197.6695020741779
 30
0.0
 11
236.7999998397888
 21
-192.73832452686199
 31
0.0
  0
TEXT
  8
SIZE
  6
CONTINUOUS
 62
    30
 10
485.69065549170705
 20
-277.50289918821835
 30
0.0
 40
64.0
  1
φ192
 50
335.73663875468105
 41
0.9
 51
0.0
  7
STANDARD
 71
     0
 72
     1
 11
585.20084892950797
 21
-322.3568901586039
 31
0.0
210
0.0
220
0.0
230
1.0
  0
LINE
  8
SIZE
  6
CONTINUOUS
 62
    30
 10
258.67998960183832
 20
-202.60067962149381
 30
0.0
 11
433.71990769826061
 21
-281.49952037856048
 31
0.0
  0
CIRCLE
  8
SIZE
  6
CONTINUOUS
 62
    30
 10
258.67998960183832
 20
-202.60067962149381
 30
0.0
 40
6.0
  0
LINE
  8
SIZE
  6
CONTINUOUS
 62
    30
 10
258.67998960183832
 20
-202.60067962149381
 30
0.0
 11
247.73999472081357
 21
-197.6695020741779
 31
0.0
  0
CIRCLE
  8
SIZE
  6
CONTINUOUS
 62
    30
 10
433.71990769826061
 20
-281.49952037856048
 30
0.0
 40
6.0
  0
LINE
  8
SIZE
  6
CONTINUOUS
 62
    30
 10
433.71990769826061
 20
-281.49952037856048
 30
0.0
 11
444.65990257928536
 21
-286.43069792587636
 31
0.0
  0
POINT
  8
DEFPOINTS
  6
CONTINUOUS
 62
    30
 10
433.71990769826061
 20
-281.49952037856048
 30
0.0
  0
POINT
  8
DEFPOINTS
  6
CONTINUOUS
 62
    30
 10
258.67998960183832
 20
-202.60067962149381
 30
0.0
  0
LINE
  8
SIZE
  6
CONTINUOUS
 62
    30
 10
649.08262103787001
 20
-571.18904962769034
 30
0.0
 11
424.55722999631632
 21
-327.37960056974771
 31
0.0
  0
LINE
  8
SIZE
  6
CONTINUOUS
 62
    30
 10
267.39646730377592
 20
-156.7205994303049
 30
0.0
 11
259.26746233692131
 21
-147.89340971619691
 31
0.0
  0
TEXT
  8
SIZE
  6
CONTINUOUS
 62
    30
 10
504.48450164159669
 20
-377.26678747607502
 30
0.0
 40
64.0
  1
φ208
 50
312.64213283710893
 41
0.9
 51
0.0
  7
STANDARD
 71
     0
 72
     1
 11
582.71804544260465
 21
-462.21966128465056
 31
0.0
210
0.0
220
0.0
230
1.0
  0
LINE
  8
SIZE
  6
CONTINUOUS
 62
    30
 10
275.52547227063042
 20
-165.54778914441289
 30
0.0
 11
416.42822502946183
 21
-318.55241085563972
 31
0.0
  0
CIRCLE
  8
SIZE
  6
CONTINUOUS
 62
    30
 10
275.52547227063042
 20
-165.54778914441289
 30
0.0
 40
6.0
  0
LINE
  8
SIZE
  6
CONTINUOUS
 62
    30
 10
275.52547227063042
 20
-165.54778914441289
 30
0.0
 11
267.39646730377592
 21
-156.72059943030487
 31
0.0
  0
CIRCLE
  8
SIZE
  6
CONTINUOUS
 62
    30
 10
416.42822502946183
 20
-318.55241085563972
 30
0.0
 40
6.0
  0
LINE
  8
SIZE
  6
CONTINUOUS
 62
    30
 10
416.42822502946183
 20
-318.55241085563972
 30
0.0
 11
424.55722999631638
 21
-327.37960056974777
 31
0.0
  0
POINT
  8
DEFPOINTS
  6
CONTINUOUS
 62
    30
 10
416.42822502946183
 20
-318.55241085563972
 30
0.0
  0
POINT
  8
DEFPOINTS
  6
CONTINUOUS
 62
    30
 10
275.52547227063042
 20
-165.54778914441289
 30
0.0
  0
LINE
  8
SIZE
  6
CONTINUOUS
 62
    30
 10
477.00000000006912
 20
18.92500000000291
 30
0.0
 11
477.00000000006912
 21
222.18253880040541
 31
0.0
  0
LINE
  8
SIZE
  6
CONTINUOUS
 62
    30
 10
-477.00000000007458
 20
18.92500000000291
 30
0.0
 11
-477.00000000007458
 21
222.18253880040541
 31
0.0
  0
LINE
  8
SIZE
  6
CONTINUOUS
 62
    30
 10
465.00000000006912
 20
202.18253880040541
 30
0.0
 11
-465.00000000007458
 21
202.18253880040541
 31
0.0
  0
CIRCLE
  8
SIZE
  6
CONTINUOUS
 62
    30
 10
477.00000000006912
 20
202.18253880040541
 30
0.0
 40
6.0
  0
LINE
  8
SIZE
  6
CONTINUOUS
 62
    30
 10
477.00000000006912
 20
202.18253880040541
 30
0.0
 11
465.00000000006912
 21
202.18253880040541
 31
0.0
  0
CIRCLE
  8
SIZE
  6
CONTINUOUS
 62
    30
 10
-477.00000000007458
 20
202.18253880040541
 30
0.0
 40
6.0
  0
LINE
  8
SIZE
  6
CONTINUOUS
 62
    30
 10
-477.00000000007458
 20
202.18253880040541
 30
0.0
 11
-465.00000000007458
 21
202.18253880040541
 31
0.0
  0
TEXT
  8
SIZE
  6
CONTINUOUS
 62
    30
 10
-80.928000000002726
 20
227.18253880040538
 30
0.0
 40
64.0
  1
954
 50
0.0
 41
0.9
 51
0.0
  7
STANDARD
 71
     0
 72
     1
 11
-0.0000000000027285
 21
227.18253880040538
 31
0.0
210
0.0
220
0.0
230
1.0
  0
POINT
  8
DEFPOINTS
  6
CONTINUOUS
 62
    30
 10
477.00000000006912
 20
-1.0749999999970901
 30
0.0
  0
POINT
  8
DEFPOINTS
  6
CONTINUOUS
 62
    30
 10
-477.00000000007458
 20
-1.0749999999970901
 30
0.0
  0
POINT
  8
DEFPOINTS
  6
CONTINUOUS
 62
    30
 10
-477.00000000007458
 20
202.18253880040541
 30
0.0
  0
LINE
  8
DETAIL
  6
CONTINUOUS
 62
     5
 10
-471.50000328240088
 20
-346.5836023874208
 30
0.0
 11
-470.70000000007082
 21
-346.58360238742171
 31
0.0
  0
LINE
  8
SIZE
  6
CONTINUOUS
 62
    30
 10
-470.70000000007082
 20
-422.15000000005062
 30
0.0
 11
-470.70000000007082
 21
-577.58996268964984
 31
0.0
  0
LINE
  8
SIZE
  6
CONTINUOUS
 62
    30
 10
-585.70000000008349
 20
-368.50000000004093
 30
0.0
 11
-585.70000000008349
 21
-577.58996268964984
 31
0.0
  0
LINE
  8
SIZE
  6
CONTINUOUS
 62
    30
 10
-573.70000000008349
 20
-557.58996268964984
 30
0.0
 11
-482.70000000007082
 21
-557.58996268964984
 31
0.0
  0
LINE
  8
SIZE
  6
CONTINUOUS
 62
    30
 10
-470.70000000007082
 20
-557.58996268964984
 30
0.0
 11
-282.52857142864212
 21
-557.58996268964984
 31
0.0
  0
CIRCLE
  8
SIZE
  6
CONTINUOUS
 62
    30
 10
-585.70000000008349
 20
-557.58996268964984
 30
0.0
 40
6.0
  0
LINE
  8
SIZE
  6
CONTINUOUS
 62
    30
 10
-585.70000000008349
 20
-557.58996268964984
 30
0.0
 11
-573.70000000008349
 21
-557.58996268964984
 31
0.0
  0
CIRCLE
  8
SIZE
  6
CONTINUOUS
 62
    30
 10
-470.70000000007082
 20
-557.58996268964984
 30
0.0
 40
6.0
  0
LINE
  8
SIZE
  6
CONTINUOUS
 62
    30
 10
-470.70000000007082
 20
-557.58996268964984
 30
0.0
 11
-482.70000000007082
 21
-557.58996268964984
 31
0.0
  0
TEXT
  8
SIZE
  6
CONTINUOUS
 62
    30
 10
-439.44628571435641
 20
-532.58996268964984
 30
0.0
 40
64.0
  1
115
 50
0.0
 41
0.9
 51
0.0
  7
STANDARD
 71
     0
 72
     1
 11
-370.61428571435641
 21
-532.58996268964984
 31
0.0
210
0.0
220
0.0
230
1.0
  0
POINT
  8
DEFPOINTS
  6
CONTINUOUS
 62
    30
 10
-470.70000000007082
 20
-402.15000000005062
 30
0.0
  0
POINT
  8
DEFPOINTS
  6
CONTINUOUS
 62
    30
 10
-585.70000000008349
 20
-348.50000000004093
 30
0.0
  0
POINT
  8
DEFPOINTS
  6
CONTINUOUS
 62
    30
 10
-585.70000000008349
 20
-557.58996268964984
 30
0.0
  0
LINE
  8
SIZE
  6
CONTINUOUS
 62
    30
 10
-528.83497718603246
 20
-202.0500000000176
 30
0.0
 11
-759.90449435816981
 21
-202.0500000000176
 31
0.0
  0
LINE
  8
SIZE
  6
CONTINUOUS
 62
    30
 10
-510.44585385751571
 20
-242.0500486500197
 30
0.0
 11
-759.90449435816981
 21
-242.0500486500197
 31
0.0
  0
LINE
  8
SIZE
  6
CONTINUOUS
 62
    30
 10
-739.90449435816981
 20
-190.0500000000176
 30
0.0
 11
-739.90449435816981
 21
-178.0500000000176
 31
0.0
  0
LINE
  8
SIZE
  6
CONTINUOUS
 62
    30
 10
-739.90449435816981
 20
-254.0500486500197
 30
0.0
 11
-739.9044943581697
 21
-266.05004865001968
 31
0.0
  0
LINE
  8
SIZE
  6
CONTINUOUS
 62
    30
 10
-739.90449435816981
 20
-202.0500000000176
 30
0.0
 11
-739.90449435816981
 21
-242.0500486500197
 31
0.0
  0
CIRCLE
  8
SIZE
  6
CONTINUOUS
 62
    30
 10
-739.90449435816981
 20
-202.0500000000176
 30
0.0
 40
6.0
  0
LINE
  8
SIZE
  6
CONTINUOUS
 62
    30
 10
-739.90449435816981
 20
-202.0500000000176
 30
0.0
 11
-739.90449435816981
 21
-190.0500000000176
 31
0.0
  0
CIRCLE
  8
SIZE
  6
CONTINUOUS
 62
    30
 10
-739.90449435816981
 20
-242.0500486500197
 30
0.0
 40
6.0
  0
LINE
  8
SIZE
  6
CONTINUOUS
 62
    30
 10
-739.90449435816981
 20
-242.0500486500197
 30
0.0
 11
-739.90449435816981
 21
-254.0500486500197
 31
0.0
  0
TEXT
  8
SIZE
  6
CONTINUOUS
 62
    30
 10
-764.9044943581697
 20
-276.77002432501843
 30
0.0
 40
64.0
  1
40
 50
90.0
 41
0.9
 51
0.0
  7
STANDARD
 71
     0
 72
     1
 11
-764.9044943581697
 21
-222.0500243250184
 31
0.0
210
0.0
220
0.0
230
1.0
  0
POINT
  8
DEFPOINTS
  6
CONTINUOUS
 62
    30
 10
-508.83497718603229
 20
-202.0500000000176
 30
0.0
  0
POINT
  8
DEFPOINTS
  6
CONTINUOUS
 62
    30
 10
-490.44585385751571
 20
-242.0500486500197
 30
0.0
  0
POINT
  8
DEFPOINTS
  6
CONTINUOUS
 62
    30
 10
-739.90449435816981
 20
-242.0500486500197
 30
0.0
  0
LINE
  8
SIZE
  6
CONTINUOUS
 62
    30
 10
-495.95000000007099
 20
-0.0000000000000032
 30
0.0
 11
-759.90449435817584
 21
-0.0000000000000457
 31
0.0
  0
LINE
  8
SIZE
  6
CONTINUOUS
 62
    30
 10
-571.43427874105714
 20
-70.000000000000938
 30
0.0
 11
-759.90449435817584
 21
-70.000000000000966
 31
0.0
  0
LINE
  8
SIZE
  6
CONTINUOUS
 62
    30
 10
-739.90449435817584
 20
-82.000000000000966
 30
0.0
 11
-739.90449435817584
 21
-94.000000000000966
 31
0.0
  0
LINE
  8
SIZE
  6
CONTINUOUS
 62
    30
 10
-739.90449435817584
 20
11.999999999999959
 30
0.0
 11
-739.90449435817584
 21
167.25714285714281
 31
0.0
  0
LINE
  8
SIZE
  6
CONTINUOUS
 62
    30
 10
-739.90449435817584
 20
-70.000000000000966
 30
0.0
 11
-739.90449435817584
 21
-0.0000000000000424
 31
0.0
  0
CIRCLE
  8
SIZE
  6
CONTINUOUS
 62
    30
 10
-739.90449435817584
 20
-70.000000000000966
 30
0.0
 40
6.0
  0
LINE
  8
SIZE
  6
CONTINUOUS
 62
    30
 10
-739.90449435817584
 20
-70.000000000000966
 30
0.0
 11
-739.90449435817584
 21
-82.000000000000966
 31
0.0
  0
CIRCLE
  8
SIZE
  6
CONTINUOUS
 62
    30
 10
-739.90449435817584
 20
-0.0000000000000424
 30
0.0
 40
6.0
  0
LINE
  8
SIZE
  6
CONTINUOUS
 62
    30
 10
-739.90449435817584
 20
-0.0000000000000424
 30
0.0
 11
-739.90449435817584
 21
11.999999999999957
 31
0.0
  0
TEXT
  8
SIZE
  6
CONTINUOUS
 62
    30
 10
-764.90449435817573
 20
41.484571428571599
 30
0.0
 40
64.0
  1
70
 50
90.0
 41
0.9
 51
0.0
  7
STANDARD
 71
     0
 72
     1
 11
-764.90449435817573
 21
95.628571428571604
 31
0.0
210
0.0
220
0.0
230
1.0
  0
POINT
  8
DEFPOINTS
  6
CONTINUOUS
 62
    30
 10
-475.95000000007099
 20
0.0
 30
0.0
  0
POINT
  8
DEFPOINTS
  6
CONTINUOUS
 62
    30
 10
-551.43427874105714
 20
-70.000000000000938
 30
0.0
  0
POINT
  8
DEFPOINTS
  6
CONTINUOUS
 62
    30
 10
-739.90449435817584
 20
-70.000000000000966
 30
0.0
  0
LINE
  8
SIZE
  6
CONTINUOUS
 62
    30
 10
495.92500000006947
 20
0.0000000000027317
 30
0.0
 11
760.01275339303277
 21
0.0000000000027742
 31
0.0
  0
LINE
  8
SIZE
  6
CONTINUOUS
 62
    30
 10
571.43427874105078
 20
-70.000000000000938
 30
0.0
 11
760.01275339303277
 21
-70.000000000000909
 31
0.0
  0
LINE
  8
SIZE
  6
CONTINUOUS
 62
    30
 10
740.01275339303277
 20
-82.000000000000909
 30
0.0
 11
740.01275339303277
 21
-94.000000000000909
 31
0.0
  0
LINE
  8
SIZE
  6
CONTINUOUS
 62
    30
 10
740.01275339303277
 20
12.000000000002769
 30
0.0
 11
740.01275339303277
 21
167.25714285714571
 31
0.0
  0
LINE
  8
SIZE
  6
CONTINUOUS
 62
    30
 10
740.01275339303277
 20
-70.000000000000909
 30
0.0
 11
740.01275339303277
 21
0.000000000002771
 31
0.0
  0
CIRCLE
  8
SIZE
  6
CONTINUOUS
 62
    30
 10
740.01275339303277
 20
-70.000000000000909
 30
0.0
 40
6.0
  0
LINE
  8
SIZE
  6
CONTINUOUS
 62
    30
 10
740.01275339303277
 20
-70.000000000000909
 30
0.0
 11
740.01275339303277
 21
-82.000000000000909
 31
0.0
  0
CIRCLE
  8
SIZE
  6
CONTINUOUS
 62
    30
 10
740.01275339303277
 20
0.000000000002771
 30
0.0
 40
6.0
  0
LINE
  8
SIZE
  6
CONTINUOUS
 62
    30
 10
740.01275339303277
 20
0.000000000002771
 30
0.0
 11
740.01275339303277
 21
12.000000000002771
 31
0.0
  0
TEXT
  8
SIZE
  6
CONTINUOUS
 62
    30
 10
715.01275339303265
 20
41.484571428573986
 30
0.0
 40
64.0
  1
70
 50
90.0
 41
0.9
 51
0.0
  7
STANDARD
 71
     0
 72
     1
 11
715.01275339303265
 21
95.628571428573991
 31
0.0
210
0.0
220
0.0
230
1.0
  0
POINT
  8
DEFPOINTS
  6
CONTINUOUS
 62
    30
 10
475.92500000006947
 20
0.0000000000027285
 30
0.0
  0
POINT
  8
DEFPOINTS
  6
CONTINUOUS
 62
    30
 10
551.43427874105078
 20
-70.000000000000938
 30
0.0
  0
POINT
  8
DEFPOINTS
  6
CONTINUOUS
 62
    30
 10
740.01275339303277
 20
-70.000000000000909
 30
0.0
  0
LINE
  8
SIZE
  6
CONTINUOUS
 62
    30
 10
-495.95000000007099
 20
-0.0000000000000032
 30
0.0
 11
-879.56671629714572
 21
-0.0000000000000649
 31
0.0
  0
LINE
  8
SIZE
  6
CONTINUOUS
 62
    30
 10
-495.9250000000759
 20
-404.00000000005662
 30
0.0
 11
-879.5667162971456
 21
-404.00000000005667
 31
0.0
  0
LINE
  8
SIZE
  6
CONTINUOUS
 62
    30
 10
-859.56671629714572
 20
-12.00000000000006
 30
0.0
 11
-859.5667162971456
 21
-392.00000000005667
 31
0.0
  0
CIRCLE
  8
SIZE
  6
CONTINUOUS
 62
    30
 10
-859.56671629714572
 20
-0.0000000000000617
 30
0.0
 40
6.0
  0
LINE
  8
SIZE
  6
CONTINUOUS
 62
    30
 10
-859.56671629714572
 20
-0.0000000000000617
 30
0.0
 11
-859.56671629714572
 21
-12.000000000000062
 31
0.0
  0
CIRCLE
  8
SIZE
  6
CONTINUOUS
 62
    30
 10
-859.5667162971456
 20
-404.00000000005667
 30
0.0
 40
6.0
  0
LINE
  8
SIZE
  6
CONTINUOUS
 62
    30
 10
-859.5667162971456
 20
-404.00000000005667
 30
0.0
 11
-859.5667162971456
 21
-392.00000000005667
 31
0.0
  0
TEXT
  8
SIZE
  6
CONTINUOUS
 62
    30
 10
-884.56671629714549
 20
-284.08000000002812
 30
0.0
 40
64.0
  1
404
 50
90.0
 41
0.9
 51
0.0
  7
STANDARD
 71
     0
 72
     1
 11
-884.56671629714549
 21
-202.00000000002811
 31
0.0
210
0.0
220
0.0
230
1.0
  0
POINT
  8
DEFPOINTS
  6
CONTINUOUS
 62
    30
 10
-475.95000000007099
 20
0.0
 30
0.0
  0
POINT
  8
DEFPOINTS
  6
CONTINUOUS
 62
    30
 10
-475.9250000000759
 20
-404.00000000005662
 30
0.0
  0
POINT
  8
DEFPOINTS
  6
CONTINUOUS
 62
    30
 10
-859.5667162971456
 20
-404.00000000005667
 30
0.0
  0
LINE
  8
BASIS
  6
DASHDOT
 62
     6
 10
-500.50000000007998
 20
-120.9342787409778
 30
0.0
 11
-500.50000000007998
 21
-19.065721259016751
 31
0.0
  0
LINE
  8
BASIS
  6
DASHDOT
 62
     6
 10
-449.56572125909128
 20
-70.000000000000909
 30
0.0
 11
-551.43427874105691
 21
-70.000000000000909
 31
0.0
  0
LINE
  8
BASIS
  6
DASHDOT
 62
     6
 10
500.50000000006281
 20
-120.9342787409778
 30
0.0
 11
500.50000000006281
 21
-19.065721259016751
 31
0.0
  0
LINE
  8
BASIS
  6
DASHDOT
 62
     6
 10
551.43427874105055
 20
-70.000000000000909
 30
0.0
 11
449.56572125908679
 21
-70.000000000000909
 31
0.0
  0
LINE
  8
SIZE
  6
CONTINUOUS
 62
    30
 10
500.50000000006281
 20
0.9342787409832454
 30
0.0
 11
500.50000000006281
 21
342.32969331113691
 31
0.0
  0
LINE
  8
SIZE
  6
CONTINUOUS
 62
    30
 10
-500.50000000007998
 20
0.9342787409832454
 30
0.0
 11
-500.50000000007998
 21
342.32969331113691
 31
0.0
  0
LINE
  8
SIZE
  6
CONTINUOUS
 62
    30
 10
488.50000000006281
 20
322.32969331113691
 30
0.0
 11
-488.50000000007998
 21
322.32969331113691
 31
0.0
  0
CIRCLE
  8
SIZE
  6
CONTINUOUS
 62
    30
 10
500.50000000006281
 20
322.32969331113691
 30
0.0
 40
6.0
  0
LINE
  8
SIZE
  6
CONTINUOUS
 62
    30
 10
500.50000000006281
 20
322.32969331113691
 30
0.0
 11
488.50000000006281
 21
322.32969331113691
 31
0.0
  0
CIRCLE
  8
SIZE
  6
CONTINUOUS
 62
    30
 10
-500.50000000007998
 20
322.32969331113691
 30
0.0
 40
6.0
  0
LINE
  8
SIZE
  6
CONTINUOUS
 62
    30
 10
-500.50000000007998
 20
322.32969331113691
 30
0.0
 11
-488.50000000007998
 21
322.32969331113691
 31
0.0
  0
TEXT
  8
SIZE
  6
CONTINUOUS
 62
    30
 10
-96.768000000008641
 20
347.32969331113691
 30
0.0
 40
64.0
  1
1001
 50
0.0
 41
0.9
 51
0.0
  7
STANDARD
 71
     0
 72
     1
 11
-0.0000000000086402
 21
347.32969331113691
 31
0.0
210
0.0
220
0.0
230
1.0
  0
POINT
  8
DEFPOINTS
  6
CONTINUOUS
 62
    30
 10
500.50000000006281
 20
-19.065721259016751
 30
0.0
  0
POINT
  8
DEFPOINTS
  6
CONTINUOUS
 62
    30
 10
-500.50000000007998
 20
-19.065721259016751
 30
0.0
  0
POINT
  8
DEFPOINTS
  6
CONTINUOUS
 62
    30
 10
-500.50000000007998
 20
322.32969331113691
 30
0.0
  0
LINE
  8
SIZE
  6
CONTINUOUS
 62
    30
 10
-500.50000000007998
 20
0.9342787409832454
 30
0.0
 11
-500.50000000007998
 21
342.32969331115601
 31
0.0
  0
LINE
  8
SIZE
  6
CONTINUOUS
 62
    30
 10
-520.5000000000764
 20
-43.200000000004373
 30
0.0
 11
-520.5000000000764
 21
342.32969331115601
 31
0.0
  0
LINE
  8
SIZE
  6
CONTINUOUS
 62
    30
 10
-488.50000000007998
 20
322.32969331115601
 30
0.0
 11
-476.50000000007998
 21
322.32969331115601
 31
0.0
  0
LINE
  8
SIZE
  6
CONTINUOUS
 62
    30
 10
-532.5000000000764
 20
322.32969331115601
 30
0.0
 11
-687.75714285722108
 21
322.32969331115601
 31
0.0
  0
LINE
  8
SIZE
  6
CONTINUOUS
 62
    30
 10
-500.50000000007998
 20
322.32969331115601
 30
0.0
 11
-520.5000000000764
 21
322.32969331115601
 31
0.0
  0
CIRCLE
  8
SIZE
  6
CONTINUOUS
 62
    30
 10
-500.50000000007998
 20
322.32969331115601
 30
0.0
 40
6.0
  0
LINE
  8
SIZE
  6
CONTINUOUS
 62
    30
 10
-500.50000000007998
 20
322.32969331115601
 30
0.0
 11
-488.50000000007998
 21
322.32969331115601
 31
0.0
  0
CIRCLE
  8
SIZE
  6
CONTINUOUS
 62
    30
 10
-520.5000000000764
 20
322.32969331115601
 30
0.0
 40
6.0
  0
LINE
  8
SIZE
  6
CONTINUOUS
 62
    30
 10
-520.5000000000764
 20
322.32969331115601
 30
0.0
 11
-532.5000000000764
 21
322.32969331115601
 31
0.0
  0
TEXT
  8
SIZE
  6
CONTINUOUS
 62
    30
 10
-670.2725714286496
 20
347.32969331115601
 30
0.0
 40
64.0
  1
20
 50
0.0
 41
0.9
 51
0.0
  7
STANDARD
 71
     0
 72
     1
 11
-616.12857142864959
 21
347.32969331115601
 31
0.0
210
0.0
220
0.0
230
1.0
  0
POINT
  8
DEFPOINTS
  6
CONTINUOUS
 62
    30
 10
-500.50000000007998
 20
-19.065721259016751
 30
0.0
  0
POINT
  8
DEFPOINTS
  6
CONTINUOUS
 62
    30
 10
-520.5000000000764
 20
-63.200000000004373
 30
0.0
  0
POINT
  8
DEFPOINTS
  6
CONTINUOUS
 62
    30
 10
-520.5000000000764
 20
322.32969331115601
 30
0.0
  0
CIRCLE
  8
FIX
  6
CONTINUOUS
 62
    11
 10
-500.50000000007998
 20
-70.000000000000909
 30
0.0
 40
6.5
  0
CIRCLE
  8
FIX
  6
CONTINUOUS
 62
    11
 10
500.50000000006281
 20
-69.999999999997272
 30
0.0
 40
6.5
  0
POINT
  8
ARRANGE
  6
CONTINUOUS
 62
     1
 10
0.0
 20
0.0
 30
0.0
 50
270.0
  0
CIRCLE
  8
ARRANGE
  6
CONTINUOUS
 62
     1
 10
0.0
 20
0.0
 30
0.0
 40
40.0
  0
LINE
  8
OUTLINE
  6
CONTINUOUS
 62
     3
 10
471.20000000007349
 20
-73.923726160006481
 30
0.0
 11
471.20000000007349
 21
-1.8499999999912691
 31
0.0
  0
LINE
  8
OUTLINE
  6
CONTINUOUS
 62
     3
 10
471.20000000007349
 20
-1.8499999999912691
 30
0.0
 11
470.70000000007349
 21
-1.8499999999912691
 31
0.0
  0
ARC
  8
OUTLINE
  6
CONTINUOUS
 62
     3
 10
471.20000000006939
 20
-1.8499999999953691
 30
0.0
 40
0.4999999999959151
 50
90.0
 51
180.0
  0
LINE
  8
OUTLINE
  6
CONTINUOUS
 62
     3
 10
471.20000000007349
 20
-1.3499999999994541
 30
0.0
 11
472.70000000006979
 21
-1.3499999999994541
 31
0.0
  0
LINE
  8
OUTLINE
  6
CONTINUOUS
 62
     3
 10
472.70000000006979
 20
-1.3499999999994541
 30
0.0
 11
472.70000000006621
 21
-2.1499999999941788
 31
0.0
  0
LINE
  8
OUTLINE
  6
CONTINUOUS
 62
     3
 10
472.70000000006621
 20
-2.1499999999941788
 30
0.0
 11
475.9250000000693
 21
-2.149999999996453
 31
0.0
  0
ARC
  8
OUTLINE
  6
CONTINUOUS
 62
     3
 10
475.92485294126692
 20
-1.0748529411749788
 30
0.0
 40
1.0751470688788385
 50
270.00783692667449
 51
88.659763133121828
  0
LINE
  8
OUTLINE
  6
CONTINUOUS
 62
     3
 10
475.95000000006621
 20
0.0
 30
0.0
 11
470.93306493806631
 21
0.0000000000017053
 31
0.0
  0
ARC
  8
OUTLINE
  6
CONTINUOUS
 62
     3
 10
471.05737387066137
 20
-1.7356593948978694
 30
0.0
 40
1.7401052398708778
 50
94.096562068837443
 51
170.90343793120462
  0
LINE
  8
OUTLINE
  6
CONTINUOUS
 62
     3
 10
469.33915342111959
 20
-1.460550811603071
 30
0.0
 11
469.21759237006609
 21
-2.8499999999912689
 31
0.0
  0
LINE
  8
OUTLINE
  6
CONTINUOUS
 62
     3
 10
469.21759237006609
 20
-2.8499999999912689
 30
0.0
 11
468.70000000007258
 21
-2.8499999999912689
 31
0.0
  0
LINE
  8
OUTLINE
  6
CONTINUOUS
 62
     3
 10
468.70000000007258
 20
-2.8499999999912689
 30
0.0
 11
468.70000000007258
 21
-0.8499999999912689
 31
0.0
  0
LINE
  8
OUTLINE
  6
CONTINUOUS
 62
     3
 10
468.70000000007258
 20
-0.8499999999912689
 30
0.0
 11
467.8000000000693
 21
-0.8499999999912689
 31
0.0
  0
LINE
  8
OUTLINE
  6
CONTINUOUS
 62
     3
 10
467.8000000000693
 20
-0.8499999999912689
 30
0.0
 11
467.8000000000693
 21
0.0
 31
0.0
  0
LINE
  8
OUTLINE
  6
CONTINUOUS
 62
     3
 10
467.8000000000693
 20
0.0
 30
0.0
 11
-467.80000000006839
 21
0.0
 31
0.0
  0
LINE
  8
OUTLINE
  6
CONTINUOUS
 62
     3
 10
-467.80000000006839
 20
0.0
 30
0.0
 11
-467.80000000006839
 21
-0.8499999999912689
 31
0.0
  0
LINE
  8
OUTLINE
  6
CONTINUOUS
 62
     3
 10
-467.80000000006839
 20
-0.8499999999912689
 30
0.0
 11
-468.70000000006979
 21
-0.8499999999912689
 31
0.0
  0
LINE
  8
OUTLINE
  6
CONTINUOUS
 62
     3
 10
-468.70000000006979
 20
-0.8499999999912689
 30
0.0
 11
-468.70000000006979
 21
-2.8499999999912689
 31
0.0
  0
LINE
  8
OUTLINE
  6
CONTINUOUS
 62
     3
 10
-468.70000000006979
 20
-2.8499999999912689
 30
0.0
 11
-469.21759237007058
 21
-2.8499999999912689
 31
0.0
  0
LINE
  8
OUTLINE
  6
CONTINUOUS
 62
     3
 10
-469.21759237007058
 20
-2.8499999999912689
 30
0.0
 11
-469.33915342207268
 21
-1.460550811993016
 31
0.0
  0
ARC
  8
OUTLINE
  6
CONTINUOUS
 62
     3
 10
-470.93306494081395
 20
-1.6000000019192866
 30
0.0
 40
1.6000000019209919
 50
5.0000000489806098
 51
90.0
  0
LINE
  8
OUTLINE
  6
CONTINUOUS
 62
     3
 10
-470.9330649400672
 20
0.0000000000017053
 30
0.0
 11
-475.95000000007082
 21
0.0
 31
0.0
  0
ARC
  8
OUTLINE
  6
CONTINUOUS
 62
     3
 10
-475.92485294121434
 20
-1.074852941174314
 30
0.0
 40
1.0751470688795113
 50
91.340236869925604
 51
269.99216307022971
  0
LINE
  8
OUTLINE
  6
CONTINUOUS
 62
     3
 10
-475.92500000007482
 20
-2.149999999996453
 30
0.0
 11
-472.70000000006979
 21
-2.1499999999941788
 31
0.0
  0
LINE
  8
OUTLINE
  6
CONTINUOUS
 62
     3
 10
-472.70000000006979
 20
-2.1499999999941788
 30
0.0
 11
-472.70000000006979
 21
-1.350000000003774
 31
0.0
  0
LINE
  8
OUTLINE
  6
CONTINUOUS
 62
     3
 10
-472.70000000006979
 20
-1.350000000003774
 30
0.0
 11
-471.20000000007349
 21
-1.350000000003774
 31
0.0
  0
ARC
  8
OUTLINE
  6
CONTINUOUS
 62
     3
 10
-471.20000000006098
 20
-1.8499999999912462
 30
0.0
 40
0.4999999999874724
 50
0.0
 51
90.0
  0
LINE
  8
OUTLINE
  6
CONTINUOUS
 62
     3
 10
-470.70000000007349
 20
-1.849999999996498
 30
0.0
 11
-470.70000000007082
 21
-3.049999999995634
 31
0.0
  0
LINE
  8
OUTLINE
  6
CONTINUOUS
 62
     3
 10
-470.70000000007082
 20
-3.049999999995634
 30
0.0
 11
-473.70000000007082
 21
-3.049999999995634
 31
0.0
  0
LINE
  8
OUTLINE
  6
CONTINUOUS
 62
     3
 10
-473.70000000007082
 20
-3.049999999995634
 30
0.0
 11
-473.70113113207032
 21
-5.5008654853298822
 31
0.0
  0
ARC
  8
OUTLINE
  6
CONTINUOUS
 62
     3
 10
-474.90113113206507
 20
-5.5008654853275676
 30
0.0
 40
1.199999999994775
 50
0.0
 51
90.0
  0
LINE
  8
OUTLINE
  6
CONTINUOUS
 62
     3
 10
-474.90113113207099
 20
-4.3008654853327926
 30
0.0
 11
-484.10000000006681
 21
-4.2999999999885858
 31
0.0
  0
ARC
  8
OUTLINE
  6
CONTINUOUS
 62
     3
 10
-484.10000000006681
 20
-4.8999999999878128
 30
0.0
 40
0.5999999999992269
 50
90.0
 51
270.0
  0
LINE
  8
OUTLINE
  6
CONTINUOUS
 62
     3
 10
-484.10000000006681
 20
-5.4999999999870397
 30
0.0
 11
-484.70113113207032
 21
-5.5008654853298822
 31
0.0
  0
LINE
  8
OUTLINE
  6
CONTINUOUS
 62
     3
 10
-484.70113113207032
 20
-5.5008654853298822
 30
0.0
 11
-485.08091743207018
 21
-5.0364248600016026
 31
0.0
  0
ARC
  8
OUTLINE
  6
CONTINUOUS
 62
     3
 10
-450.09999999435365
 20
-47.608075237290102
 30
0.0
 40
55.10000000572078
 50
129.40977859484622
 51
180.0
  0
LINE
  8
OUTLINE
  6
CONTINUOUS
 62
     3
 10
-505.2000000000744
 20
-47.608074492003652
 30
0.0
 11
-505.19999999726411
 21
-66.936574670380423
 31
0.0
  0
ARC
  8
OUTLINE
  6
CONTINUOUS
 62
     3
 10
-504.97504941826787
 20
-70.150243733477396
 30
0.0
 40
3.2215324940309511
 50
94.004061958030093
 51
177.29408327307283
  0
LINE
  8
OUTLINE
  6
CONTINUOUS
 62
     3
 10
-508.19298992007498
 20
-69.998156466006435
 30
0.0
 11
-514.10000000007494
 21
-70.0
 31
0.0
  0
ARC
  8
OUTLINE
  6
CONTINUOUS
 62
     3
 10
-514.10000000008097
 20
-66.800000000005269
 30
0.0
 40
3.1999999999947359
 50
180.0
 51
270.0
  0
LINE
  8
OUTLINE
  6
CONTINUOUS
 62
     3
 10
-517.30000000007567
 20
-66.80000000000291
 30
0.0
 11
-517.30000000007203
 21
-63.200000000004373
 31
0.0
  0
LINE
  8
OUTLINE
  6
CONTINUOUS
 62
     3
 10
-517.30000000007203
 20
-63.200000000004373
 30
0.0
 11
-520.50000000007731
 21
-63.200000000004373
 31
0.0
  0
LINE
  8
OUTLINE
  6
CONTINUOUS
 62
     3
 10
-520.50000000007731
 20
-63.200000000004373
 30
0.0
 11
-520.50000000007549
 21
-66.80000000000291
 31
0.0
  0
ARC
  8
OUTLINE
  6
CONTINUOUS
 62
     3
 10
-514.10000000008017
 20
-66.800000000005397
 30
0.0
 40
6.3999999999952806
 50
180.0
 51
228.65645515216477
  0
ARC
  8
OUTLINE
  6
CONTINUOUS
 62
     3
 10
-514.35163095444591
 20
-76.295771045995295
 30
0.0
 40
6.1492524420543155
 50
130.28484067853213
 51
180.97120181883145
  0
LINE
  8
OUTLINE
  6
CONTINUOUS
 62
     3
 10
-520.50000000007549
 20
-76.400000000008731
 30
0.0
 11
-520.50000000007731
 21
-80.0
 31
0.0
  0
LINE
  8
OUTLINE
  6
CONTINUOUS
 62
     3
 10
-520.50000000007731
 20
-80.0
 30
0.0
 11
-517.30000000007203
 21
-80.0
 31
0.0
  0
LINE
  8
OUTLINE
  6
CONTINUOUS
 62
     3
 10
-517.30000000007203
 20
-80.0
 30
0.0
 11
-517.30000000007567
 21
-76.400000000008731
 31
0.0
  0
ARC
  8
OUTLINE
  6
CONTINUOUS
 62
     3
 10
-514.10000000007494
 20
-76.400000000008987
 30
0.0
 40
3.2000000000007525
 50
90.0
 51
180.0
  0
LINE
  8
OUTLINE
  6
CONTINUOUS
 62
     3
 10
-514.10000000007494
 20
-73.200000000008231
 30
0.0
 11
-508.39722442207682
 21
-73.200000000011642
 31
0.0
  0
LINE
  8
OUTLINE
  6
CONTINUOUS
 62
     3
 10
-508.39722442207682
 20
-73.200000000011642
 30
0.0
 11
-508.39722442207682
 21
-86.899999999998727
 31
0.0
  0
LINE
  8
OUTLINE
  6
CONTINUOUS
 62
     3
 10
-508.39722442207682
 20
-86.899999999998727
 30
0.0
 11
-508.39722442207682
 21
-86.899999999998727
 31
0.0
  0
LINE
  8
OUTLINE
  6
CONTINUOUS
 62
     3
 10
-508.39722442207682
 20
-86.899999999998727
 30
0.0
 11
-585.70000000009168
 21
-86.899999999999636
 31
0.0
  0
LINE
  8
OUTLINE
  6
CONTINUOUS
 62
     3
 10
-585.70000000009168
 20
-86.899999999999636
 30
0.0
 11
-585.70000000009168
 21
-87.751087470693165
 31
0.0
  0
ARC
  8
OUTLINE
  6
CONTINUOUS
 62
     3
 10
-584.90000000009013
 20
-88.899999999989618
 30
0.0
 40
1.3999999999917083
 50
124.84990457935925
 51
145.15009542139018
  0
LINE
  8
OUTLINE
  6
CONTINUOUS
 62
     3
 10
-586.04891252939706
 20
-88.100000000003092
 30
0.0
 11
-586.90000000008877
 21
-88.100000000003092
 31
0.0
  0
LINE
  8
OUTLINE
  6
CONTINUOUS
 62
     3
 10
-586.90000000008877
 20
-88.100000000003092
 30
0.0
 11
-586.90000000008058
 21
-347.30000000003753
 31
0.0
  0
LINE
  8
OUTLINE
  6
CONTINUOUS
 62
     3
 10
-586.90000000008058
 20
-347.30000000003753
 30
0.0
 11
-586.04891252939069
 21
-347.30000000003662
 31
0.0
  0
ARC
  8
OUTLINE
  6
CONTINUOUS
 62
     3
 10
-584.90000000007944
 20
-346.50000000004439
 30
0.0
 40
1.3999999999985526
 50
214.84990457870015
 51
235.15009542070993
  0
LINE
  8
OUTLINE
  6
CONTINUOUS
 62
     3
 10
-585.70000000008349
 20
-347.6489125293474
 30
0.0
 11
-585.70000000008349
 21
-348.50000000004093
 31
0.0
  0
LINE
  8
OUTLINE
  6
CONTINUOUS
 62
     3
 10
-585.70000000008349
 20
-348.50000000004093
 30
0.0
 11
-508.80000000006658
 21
-348.50456560486538
 31
0.0
  0
LINE
  8
OUTLINE
  6
CONTINUOUS
 62
     3
 10
-508.80000000006658
 20
-348.50456560486538
 30
0.0
 11
-508.80000000006658
 21
-356.15000000003778
 31
0.0
  0
ARC
  8
OUTLINE
  6
CONTINUOUS
 62
     3
 10
-509.80000000007908
 20
-356.15000000002539
 30
0.0
 40
1.0000000000124982
 50
270.0
 51
0.0
  0
LINE
  8
OUTLINE
  6
CONTINUOUS
 62
     3
 10
-509.80000000007391
 20
-357.15000000003789
 30
0.0
 11
-515.80000000007567
 21
-357.15000000003778
 31
0.0
  0
LINE
  8
OUTLINE
  6
CONTINUOUS
 62
     3
 10
-515.80000000007567
 20
-357.15000000003778
 30
0.0
 11
-515.80000000007567
 21
-358.18707326290411
 31
0.0
  0
LINE
  8
OUTLINE
  6
CONTINUOUS
 62
     3
 10
-515.80000000007567
 20
-358.18707326290411
 30
0.0
 11
-509.80000000007391
 21
-358.15000000003778
 31
0.0
  0
ARC
  8
OUTLINE
  6
CONTINUOUS
 62
     3
 10
-509.80000000007311
 20
-356.15000000003857
 30
0.0
 40
1.9999999999991847
 50
270.0
 51
0.0
  0
LINE
  8
OUTLINE
  6
CONTINUOUS
 62
     3
 10
-507.80000000007391
 20
-356.15000000003778
 30
0.0
 11
-506.80000000007391
 21
-356.15000000003778
 31
0.0
  0
LINE
  8
OUTLINE
  6
CONTINUOUS
 62
     3
 10
-506.80000000007391
 20
-356.15000000003778
 30
0.0
 11
-506.80000000007391
 21
-361.35000000004948
 31
0.0
  0
ARC
  8
OUTLINE
  6
CONTINUOUS
 62
     3
 10
-503.80000000005674
 20
-361.35000000003498
 30
0.0
 40
3.0000000000171769
 50
180.0
 51
253.501433112217
  0
ARC
  8
OUTLINE
  6
CONTINUOUS
 62
     3
 10
-450.11770424754923
 20
-356.50572833252784
 30
0.0
 40
55.078095474771629
 50
188.0581621383061
 51
230.59533470693668
  0
LINE
  8
OUTLINE
  6
CONTINUOUS
 62
     3
 10
-485.08091743130632
 20
-399.06357514125642
 30
0.0
 11
-484.70110091759938
 21
-398.59909756869632
 31
0.0
  0
LINE
  8
OUTLINE
  6
CONTINUOUS
 62
     3
 10
-484.70110091759938
 20
-398.59909756869632
 30
0.0
 11
-484.10000000006681
 21
-398.60000000004788
 31
0.0
  0
ARC
  8
OUTLINE
  6
CONTINUOUS
 62
     3
 10
-484.10000000006681
 20
-399.20000000005075
 30
0.0
 40
0.6000000000028649
 50
90.0
 51
270.0
  0
LINE
  8
OUTLINE
  6
CONTINUOUS
 62
     3
 10
-484.10000000006681
 20
-399.80000000005361
 30
0.0
 11
-474.90110091759828
 21
-399.79909756870057
 31
0.0
  0
ARC
  8
OUTLINE
  6
CONTINUOUS
 62
     3
 10
-474.90110091760494
 20
-398.59909756869325
 30
0.0
 40
1.2000000000072932
 50
270.0
 51
0.0
  0
LINE
  8
OUTLINE
  6
CONTINUOUS
 62
     3
 10
-473.70110091759761
 20
-398.59909756869632
 30
0.0
 11
-473.70000000007082
 21
-400.95000000005348
 31
0.0
  0
LINE
  8
OUTLINE
  6
CONTINUOUS
 62
     3
 10
-473.70000000007082
 20
-400.95000000005348
 30
0.0
 11
-470.70000000007082
 21
-400.95000000005348
 31
0.0
  0
LINE
  8
OUTLINE
  6
CONTINUOUS
 62
     3
 10
-470.70000000007082
 20
-400.95000000005348
 30
0.0
 11
-470.70000000007713
 21
-402.1500000000724
 31
0.0
  0
ARC
  8
OUTLINE
  6
CONTINUOUS
 62
     3
 10
-471.2000000000516
 20
-402.15000000008331
 30
0.0
 40
0.4999999999744693
 50
270.0
 51
0.0
  0
LINE
  8
OUTLINE
  6
CONTINUOUS
 62
     3
 10
-471.20000000007713
 20
-402.65000000005779
 30
0.0
 11
-472.70000000006979
 21
-402.65000000006012
 31
0.0
  0
LINE
  8
OUTLINE
  6
CONTINUOUS
 62
     3
 10
-472.70000000006979
 20
-402.65000000006012
 30
0.0
 11
-472.70000000006979
 21
-401.85000000004771
 31
0.0
  0
LINE
  8
OUTLINE
  6
CONTINUOUS
 62
     3
 10
-472.70000000006979
 20
-401.85000000004771
 30
0.0
 11
-475.92500000007573
 21
-401.85000000004538
 31
0.0
  0
ARC
  8
OUTLINE
  6
CONTINUOUS
 62
     3
 10
-475.92485294122542
 20
-402.92514705887464
 30
0.0
 40
1.0751470688866556
 50
90.00783692922812
 51
268.65976313067426
  0
LINE
  8
OUTLINE
  6
CONTINUOUS
 62
     3
 10
-475.95000000007082
 20
-404.00000000005639
 30
0.0
 11
-470.9330649400672
 21
-404.00000000005639
 31
0.0
  0
ARC
  8
OUTLINE
  6
CONTINUOUS
 62
     3
 10
-470.93306494006333
 20
-402.40000000006057
 30
0.0
 40
1.5999999999957926
 50
270.0
 51
355.00000000011278
  0
LINE
  8
OUTLINE
  6
CONTINUOUS
 62
     3
 10
-469.33915342312048
 20
-402.53944918845332
 30
0.0
 11
-469.21759237007058
 21
-401.15000000005779
 31
0.0
  0
LINE
  8
OUTLINE
  6
CONTINUOUS
 62
     3
 10
-469.21759237007058
 20
-401.15000000005779
 30
0.0
 11
-468.70000000006979
 21
-401.15000000005779
 31
0.0
  0
LINE
  8
OUTLINE
  6
CONTINUOUS
 62
     3
 10
-468.70000000006979
 20
-401.15000000005779
 30
0.0
 11
-468.70000000007713
 21
-403.15000000006512
 31
0.0
  0
LINE
  8
OUTLINE
  6
CONTINUOUS
 62
     3
 10
-468.70000000007713
 20
-403.15000000006512
 30
0.0
 11
-467.80000000006839
 21
-403.15000000005062
 31
0.0
  0
LINE
  8
OUTLINE
  6
CONTINUOUS
 62
     3
 10
-467.80000000006839
 20
-403.15000000005062
 30
0.0
 11
-467.80000000006839
 21
-404.00000000005639
 31
0.0
  0
LINE
  8
OUTLINE
  6
CONTINUOUS
 62
     3
 10
-467.80000000006839
 20
-404.00000000005639
 30
0.0
 11
467.8000000000693
 21
-404.00000000005639
 31
0.0
  0
LINE
  8
OUTLINE
  6
CONTINUOUS
 62
     3
 10
467.8000000000693
 20
-404.00000000005639
 30
0.0
 11
467.8000000000693
 21
-403.15000000005062
 31
0.0
  0
LINE
  8
OUTLINE
  6
CONTINUOUS
 62
     3
 10
467.8000000000693
 20
-403.15000000005062
 30
0.0
 11
468.70000000006979
 21
-403.15000000004511
 31
0.0
  0
LINE
  8
OUTLINE
  6
CONTINUOUS
 62
     3
 10
468.70000000006979
 20
-403.15000000004511
 30
0.0
 11
468.70000000007173
 21
-401.15000000004329
 31
0.0
  0
LINE
  8
OUTLINE
  6
CONTINUOUS
 62
     3
 10
468.70000000007173
 20
-401.15000000004329
 30
0.0
 11
469.21759237006609
 21
-401.15000000005779
 31
0.0
  0
LINE
  8
OUTLINE
  6
CONTINUOUS
 62
     3
 10
469.21759237006609
 20
-401.15000000005779
 30
0.0
 11
469.33915342111959
 21
-402.53944918845332
 31
0.0
  0
ARC
  8
OUTLINE
  6
CONTINUOUS
 62
     3
 10
470.93306493806267
 20
-402.40000000006034
 30
0.0
 40
1.5999999999960177
 50
184.99999999989461
 51
270.0
  0
LINE
  8
OUTLINE
  6
CONTINUOUS
 62
     3
 10
470.93306493806631
 20
-404.00000000005639
 30
0.0
 11
475.95000000006621
 21
-404.00000000005639
 31
0.0
  0
ARC
  8
OUTLINE
  6
CONTINUOUS
 62
     3
 10
475.92485294121951
 20
-402.92514705887584
 30
0.0
 40
1.0751470688855063
 50
271.3402368693969
 51
89.992163070799165
  0
LINE
  8
OUTLINE
  6
CONTINUOUS
 62
     3
 10
475.9250000000693
 20
-401.85000000004771
 30
0.0
 11
472.70000000006979
 21
-401.85000000003311
 31
0.0
  0
LINE
  8
OUTLINE
  6
CONTINUOUS
 62
     3
 10
472.70000000006979
 20
-401.85000000003311
 30
0.0
 11
472.70000000006979
 21
-402.65000000005062
 31
0.0
  0
LINE
  8
OUTLINE
  6
CONTINUOUS
 62
     3
 10
472.70000000006979
 20
-402.65000000005062
 30
0.0
 11
471.20000000007349
 21
-402.65000000005062
 31
0.0
  0
ARC
  8
OUTLINE
  6
CONTINUOUS
 62
     3
 10
471.20000000007525
 20
-402.1500000000525
 30
0.0
 40
0.4999999999981465
 50
180.0
 51
270.0
  0
LINE
  8
OUTLINE
  6
CONTINUOUS
 62
     3
 10
470.70000000007713
 20
-402.15000000005062
 30
0.0
 11
471.20000000007349
 21
-402.15000000005062
 31
0.0
  0
LINE
  8
OUTLINE
  6
CONTINUOUS
 62
     3
 10
471.20000000007349
 20
-402.15000000005062
 30
0.0
 11
471.2000000000653
 21
-120.0000000000073
 31
0.0
  0
LINE
  8
OUTLINE
  6
CONTINUOUS
 62
     3
 10
471.2000000000653
 20
-120.0000000000073
 30
0.0
 11
473.90000000006239
 21
-120.0000000000073
 31
0.0
  0
LINE
  8
OUTLINE
  6
CONTINUOUS
 62
     3
 10
473.90000000006239
 20
-120.0000000000073
 30
0.0
 11
473.90000000006779
 21
-76.400000000008731
 31
0.0
  0
ARC
  8
OUTLINE
  6
CONTINUOUS
 62
     3
 10
477.10281766885504
 20
-76.401167116634738
 30
0.0
 40
3.202817881437706
 50
91.839639656267138
 51
179.97912124234813
  0
LINE
  8
OUTLINE
  6
CONTINUOUS
 62
     3
 10
477.0000000000673
 20
-73.19999999999709
 30
0.0
 11
514.10000000006949
 21
-73.200000000012551
 31
0.0
  0
ARC
  8
OUTLINE
  6
CONTINUOUS
 62
     3
 10
514.10000000006812
 20
-76.400000000010976
 30
0.0
 40
3.1999999999984237
 50
0.0
 51
90.0
  0
LINE
  8
OUTLINE
  6
CONTINUOUS
 62
     3
 10
517.30000000006658
 20
-76.400000000012369
 30
0.0
 11
517.30000000006658
 21
-80.000000000007276
 31
0.0
  0
LINE
  8
OUTLINE
  6
CONTINUOUS
 62
     3
 10
517.30000000006658
 20
-80.000000000007276
 30
0.0
 11
520.50000000007094
 21
-80.000000000007276
 31
0.0
  0
LINE
  8
OUTLINE
  6
CONTINUOUS
 62
     3
 10
520.50000000007094
 20
-80.000000000007276
 30
0.0
 11
520.5000000000673
 21
-76.400000000012369
 31
0.0
  0
ARC
  8
OUTLINE
  6
CONTINUOUS
 62
     3
 10
514.10000000006812
 20
-76.40000000000974
 30
0.0
 40
6.3999999999992259
 50
0.0
 51
48.590377890777972
  0
ARC
  8
OUTLINE
  6
CONTINUOUS
 62
     3
 10
514.10000000006926
 20
-66.799999999999415
 30
0.0
 40
6.4000000000016728
 50
311.40962210918883
 51
0.0
  0
LINE
  8
OUTLINE
  6
CONTINUOUS
 62
     3
 10
520.50000000007094
 20
-66.80000000000291
 30
0.0
 11
520.50000000007094
 21
-63.200000000004373
 31
0.0
  0
LINE
  8
OUTLINE
  6
CONTINUOUS
 62
     3
 10
520.50000000007094
 20
-63.200000000004373
 30
0.0
 11
517.30000000006658
 21
-63.200000000004373
 31
0.0
  0
LINE
  8
OUTLINE
  6
CONTINUOUS
 62
     3
 10
517.30000000006658
 20
-63.200000000004373
 30
0.0
 11
517.30000000006658
 21
-66.80000000000291
 31
0.0
  0
ARC
  8
OUTLINE
  6
CONTINUOUS
 62
     3
 10
514.1000000000713
 20
-66.800000000007415
 30
0.0
 40
3.1999999999953181
 50
270.0
 51
0.0
  0
LINE
  8
OUTLINE
  6
CONTINUOUS
 62
     3
 10
514.10000000006949
 20
-70.000000000002728
 30
0.0
 11
477.10000000006858
 21
-70.000000000007844
 31
0.0
  0
ARC
  8
OUTLINE
  6
CONTINUOUS
 62
     3
 10
477.0974714076749
 20
-76.393895437957013
 30
0.0
 40
6.3938959379400844
 50
89.97734125211781
 51
157.27351666225798
  0
TEXT
  8
ETC
  6
CONTINUOUS
 62
    61
 10
817.1764012918311
 20
828.52550689979307
 30
0.0
 40
64.065641025638456
  1
LGH-65RVX3-E_2
 41
0.9
  0
TEXT
  8
ETC
  6
CONTINUOUS
 62
    61
 10
812.98611396465185
 20
710.44921707982257
 30
0.0
 40
64.065641025638456
  1
LOSSNAY
 41
0.9
  0
TEXT
  8
ETC
  6
CONTINUOUS
 62
    61
 10
863.73951364730692
 20
602.18952237525639
 30
0.0
 40
40.041025641024042
  1
LGH-65RVX3-E
 50
0.0
 41
0.9
 51
0.0
  7
STANDARD
 71
     0
 11
0.0
 21
0.0
 31
0.0
210
0.0
220
0.0
230
1.0
  0
TEXT
  8
NOTE
  6
CONTINUOUS
 62
     4
 10
-396.77864055966529
 20
-274.62150837951231
 30
0.0
 40
64.065641025638456
  1
SA
 41
0.9
  0
TEXT
  8
NOTE
  6
CONTINUOUS
 62
     4
 10
298.2523682567371
 20
-274.62150837951231
 30
0.0
 40
64.065641025638456
  1
RA
 41
0.9
  0
TEXT
  8
NOTE
  6
CONTINUOUS
 62
     4
 10
642.00886761605125
 20
379.509205793619
 30
0.0
 40
69.0
  1
Ceiling suspension fixture
 50
0.0
 41
0.9
 51
0.0
  7
STANDARD
 71
     0
 11
0.0
 21
0.0
 31
0.0
210
0.0
220
0.0
230
1.0
  0
TEXT
  8
NOTE
  6
CONTINUOUS
 62
     4
 10
642.00886761605125
 20
265.65920579361898
 30
0.0
 40
69.0
  1
(4-13X20 oval)
 50
0.0
 41
0.9
 51
0.0
  7
STANDARD
 71
     0
 11
0.0
 21
0.0
 31
0.0
210
0.0
220
0.0
230
1.0
  0
LINE
  8
NOTE
  6
CONTINUOUS
 62
     4
 10
632.00886761605125
 20
228.36634865076169
 30
0.0
 11
1848.523153330337
 21
228.36634865076169
 31
0.0
  0
LINE
  8
NOTE
  6
CONTINUOUS
 62
     4
 10
522.38654482265883
 20
-41.122137302292259
 30
0.0
 11
500.49999462434153
 21
-69.999992026614109
 31
0.0
  0
LINE
  8
NOTE
  6
CONTINUOUS
 62
     4
 10
500.49999462434153
 20
-69.999992026614109
 30
0.0
 11
505.01532155713244
 21
-34.047754325011823
 31
0.0
  0
LINE
  8
NOTE
  6
CONTINUOUS
 62
     4
 10
500.49999462434153
 20
-69.999992026614109
 30
0.0
 11
526.90187175544975
 21
-5.1698996006899733
 31
0.0
  0
LINE
  8
NOTE
  6
CONTINUOUS
 62
     4
 10
526.90187175544963
 20
-5.1698996006899449
 30
0.0
 11
622.00886761605125
 21
228.36634865076169
 31
0.0
  0
LINE
  8
NOTE
  6
CONTINUOUS
 62
     4
 10
622.00886761605125
 20
228.36634865076169
 30
0.0
 11
632.00886761605125
 21
228.36634865076169
 31
0.0
  0
TEXT
  8
NOTE
  6
CONTINUOUS
 62
     4
 10
-1272.5315292035593
 20
-527.51293987666031
 30
0.0
 40
69.0
  1
Power supply
 50
0.0
 41
0.9
 51
0.0
  7
STANDARD
 71
     0
 72
     2
 11
-668.29852920355916
 21
-527.51293987666031
 31
0.0
210
0.0
220
0.0
230
1.0
  0
TEXT
  8
NOTE
  6
CONTINUOUS
 62
     4
 10
-1300.4765292035593
 20
-641.36293987666033
 30
0.0
 40
69.0
  1
cable opening
 50
0.0
 41
0.9
 51
0.0
  7
STANDARD
 71
     0
 72
     2
 11
-668.29852920355916
 21
-641.36293987666033
 31
0.0
210
0.0
220
0.0
230
1.0
  0
LINE
  8
NOTE
  6
CONTINUOUS
 62
     4
 10
-658.29852920356007
 20
-665.51293987666031
 30
0.0
 11
-1309.9985292035601
 21
-665.51293987666031
 31
0.0
  0
LINE
  8
NOTE
  6
CONTINUOUS
 62
     4
 10
-578.2907872576709
 20
-338.28855283943557
 30
0.0
 11
-560.90000000008058
 21
-306.5000000000291
 31
0.0
  0
LINE
  8
NOTE
  6
CONTINUOUS
 62
     4
 10
-560.90000000008058
 20
-306.5000000000291
 30
0.0
 11
-560.06653254809282
 21
-342.72508668134674
 31
0.0
  0
LINE
  8
NOTE
  6
CONTINUOUS
 62
     4
 10
-560.90000000008058
 20
-306.5000000000291
 30
0.0
 11
-577.45731980568303
 21
-374.5136395207532
 31
0.0
  0
LINE
  8
NOTE
  6
CONTINUOUS
 62
     4
 10
-577.45731980568314
 20
-374.5136395207532
 30
0.0
 11
-648.29852920356007
 21
-665.51293987666031
 31
0.0
  0
LINE
  8
NOTE
  6
CONTINUOUS
 62
     4
 10
-648.29852920356007
 20
-665.51293987666031
 30
0.0
 11
-658.29852920356007
 21
-665.51293987666031
 31
0.0
  0
ENDSEC
  0
EOF
