  0
SECTION
  2
HEADER
  9
$ACADVER
  1
AC1009
  9
$DWGCODEPAGE
  3
dos932
  9
$INSBASE
 10
0.0
 20
0.0
 30
0.0
  9
$EXTMIN
 10
-1299.2843470178609
 20
-1035.00365109067
 30
-0.0000000349181948
  9
$EXTMAX
 10
1805.0399905012889
 20
1383.3160489836191
 30
0.0000000814935746
  9
$LIMMIN
 10
-2970.0
 20
-2100.0
  9
$LIMMAX
 10
2970.0
 20
2100.0
  9
$ORTHOMODE
 70
     1
  9
$REGENMODE
 70
     1
  9
$FILLMODE
 70
     1
  9
$QTEXTMODE
 70
     0
  9
$MIRRTEXT
 70
     0
  9
$LTSCALE
 40
20.0
  9
$ATTMODE
 70
     1
  9
$TEXTSIZE
 40
64.0
  9
$TRACEWID
 40
0.05
  9
$TEXTSTYLE
  7
STANDARD
  9
$CLAYER
  8
SIZE
  9
$CELTYPE
  6
CONTINUOUS
  9
$CECOLOR
 62
     7
  9
$DIMSCALE
 40
1.0
  9
$DIMASZ
 40
12.0
  9
$DIMEXO
 40
20.0
  9
$DIMDLI
 40
200.0
  9
$DIMRND
 40
0.0
  9
$DIMDLE
 40
0.0
  9
$DIMEXE
 40
20.0
  9
$DIMTP
 40
0.0
  9
$DIMTM
 40
0.0
  9
$DIMTXT
 40
64.0
  9
$DIMCEN
 40
0.09
  9
$DIMTSZ
 40
0.0
  9
$DIMTOL
 70
     0
  9
$DIMLIM
 70
     0
  9
$DIMTIH
 70
     0
  9
$DIMTOH
 70
     0
  9
$DIMSE1
 70
     0
  9
$DIMSE2
 70
     0
  9
$DIMTAD
 70
     1
  9
$DIMZIN
 70
     8
  9
$DIMBLK
  1

  9
$DIMASO
 70
     1
  9
$DIMSHO
 70
     0
  9
$DIMPOST
  1

  9
$DIMAPOST
  1

  9
$DIMALT
 70
     0
  9
$DIMALTD
 70
     2
  9
$DIMALTF
 40
25.399999999999999
  9
$DIMLFAC
 40
1.0
  9
$DIMTOFL
 70
     1
  9
$DIMTVP
 40
0.0
  9
$DIMTIX
 70
     1
  9
$DIMSOXD
 70
     0
  9
$DIMSAH
 70
     0
  9
$DIMBLK1
  1

  9
$DIMBLK2
  1

  9
$DIMSTYLE
  2
STANDARD
  9
$DIMCLRD
 70
     7
  9
$DIMCLRE
 70
     7
  9
$DIMCLRT
 70
     7
  9
$DIMTFAC
 40
1.0
  9
$DIMGAP
 40
25.0
  9
$LUNITS
 70
     2
  9
$LUPREC
 70
     4
  9
$SKETCHINC
 40
0.1
  9
$FILLETRAD
 40
3.0
  9
$AUNITS
 70
     1
  9
$AUPREC
 70
     3
  9
$MENU
  1
ACAD
  9
$ELEVATION
 40
0.0
  9
$PELEVATION
 40
0.0
  9
$THICKNESS
 40
0.0
  9
$LIMCHECK
 70
     0
  9
$CHAMFERA
 40
0.0
  9
$CHAMFERB
 40
0.0
  9
$SKPOLY
 70
     0
  9
$TDCREATE
 40
2453019.62301037
  9
$TDUPDATE
 40
2460045.428740949
  9
$TDINDWG
 40
1.7133145949
  9
$TDUSRTIMER
 40
1.7133145949
  9
$USRTIMER
 70
     1
  9
$ANGBASE
 50
0.0
  9
$ANGDIR
 70
     0
  9
$PDMODE
 70
     3
  9
$PDSIZE
 40
-2.0
  9
$PLINEWID
 40
0.0
  9
$SPLFRAME
 70
     0
  9
$SPLINETYPE
 70
     6
  9
$SPLINESEGS
 70
     8
  9
$SURFTAB1
 70
     6
  9
$SURFTAB2
 70
     6
  9
$SURFTYPE
 70
     6
  9
$SURFU
 70
     6
  9
$SURFV
 70
     6
  9
$UCSNAME
  2

  9
$UCSORG
 10
0.0
 20
0.0
 30
0.0
  9
$UCSXDIR
 10
1.0
 20
0.0
 30
0.0
  9
$UCSYDIR
 10
0.0
 20
1.0
 30
0.0
  9
$PUCSNAME
  2

  9
$PUCSORG
 10
0.0
 20
0.0
 30
0.0
  9
$PUCSXDIR
 10
1.0
 20
0.0
 30
0.0
  9
$PUCSYDIR
 10
0.0
 20
1.0
 30
0.0
  9
$USERI1
 70
     0
  9
$USERI2
 70
     0
  9
$USERI3
 70
     0
  9
$USERI4
 70
     0
  9
$USERI5
 70
     0
  9
$USERR1
 40
20.0
  9
$USERR2
 40
0.0
  9
$USERR3
 40
0.0
  9
$USERR4
 40
0.0
  9
$USERR5
 40
0.0
  9
$WORLDVIEW
 70
     1
  9
$SHADEDGE
 70
     3
  9
$SHADEDIF
 70
    70
  9
$TILEMODE
 70
     1
  9
$MAXACTVP
 70
    48
  9
$PINSBASE
 10
0.0
 20
0.0
 30
0.0
  9
$PLIMCHECK
 70
     0
  9
$PEXTMIN
 10
-100000000000000000000.0
 20
-100000000000000000000.0
 30
-100000000000000000000.0
  9
$PEXTMAX
 10
100000000000000000000.0
 20
100000000000000000000.0
 30
100000000000000000000.0
  9
$PLIMMIN
 10
0.0
 20
0.0
  9
$PLIMMAX
 10
12.0
 20
9.0
  9
$UNITMODE
 70
     0
  9
$VISRETAIN
 70
     0
  9
$PLINEGEN
 70
     0
  9
$PSLTSCALE
 70
     0
  9
$TREEDEPTH
 70
  3020
  9
$ATTDIA
 70
     0
  9
$ATTREQ
 70
     1
  9
$BLIPMODE
 70
     1
  9
$COORDS
 70
     1
  9
$DRAGMODE
 70
     2
  9
$OSMODE
 70
     0
  9
$HANDLING
 70
     0
  9
$HANDSEED
  5
F1BA
  0
ENDSEC
  0
SECTION
  2
TABLES
  0
TABLE
  2
LTYPE
 70
     3
  0
LTYPE
  2
CONTINUOUS
 70
     0
  3
実線
 72
    65
 73
     0
 40
0.0
  0
LTYPE
  2
DASHDOT
 70
     0
  3
____ _ ____ _ ____ _ ____ _ ____ _ ____ _ ____
 72
    65
 73
     4
 40
5.5
 49
4.0
 49
-0.6
 49
0.3
 49
-0.6
  0
LTYPE
  2
DASHED
 70
     0
  3
-- -- -- -- -- -- -- -- -- -- -- -- -- -- --
 72
    65
 73
     2
 40
0.75
 49
0.5
 49
-0.25
  0
ENDTAB
  0
TABLE
  2
LAYER
 70
    12
  0
LAYER
  2
0
 70
     0
 62
     7
  6
CONTINUOUS
  0
LAYER
  2
BASIS
 70
     0
 62
     6
  6
DASHDOT
  0
LAYER
  2
OUTLINE
 70
     0
 62
     3
  6
CONTINUOUS
  0
LAYER
  2
DETAIL
 70
     0
 62
     5
  6
CONTINUOUS
  0
LAYER
  2
SIZE
 70
     0
 62
    30
  6
CONTINUOUS
  0
LAYER
  2
ARRANGE
 70
     0
 62
     1
  6
CONTINUOUS
  0
LAYER
  2
DEFPOINTS
 70
     0
 62
     7
  6
CONTINUOUS
  0
LAYER
  2
ETC
 70
     0
 62
    61
  6
CONTINUOUS
  0
LAYER
  2
FIX
 70
     0
 62
    11
  6
CONTINUOUS
  0
LAYER
  2
NOTE
 70
     0
 62
     4
  6
CONTINUOUS
  0
LAYER
  2
SERVICESPACE
 70
     0
 62
     2
  6
DASHDOT
  0
LAYER
  2
SYMBOLLINE
 70
    64
 62
    15
  6
CONTINUOUS
  0
ENDTAB
  0
TABLE
  2
STYLE
 70
     1
  0
STYLE
  2
STANDARD
 70
     0
 40
64.0
 41
0.9
 50
0.0
 71
     0
 42
64.0
  3
SIMPLEX.shx
  4
BIGFONT.shx
  0
ENDTAB
  0
TABLE
  2
APPID
 70
    22
  0
APPID
  2
ACAD
 70
     0
  0
APPID
  2
AUTOCAD_POSTSCRIPT_FIGURE
 70
     0
  0
APPID
  2
ACAD_EXEMPT_FROM_CAD_STANDARDS
 70
     0
  0
APPID
  2
ACAD_PSEXT
 70
     0
  0
APPID
  2
ACAUTHENVIRON
 70
     0
  0
APPID
  2
GENIUS_GENOENT_13
 70
     0
  0
APPID
  2
GENIUS_GENCFG_13
 70
     0
  0
APPID
  2
GENIUS_GENCFG0_13
 70
     0
  0
APPID
  2
GENIUS_GENCFG1_13
 70
     0
  0
APPID
  2
GENIUS_GENCFG2_13
 70
     0
  0
APPID
  2
GENIUS_GENCFG3_13
 70
     0
  0
APPID
  2
GENIUS_GENCFG4_13
 70
     0
  0
APPID
  2
GENIUS_GEVCFG0_13
 70
     0
  0
APPID
  2
CONTENTBLOCKICON
 70
     0
  0
APPID
  2
CONTENTBLOCKDESCRIPTION
 70
     0
  0
APPID
  2
ACAD_NAV_VCDISPLAY
 70
     0
  0
APPID
  2
ACAD_MLEADERVER
 70
     0
  0
APPID
  2
ACDBDYNAMICBLOCKTRUENAME
 70
     0
  0
APPID
  2
ACDBDYNAMICBLOCKGUID
 70
     0
  0
APPID
  2
GENIUS_GENODEF_13
 70
     0
  0
APPID
  2
GENIUS_GENOBJ-N-CEN_13
 70
     0
  0
APPID
  2
GENIUS_GENCEN_19
 70
     0
  0
ENDTAB
  0
TABLE
  2
DIMSTYLE
 70
     1
  0
DIMSTYLE
  2
STANDARD
 70
     0
  3

  4

  5
_ORIGIN
  6

  7

 40
1.0
 41
12.0
 42
20.0
 43
200.0
 44
20.0
 45
0.0
 46
0.0
 47
0.0
 48
0.0
140
64.0
141
0.09
142
0.0
143
25.399999999999999
144
1.0
145
0.0
146
1.0
147
25.0
 71
     0
 72
     0
 73
     0
 74
     0
 75
     0
 76
     0
 77
     1
 78
     8
170
     0
171
     2
172
     1
173
     0
174
     1
175
     0
176
     7
177
     7
178
     7
  0
ENDTAB
  0
TABLE
  2
VIEW
 70
     1
  0
VIEW
  2
ALL
 70
     0
 40
4282.6198079999986
 10
0.0
 20
41.309904000000003
 41
5940.0
 11
0.0
 21
0.0
 31
1.0
 12
0.0
 22
0.0
 32
0.0
 42
50.0
 43
0.0
 44
0.0
 50
0.0
 71
     0
  0
ENDTAB
  0
TABLE
  2
UCS
 70
     0
  0
ENDTAB
  0
TABLE
  2
VPORT
 70
     1
  0
VPORT
  2
*ACTIVE
 70
     0
 10
0.0
 20
0.0
 11
1.0
 21
1.0
 12
252.87782174171409
 22
174.1561989464744
 13
0.0
 23
0.0
 14
1.0
 24
1.0
 15
0.0
 25
0.0
 16
0.0
 26
0.0
 36
1.0
 17
0.0
 27
0.0
 37
0.0
 40
2434.6596980477639
 41
1.781285231116122
 42
50.0
 43
0.0
 44
0.0
 50
0.0
 51
0.0
 71
     0
 72
  1000
 73
     1
 74
     3
 75
     0
 76
     0
 77
     0
 78
     0
  0
ENDTAB
  0
ENDSEC
  0
SECTION
  2
BLOCKS
  0
BLOCK
  8
0
  2
_ORIGIN
 70
     0
 10
0.0
 20
0.0
 30
0.0
  3
_ORIGIN
  1
_ORIGIN
  0
CIRCLE
  8
0
  6
CONTINUOUS
 62
     7
 10
0.0
 20
0.0
 30
0.0
 40
0.5
  0
LINE
  8
0
  6
CONTINUOUS
 62
     7
 10
0.0
 20
0.0
 30
0.0
 11
-1.0
 21
0.0
 31
0.0
  0
ENDBLK
  8
0
  0
ENDSEC
  0
SECTION
  2
ENTITIES
  0
LINE
  8
DETAIL
  6
CONTINUOUS
 62
     5
 10
477.00000000007191
 20
440.00000000006088
 30
0.0
 11
472.20000000006797
 21
444.80000000007112
 31
0.0
  0
LINE
  8
DETAIL
  6
CONTINUOUS
 62
     5
 10
463.00000000008458
 20
454.00000000006088
 30
0.0
 11
467.80000000007288
 21
449.20000000007258
 31
0.0
  0
LINE
  8
DETAIL
  6
CONTINUOUS
 62
     5
 10
-463.00000000006679
 20
454.00000000006821
 30
0.0
 11
-467.80000000006521
 21
449.20000000007258
 31
0.0
  0
LINE
  8
DETAIL
  6
CONTINUOUS
 62
     5
 10
-477.00000000006412
 20
440.00000000006821
 30
0.0
 11
-472.20000000006797
 21
444.80000000007112
 31
0.0
  0
LINE
  8
DETAIL
  6
CONTINUOUS
 62
     5
 10
440.67876619606801
 20
533.00000000007822
 30
0.0
 11
251.10000000004169
 21
533.00000000007822
 31
0.0
  0
LINE
  8
DETAIL
  6
CONTINUOUS
 62
     5
 10
-251.32123380403939
 20
533.00000000007822
 30
0.0
 11
-440.90000000006381
 21
533.00000000007822
 31
0.0
  0
LINE
  8
DETAIL
  6
CONTINUOUS
 62
     5
 10
442.00000000006457
 20
524.40000000008695
 30
0.0
 11
250.00000000003641
 21
524.40000000008695
 31
0.0
  0
LINE
  8
DETAIL
  6
CONTINUOUS
 62
     5
 10
-250.0000000000359
 20
524.40000000008695
 30
0.0
 11
-442.00000000006372
 21
524.40000000008695
 31
0.0
  0
LINE
  8
DETAIL
  6
CONTINUOUS
 62
     5
 10
-586.90000000008558
 20
-227.30000000003469
 30
0.0
 11
-586.90000000008558
 21
-238.70000000002889
 31
0.0
  0
LINE
  8
DETAIL
  6
CONTINUOUS
 62
     5
 10
-586.30000000008658
 20
-238.70000000002889
 30
0.0
 11
-586.30000000008658
 21
-396.50000000006088
 31
0.0
  0
LINE
  8
DETAIL
  6
CONTINUOUS
 62
     5
 10
-585.70000000008076
 20
-398.90000000004778
 30
0.0
 11
-585.70000000008076
 21
-396.50000000006088
 31
0.0
  0
LINE
  8
DETAIL
  6
DASHED
 62
     5
 10
-556.30000000007067
 20
424.90000000006688
 30
0.0
 11
-556.30000000007067
 21
235.1000000000349
 31
0.0
  0
LINE
  8
DETAIL
  6
CONTINUOUS
 62
     5
 10
-520.50000000007412
 20
466.00000000007282
 30
0.0
 11
-470.70000000006758
 21
466.00000000007282
 31
0.0
  0
LINE
  8
DETAIL
  6
CONTINUOUS
 62
     5
 10
470.70000000006797
 20
466.00000000007282
 30
0.0
 11
520.50000000007458
 21
466.00000000007282
 31
0.0
  0
LINE
  8
DETAIL
  6
CONTINUOUS
 62
     5
 10
-242.00000000003459
 20
455.7000000000653
 30
0.0
 11
-450.00000000124652
 21
455.7000000000653
 31
0.0
  0
LINE
  8
DETAIL
  6
CONTINUOUS
 62
     5
 10
-520.50000000007412
 20
454.00000000006548
 30
0.0
 11
-500.5000000000714
 21
454.00000000006548
 31
0.0
  0
LINE
  8
DETAIL
  6
CONTINUOUS
 62
     5
 10
500.50000000007191
 20
454.00000000006548
 30
0.0
 11
520.50000000007458
 21
454.00000000006548
 31
0.0
  0
LINE
  8
DETAIL
  6
CONTINUOUS
 62
     5
 10
463.00000000007731
 20
454.00000000006088
 30
0.0
 11
-463.00000000006679
 21
454.00000000006821
 31
0.0
  0
LINE
  8
DETAIL
  6
CONTINUOUS
 62
     5
 10
-469.60000000006949
 20
447.70000000007258
 30
0.0
 11
469.60000000006949
 21
447.70000000007258
 31
0.0
  0
LINE
  8
DETAIL
  6
CONTINUOUS
 62
     5
 10
-469.60000000006949
 20
447.20000000007258
 30
0.0
 11
-467.80000000006521
 21
447.20000000007258
 31
0.0
  0
LINE
  8
DETAIL
  6
CONTINUOUS
 62
     5
 10
467.80000000007288
 20
447.20000000007258
 30
0.0
 11
469.60000000006949
 21
447.20000000007258
 31
0.0
  0
LINE
  8
DETAIL
  6
CONTINUOUS
 62
     5
 10
-472.20000000006797
 20
444.80000000007112
 30
0.0
 11
-467.80000000006521
 21
444.80000000007112
 31
0.0
  0
LINE
  8
DETAIL
  6
CONTINUOUS
 62
     5
 10
467.80000000007288
 20
444.80000000007112
 30
0.0
 11
472.20000000006797
 21
444.80000000007112
 31
0.0
  0
LINE
  8
DETAIL
  6
CONTINUOUS
 62
     5
 10
-517.3000000000693
 20
441.00000000007282
 30
0.0
 11
-520.50000000007412
 21
441.00000000007282
 31
0.0
  0
LINE
  8
DETAIL
  6
CONTINUOUS
 62
     5
 10
-517.28297769607207
 20
441.00000000007282
 30
0.0
 11
-500.5000000000714
 21
441.00000000007282
 31
0.0
  0
LINE
  8
DETAIL
  6
CONTINUOUS
 62
     5
 10
500.50000000007191
 20
441.00000000007282
 30
0.0
 11
517.28297769607434
 21
441.00000000007282
 31
0.0
  0
LINE
  8
DETAIL
  6
CONTINUOUS
 62
     5
 10
517.30000000007749
 20
441.00000000007282
 30
0.0
 11
520.50000000007458
 21
441.00000000007282
 31
0.0
  0
LINE
  8
DETAIL
  6
DASHED
 62
     5
 10
547.70000000007894
 20
426.00000000006548
 30
0.0
 11
520.50000000007458
 21
429.15362318987042
 31
0.0
  0
LINE
  8
DETAIL
  6
DASHED
 62
     5
 10
-547.70000000007758
 20
426.00000000006548
 30
0.0
 11
-547.70000000007758
 21
234.00000000003641
 31
0.0
  0
LINE
  8
DETAIL
  6
CONTINUOUS
 62
     5
 10
-540.70000000007713
 20
-401.12449979804933
 30
0.0
 11
-540.70000000007713
 21
-401.00000000006088
 31
0.0
  0
LINE
  8
DETAIL
  6
CONTINUOUS
 62
     5
 10
-536.40000000007331
 20
-407.90000000005512
 30
0.0
 11
-536.40000000007331
 21
-411.50000000005372
 31
0.0
  0
LINE
  8
DETAIL
  6
CONTINUOUS
 62
     5
 10
-535.20000000007622
 20
-410.55000000004929
 30
0.0
 11
-535.20000000007622
 21
-408.8500000000522
 31
0.0
  0
LINE
  8
DETAIL
  6
CONTINUOUS
 62
     5
 10
-534.70000000007622
 20
-429.09943100206419
 30
0.0
 11
-534.70000000007622
 21
-409.1000000000522
 31
0.0
  0
LINE
  8
DETAIL
  6
CONTINUOUS
 62
     5
 10
-534.40000000007331
 20
-403.60000000005948
 30
0.0
 11
-534.40000000007331
 21
-407.90000000005512
 31
0.0
  0
LINE
  8
DETAIL
  6
CONTINUOUS
 62
     5
 10
-533.20000000007622
 20
-408.8500000000522
 30
0.0
 11
-533.20000000007622
 21
-404.8500000000522
 31
0.0
  0
LINE
  8
DETAIL
  6
CONTINUOUS
 62
     5
 10
-528.20000000007531
 20
-404.8500000000522
 30
0.0
 11
-528.20000000007531
 21
-408.8500000000522
 31
0.0
  0
LINE
  8
DETAIL
  6
CONTINUOUS
 62
     5
 10
-527.00000000007094
 20
-407.65000000005512
 30
0.0
 11
-527.00000000007094
 21
-404.05000000004929
 31
0.0
  0
LINE
  8
DETAIL
  6
CONTINUOUS
 62
     5
 10
-526.70000000006803
 20
-429.09943100206419
 30
0.0
 11
-526.70000000006803
 21
-409.1000000000522
 31
0.0
  0
LINE
  8
DETAIL
  6
CONTINUOUS
 62
     5
 10
-526.20000000007531
 20
-408.8500000000522
 30
0.0
 11
-526.20000000007531
 21
-410.55000000004929
 31
0.0
  0
LINE
  8
DETAIL
  6
CONTINUOUS
 62
     5
 10
-525.00000000007003
 20
-411.50000000005372
 30
0.0
 11
-525.00000000007003
 21
-407.65000000005512
 31
0.0
  0
LINE
  8
DETAIL
  6
CONTINUOUS
 62
     5
 10
-520.50000000007412
 20
454.00000000006548
 30
0.0
 11
-520.50000000007412
 21
466.00000000007282
 31
0.0
  0
LINE
  8
DETAIL
  6
CONTINUOUS
 62
     5
 10
-520.50000000007412
 20
441.00000000007282
 30
0.0
 11
-520.50000000007412
 21
422.50000000006548
 31
0.0
  0
LINE
  8
DETAIL
  6
CONTINUOUS
 62
     5
 10
-520.7000000000744
 20
-401.00000000006088
 30
0.0
 11
-520.7000000000744
 21
-401.12449979804933
 31
0.0
  0
LINE
  8
DETAIL
  6
CONTINUOUS
 62
     5
 10
-520.50000000007412
 20
-422.50000000005087
 30
0.0
 11
-520.50000000007412
 21
-441.00000000005821
 31
0.0
  0
LINE
  8
DETAIL
  6
CONTINUOUS
 62
     5
 10
-520.50000000007412
 20
-454.00000000005821
 30
0.0
 11
-520.50000000007412
 21
-466.00000000005821
 31
0.0
  0
LINE
  8
DETAIL
  6
CONTINUOUS
 62
     5
 10
-517.3000000000693
 20
422.50000000006548
 30
0.0
 11
-517.3000000000693
 21
441.00000000007282
 31
0.0
  0
LINE
  8
DETAIL
  6
CONTINUOUS
 62
     5
 10
-517.3000000000693
 20
-422.50000000005087
 30
0.0
 11
-517.3000000000693
 21
-441.00000000005821
 31
0.0
  0
LINE
  8
DETAIL
  6
CONTINUOUS
 62
     5
 10
-515.80000000007203
 20
186.85000000003041
 30
0.0
 11
-515.80000000007203
 21
193.85000000003771
 31
0.0
  0
LINE
  8
DETAIL
  6
CONTINUOUS
 62
     5
 10
-508.80000000006339
 20
196.85000000003771
 30
0.0
 11
-508.80000000006339
 21
183.85000000003771
 31
0.0
  0
LINE
  8
DETAIL
  6
CONTINUOUS
 62
     5
 10
-507.80000000007072
 20
196.85000000003771
 30
0.0
 11
-507.80000000007072
 21
183.85000000003771
 31
0.0
  0
LINE
  8
DETAIL
  6
CONTINUOUS
 62
     5
 10
-506.30000000006339
 20
187.7500000000318
 30
0.0
 11
-506.30000000006339
 21
192.9500000000362
 31
0.0
  0
LINE
  8
DETAIL
  6
CONTINUOUS
 62
     5
 10
-502.80000000006982
 20
197.85000000003771
 30
0.0
 11
-502.80000000006982
 21
198.85000000003041
 31
0.0
  0
LINE
  8
DETAIL
  6
CONTINUOUS
 62
     5
 10
-498.3000000000693
 20
200.85000000003041
 30
0.0
 11
-498.17107464406672
 21
202.3236235680333
 31
0.0
  0
LINE
  8
DETAIL
  6
CONTINUOUS
 62
     5
 10
-442.00000000006372
 20
524.40000000008695
 30
0.0
 11
-450.00000000124652
 21
455.7000000000653
 31
0.0
  0
LINE
  8
DETAIL
  6
CONTINUOUS
 62
     5
 10
-499.12078172207248
 20
184.24964206602729
 30
0.0
 11
-508.29416298806882
 21
164.57726245803039
 31
0.0
  0
LINE
  8
DETAIL
  6
CONTINUOUS
 62
     5
 10
-497.12690459007132
 20
183.31988189003729
 30
0.0
 11
-506.30028585606709
 21
163.6475022820332
 31
0.0
  0
LINE
  8
DETAIL
  6
DASHED
 62
     5
 10
-547.70000000007758
 20
426.00000000006548
 30
0.0
 11
-520.50000000007412
 21
429.15362318987081
 31
0.0
  0
LINE
  8
DETAIL
  6
DASHED
 62
     5
 10
555.20000000008076
 20
426.00000000006548
 30
0.0
 11
547.70000000007894
 21
426.00000000006548
 31
0.0
  0
LINE
  8
DETAIL
  6
DASHED
 62
     5
 10
-555.2000000000794
 20
426.00000000006548
 30
0.0
 11
-547.70000000007758
 21
426.00000000006548
 31
0.0
  0
LINE
  8
DETAIL
  6
CONTINUOUS
 62
     5
 10
-477.00000000006457
 20
422.50000000006548
 30
0.0
 11
-520.50000000007412
 21
422.50000000006548
 31
0.0
  0
LINE
  8
DETAIL
  6
CONTINUOUS
 62
     5
 10
477.00000000007191
 20
422.50000000006548
 30
0.0
 11
520.50000000007458
 21
422.50000000006548
 31
0.0
  0
LINE
  8
DETAIL
  6
CONTINUOUS
 62
     5
 10
-442.00000000006372
 20
-524.4000000000724
 30
0.0
 11
-450.00000000097538
 21
-455.70000000005803
 31
0.0
  0
LINE
  8
DETAIL
  6
CONTINUOUS
 62
     5
 10
-490.30000000006788
 20
200.85000000003041
 30
0.0
 11
-490.47385360006592
 21
202.83715574403601
 31
0.0
  0
LINE
  8
DETAIL
  6
CONTINUOUS
 62
     5
 10
-496.90000000006779
 20
196.85000000003771
 30
0.0
 11
-496.90000000006779
 21
196.35000000003771
 31
0.0
  0
LINE
  8
DETAIL
  6
CONTINUOUS
 62
     5
 10
-496.8000000000693
 20
200.05000000003469
 30
0.0
 11
-496.8000000000693
 21
200.85000000003041
 31
0.0
  0
LINE
  8
DETAIL
  6
CONTINUOUS
 62
     5
 10
-495.80000000006879
 20
196.35000000003771
 30
0.0
 11
-495.80000000006879
 21
192.85000000003771
 31
0.0
  0
LINE
  8
DETAIL
  6
CONTINUOUS
 62
     5
 10
-492.80000000006788
 20
196.35000000003771
 30
0.0
 11
-492.80000000006788
 21
192.85000000003771
 31
0.0
  0
LINE
  8
DETAIL
  6
CONTINUOUS
 62
     5
 10
-491.80000000006879
 20
200.05000000003469
 30
0.0
 11
-491.80000000006879
 21
200.85000000003041
 31
0.0
  0
LINE
  8
DETAIL
  6
CONTINUOUS
 62
     5
 10
-491.70000000006257
 20
196.85000000003771
 30
0.0
 11
-491.70000000006257
 21
196.35000000003771
 31
0.0
  0
LINE
  8
DETAIL
  6
CONTINUOUS
 62
     5
 10
-484.70000000006888
 20
-200.05000000002019
 30
0.0
 11
-484.70000000006888
 21
-199.45000000002889
 31
0.0
  0
LINE
  8
DETAIL
  6
CONTINUOUS
 62
     5
 10
-484.70000000006888
 20
200.05000000003469
 30
0.0
 11
-484.70000000006888
 21
199.4500000000362
 31
0.0
  0
LINE
  8
DETAIL
  6
CONTINUOUS
 62
     5
 10
-484.70000000006888
 20
198.85000000003041
 30
0.0
 11
-484.70000000006888
 21
-198.85000000003041
 31
0.0
  0
LINE
  8
DETAIL
  6
CONTINUOUS
 62
     5
 10
-483.30000000006697
 20
200.05000000003469
 30
0.0
 11
-483.30000000006697
 21
200.85000000003041
 31
0.0
  0
LINE
  8
DETAIL
  6
CONTINUOUS
 62
     5
 10
-483.01163546806401
 20
-199.45000000002889
 30
0.0
 11
-483.01163546806401
 21
-198.85000000003041
 31
0.0
  0
LINE
  8
DETAIL
  6
CONTINUOUS
 62
     5
 10
-483.01163546806401
 20
199.4500000000362
 30
0.0
 11
-483.01163546806401
 21
198.85000000003041
 31
0.0
  0
LINE
  8
DETAIL
  6
DASHED
 62
     5
 10
-478.70000000006888
 20
422.50000000006548
 30
0.0
 11
-478.70000000006888
 21
226.00000000003641
 31
0.0
  0
LINE
  8
DETAIL
  6
CONTINUOUS
 62
     5
 10
-477.00000000006412
 20
440.00000000006821
 30
0.0
 11
-477.00000000006457
 21
-440.00000000005372
 31
0.0
  0
LINE
  8
DETAIL
  6
CONTINUOUS
 62
     5
 10
-470.70000000006797
 20
-466.00000000005821
 30
0.0
 11
-470.70000000006758
 21
466.00000000007282
 31
0.0
  0
LINE
  8
DETAIL
  6
CONTINUOUS
 62
     5
 10
-470.20000000006672
 20
-446.60000000006681
 30
0.0
 11
-470.20000000006672
 21
-444.80000000006379
 31
0.0
  0
LINE
  8
DETAIL
  6
CONTINUOUS
 62
     5
 10
-470.20000000006672
 20
446.60000000006681
 30
0.0
 11
-470.20000000006672
 21
444.80000000007112
 31
0.0
  0
LINE
  8
DETAIL
  6
CONTINUOUS
 62
     5
 10
-467.80000000006521
 20
449.20000000007258
 30
0.0
 11
-467.80000000006521
 21
444.80000000007112
 31
0.0
  0
LINE
  8
DETAIL
  6
CONTINUOUS
 62
     5
 10
-467.80000000006572
 20
-444.80000000006379
 30
0.0
 11
-467.80000000006572
 21
-449.2000000000653
 31
0.0
  0
LINE
  8
DETAIL
  6
CONTINUOUS
 62
     5
 10
-442.00000000006372
 20
-531.90000000006512
 30
0.0
 11
-442.00000000006372
 21
-524.4000000000724
 31
0.0
  0
LINE
  8
DETAIL
  6
CONTINUOUS
 62
     5
 10
-442.00000000006372
 20
531.90000000007967
 30
0.0
 11
-442.00000000006372
 21
524.40000000008695
 31
0.0
  0
LINE
  8
DETAIL
  6
CONTINUOUS
 62
     5
 10
-477.00000000006457
 20
206.3842562380332
 30
0.0
 11
-504.97105741407222
 21
203.93710580603059
 31
0.0
  0
LINE
  8
DETAIL
  6
CONTINUOUS
 62
     5
 10
-477.00000000006457
 20
204.17585259404129
 30
0.0
 11
-504.77931478007122
 21
201.74547747003359
 31
0.0
  0
LINE
  8
DETAIL
  6
DASHED
 62
     5
 10
555.20000000008076
 20
234.00000000003641
 30
0.0
 11
547.70000000007894
 21
234.00000000003641
 31
0.0
  0
LINE
  8
DETAIL
  6
DASHED
 62
     5
 10
-555.2000000000794
 20
234.00000000003641
 30
0.0
 11
-547.70000000007758
 21
234.00000000003641
 31
0.0
  0
LINE
  8
DETAIL
  6
DASHED
 62
     5
 10
-478.70000000006888
 20
226.00000000003641
 30
0.0
 11
-477.00000000006457
 21
226.00000000003641
 31
0.0
  0
LINE
  8
DETAIL
  6
CONTINUOUS
 62
     5
 10
-498.29862218606422
 20
200.85000000003041
 30
0.0
 11
-490.30137781406671
 21
200.85000000003041
 31
0.0
  0
LINE
  8
DETAIL
  6
CONTINUOUS
 62
     5
 10
-477.00000000006457
 20
200.05000000003469
 30
0.0
 11
-504.60000000007312
 21
200.05000000003469
 31
0.0
  0
LINE
  8
DETAIL
  6
CONTINUOUS
 62
     5
 10
-477.00000000006457
 20
199.4500000000362
 30
0.0
 11
-484.70000000006888
 21
199.4500000000362
 31
0.0
  0
LINE
  8
DETAIL
  6
CONTINUOUS
 62
     5
 10
-483.01163546806401
 20
198.9500000000362
 30
0.0
 11
-480.80000000006788
 21
198.9500000000362
 31
0.0
  0
LINE
  8
DETAIL
  6
CONTINUOUS
 62
     5
 10
-505.68173864207529
 20
198.85000000003041
 30
0.0
 11
-477.00000000006457
 21
198.85000000003041
 31
0.0
  0
LINE
  8
DETAIL
  6
CONTINUOUS
 62
     5
 10
-504.98153110406753
 20
197.85000000003771
 30
0.0
 11
-484.70000000006888
 21
197.85000000003771
 31
0.0
  0
LINE
  8
DETAIL
  6
CONTINUOUS
 62
     5
 10
-512.80000000007112
 20
196.85000000003771
 30
0.0
 11
-507.80000000007072
 21
196.85000000003771
 31
0.0
  0
LINE
  8
DETAIL
  6
CONTINUOUS
 62
     5
 10
-496.90000000006779
 20
196.35000000003771
 30
0.0
 11
-491.70000000006257
 21
196.35000000003771
 31
0.0
  0
LINE
  8
DETAIL
  6
CONTINUOUS
 62
     5
 10
-506.80000000007072
 20
192.9500000000362
 30
0.0
 11
-506.30000000006339
 21
192.9500000000362
 31
0.0
  0
LINE
  8
DETAIL
  6
CONTINUOUS
 62
     5
 10
-492.80000000006788
 20
192.85000000003771
 30
0.0
 11
-495.80000000006879
 21
192.85000000003771
 31
0.0
  0
LINE
  8
DETAIL
  6
CONTINUOUS
 62
     5
 10
-506.30000000006339
 20
191.85000000003771
 30
0.0
 11
-503.46598997007283
 21
191.85000000003771
 31
0.0
  0
LINE
  8
DETAIL
  6
CONTINUOUS
 62
     5
 10
-506.30000000006339
 20
188.85000000003771
 30
0.0
 11
-501.36536735606342
 21
188.85000000003771
 31
0.0
  0
LINE
  8
DETAIL
  6
CONTINUOUS
 62
     5
 10
-506.80000000007072
 20
187.7500000000318
 30
0.0
 11
-506.30000000006339
 21
187.7500000000318
 31
0.0
  0
LINE
  8
DETAIL
  6
CONTINUOUS
 62
     5
 10
-512.80000000007112
 20
183.85000000003771
 30
0.0
 11
-507.80000000007072
 21
183.85000000003771
 31
0.0
  0
LINE
  8
DETAIL
  6
DASHED
 62
     5
 10
-547.70000000007758
 20
234.00000000003641
 30
0.0
 11
-478.70000000006888
 21
226.00000000003641
 31
0.0
  0
LINE
  8
DETAIL
  6
CONTINUOUS
 62
     5
 10
-250.0000000000359
 20
-531.90000000006512
 30
0.0
 11
-250.0000000000359
 21
-524.4000000000724
 31
0.0
  0
LINE
  8
DETAIL
  6
CONTINUOUS
 62
     5
 10
-250.0000000000359
 20
531.90000000007967
 30
0.0
 11
-250.0000000000359
 21
524.40000000008695
 31
0.0
  0
LINE
  8
DETAIL
  6
CONTINUOUS
 62
     5
 10
-242.00000000003459
 20
-455.70000000005803
 30
0.0
 11
-242.00000000003459
 21
-454.00000000006088
 31
0.0
  0
LINE
  8
DETAIL
  6
CONTINUOUS
 62
     5
 10
-242.00000000003459
 20
455.7000000000653
 30
0.0
 11
-242.00000000003459
 21
454.00000000006821
 31
0.0
  0
LINE
  8
DETAIL
  6
CONTINUOUS
 62
     5
 10
-489.61788642606552
 20
-198.85000000003041
 30
0.0
 11
-485.97920730806749
 21
-195.33616841802271
 31
0.0
  0
LINE
  8
DETAIL
  6
CONTINUOUS
 62
     5
 10
-489.53359004406963
 20
-200.43679223802161
 30
0.0
 11
-489.13305495606568
 21
-200.05000000002019
 31
0.0
  0
LINE
  8
DETAIL
  6
CONTINUOUS
 62
     5
 10
-487.89041858007113
 20
-198.85000000003041
 30
0.0
 11
-485.14561726206648
 21
-196.1993761780204
 31
0.0
  0
LINE
  8
DETAIL
  6
DASHED
 62
     5
 10
547.70000000007894
 20
234.00000000003641
 30
0.0
 11
478.70000000007622
 21
226.00000000003641
 31
0.0
  0
LINE
  8
DETAIL
  6
CONTINUOUS
 62
     5
 10
-250.0000000000359
 20
524.40000000008695
 30
0.0
 11
-242.00000000003459
 21
455.7000000000653
 31
0.0
  0
LINE
  8
DETAIL
  6
CONTINUOUS
 62
     5
 10
-250.0000000000359
 20
-524.4000000000724
 30
0.0
 11
-242.00000000003459
 21
-455.70000000005803
 31
0.0
  0
LINE
  8
BASIS
  6
DASHDOT
 62
     6
 10
-551.5409069928196
 20
0.0
 30
0.0
 11
551.54090699281915
 21
0.0
 31
0.0
  0
LINE
  8
BASIS
  6
DASHDOT
 62
     6
 10
0.0
 20
-531.06742313288669
 30
0.0
 11
0.0
 21
531.06742313288669
 31
0.0
  0
LINE
  8
DETAIL
  6
CONTINUOUS
 62
     5
 10
-527.00000000007094
 20
-404.05000000004929
 30
0.0
 11
-521.83256777206861
 21
-401.13819295005209
 31
0.0
  0
LINE
  8
DETAIL
  6
CONTINUOUS
 62
     5
 10
-504.60000000007312
 20
-198.85000000003041
 30
0.0
 11
-477.00000000006457
 21
-198.85000000003041
 31
0.0
  0
LINE
  8
DETAIL
  6
CONTINUOUS
 62
     5
 10
-484.70000000006888
 20
-199.45000000002889
 30
0.0
 11
-477.00000000006457
 21
-199.45000000002889
 31
0.0
  0
LINE
  8
DETAIL
  6
CONTINUOUS
 62
     5
 10
-504.60000000007312
 20
-200.05000000002019
 30
0.0
 11
-477.00000000006457
 21
-200.05000000002019
 31
0.0
  0
LINE
  8
DETAIL
  6
CONTINUOUS
 62
     5
 10
-477.00000000006457
 20
-202.50000000002461
 30
0.0
 11
-488.70000000006979
 21
-202.50000000002461
 31
0.0
  0
LINE
  8
DETAIL
  6
CONTINUOUS
 62
     5
 10
-477.00000000006457
 20
-203.70000000002159
 30
0.0
 11
-488.70000000006979
 21
-203.70000000002159
 31
0.0
  0
LINE
  8
DETAIL
  6
CONTINUOUS
 62
     5
 10
-585.70000000008076
 20
-226.1000000000231
 30
0.0
 11
-477.00000000006457
 21
-226.1000000000231
 31
0.0
  0
LINE
  8
DETAIL
  6
CONTINUOUS
 62
     5
 10
-586.30000000008658
 20
-238.70000000002889
 30
0.0
 11
-586.90000000008558
 21
-238.70000000002889
 31
0.0
  0
LINE
  8
DETAIL
  6
CONTINUOUS
 62
     5
 10
250.00000000003641
 20
-524.4000000000724
 30
0.0
 11
242.00000000003499
 21
-455.70000000005803
 31
0.0
  0
LINE
  8
DETAIL
  6
CONTINUOUS
 62
     5
 10
250.00000000003641
 20
524.40000000008695
 30
0.0
 11
242.00000000003499
 21
455.7000000000653
 31
0.0
  0
LINE
  8
DETAIL
  6
CONTINUOUS
 62
     5
 10
-505.95050886406722
 20
199.23384365604119
 30
0.0
 11
-497.45809641406322
 21
187.1054217420342
 31
0.0
  0
LINE
  8
DETAIL
  6
CONTINUOUS
 62
     5
 10
-507.75264336006791
 20
197.97197549603419
 30
0.0
 11
-499.26023091006982
 21
185.8435535820345
 31
0.0
  0
LINE
  8
DETAIL
  6
CONTINUOUS
 62
     5
 10
242.00000000003499
 20
-455.70000000005803
 30
0.0
 11
242.00000000003499
 21
-454.00000000006088
 31
0.0
  0
LINE
  8
DETAIL
  6
CONTINUOUS
 62
     5
 10
242.00000000003499
 20
455.7000000000653
 30
0.0
 11
242.00000000003499
 21
454.00000000006821
 31
0.0
  0
LINE
  8
DETAIL
  6
CONTINUOUS
 62
     5
 10
250.00000000003641
 20
-531.90000000006512
 30
0.0
 11
250.00000000003641
 21
-524.4000000000724
 31
0.0
  0
LINE
  8
DETAIL
  6
CONTINUOUS
 62
     5
 10
250.00000000003641
 20
531.90000000007967
 30
0.0
 11
250.00000000003641
 21
524.40000000008695
 31
0.0
  0
LINE
  8
DETAIL
  6
CONTINUOUS
 62
     5
 10
-586.30000000008658
 20
-396.50000000006088
 30
0.0
 11
-585.70000000008076
 21
-396.50000000006088
 31
0.0
  0
LINE
  8
DETAIL
  6
CONTINUOUS
 62
     5
 10
-584.10000000008176
 20
-400.50000000004638
 30
0.0
 11
-477.00000000006457
 21
-400.50000000004638
 31
0.0
  0
LINE
  8
DETAIL
  6
CONTINUOUS
 62
     5
 10
-576.90000000007967
 20
-403.50000000005372
 30
0.0
 11
-550.90000000007558
 21
-403.50000000005372
 31
0.0
  0
LINE
  8
DETAIL
  6
CONTINUOUS
 62
     5
 10
-533.20000000007622
 20
-404.8500000000522
 30
0.0
 11
-528.20000000007531
 21
-404.8500000000522
 31
0.0
  0
LINE
  8
DETAIL
  6
CONTINUOUS
 62
     5
 10
-525.00000000007003
 20
-407.65000000005512
 30
0.0
 11
-527.00000000007094
 21
-407.65000000005512
 31
0.0
  0
LINE
  8
DETAIL
  6
CONTINUOUS
 62
     5
 10
-534.40000000007331
 20
-407.90000000005512
 30
0.0
 11
-536.40000000007331
 21
-407.90000000005512
 31
0.0
  0
LINE
  8
DETAIL
  6
CONTINUOUS
 62
     5
 10
-535.20000000007622
 20
-408.8500000000522
 30
0.0
 11
-533.20000000007622
 21
-408.8500000000522
 31
0.0
  0
LINE
  8
DETAIL
  6
CONTINUOUS
 62
     5
 10
-528.20000000007531
 20
-408.8500000000522
 30
0.0
 11
-526.20000000007531
 21
-408.8500000000522
 31
0.0
  0
LINE
  8
DETAIL
  6
CONTINUOUS
 62
     5
 10
-526.70000000006803
 20
-409.1000000000522
 30
0.0
 11
-534.70000000007622
 21
-409.1000000000522
 31
0.0
  0
LINE
  8
DETAIL
  6
CONTINUOUS
 62
     5
 10
-526.20000000007531
 20
-410.55000000004929
 30
0.0
 11
-526.70000000006803
 21
-410.55000000004929
 31
0.0
  0
LINE
  8
DETAIL
  6
CONTINUOUS
 62
     5
 10
-534.70000000007622
 20
-410.55000000004929
 30
0.0
 11
-535.20000000007622
 21
-410.55000000004929
 31
0.0
  0
LINE
  8
DETAIL
  6
CONTINUOUS
 62
     5
 10
-525.00000000007003
 20
-411.50000000005372
 30
0.0
 11
-526.70000000006803
 21
-411.50000000005372
 31
0.0
  0
LINE
  8
DETAIL
  6
CONTINUOUS
 62
     5
 10
-534.70000000007622
 20
-411.50000000005372
 30
0.0
 11
-536.40000000007331
 21
-411.50000000005372
 31
0.0
  0
LINE
  8
DETAIL
  6
CONTINUOUS
 62
     5
 10
-477.00000000006457
 20
-422.50000000005087
 30
0.0
 11
-520.50000000007412
 21
-422.50000000005087
 31
0.0
  0
LINE
  8
DETAIL
  6
CONTINUOUS
 62
     5
 10
477.00000000007088
 20
-422.50000000005087
 30
0.0
 11
520.50000000007458
 21
-422.50000000005087
 31
0.0
  0
LINE
  8
DETAIL
  6
CONTINUOUS
 62
     5
 10
-526.70000000006803
 20
-429.10000000005948
 30
0.0
 11
-534.70000000007622
 21
-429.10000000005948
 31
0.0
  0
LINE
  8
DETAIL
  6
CONTINUOUS
 62
     5
 10
-517.3000000000693
 20
-441.00000000005821
 30
0.0
 11
-520.50000000007412
 21
-441.00000000005821
 31
0.0
  0
LINE
  8
DETAIL
  6
CONTINUOUS
 62
     5
 10
-517.28297769607252
 20
-441.00000000005821
 30
0.0
 11
-500.5000000000714
 21
-441.00000000005821
 31
0.0
  0
LINE
  8
DETAIL
  6
CONTINUOUS
 62
     5
 10
500.50000000007191
 20
-441.00000000005821
 30
0.0
 11
517.28297769607434
 21
-441.00000000005821
 31
0.0
  0
LINE
  8
DETAIL
  6
CONTINUOUS
 62
     5
 10
517.30000000007749
 20
-441.00000000005821
 30
0.0
 11
520.50000000007458
 21
-441.00000000005821
 31
0.0
  0
LINE
  8
DETAIL
  6
CONTINUOUS
 62
     5
 10
-472.20000000006797
 20
-444.80000000006379
 30
0.0
 11
-467.80000000006572
 21
-444.80000000006379
 31
0.0
  0
LINE
  8
DETAIL
  6
CONTINUOUS
 62
     5
 10
467.80000000007198
 20
-444.80000000006379
 30
0.0
 11
472.20000000006797
 21
-444.80000000006379
 31
0.0
  0
LINE
  8
DETAIL
  6
CONTINUOUS
 62
     5
 10
-469.60000000006949
 20
-447.20000000005803
 30
0.0
 11
-467.80000000006572
 21
-447.20000000005803
 31
0.0
  0
LINE
  8
DETAIL
  6
CONTINUOUS
 62
     5
 10
467.80000000007198
 20
-447.20000000005803
 30
0.0
 11
469.60000000006949
 21
-447.20000000005803
 31
0.0
  0
LINE
  8
DETAIL
  6
CONTINUOUS
 62
     5
 10
-469.60000000006949
 20
-447.7000000000653
 30
0.0
 11
469.60000000006949
 21
-447.7000000000653
 31
0.0
  0
LINE
  8
DETAIL
  6
CONTINUOUS
 62
     5
 10
-463.0000000000723
 20
-454.00000000006088
 30
0.0
 11
463.00000000008822
 21
-454.00000000006088
 31
0.0
  0
LINE
  8
DETAIL
  6
CONTINUOUS
 62
     5
 10
-520.50000000007412
 20
-454.00000000005821
 30
0.0
 11
-500.5000000000714
 21
-454.00000000005821
 31
0.0
  0
LINE
  8
DETAIL
  6
CONTINUOUS
 62
     5
 10
500.50000000007191
 20
-454.00000000005821
 30
0.0
 11
520.50000000007458
 21
-454.00000000005821
 31
0.0
  0
LINE
  8
DETAIL
  6
CONTINUOUS
 62
     5
 10
242.00000000003499
 20
-455.70000000005803
 30
0.0
 11
449.99999999864491
 21
-455.70000000005803
 31
0.0
  0
LINE
  8
DETAIL
  6
CONTINUOUS
 62
     5
 10
-520.50000000007412
 20
-466.00000000005821
 30
0.0
 11
-470.70000000006797
 21
-466.00000000005821
 31
0.0
  0
LINE
  8
DETAIL
  6
CONTINUOUS
 62
     5
 10
-485.97920730806749
 20
-195.33616841802271
 30
0.0
 11
-485.14561726206648
 21
-196.1993761780204
 31
0.0
  0
LINE
  8
DETAIL
  6
CONTINUOUS
 62
     5
 10
-442.00000000006372
 20
-524.4000000000724
 30
0.0
 11
-250.0000000000359
 21
-524.4000000000724
 31
0.0
  0
LINE
  8
DETAIL
  6
CONTINUOUS
 62
     5
 10
250.00000000003641
 20
-524.4000000000724
 30
0.0
 11
442.00000000006457
 21
-524.4000000000724
 31
0.0
  0
LINE
  8
DETAIL
  6
CONTINUOUS
 62
     5
 10
-440.67876619606068
 20
-533.00000000007822
 30
0.0
 11
-251.10000000002759
 21
-533.00000000007822
 31
0.0
  0
LINE
  8
DETAIL
  6
CONTINUOUS
 62
     5
 10
251.10000000004169
 20
-533.00000000007822
 30
0.0
 11
440.90000000006597
 21
-533.00000000007822
 31
0.0
  0
LINE
  8
DETAIL
  6
CONTINUOUS
 62
     5
 10
-487.6633065640699
 20
-198.63068047601971
 30
0.0
 11
-488.4968966080628
 21
-197.76747271602201
 31
0.0
  0
LINE
  8
DETAIL
  6
CONTINUOUS
 62
     5
 10
442.00000000006457
 20
-531.90000000006512
 30
0.0
 11
442.00000000006457
 21
-524.4000000000724
 31
0.0
  0
LINE
  8
DETAIL
  6
CONTINUOUS
 62
     5
 10
442.00000000006457
 20
531.90000000007967
 30
0.0
 11
442.00000000006457
 21
524.40000000008695
 31
0.0
  0
LINE
  8
DETAIL
  6
CONTINUOUS
 62
     5
 10
467.80000000007288
 20
449.20000000007258
 30
0.0
 11
467.80000000007288
 21
444.80000000007112
 31
0.0
  0
LINE
  8
DETAIL
  6
CONTINUOUS
 62
     5
 10
467.80000000007198
 20
-444.80000000006379
 30
0.0
 11
467.80000000007198
 21
-449.2000000000653
 31
0.0
  0
LINE
  8
DETAIL
  6
CONTINUOUS
 62
     5
 10
470.20000000006888
 20
-446.60000000006681
 30
0.0
 11
470.20000000006888
 21
-444.80000000006379
 31
0.0
  0
LINE
  8
DETAIL
  6
CONTINUOUS
 62
     5
 10
470.20000000006888
 20
446.60000000006681
 30
0.0
 11
470.20000000006888
 21
444.80000000007112
 31
0.0
  0
LINE
  8
DETAIL
  6
CONTINUOUS
 62
     5
 10
470.70000000006797
 20
-466.00000000005821
 30
0.0
 11
470.70000000006797
 21
466.00000000007282
 31
0.0
  0
LINE
  8
DETAIL
  6
CONTINUOUS
 62
     5
 10
477.00000000007191
 20
440.00000000006088
 30
0.0
 11
477.00000000007088
 21
-440.00000000003911
 31
0.0
  0
LINE
  8
DETAIL
  6
CONTINUOUS
 62
     5
 10
-539.53356527007418
 20
-401.07395994604582
 30
0.0
 11
-534.40000000007331
 21
-403.60000000005948
 31
0.0
  0
LINE
  8
DETAIL
  6
CONTINUOUS
 62
     5
 10
442.00000000006457
 20
524.40000000008695
 30
0.0
 11
450.00000000006548
 21
455.69999999014823
 31
0.0
  0
LINE
  8
DETAIL
  6
CONTINUOUS
 62
     5
 10
517.30000000007749
 20
422.50000000006548
 30
0.0
 11
517.30000000007749
 21
441.00000000007282
 31
0.0
  0
LINE
  8
DETAIL
  6
CONTINUOUS
 62
     5
 10
517.30000000007749
 20
-422.50000000005087
 30
0.0
 11
517.30000000007749
 21
-441.00000000005821
 31
0.0
  0
LINE
  8
DETAIL
  6
CONTINUOUS
 62
     5
 10
520.50000000007458
 20
454.00000000006548
 30
0.0
 11
520.50000000007458
 21
466.00000000007282
 31
0.0
  0
LINE
  8
DETAIL
  6
CONTINUOUS
 62
     5
 10
520.50000000007458
 20
441.00000000007282
 30
0.0
 11
520.50000000007458
 21
422.50000000006548
 31
0.0
  0
LINE
  8
DETAIL
  6
CONTINUOUS
 62
     5
 10
520.50000000007458
 20
-422.50000000005087
 30
0.0
 11
520.50000000007458
 21
-441.00000000005821
 31
0.0
  0
LINE
  8
DETAIL
  6
CONTINUOUS
 62
     5
 10
520.50000000007458
 20
-454.00000000005821
 30
0.0
 11
520.50000000007458
 21
-466.00000000005821
 31
0.0
  0
LINE
  8
DETAIL
  6
CONTINUOUS
 62
     5
 10
442.00000000006457
 20
-524.4000000000724
 30
0.0
 11
449.99999999864491
 21
-455.70000000005803
 31
0.0
  0
LINE
  8
DETAIL
  6
CONTINUOUS
 62
     5
 10
-463.00000000006412
 20
-454.00000000006821
 30
0.0
 11
-467.80000000006572
 21
-449.2000000000653
 31
0.0
  0
LINE
  8
DETAIL
  6
CONTINUOUS
 62
     5
 10
-477.00000000006457
 20
-440.00000000006821
 30
0.0
 11
-472.20000000006797
 21
-444.80000000006379
 31
0.0
  0
LINE
  8
DETAIL
  6
DASHED
 62
     5
 10
547.70000000007894
 20
234.00000000003641
 30
0.0
 11
547.70000000007894
 21
426.00000000006548
 31
0.0
  0
LINE
  8
DETAIL
  6
DASHED
 62
     5
 10
556.30000000008567
 20
235.1000000000349
 30
0.0
 11
556.30000000008658
 21
424.90000000006688
 31
0.0
  0
LINE
  8
DETAIL
  6
CONTINUOUS
 62
     5
 10
477.00000000007088
 20
-440.00000000004638
 30
0.0
 11
472.20000000006797
 21
-444.80000000006379
 31
0.0
  0
LINE
  8
DETAIL
  6
CONTINUOUS
 62
     5
 10
463.00000000008458
 20
-454.00000000006821
 30
0.0
 11
467.80000000007198
 21
-449.2000000000653
 31
0.0
  0
ARC
  8
DETAIL
  6
CONTINUOUS
 62
     5
 10
-440.90000000006381
 20
531.90000000007967
 30
0.0
 40
1.10000000000016
 50
90.0
 51
180.0
  0
ARC
  8
DETAIL
  6
CONTINUOUS
 62
     5
 10
-500.5000000000714
 20
447.50000000007282
 30
0.0
 40
6.500000000000937
 50
270.0
 51
90.0
  0
ARC
  8
DETAIL
  6
DASHED
 62
     5
 10
-555.2000000000794
 20
424.90000000006688
 30
0.0
 40
1.10000000000016
 50
90.0
 51
180.0
  0
ARC
  8
DETAIL
  6
CONTINUOUS
 62
     5
 10
-467.50000000006321
 20
454.10000000006681
 30
0.0
 40
6.4000000000009249
 50
239.9927485905915
 51
267.31327581430838
  0
ARC
  8
DETAIL
  6
CONTINUOUS
 62
     5
 10
-467.50000000006321
 20
453.90000000006688
 30
0.0
 40
3.200000000000462
 50
180.4462110633828
 51
301.47594472388732
  0
ARC
  8
DETAIL
  6
CONTINUOUS
 62
     5
 10
-470.03615920006769
 20
451.43372473407629
 30
0.0
 40
2.666299300000385
 50
103.8853775205539
 51
104.40251196409631
  0
ARC
  8
DETAIL
  6
CONTINUOUS
 62
     5
 10
-470.03688014806312
 20
451.4366312180673
 30
0.0
 40
2.6633047360003839
 50
103.643464242514
 51
103.8853262973811
  0
ARC
  8
DETAIL
  6
CONTINUOUS
 62
     5
 10
-469.60000000006949
 20
446.60000000006681
 30
0.0
 40
1.10000000000016
 50
90.0
 51
180.0
  0
ARC
  8
DETAIL
  6
CONTINUOUS
 62
     5
 10
-469.60000000006949
 20
446.60000000006681
 30
0.0
 40
0.6000000000000859
 50
90.0
 51
180.0
  0
ARC
  8
DETAIL
  6
CONTINUOUS
 62
     5
 10
-251.10000000002719
 20
531.90000000007967
 30
0.0
 40
1.10000000000016
 50
0.0
 51
90.0
  0
ARC
  8
DETAIL
  6
CONTINUOUS
 62
     5
 10
-512.80000000007112
 20
186.85000000003041
 30
0.0
 40
3.000000000000433
 50
180.0
 51
270.0
  0
ARC
  8
DETAIL
  6
CONTINUOUS
 62
     5
 10
-512.80000000007112
 20
193.85000000003771
 30
0.0
 40
3.000000000000433
 50
90.0
 51
180.0
  0
ARC
  8
DETAIL
  6
DASHED
 62
     5
 10
-555.2000000000794
 20
235.1000000000349
 30
0.0
 40
1.10000000000016
 50
180.0
 51
270.0
  0
ARC
  8
DETAIL
  6
CONTINUOUS
 62
     5
 10
-500.5708741820722
 20
184.92583128403481
 30
0.0
 40
3.8000000000005492
 50
334.99999999997601
 51
35.00000000001684
  0
ARC
  8
DETAIL
  6
CONTINUOUS
 62
     5
 10
-504.63986559206569
 20
200.15156595403371
 30
0.0
 40
3.8000000000005492
 50
95.000000000025977
 51
215.0000000000168
  0
ARC
  8
DETAIL
  6
CONTINUOUS
 62
     5
 10
-483.30000000006697
 20
198.2552631580356
 30
0.0
 40
2.594736842000374
 50
15.530332036905101
 51
27.475020287671491
  0
ARC
  8
DETAIL
  6
CONTINUOUS
 62
     5
 10
-483.30000000006697
 20
198.2552631580356
 30
0.0
 40
2.594736842000374
 50
43.835513774705191
 51
90.0
  0
ARC
  8
DETAIL
  6
CONTINUOUS
 62
     5
 10
-506.80000000007072
 20
196.85000000003771
 30
0.0
 40
2.0000000000002891
 50
127.7173136595801
 51
180.0
  0
ARC
  8
DETAIL
  6
CONTINUOUS
 62
     5
 10
-500.5708741820722
 20
184.92583128403481
 30
0.0
 40
1.6000000000002319
 50
334.99999999997601
 51
35.00000000001684
  0
ARC
  8
DETAIL
  6
CONTINUOUS
 62
     5
 10
-504.63986559206569
 20
200.15156595403371
 30
0.0
 40
1.6000000000002319
 50
95.000000000025977
 51
215.0000000000168
  0
ARC
  8
DETAIL
  6
CONTINUOUS
 62
     5
 10
-491.47004829806968
 20
202.7500000000318
 30
0.0
 40
1.0000000000001441
 50
5.0000000000005951
 51
14.17852994941337
  0
ARC
  8
DETAIL
  6
CONTINUOUS
 62
     5
 10
-490.7000000000703
 20
196.85000000003771
 30
0.0
 40
1.0000000000001441
 50
90.0
 51
180.0
  0
ARC
  8
DETAIL
  6
CONTINUOUS
 62
     5
 10
-497.90000000006779
 20
196.85000000003771
 30
0.0
 40
1.0000000000001441
 50
0.0
 51
90.0
  0
ARC
  8
DETAIL
  6
CONTINUOUS
 62
     5
 10
-506.80000000007072
 20
196.85000000003771
 30
0.0
 40
1.0000000000001441
 50
132.8908590385991
 51
180.0
  0
ARC
  8
DETAIL
  6
CONTINUOUS
 62
     5
 10
-506.80000000007072
 20
186.7500000000318
 30
0.0
 40
1.0000000000001441
 50
90.0
 51
180.0
  0
ARC
  8
DETAIL
  6
CONTINUOUS
 62
     5
 10
-506.80000000007072
 20
193.9500000000362
 30
0.0
 40
1.0000000000001441
 50
189.00000000001901
 51
270.0
  0
ARC
  8
DETAIL
  6
CONTINUOUS
 62
     5
 10
-504.60000000007312
 20
199.4500000000362
 30
0.0
 40
0.6000000000000859
 50
90.0
 51
270.0
  0
ARC
  8
DETAIL
  6
CONTINUOUS
 62
     5
 10
-480.70000000006797
 20
198.9500000000362
 30
0.0
 40
0.1000000000000137
 50
180.0
 51
270.0
  0
ARC
  8
DETAIL
  6
CONTINUOUS
 62
     5
 10
-507.29722442206781
 20
164.1123823700282
 30
0.0
 40
1.10000000000016
 50
154.99999999997601
 51
334.99999999997601
  0
ARC
  8
DETAIL
  6
CONTINUOUS
 62
     5
 10
251.10000000004169
 20
531.90000000007967
 30
0.0
 40
1.10000000000016
 50
90.0
 51
180.0
  0
ARC
  8
DETAIL
  6
CONTINUOUS
 62
     5
 10
440.90000000006597
 20
531.90000000007967
 30
0.0
 40
1.10000000000016
 50
0.0
 51
90.0
  0
ARC
  8
DETAIL
  6
CONTINUOUS
 62
     5
 10
467.50000000007088
 20
454.10000000006681
 30
0.0
 40
6.4000000000009249
 50
272.68672418571771
 51
300.00725140940852
  0
ARC
  8
DETAIL
  6
CONTINUOUS
 62
     5
 10
467.50000000007088
 20
453.90000000006688
 30
0.0
 40
3.200000000000462
 50
238.52405527620499
 51
359.5537889341939
  0
ARC
  8
DETAIL
  6
CONTINUOUS
 62
     5
 10
470.03615919607449
 20
451.43372472407191
 30
0.0
 40
2.6662993120003851
 50
75.597488037517479
 51
76.114622478801905
  0
ARC
  8
DETAIL
  6
CONTINUOUS
 62
     5
 10
470.03688012207482
 20
451.43663111806649
 30
0.0
 40
2.6633048420003842
 50
76.114673707288944
 51
76.356535752713228
  0
ARC
  8
DETAIL
  6
CONTINUOUS
 62
     5
 10
469.60000000006949
 20
446.60000000006681
 30
0.0
 40
1.10000000000016
 50
0.0
 51
90.0
  0
ARC
  8
DETAIL
  6
CONTINUOUS
 62
     5
 10
469.60000000006949
 20
446.60000000006681
 30
0.0
 40
0.6000000000000859
 50
0.0
 51
90.0
  0
ARC
  8
DETAIL
  6
CONTINUOUS
 62
     5
 10
500.50000000007191
 20
447.50000000007282
 30
0.0
 40
6.500000000000937
 50
90.0
 51
270.0
  0
ARC
  8
DETAIL
  6
DASHED
 62
     5
 10
555.20000000008076
 20
424.90000000006688
 30
0.0
 40
1.10000000000016
 50
0.0
 51
90.0
  0
ARC
  8
DETAIL
  6
DASHED
 62
     5
 10
555.20000000008076
 20
235.1000000000349
 30
0.0
 40
1.10000000000016
 50
270.0
 51
0.0
  0
ARC
  8
DETAIL
  6
CONTINUOUS
 62
     5
 10
-488.70000000006979
 20
-201.30000000002019
 30
0.0
 40
2.4000000000003459
 50
148.55755264991231
 51
270.0
  0
ARC
  8
DETAIL
  6
CONTINUOUS
 62
     5
 10
-488.70000000006979
 20
-201.30000000002019
 30
0.0
 40
1.200000000000174
 50
133.99999999999329
 51
270.0
  0
ARC
  8
DETAIL
  6
CONTINUOUS
 62
     5
 10
-585.70000000008076
 20
-227.30000000003469
 30
0.0
 40
1.200000000000174
 50
90.0
 51
180.0
  0
ARC
  8
DETAIL
  6
CONTINUOUS
 62
     5
 10
-504.60000000007312
 20
-199.45000000002889
 30
0.0
 40
0.6000000000000859
 50
90.0
 51
270.0
  0
ARC
  8
DETAIL
  6
CONTINUOUS
 62
     5
 10
-550.90000000007558
 20
-400.50000000004638
 30
0.0
 40
3.000000000000433
 50
270.0
 51
0.0
  0
ARC
  8
DETAIL
  6
CONTINUOUS
 62
     5
 10
-556.90000000007649
 20
-400.50000000004638
 30
0.0
 40
3.000000000000433
 50
270.0
 51
0.0
  0
ARC
  8
DETAIL
  6
CONTINUOUS
 62
     5
 10
-576.90000000007967
 20
-400.50000000004638
 30
0.0
 40
3.000000000000433
 50
180.0
 51
270.0
  0
ARC
  8
DETAIL
  6
CONTINUOUS
 62
     5
 10
-584.10000000008176
 20
-398.90000000004778
 30
0.0
 40
1.6000000000002319
 50
180.0
 51
270.0
  0
ARC
  8
DETAIL
  6
CONTINUOUS
 62
     5
 10
-520.7000000000744
 20
-400.50000000004638
 30
0.0
 40
1.300000000000187
 50
209.40091419710569
 51
231.317812546509
  0
ARC
  8
DETAIL
  6
CONTINUOUS
 62
     5
 10
-540.70000000007713
 20
-400.50000000004638
 30
0.0
 40
1.300000000000187
 50
308.68218745349111
 51
333.79988515860998
  0
ARC
  8
DETAIL
  6
CONTINUOUS
 62
     5
 10
-540.20000000007667
 20
-401.00000000006088
 30
0.0
 40
0.5000000000000722
 50
90.0
 51
180.0
  0
ARC
  8
DETAIL
  6
CONTINUOUS
 62
     5
 10
-521.2000000000744
 20
-401.00000000006088
 30
0.0
 40
0.5000000000000722
 50
0.0
 51
90.0
  0
ARC
  8
DETAIL
  6
CONTINUOUS
 62
     5
 10
-521.2000000000744
 20
-401.12449979804933
 30
0.0
 40
0.5000000000000722
 50
231.317812546509
 51
0.0
  0
ARC
  8
DETAIL
  6
CONTINUOUS
 62
     5
 10
-540.20000000007667
 20
-401.12449979804933
 30
0.0
 40
0.5000000000000722
 50
180.0
 51
308.68218745349111
  0
ARC
  8
DETAIL
  6
CONTINUOUS
 62
     5
 10
-500.5000000000714
 20
-447.50000000006548
 30
0.0
 40
6.500000000000937
 50
270.0
 51
90.0
  0
ARC
  8
DETAIL
  6
CONTINUOUS
 62
     5
 10
-467.50000000006372
 20
-454.10000000005948
 30
0.0
 40
6.4000000000009249
 50
92.686724185691588
 51
120.0072514094085
  0
ARC
  8
DETAIL
  6
CONTINUOUS
 62
     5
 10
-467.50000000006372
 20
-453.90000000005972
 30
0.0
 40
3.200000000000462
 50
58.524055254544848
 51
179.55378893659119
  0
ARC
  8
DETAIL
  6
CONTINUOUS
 62
     5
 10
-470.0361592040631
 20
-451.43372474406618
 30
0.0
 40
2.666299290000385
 50
255.59748803418199
 51
256.11462247992949
  0
ARC
  8
DETAIL
  6
CONTINUOUS
 62
     5
 10
-470.03688013606552
 20
-451.43663116605882
 30
0.0
 40
2.6633047880003851
 50
256.11467370610802
 51
256.35653575630619
  0
ARC
  8
DETAIL
  6
CONTINUOUS
 62
     5
 10
-440.90000000006381
 20
-531.90000000006512
 30
0.0
 40
1.10000000000016
 50
180.0
 51
270.0
  0
ARC
  8
DETAIL
  6
CONTINUOUS
 62
     5
 10
-469.60000000006949
 20
-446.60000000006681
 30
0.0
 40
1.10000000000016
 50
180.0
 51
270.0
  0
ARC
  8
DETAIL
  6
CONTINUOUS
 62
     5
 10
-469.60000000006949
 20
-446.60000000006681
 30
0.0
 40
0.6000000000000859
 50
180.0
 51
270.0
  0
ARC
  8
DETAIL
  6
CONTINUOUS
 62
     5
 10
-251.10000000002759
 20
-531.90000000006512
 30
0.0
 40
1.10000000000016
 50
270.0
 51
0.0
  0
ARC
  8
DETAIL
  6
CONTINUOUS
 62
     5
 10
500.50000000007191
 20
-447.50000000006548
 30
0.0
 40
6.500000000000937
 50
90.0
 51
270.0
  0
ARC
  8
DETAIL
  6
CONTINUOUS
 62
     5
 10
467.50000000007088
 20
-454.10000000005948
 30
0.0
 40
6.4000000000009249
 50
59.992748590591539
 51
87.313275814308426
  0
ARC
  8
DETAIL
  6
CONTINUOUS
 62
     5
 10
467.50000000007088
 20
-453.90000000005972
 30
0.0
 40
3.200000000000462
 50
0.4462110654934044
 51
121.4759447451505
  0
ARC
  8
DETAIL
  6
CONTINUOUS
 62
     5
 10
470.03615921006531
 20
-451.43372477605863
 30
0.0
 40
2.6662992560003862
 50
283.88537751727932
 51
284.40251196969177
  0
ARC
  8
DETAIL
  6
CONTINUOUS
 62
     5
 10
470.03688013607189
 20
-451.43663116605882
 30
0.0
 40
2.6633047880003851
 50
283.64346423886769
 51
283.88532628922212
  0
ARC
  8
DETAIL
  6
CONTINUOUS
 62
     5
 10
251.10000000004169
 20
-531.90000000006512
 30
0.0
 40
1.10000000000016
 50
180.0
 51
270.0
  0
ARC
  8
DETAIL
  6
CONTINUOUS
 62
     5
 10
440.90000000006597
 20
-531.90000000006512
 30
0.0
 40
1.10000000000016
 50
270.0
 51
0.0
  0
ARC
  8
DETAIL
  6
CONTINUOUS
 62
     5
 10
469.60000000006949
 20
-446.60000000006681
 30
0.0
 40
1.10000000000016
 50
270.0
 51
0.0
  0
ARC
  8
DETAIL
  6
CONTINUOUS
 62
     5
 10
469.60000000006949
 20
-446.60000000006681
 30
0.0
 40
0.6000000000000859
 50
270.0
 51
0.0
  0
LINE
  8
DETAIL
  6
CONTINUOUS
 62
     5
 10
-484.70000000006888
 20
200.05000000003469
 30
0.0
 11
-484.79273251350509
 21
200.03117358215718
 31
0.0
  0
LINE
  8
DETAIL
  6
CONTINUOUS
 62
     5
 10
-484.79273251350509
 20
200.03117358215718
 30
0.0
 11
-484.87555208481967
 21
199.9835663244545
 31
0.0
  0
LINE
  8
DETAIL
  6
CONTINUOUS
 62
     5
 10
-484.87555208481967
 20
199.9835663244545
 30
0.0
 11
-484.94294355129341
 21
199.91682789086079
 31
0.0
  0
LINE
  8
DETAIL
  6
CONTINUOUS
 62
     5
 10
-484.94294355129341
 20
199.91682789086079
 30
0.0
 11
-484.9955787908317
 21
199.83556065493534
 31
0.0
  0
LINE
  8
DETAIL
  6
CONTINUOUS
 62
     5
 10
-484.9955787908317
 20
199.83556065493534
 30
0.0
 11
-485.03457411005633
 21
199.74400443228404
 31
0.0
  0
LINE
  8
DETAIL
  6
CONTINUOUS
 62
     5
 10
-485.03457411005633
 20
199.74400443228404
 30
0.0
 11
-485.06104581558952
 21
199.64639903851304
 31
0.0
  0
LINE
  8
DETAIL
  6
CONTINUOUS
 62
     5
 10
-485.06104581558952
 20
199.64639903851304
 30
0.0
 11
-485.0761102140533
 21
199.54698428922842
 31
0.0
  0
LINE
  8
DETAIL
  6
CONTINUOUS
 62
     5
 10
-485.0761102140533
 20
199.54698428922842
 30
0.0
 11
-485.08088361206961
 21
199.4500000000362
 31
0.0
  0
LINE
  8
DETAIL
  6
CONTINUOUS
 62
     5
 10
-485.08088361206961
 20
199.4500000000362
 30
0.0
 11
-485.07721996717265
 21
199.35828251592412
 31
0.0
  0
LINE
  8
DETAIL
  6
CONTINUOUS
 62
     5
 10
-485.07721996717265
 20
199.35828251592412
 30
0.0
 11
-485.06355029612018
 21
199.26662470436543
 31
0.0
  0
LINE
  8
DETAIL
  6
CONTINUOUS
 62
     5
 10
-485.06355029612018
 20
199.26662470436543
 30
0.0
 11
-485.03597577923881
 21
199.1721392640226
 31
0.0
  0
LINE
  8
DETAIL
  6
CONTINUOUS
 62
     5
 10
-485.03597577923881
 20
199.1721392640226
 30
0.0
 11
-484.99326416287488
 21
199.07727023892039
 31
0.0
  0
LINE
  8
DETAIL
  6
CONTINUOUS
 62
     5
 10
-484.99326416287488
 20
199.07727023892039
 30
0.0
 11
-484.93680767794626
 21
198.98970888374447
 31
0.0
  0
LINE
  8
DETAIL
  6
CONTINUOUS
 62
     5
 10
-484.93680767794626
 20
198.98970888374447
 30
0.0
 11
-484.86810942328248
 21
198.9173681147204
 31
0.0
  0
LINE
  8
DETAIL
  6
CONTINUOUS
 62
     5
 10
-484.86810942328248
 20
198.9173681147204
 30
0.0
 11
-484.78867249771349
 21
198.86816084807387
 31
0.0
  0
LINE
  8
DETAIL
  6
CONTINUOUS
 62
     5
 10
-484.78867249771349
 20
198.86816084807387
 30
0.0
 11
-484.70000000006888
 21
198.85000000003041
 31
0.0
  0
LINE
  8
DETAIL
  6
CONTINUOUS
 62
     5
 10
-484.70000000006888
 20
-200.05000000002019
 30
0.0
 11
-484.79273251350514
 21
-200.03117358179392
 31
0.0
  0
LINE
  8
DETAIL
  6
CONTINUOUS
 62
     5
 10
-484.79273251350514
 20
-200.03117358179392
 30
0.0
 11
-484.8755520848199
 21
-199.98356632349825
 31
0.0
  0
LINE
  8
DETAIL
  6
CONTINUOUS
 62
     5
 10
-484.8755520848199
 20
-199.98356632349825
 30
0.0
 11
-484.94294355129364
 21
-199.91682788947969
 31
0.0
  0
LINE
  8
DETAIL
  6
CONTINUOUS
 62
     5
 10
-484.94294355129364
 20
-199.91682788947969
 30
0.0
 11
-484.99557879083193
 21
-199.83556065334045
 31
0.0
  0
LINE
  8
DETAIL
  6
CONTINUOUS
 62
     5
 10
-484.99557879083193
 20
-199.83556065334045
 30
0.0
 11
-485.0345741100565
 21
-199.74400443070311
 31
0.0
  0
LINE
  8
DETAIL
  6
CONTINUOUS
 62
     5
 10
-485.0345741100565
 20
-199.74400443070311
 30
0.0
 11
-485.06104581558958
 21
-199.64639903719032
 31
0.0
  0
LINE
  8
DETAIL
  6
CONTINUOUS
 62
     5
 10
-485.06104581558958
 20
-199.64639903719032
 30
0.0
 11
-485.0761102140533
 21
-199.54698428842474
 31
0.0
  0
LINE
  8
DETAIL
  6
CONTINUOUS
 62
     5
 10
-485.0761102140533
 20
-199.54698428842474
 30
0.0
 11
-485.08088361206961
 21
-199.45000000002889
 31
0.0
  0
LINE
  8
DETAIL
  6
CONTINUOUS
 62
     5
 10
-485.08088361206961
 20
-199.45000000002889
 30
0.0
 11
-485.07721996717265
 21
-199.35828251436428
 31
0.0
  0
LINE
  8
DETAIL
  6
CONTINUOUS
 62
     5
 10
-485.07721996717265
 20
-199.35828251436428
 30
0.0
 11
-485.06355029612024
 21
-199.2666247024803
 31
0.0
  0
LINE
  8
DETAIL
  6
CONTINUOUS
 62
     5
 10
-485.06355029612024
 20
-199.2666247024803
 30
0.0
 11
-485.03597577923887
 21
-199.17213926235672
 31
0.0
  0
LINE
  8
DETAIL
  6
CONTINUOUS
 62
     5
 10
-485.03597577923887
 20
-199.17213926235672
 30
0.0
 11
-484.99326416287505
 21
-199.07727023763141
 31
0.0
  0
LINE
  8
DETAIL
  6
CONTINUOUS
 62
     5
 10
-484.99326416287505
 20
-199.07727023763141
 30
0.0
 11
-484.93680767794655
 21
-198.98970888289404
 31
0.0
  0
LINE
  8
DETAIL
  6
CONTINUOUS
 62
     5
 10
-484.93680767794655
 20
-198.98970888289404
 30
0.0
 11
-484.86810942328276
 21
-198.91736811428675
 31
0.0
  0
LINE
  8
DETAIL
  6
CONTINUOUS
 62
     5
 10
-484.86810942328276
 20
-198.91736811428675
 30
0.0
 11
-484.78867249771366
 21
-198.86816084795151
 31
0.0
  0
LINE
  8
DETAIL
  6
CONTINUOUS
 62
     5
 10
-484.78867249771366
 20
-198.86816084795151
 30
0.0
 11
-484.70000000006888
 21
-198.85000000003041
 31
0.0
  0
LINE
  8
DETAIL
  6
CONTINUOUS
 62
     5
 10
450.00000000006548
 20
455.69999999014823
 30
0.0
 11
450.00000000006548
 21
454.00000000006821
 31
0.0
  0
LINE
  8
DETAIL
  6
CONTINUOUS
 62
     5
 10
520.50000000007458
 20
-466.00000000005821
 30
0.0
 11
470.70000000006797
 21
-466.00000000005821
 31
0.0
  0
LINE
  8
DETAIL
  6
CONTINUOUS
 62
     5
 10
449.99999999864491
 20
-455.70000000005803
 30
0.0
 11
449.99999999864491
 21
-454.00000000006088
 31
0.0
  0
LINE
  8
DETAIL
  6
CONTINUOUS
 62
     5
 10
-450.00000000124652
 20
455.7000000000653
 30
0.0
 11
-450.00000000124652
 21
454.00000000006821
 31
0.0
  0
LINE
  8
DETAIL
  6
CONTINUOUS
 62
     5
 10
-450.00000000097538
 20
-455.70000000005803
 30
0.0
 11
-450.00000000097538
 21
-454.00000000006088
 31
0.0
  0
LINE
  8
DETAIL
  6
CONTINUOUS
 62
     5
 10
-242.00000000003459
 20
-455.70000000005803
 30
0.0
 11
-450.00000000097538
 21
-455.70000000005803
 31
0.0
  0
LINE
  8
DETAIL
  6
CONTINUOUS
 62
     5
 10
450.00000000006548
 20
455.69999999014823
 30
0.0
 11
242.00000000003499
 21
455.7000000000653
 31
0.0
  0
LINE
  8
DETAIL
  6
DASHED
 62
     5
 10
478.70000000006888
 20
422.50000000006548
 30
0.0
 11
478.70000000006888
 21
226.00000000003641
 31
0.0
  0
LINE
  8
DETAIL
  6
DASHED
 62
     5
 10
478.70000000006888
 20
226.00000000003641
 30
0.0
 11
477.00000000006457
 21
226.00000000003641
 31
0.0
  0
LINE
  8
SERVICESPACE
  6
DASHDOT
 62
     2
 10
-1177.000015678623
 20
-454.00000000006088
 30
0.0
 11
-463.0000000000723
 21
-454.00000000006088
 31
0.0
  0
LINE
  8
SERVICESPACE
  6
DASHDOT
 62
     2
 10
-1177.000015678623
 20
-454.38839488230133
 30
0.0
 11
-1177.000015678623
 21
454.00000000006821
 31
0.0
  0
LINE
  8
SERVICESPACE
  6
DASHDOT
 62
     2
 10
-1177.000015678623
 20
454.00000000006821
 30
0.0
 11
-463.00000000006679
 21
454.00000000006821
 31
0.0
  0
LINE
  8
BASIS
  6
DASHDOT
 62
     6
 10
-500.50000000007731
 20
-498.43427874104242
 30
0.0
 11
-500.50000000007691
 21
-396.56572125908127
 31
0.0
  0
LINE
  8
BASIS
  6
DASHDOT
 62
     6
 10
-449.5657212590886
 20
-447.50000000006548
 30
0.0
 11
-551.43427874105419
 21
-447.50000000006548
 31
0.0
  0
LINE
  8
BASIS
  6
DASHDOT
 62
     6
 10
-500.50000000007691
 20
396.56572125908127
 30
0.0
 11
-500.50000000007691
 21
498.43427874105691
 31
0.0
  0
LINE
  8
BASIS
  6
DASHDOT
 62
     6
 10
-449.5657212590886
 20
447.50000000007282
 30
0.0
 11
-551.43427874105419
 21
447.50000000007282
 31
0.0
  0
LINE
  8
BASIS
  6
DASHDOT
 62
     6
 10
500.50000000006548
 20
396.56572125908127
 30
0.0
 11
500.50000000006548
 21
498.43427874105691
 31
0.0
  0
LINE
  8
BASIS
  6
DASHDOT
 62
     6
 10
551.43427874105328
 20
447.50000000007282
 30
0.0
 11
449.56572125909042
 21
447.50000000007282
 31
0.0
  0
LINE
  8
BASIS
  6
DASHDOT
 62
     6
 10
500.50000000006548
 20
-498.43427874104242
 30
0.0
 11
500.50000000006548
 21
-396.56572125908127
 31
0.0
  0
LINE
  8
BASIS
  6
DASHDOT
 62
     6
 10
551.43427874105328
 20
-447.50000000006548
 30
0.0
 11
449.56572125908951
 21
-447.50000000006548
 31
0.0
  0
LINE
  8
BASIS
  6
DASHDOT
 62
     6
 10
-566.63661661013612
 20
330.00000000005821
 30
0.0
 11
-450.07148182853513
 21
330.00000000005821
 31
0.0
1001
GENIUS_GENODEF_13
1002
{
1000
HIER
1070
     0
1002
}
1002
{
1000
MANEDIT
1070
     0
1002
}
1002
{
1000
NOSEL
1070
     0
1002
}
1002
{
1000
BEHIND
1070
     0
1002
}
1002
{
1000
OTHER
1070
     0
1002
}
1002
{
1000
REACTOR
1002
}
1001
GENIUS_GENOBJ-N-CEN_13
1002
{
1000
OWNER
1000
GEN
1002
}
1001
GENIUS_GENCEN_19
1002
{
1040
5.0
1002
}
  0
LINE
  8
BASIS
  6
DASHDOT
 62
     6
 10
-346.00001690205232
 20
557.55018699900938
 30
0.0
 11
-346.00001690205232
 21
424.46599998197331
 31
0.0
1001
GENIUS_GENODEF_13
1002
{
1000
HIER
1070
     0
1002
}
1002
{
1000
MANEDIT
1070
     0
1002
}
1002
{
1000
NOSEL
1070
     0
1002
}
1002
{
1000
BEHIND
1070
     0
1002
}
1002
{
1000
OTHER
1070
     0
1002
}
1002
{
1000
REACTOR
1002
}
1001
GENIUS_GENOBJ-N-CEN_13
1002
{
1000
OWNER
1000
GEN
1002
}
1001
GENIUS_GENCEN_19
1002
{
1040
5.0
1002
}
  0
LINE
  8
BASIS
  6
DASHDOT
 62
     6
 10
346.00001690205318
 20
557.55018699900938
 30
0.0
 11
346.00001690205232
 21
424.46599998197331
 31
0.0
1001
GENIUS_GENODEF_13
1002
{
1000
HIER
1070
     0
1002
}
1002
{
1000
MANEDIT
1070
     0
1002
}
1002
{
1000
NOSEL
1070
     0
1002
}
1002
{
1000
BEHIND
1070
     0
1002
}
1002
{
1000
OTHER
1070
     0
1002
}
1002
{
1000
REACTOR
1002
}
1001
GENIUS_GENOBJ-N-CEN_13
1002
{
1000
OWNER
1000
GEN
1002
}
1001
GENIUS_GENCEN_19
1002
{
1040
5.0
1002
}
  0
LINE
  8
BASIS
  6
DASHDOT
 62
     6
 10
575.04112443276153
 20
330.00000000005821
 30
0.0
 11
455.60957491818772
 21
330.00000000005821
 31
0.0
  0
LINE
  8
BASIS
  6
DASHDOT
 62
     6
 10
-345.99998309804408
 20
-556.74386575867356
 30
0.0
 11
-345.99998309804408
 21
-427.93333358717342
 31
0.0
  0
LINE
  8
BASIS
  6
DASHDOT
 62
     6
 10
345.99998309804408
 20
-552.23350298229889
 30
0.0
 11
345.99998309804408
 21
-427.93333358717342
 31
0.0
  0
LINE
  8
SIZE
  6
CONTINUOUS
 62
    30
 10
483.00000000007748
 20
454.00000000006122
 30
0.0
 11
976.99380637530999
 21
454.00000000006122
 31
0.0
  0
LINE
  8
SIZE
  6
CONTINUOUS
 62
    30
 10
483.00000000008839
 20
-454.00000000006122
 30
0.0
 11
976.99380637531021
 21
-454.00000000006111
 31
0.0
  0
LINE
  8
SIZE
  6
CONTINUOUS
 62
    30
 10
956.99380637530999
 20
442.00000000006122
 30
0.0
 11
956.99380637531021
 21
-442.00000000006111
 31
0.0
  0
CIRCLE
  8
SIZE
  6
CONTINUOUS
 62
    30
 10
956.99380637530999
 20
454.00000000006122
 30
0.0
 40
6.0
  0
LINE
  8
SIZE
  6
CONTINUOUS
 62
    30
 10
956.99380637530999
 20
454.00000000006122
 30
0.0
 11
956.99380637530999
 21
442.00000000006122
 31
0.0
  0
CIRCLE
  8
SIZE
  6
CONTINUOUS
 62
    30
 10
956.99380637531021
 20
-454.00000000006111
 30
0.0
 40
6.0
  0
LINE
  8
SIZE
  6
CONTINUOUS
 62
    30
 10
956.99380637531021
 20
-454.00000000006111
 30
0.0
 11
956.99380637531021
 21
-442.00000000006111
 31
0.0
  0
TEXT
  8
SIZE
  6
CONTINUOUS
 62
    30
 10
931.99380637530987
 20
-80.928000000000225
 30
0.0
 40
64.0
  1
908
 50
90.0
 41
0.9
 51
0.0
  7
STANDARD
 71
     0
 72
     1
 11
931.99380637530987
 21
-0.0000000000002241
 31
0.0
210
0.0
220
0.0
230
1.0
  0
POINT
  8
DEFPOINTS
  6
CONTINUOUS
 62
    30
 10
463.00000000007748
 20
454.00000000006122
 30
0.0
  0
POINT
  8
DEFPOINTS
  6
CONTINUOUS
 62
    30
 10
463.00000000008839
 20
-454.00000000006122
 30
0.0
  0
POINT
  8
DEFPOINTS
  6
CONTINUOUS
 62
    30
 10
956.99380637531021
 20
-454.00000000006111
 30
0.0
  0
LINE
  8
SIZE
  6
CONTINUOUS
 62
    30
 10
460.67876619606818
 20
533.00000000007844
 30
0.0
 11
976.99380637530351
 21
533.00000000007856
 31
0.0
  0
LINE
  8
SIZE
  6
CONTINUOUS
 62
    30
 10
483.00000000007748
 20
454.00000000006122
 30
0.0
 11
976.99380637530351
 21
454.00000000006122
 31
0.0
  0
LINE
  8
SIZE
  6
CONTINUOUS
 62
    30
 10
956.99380637530351
 20
466.00000000006122
 30
0.0
 11
956.99380637530351
 21
521.00000000007856
 31
0.0
  0
LINE
  8
SIZE
  6
CONTINUOUS
 62
    30
 10
956.99380637530351
 20
533.00000000007856
 30
0.0
 11
956.99380637530351
 21
685.81428571436447
 31
0.0
  0
CIRCLE
  8
SIZE
  6
CONTINUOUS
 62
    30
 10
956.99380637530351
 20
454.00000000006122
 30
0.0
 40
6.0
  0
LINE
  8
SIZE
  6
CONTINUOUS
 62
    30
 10
956.99380637530351
 20
454.00000000006122
 30
0.0
 11
956.99380637530351
 21
466.00000000006122
 31
0.0
  0
CIRCLE
  8
SIZE
  6
CONTINUOUS
 62
    30
 10
956.99380637530351
 20
533.00000000007856
 30
0.0
 40
6.0
  0
LINE
  8
SIZE
  6
CONTINUOUS
 62
    30
 10
956.99380637530351
 20
533.00000000007856
 30
0.0
 11
956.99380637530351
 21
521.00000000007856
 31
0.0
  0
TEXT
  8
SIZE
  6
CONTINUOUS
 62
    30
 10
931.99380637530339
 20
561.98914285722128
 30
0.0
 40
64.0
  1
79
 50
90.0
 41
0.9
 51
0.0
  7
STANDARD
 71
     0
 72
     1
 11
931.99380637530339
 21
615.55714285722127
 31
0.0
210
0.0
220
0.0
230
1.0
  0
POINT
  8
DEFPOINTS
  6
CONTINUOUS
 62
    30
 10
440.67876619606818
 20
533.00000000007844
 30
0.0
  0
POINT
  8
DEFPOINTS
  6
CONTINUOUS
 62
    30
 10
463.00000000007748
 20
454.00000000006122
 30
0.0
  0
POINT
  8
DEFPOINTS
  6
CONTINUOUS
 62
    30
 10
956.99380637530351
 20
454.00000000006122
 30
0.0
  0
LINE
  8
SIZE
  6
CONTINUOUS
 62
    30
 10
460.90000000006631
 20
-533.00000000007844
 30
0.0
 11
976.99380637530282
 21
-533.00000000007833
 31
0.0
  0
LINE
  8
SIZE
  6
CONTINUOUS
 62
    30
 10
483.00000000007748
 20
-454.00000000006122
 30
0.0
 11
976.99380637530282
 21
-454.00000000006111
 31
0.0
  0
LINE
  8
SIZE
  6
CONTINUOUS
 62
    30
 10
956.99380637530282
 20
-466.00000000006111
 30
0.0
 11
956.99380637530282
 21
-521.00000000007833
 31
0.0
  0
LINE
  8
SIZE
  6
CONTINUOUS
 62
    30
 10
956.99380637530282
 20
-533.00000000007833
 30
0.0
 11
956.99380637530282
 21
-685.81428571436379
 31
0.0
  0
CIRCLE
  8
SIZE
  6
CONTINUOUS
 62
    30
 10
956.99380637530282
 20
-454.00000000006111
 30
0.0
 40
6.0
  0
LINE
  8
SIZE
  6
CONTINUOUS
 62
    30
 10
956.99380637530282
 20
-454.00000000006111
 30
0.0
 11
956.99380637530282
 21
-466.00000000006111
 31
0.0
  0
CIRCLE
  8
SIZE
  6
CONTINUOUS
 62
    30
 10
956.99380637530282
 20
-533.00000000007833
 30
0.0
 40
6.0
  0
LINE
  8
SIZE
  6
CONTINUOUS
 62
    30
 10
956.99380637530282
 20
-533.00000000007833
 30
0.0
 11
956.99380637530282
 21
-521.00000000007833
 31
0.0
  0
TEXT
  8
SIZE
  6
CONTINUOUS
 62
    30
 10
931.99380637530248
 20
-669.12514285722102
 30
0.0
 40
64.0
  1
79
 50
90.0
 41
0.9
 51
0.0
  7
STANDARD
 71
     0
 72
     1
 11
931.99380637530248
 21
-615.55714285722104
 31
0.0
210
0.0
220
0.0
230
1.0
  0
POINT
  8
DEFPOINTS
  6
CONTINUOUS
 62
    30
 10
440.90000000006631
 20
-533.00000000007844
 30
0.0
  0
POINT
  8
DEFPOINTS
  6
CONTINUOUS
 62
    30
 10
463.00000000007748
 20
-454.00000000006122
 30
0.0
  0
POINT
  8
DEFPOINTS
  6
CONTINUOUS
 62
    30
 10
956.99380637530282
 20
-454.00000000006111
 30
0.0
  0
LINE
  8
SIZE
  6
CONTINUOUS
 62
    30
 10
-586.63661661013634
 20
330.00000000005832
 30
0.0
 11
-773.43276635231939
 21
330.00000000005832
 31
0.0
  0
LINE
  8
SIZE
  6
CONTINUOUS
 62
    30
 10
-483.00000000006708
 20
454.00000000006838
 30
0.0
 11
-773.43276635231939
 21
454.00000000006838
 31
0.0
  0
LINE
  8
SIZE
  6
CONTINUOUS
 62
    30
 10
-753.43276635231928
 20
342.00000000005832
 30
0.0
 11
-753.43276635231928
 21
442.00000000006838
 31
0.0
  0
LINE
  8
SIZE
  6
CONTINUOUS
 62
    30
 10
-753.43276635231928
 20
454.00000000006838
 30
0.0
 11
-753.43276635231928
 21
655.8857142857828
 31
0.0
  0
CIRCLE
  8
SIZE
  6
CONTINUOUS
 62
    30
 10
-753.43276635231928
 20
330.00000000005832
 30
0.0
 40
6.0
  0
LINE
  8
SIZE
  6
CONTINUOUS
 62
    30
 10
-753.43276635231928
 20
330.00000000005832
 30
0.0
 11
-753.43276635231928
 21
342.00000000005832
 31
0.0
  0
CIRCLE
  8
SIZE
  6
CONTINUOUS
 62
    30
 10
-753.43276635231928
 20
454.00000000006838
 30
0.0
 40
6.0
  0
LINE
  8
SIZE
  6
CONTINUOUS
 62
    30
 10
-753.43276635231928
 20
454.00000000006838
 30
0.0
 11
-753.43276635231928
 21
442.00000000006838
 31
0.0
  0
TEXT
  8
SIZE
  6
CONTINUOUS
 62
    30
 10
-778.43276635231905
 20
485.77485714292561
 30
0.0
 40
64.0
  1
124
 50
90.0
 41
0.9
 51
0.0
  7
STANDARD
 71
     0
 72
     1
 11
-778.43276635231905
 21
560.94285714292562
 31
0.0
210
0.0
220
0.0
230
1.0
  0
POINT
  8
DEFPOINTS
  6
CONTINUOUS
 62
    30
 10
-566.63661661013634
 20
330.00000000005832
 30
0.0
  0
POINT
  8
DEFPOINTS
  6
CONTINUOUS
 62
    30
 10
-463.00000000006708
 20
454.00000000006838
 30
0.0
  0
POINT
  8
DEFPOINTS
  6
CONTINUOUS
 62
    30
 10
-753.43276635231928
 20
454.00000000006838
 30
0.0
  0
LINE
  8
SIZE
  6
CONTINUOUS
 62
    30
 10
595.04112443276176
 20
330.00000000005832
 30
0.0
 11
752.70403943395468
 21
330.00000000005838
 31
0.0
  0
LINE
  8
SIZE
  6
CONTINUOUS
 62
    30
 10
483.00000000007748
 20
454.00000000006122
 30
0.0
 11
752.70403943395468
 21
454.00000000006122
 31
0.0
  0
LINE
  8
SIZE
  6
CONTINUOUS
 62
    30
 10
732.70403943395468
 20
342.00000000005838
 30
0.0
 11
732.70403943395468
 21
442.00000000006122
 31
0.0
  0
LINE
  8
SIZE
  6
CONTINUOUS
 62
    30
 10
732.70403943395468
 20
454.00000000006122
 30
0.0
 11
732.70403943395468
 21
714.7167524249428
 31
0.0
  0
CIRCLE
  8
SIZE
  6
CONTINUOUS
 62
    30
 10
732.70403943395468
 20
330.00000000005838
 30
0.0
 40
6.0
  0
LINE
  8
SIZE
  6
CONTINUOUS
 62
    30
 10
732.70403943395468
 20
330.00000000005838
 30
0.0
 11
732.70403943395468
 21
342.00000000005838
 31
0.0
  0
CIRCLE
  8
SIZE
  6
CONTINUOUS
 62
    30
 10
732.70403943395468
 20
454.00000000006122
 30
0.0
 40
6.0
  0
LINE
  8
SIZE
  6
CONTINUOUS
 62
    30
 10
732.70403943395468
 20
454.00000000006122
 30
0.0
 11
732.70403943395468
 21
442.00000000006122
 31
0.0
  0
TEXT
  8
SIZE
  6
CONTINUOUS
 62
    30
 10
707.70403943395468
 20
544.6058952820855
 30
0.0
 40
64.0
  1
124
 50
90.0
 41
0.9
 51
0.0
  7
STANDARD
 71
     0
 72
     1
 11
707.70403943395468
 21
619.7738952820855
 31
0.0
210
0.0
220
0.0
230
1.0
  0
POINT
  8
DEFPOINTS
  6
CONTINUOUS
 62
    30
 10
575.04112443276176
 20
330.00000000005832
 30
0.0
  0
POINT
  8
DEFPOINTS
  6
CONTINUOUS
 62
    30
 10
463.00000000007748
 20
454.00000000006122
 30
0.0
  0
POINT
  8
DEFPOINTS
  6
CONTINUOUS
 62
    30
 10
732.70403943395468
 20
454.00000000006122
 30
0.0
  0
LINE
  8
SIZE
  6
CONTINUOUS
 62
    30
 10
571.4342787410535
 20
447.50000000007299
 30
0.0
 11
865.28172646051848
 21
447.50000000007299
 31
0.0
  0
LINE
  8
SIZE
  6
CONTINUOUS
 62
    30
 10
571.4342787410535
 20
-447.50000000006571
 30
0.0
 11
865.28172646051871
 21
-447.50000000006571
 31
0.0
  0
LINE
  8
SIZE
  6
CONTINUOUS
 62
    30
 10
845.28172646051848
 20
435.50000000007299
 30
0.0
 11
845.28172646051871
 21
-435.50000000006571
 31
0.0
  0
CIRCLE
  8
SIZE
  6
CONTINUOUS
 62
    30
 10
845.28172646051848
 20
447.50000000007299
 30
0.0
 40
6.0
  0
LINE
  8
SIZE
  6
CONTINUOUS
 62
    30
 10
845.28172646051848
 20
447.50000000007299
 30
0.0
 11
845.28172646051848
 21
435.50000000007299
 31
0.0
  0
CIRCLE
  8
SIZE
  6
CONTINUOUS
 62
    30
 10
845.28172646051871
 20
-447.50000000006571
 30
0.0
 40
6.0
  0
LINE
  8
SIZE
  6
CONTINUOUS
 62
    30
 10
845.28172646051871
 20
-447.50000000006571
 30
0.0
 11
845.28172646051871
 21
-435.50000000006571
 31
0.0
  0
TEXT
  8
SIZE
  6
CONTINUOUS
 62
    30
 10
820.28172646051837
 20
-80.351999999996494
 30
0.0
 40
64.0
  1
895
 50
90.0
 41
0.9
 51
0.0
  7
STANDARD
 71
     0
 72
     1
 11
820.28172646051837
 21
0.0000000000034775
 31
0.0
210
0.0
220
0.0
230
1.0
  0
POINT
  8
DEFPOINTS
  6
CONTINUOUS
 62
    30
 10
551.4342787410535
 20
447.50000000007299
 30
0.0
  0
POINT
  8
DEFPOINTS
  6
CONTINUOUS
 62
    30
 10
551.4342787410535
 20
-447.50000000006571
 30
0.0
  0
POINT
  8
DEFPOINTS
  6
CONTINUOUS
 62
    30
 10
845.28172646051871
 20
-447.50000000006571
 30
0.0
  0
LINE
  8
SIZE
  6
CONTINUOUS
 62
    30
 10
346.00001690205318
 20
577.55018699900938
 30
0.0
 11
346.00001690205318
 21
765.89383614271082
 31
0.0
  0
LINE
  8
SIZE
  6
CONTINUOUS
 62
    30
 10
-346.00001690205232
 20
577.55018699900938
 30
0.0
 11
-346.00001690205232
 21
765.89383614271082
 31
0.0
  0
LINE
  8
SIZE
  6
CONTINUOUS
 62
    30
 10
334.00001690205318
 20
745.89383614271082
 30
0.0
 11
-334.00001690205232
 21
745.89383614271082
 31
0.0
  0
CIRCLE
  8
SIZE
  6
CONTINUOUS
 62
    30
 10
346.00001690205318
 20
745.89383614271082
 30
0.0
 40
6.0
  0
LINE
  8
SIZE
  6
CONTINUOUS
 62
    30
 10
346.00001690205318
 20
745.89383614271082
 30
0.0
 11
334.00001690205318
 21
745.89383614271082
 31
0.0
  0
CIRCLE
  8
SIZE
  6
CONTINUOUS
 62
    30
 10
-346.00001690205232
 20
745.89383614271082
 30
0.0
 40
6.0
  0
LINE
  8
SIZE
  6
CONTINUOUS
 62
    30
 10
-346.00001690205232
 20
745.89383614271082
 30
0.0
 11
-334.00001690205232
 21
745.89383614271082
 31
0.0
  0
TEXT
  8
SIZE
  6
CONTINUOUS
 62
    30
 10
-80.351999999999549
 20
770.89383614271082
 30
0.0
 40
64.0
  1
692
 50
0.0
 41
0.9
 51
0.0
  7
STANDARD
 71
     0
 72
     1
 11
0.0000000000004547
 21
770.89383614271082
 31
0.0
210
0.0
220
0.0
230
1.0
  0
POINT
  8
DEFPOINTS
  6
CONTINUOUS
 62
    30
 10
346.00001690205318
 20
557.55018699900938
 30
0.0
  0
POINT
  8
DEFPOINTS
  6
CONTINUOUS
 62
    30
 10
-346.00001690205232
 20
557.55018699900938
 30
0.0
  0
POINT
  8
DEFPOINTS
  6
CONTINUOUS
 62
    30
 10
-346.00001690205232
 20
745.89383614271082
 30
0.0
  0
LINE
  8
SIZE
  6
CONTINUOUS
 62
    30
 10
477.00000000007191
 20
460.00000000006088
 30
0.0
 11
477.00000000007191
 21
885.15610238085992
 31
0.0
  0
LINE
  8
SIZE
  6
CONTINUOUS
 62
    30
 10
-477.00000000006412
 20
460.00000000006821
 30
0.0
 11
-477.00000000006412
 21
885.15610238085992
 31
0.0
  0
LINE
  8
SIZE
  6
CONTINUOUS
 62
    30
 10
465.00000000007191
 20
865.15610238085992
 30
0.0
 11
-465.00000000006412
 21
865.15610238085992
 31
0.0
  0
CIRCLE
  8
SIZE
  6
CONTINUOUS
 62
    30
 10
477.00000000007191
 20
865.15610238085992
 30
0.0
 40
6.0
  0
LINE
  8
SIZE
  6
CONTINUOUS
 62
    30
 10
477.00000000007191
 20
865.15610238085992
 30
0.0
 11
465.00000000007191
 21
865.15610238085992
 31
0.0
  0
CIRCLE
  8
SIZE
  6
CONTINUOUS
 62
    30
 10
-477.00000000006412
 20
865.15610238085992
 30
0.0
 40
6.0
  0
LINE
  8
SIZE
  6
CONTINUOUS
 62
    30
 10
-477.00000000006412
 20
865.15610238085992
 30
0.0
 11
-465.00000000006412
 21
865.15610238085992
 31
0.0
  0
TEXT
  8
SIZE
  6
CONTINUOUS
 62
    30
 10
-80.927999999996132
 20
890.15610238085992
 30
0.0
 40
64.0
  1
954
 50
0.0
 41
0.9
 51
0.0
  7
STANDARD
 71
     0
 72
     1
 11
0.0000000000038654
 21
890.15610238085992
 31
0.0
210
0.0
220
0.0
230
1.0
  0
POINT
  8
DEFPOINTS
  6
CONTINUOUS
 62
    30
 10
477.00000000007191
 20
440.00000000006088
 30
0.0
  0
POINT
  8
DEFPOINTS
  6
CONTINUOUS
 62
    30
 10
-477.00000000006412
 20
440.00000000006821
 30
0.0
  0
POINT
  8
DEFPOINTS
  6
CONTINUOUS
 62
    30
 10
-477.00000000006412
 20
865.15610238085992
 30
0.0
  0
LINE
  8
SIZE
  6
CONTINUOUS
 62
    30
 10
-1177.000015678623
 20
474.00000000006821
 30
0.0
 11
-1177.000015678623
 21
885.1561023808581
 31
0.0
  0
LINE
  8
SIZE
  6
CONTINUOUS
 62
    30
 10
-477.00000000006412
 20
460.00000000006821
 30
0.0
 11
-477.00000000006412
 21
885.1561023808581
 31
0.0
  0
LINE
  8
SIZE
  6
CONTINUOUS
 62
    30
 10
-1165.000015678623
 20
865.1561023808581
 30
0.0
 11
-489.00000000006412
 21
865.1561023808581
 31
0.0
  0
CIRCLE
  8
SIZE
  6
CONTINUOUS
 62
    30
 10
-1177.000015678623
 20
865.1561023808581
 30
0.0
 40
6.0
  0
LINE
  8
SIZE
  6
CONTINUOUS
 62
    30
 10
-1177.000015678623
 20
865.1561023808581
 30
0.0
 11
-1165.000015678623
 21
865.1561023808581
 31
0.0
  0
CIRCLE
  8
SIZE
  6
CONTINUOUS
 62
    30
 10
-477.00000000006412
 20
865.1561023808581
 30
0.0
 40
6.0
  0
LINE
  8
SIZE
  6
CONTINUOUS
 62
    30
 10
-477.00000000006412
 20
865.1561023808581
 30
0.0
 11
-489.00000000006412
 21
865.1561023808581
 31
0.0
  0
TEXT
  8
SIZE
  6
CONTINUOUS
 62
    30
 10
-1148.4080078393433
 20
890.1561023808581
 30
0.0
 40
64.0
  1
more than 600
 50
0.0
 41
0.9
 51
0.0
  7
STANDARD
 71
     0
 72
     1
 11
-827.00000783934343
 21
890.1561023808581
 31
0.0
210
0.0
220
0.0
230
1.0
  0
POINT
  8
DEFPOINTS
  6
CONTINUOUS
 62
    30
 10
-1177.000015678623
 20
454.00000000006821
 30
0.0
  0
POINT
  8
DEFPOINTS
  6
CONTINUOUS
 62
    30
 10
-477.00000000006412
 20
440.00000000006821
 30
0.0
  0
POINT
  8
DEFPOINTS
  6
CONTINUOUS
 62
    30
 10
-477.00000000006412
 20
865.1561023808581
 30
0.0
  0
LINE
  8
SIZE
  6
CONTINUOUS
 62
    30
 10
500.50000000006548
 20
-518.43427874104236
 30
0.0
 11
500.50000000006543
 21
-1034.955416857267
 31
0.0
  0
LINE
  8
SIZE
  6
CONTINUOUS
 62
    30
 10
-500.50000000007731
 20
-518.43427874104236
 30
0.0
 11
-500.50000000007742
 21
-1034.955416857267
 31
0.0
  0
LINE
  8
SIZE
  6
CONTINUOUS
 62
    30
 10
488.50000000006543
 20
-1014.955416857267
 30
0.0
 11
-488.50000000007742
 21
-1014.955416857267
 31
0.0
  0
CIRCLE
  8
SIZE
  6
CONTINUOUS
 62
    30
 10
500.50000000006543
 20
-1014.955416857267
 30
0.0
 40
6.0
  0
LINE
  8
SIZE
  6
CONTINUOUS
 62
    30
 10
500.50000000006543
 20
-1014.955416857267
 30
0.0
 11
488.50000000006543
 21
-1014.955416857267
 31
0.0
  0
CIRCLE
  8
SIZE
  6
CONTINUOUS
 62
    30
 10
-500.50000000007742
 20
-1014.955416857267
 30
0.0
 40
6.0
  0
LINE
  8
SIZE
  6
CONTINUOUS
 62
    30
 10
-500.50000000007742
 20
-1014.955416857267
 30
0.0
 11
-488.50000000007742
 21
-1014.955416857267
 31
0.0
  0
TEXT
  8
SIZE
  6
CONTINUOUS
 62
    30
 10
-96.768000000005969
 20
-989.95541685726675
 30
0.0
 40
64.0
  1
1001
 50
0.0
 41
0.9
 51
0.0
  7
STANDARD
 71
     0
 72
     1
 11
-0.0000000000059686
 21
-989.95541685726675
 31
0.0
210
0.0
220
0.0
230
1.0
  0
POINT
  8
DEFPOINTS
  6
CONTINUOUS
 62
    30
 10
500.50000000006548
 20
-498.43427874104242
 30
0.0
  0
POINT
  8
DEFPOINTS
  6
CONTINUOUS
 62
    30
 10
-500.50000000007731
 20
-498.43427874104242
 30
0.0
  0
POINT
  8
DEFPOINTS
  6
CONTINUOUS
 62
    30
 10
-500.50000000007742
 20
-1014.955416857267
 30
0.0
  0
LINE
  8
SIZE
  6
CONTINUOUS
 62
    30
 10
-500.50000000007731
 20
-518.43427874104236
 30
0.0
 11
-500.50000000007742
 21
-1034.955416857264
 31
0.0
  0
LINE
  8
SIZE
  6
CONTINUOUS
 62
    30
 10
-520.50000000007412
 20
-486.00000000005821
 30
0.0
 11
-520.50000000007412
 21
-1034.955416857264
 31
0.0
  0
LINE
  8
SIZE
  6
CONTINUOUS
 62
    30
 10
-488.50000000007742
 20
-1014.955416857264
 30
0.0
 11
-476.50000000007742
 21
-1014.955416857264
 31
0.0
  0
LINE
  8
SIZE
  6
CONTINUOUS
 62
    30
 10
-532.50000000007412
 20
-1014.955416857264
 30
0.0
 11
-687.75714285721881
 21
-1014.955416857264
 31
0.0
  0
LINE
  8
SIZE
  6
CONTINUOUS
 62
    30
 10
-500.50000000007742
 20
-1014.955416857264
 30
0.0
 11
-520.50000000007412
 21
-1014.955416857264
 31
0.0
  0
CIRCLE
  8
SIZE
  6
CONTINUOUS
 62
    30
 10
-500.50000000007742
 20
-1014.955416857264
 30
0.0
 40
6.0
  0
LINE
  8
SIZE
  6
CONTINUOUS
 62
    30
 10
-500.50000000007742
 20
-1014.955416857264
 30
0.0
 11
-488.50000000007742
 21
-1014.955416857264
 31
0.0
  0
CIRCLE
  8
SIZE
  6
CONTINUOUS
 62
    30
 10
-520.50000000007412
 20
-1014.955416857264
 30
0.0
 40
6.0
  0
LINE
  8
SIZE
  6
CONTINUOUS
 62
    30
 10
-520.50000000007412
 20
-1014.955416857264
 30
0.0
 11
-532.50000000007412
 21
-1014.955416857264
 31
0.0
  0
TEXT
  8
SIZE
  6
CONTINUOUS
 62
    30
 10
-670.27257142864732
 20
-989.95541685726403
 30
0.0
 40
64.0
  1
20
 50
0.0
 41
0.9
 51
0.0
  7
STANDARD
 71
     0
 72
     1
 11
-616.12857142864732
 21
-989.95541685726403
 31
0.0
210
0.0
220
0.0
230
1.0
  0
POINT
  8
DEFPOINTS
  6
CONTINUOUS
 62
    30
 10
-500.50000000007731
 20
-498.43427874104242
 30
0.0
  0
POINT
  8
DEFPOINTS
  6
CONTINUOUS
 62
    30
 10
-520.50000000007412
 20
-466.00000000005821
 30
0.0
  0
POINT
  8
DEFPOINTS
  6
CONTINUOUS
 62
    30
 10
-520.50000000007412
 20
-1014.955416857264
 30
0.0
  0
LINE
  8
SIZE
  6
CONTINUOUS
 62
    30
 10
-627.00002273290283
 20
244.80292939760241
 30
0.0
 11
-627.00002273290283
 21
765.89383614271128
 31
0.0
  0
LINE
  8
SIZE
  6
CONTINUOUS
 62
    30
 10
-477.00000000006412
 20
460.00000000006821
 30
0.0
 11
-477.00000000006412
 21
765.89383614271128
 31
0.0
  0
LINE
  8
SIZE
  6
CONTINUOUS
 62
    30
 10
-489.00000000006412
 20
745.89383614271128
 30
0.0
 11
-615.00002273290283
 21
745.89383614271128
 31
0.0
  0
LINE
  8
SIZE
  6
CONTINUOUS
 62
    30
 10
-627.00002273290283
 20
745.89383614271128
 30
0.0
 11
-1150.3485941614749
 21
745.89383614271128
 31
0.0
  0
CIRCLE
  8
SIZE
  6
CONTINUOUS
 62
    30
 10
-477.00000000006412
 20
745.89383614271128
 30
0.0
 40
6.0
  0
LINE
  8
SIZE
  6
CONTINUOUS
 62
    30
 10
-477.00000000006412
 20
745.89383614271128
 30
0.0
 11
-489.00000000006412
 21
745.89383614271128
 31
0.0
  0
CIRCLE
  8
SIZE
  6
CONTINUOUS
 62
    30
 10
-627.00002273290283
 20
745.89383614271128
 30
0.0
 40
6.0
  0
LINE
  8
SIZE
  6
CONTINUOUS
 62
    30
 10
-627.00002273290283
 20
745.89383614271128
 30
0.0
 11
-615.00002273290283
 21
745.89383614271128
 31
0.0
  0
TEXT
  8
SIZE
  6
CONTINUOUS
 62
    30
 10
-1130.5463084471896
 20
770.89383614271128
 30
0.0
 40
64.0
  1
150 to 250
 50
0.0
 41
0.9
 51
0.0
  7
STANDARD
 71
     0
 72
     1
 11
-894.67430844718967
 21
770.89383614271128
 31
0.0
210
0.0
220
0.0
230
1.0
  0
POINT
  8
DEFPOINTS
  6
CONTINUOUS
 62
    30
 10
-627.00002273290283
 20
224.80292939760241
 30
0.0
  0
POINT
  8
DEFPOINTS
  6
CONTINUOUS
 62
    30
 10
-477.00000000006412
 20
440.00000000006821
 30
0.0
  0
POINT
  8
DEFPOINTS
  6
CONTINUOUS
 62
    30
 10
-477.00000000006412
 20
745.89383614271128
 30
0.0
  0
LINE
  8
SERVICESPACE
  6
DASHDOT
 62
     2
 10
-627.00002273290329
 20
-225.19707060239759
 30
0.0
 11
-1077.0000227329031
 21
-225.19707060239759
 31
0.0
  0
LINE
  8
SERVICESPACE
  6
DASHDOT
 62
     2
 10
-1077.0000227329031
 20
-225.19707060239759
 30
0.0
 11
-1077.0000227329031
 21
224.80292939760241
 31
0.0
  0
LINE
  8
SERVICESPACE
  6
DASHDOT
 62
     2
 10
-1077.0000227329031
 20
224.80292939760241
 30
0.0
 11
-627.00002273290283
 21
224.80292939760241
 31
0.0
  0
LINE
  8
SERVICESPACE
  6
DASHDOT
 62
     2
 10
-627.00002273290283
 20
224.80292939760241
 30
0.0
 11
-627.00002273290329
 21
-225.19707060239759
 31
0.0
  0
LINE
  8
SIZE
  6
CONTINUOUS
 62
    30
 10
-585.70000000008076
 20
-418.90000000004778
 30
0.0
 11
-585.70000000008076
 21
-905.65558028226769
 31
0.0
  0
LINE
  8
SIZE
  6
CONTINUOUS
 62
    30
 10
-470.70000000006797
 20
-486.00000000005821
 30
0.0
 11
-470.70000000006797
 21
-905.65558028226769
 31
0.0
  0
LINE
  8
SIZE
  6
CONTINUOUS
 62
    30
 10
-482.70000000006797
 20
-885.65558028226769
 30
0.0
 11
-573.70000000008076
 21
-885.65558028226769
 31
0.0
  0
LINE
  8
SIZE
  6
CONTINUOUS
 62
    30
 10
-585.70000000008076
 20
-885.65558028226769
 30
0.0
 11
-774.07142857151064
 21
-885.65558028226769
 31
0.0
  0
CIRCLE
  8
SIZE
  6
CONTINUOUS
 62
    30
 10
-470.70000000006797
 20
-885.65558028226769
 30
0.0
 40
6.0
  0
LINE
  8
SIZE
  6
CONTINUOUS
 62
    30
 10
-470.70000000006797
 20
-885.65558028226769
 30
0.0
 11
-482.70000000006797
 21
-885.65558028226769
 31
0.0
  0
CIRCLE
  8
SIZE
  6
CONTINUOUS
 62
    30
 10
-585.70000000008076
 20
-885.65558028226769
 30
0.0
 40
6.0
  0
LINE
  8
SIZE
  6
CONTINUOUS
 62
    30
 10
-585.70000000008076
 20
-885.65558028226769
 30
0.0
 11
-573.70000000008076
 21
-885.65558028226769
 31
0.0
  0
TEXT
  8
SIZE
  6
CONTINUOUS
 62
    30
 10
-754.81771428579634
 20
-860.65558028226769
 30
0.0
 40
64.0
  1
115
 50
0.0
 41
0.9
 51
0.0
  7
STANDARD
 71
     0
 72
     1
 11
-685.98571428579635
 21
-860.65558028226769
 31
0.0
210
0.0
220
0.0
230
1.0
  0
POINT
  8
DEFPOINTS
  6
CONTINUOUS
 62
    30
 10
-585.70000000008076
 20
-398.90000000004778
 30
0.0
  0
POINT
  8
DEFPOINTS
  6
CONTINUOUS
 62
    30
 10
-470.70000000006797
 20
-466.00000000005821
 30
0.0
  0
POINT
  8
DEFPOINTS
  6
CONTINUOUS
 62
    30
 10
-470.70000000006797
 20
-885.65558028226769
 30
0.0
  0
LINE
  8
SIZE
  6
CONTINUOUS
 62
    30
 10
250.00000000003641
 20
-551.90000000006512
 30
0.0
 11
250.00000000003641
 21
-759.37580581877137
 31
0.0
  0
LINE
  8
SIZE
  6
CONTINUOUS
 62
    30
 10
442.00000000006457
 20
-551.90000000006512
 30
0.0
 11
442.00000000006457
 21
-759.37580581877137
 31
0.0
  0
LINE
  8
SIZE
  6
CONTINUOUS
 62
    30
 10
262.00000000003638
 20
-739.37580581877137
 30
0.0
 11
430.00000000006457
 21
-739.37580581877137
 31
0.0
  0
LINE
  8
SIZE
  6
CONTINUOUS
 62
    30
 10
442.00000000006457
 20
-739.37580581877137
 30
0.0
 11
739.78764152926669
 21
-739.37580581877137
 31
0.0
  0
CIRCLE
  8
SIZE
  6
CONTINUOUS
 62
    30
 10
250.00000000003641
 20
-739.37580581877137
 30
0.0
 40
6.0
  0
LINE
  8
SIZE
  6
CONTINUOUS
 62
    30
 10
250.00000000003641
 20
-739.37580581877137
 30
0.0
 11
262.00000000003638
 21
-739.37580581877137
 31
0.0
  0
CIRCLE
  8
SIZE
  6
CONTINUOUS
 62
    30
 10
442.00000000006457
 20
-739.37580581877137
 30
0.0
 40
6.0
  0
LINE
  8
SIZE
  6
CONTINUOUS
 62
    30
 10
442.00000000006457
 20
-739.37580581877137
 30
0.0
 11
430.00000000006457
 21
-739.37580581877137
 31
0.0
  0
TEXT
  8
SIZE
  6
CONTINUOUS
 62
    30
 10
511.00707010069533
 20
-714.37580581877137
 30
0.0
 40
64.0
  1
φ192
 50
0.0
 41
0.9
 51
0.0
  7
STANDARD
 71
     0
 72
     1
 11
620.15907010069532
 21
-714.37580581877137
 31
0.0
210
0.0
220
0.0
230
1.0
  0
POINT
  8
DEFPOINTS
  6
CONTINUOUS
 62
    30
 10
250.00000000003641
 20
-531.90000000006512
 30
0.0
  0
POINT
  8
DEFPOINTS
  6
CONTINUOUS
 62
    30
 10
442.00000000006457
 20
-531.90000000006512
 30
0.0
  0
POINT
  8
DEFPOINTS
  6
CONTINUOUS
 62
    30
 10
442.00000000006457
 20
-739.37580581877137
 30
0.0
  0
LINE
  8
SIZE
  6
CONTINUOUS
 62
    30
 10
242.00000000003499
 20
-475.70000000005803
 30
0.0
 11
242.00000000003499
 21
-905.65558028226678
 31
0.0
  0
LINE
  8
SIZE
  6
CONTINUOUS
 62
    30
 10
449.99999999864491
 20
-475.70000000005803
 30
0.0
 11
449.99999999864491
 21
-905.65558028226678
 31
0.0
  0
LINE
  8
SIZE
  6
CONTINUOUS
 62
    30
 10
254.00000000003499
 20
-885.65558028226678
 30
0.0
 11
437.99999999864491
 21
-885.65558028226678
 31
0.0
  0
LINE
  8
SIZE
  6
CONTINUOUS
 62
    30
 10
449.99999999864491
 20
-885.65558028226678
 30
0.0
 11
753.0714184960633
 21
-885.65558028226678
 31
0.0
  0
CIRCLE
  8
SIZE
  6
CONTINUOUS
 62
    30
 10
242.00000000003499
 20
-885.65558028226678
 30
0.0
 40
6.0
  0
LINE
  8
SIZE
  6
CONTINUOUS
 62
    30
 10
242.00000000003499
 20
-885.65558028226678
 30
0.0
 11
254.00000000003499
 21
-885.65558028226678
 31
0.0
  0
CIRCLE
  8
SIZE
  6
CONTINUOUS
 62
    30
 10
449.99999999864491
 20
-885.65558028226678
 30
0.0
 40
6.0
  0
LINE
  8
SIZE
  6
CONTINUOUS
 62
    30
 10
449.99999999864491
 20
-885.65558028226678
 30
0.0
 11
437.99999999864491
 21
-885.65558028226678
 31
0.0
  0
TEXT
  8
SIZE
  6
CONTINUOUS
 62
    30
 10
512.46913278177749
 20
-860.65558028226678
 30
0.0
 40
64.0
  1
φ208
 50
0.0
 41
0.9
 51
0.0
  7
STANDARD
 71
     0
 72
     1
 11
627.95713278177755
 21
-860.65558028226678
 31
0.0
210
0.0
220
0.0
230
1.0
  0
POINT
  8
DEFPOINTS
  6
CONTINUOUS
 62
    30
 10
242.00000000003499
 20
-455.70000000005803
 30
0.0
  0
POINT
  8
DEFPOINTS
  6
CONTINUOUS
 62
    30
 10
449.99999999864491
 20
-455.70000000005803
 30
0.0
  0
POINT
  8
DEFPOINTS
  6
CONTINUOUS
 62
    30
 10
449.99999999864491
 20
-885.65558028226678
 30
0.0
  0
CIRCLE
  8
FIX
  6
CONTINUOUS
 62
    11
 10
-500.50000000007691
 20
447.50000000007282
 30
0.0
 40
6.5
  0
CIRCLE
  8
FIX
  6
CONTINUOUS
 62
    11
 10
-500.50000000007731
 20
-447.50000000006548
 30
0.0
 40
6.5
  0
CIRCLE
  8
FIX
  6
CONTINUOUS
 62
    11
 10
500.50000000006548
 20
-447.50000000006179
 30
0.0
 40
6.5
  0
CIRCLE
  8
FIX
  6
CONTINUOUS
 62
    11
 10
500.50000000006548
 20
447.50000000007282
 30
0.0
 40
6.5
  0
POINT
  8
ARRANGE
  6
CONTINUOUS
 62
     1
 10
0.0
 20
0.0
 30
0.0
 50
270.0
  0
CIRCLE
  8
ARRANGE
  6
CONTINUOUS
 62
     1
 10
0.0
 20
0.0
 30
0.0
 40
40.0
  0
LINE
  8
OUTLINE
  6
CONTINUOUS
 62
     3
 10
477.00000000007282
 20
-422.50000000006088
 30
0.0
 11
520.50000000007458
 21
-422.50000000005087
 31
0.0
  0
LINE
  8
OUTLINE
  6
CONTINUOUS
 62
     3
 10
520.50000000007458
 20
-422.50000000005087
 30
0.0
 11
520.50000000007458
 21
-441.00000000005372
 31
0.0
  0
LINE
  8
OUTLINE
  6
CONTINUOUS
 62
     3
 10
520.50000000007458
 20
-441.00000000005372
 30
0.0
 11
500.50000000006548
 21
-441.00000000006088
 31
0.0
  0
ARC
  8
OUTLINE
  6
CONTINUOUS
 62
     3
 10
500.50000000006548
 20
-447.50000000006088
 30
0.0
 40
6.5
 50
90.0
 51
270.0
  0
LINE
  8
OUTLINE
  6
CONTINUOUS
 62
     3
 10
500.50000000006548
 20
-454.00000000006088
 30
0.0
 11
520.50000000007458
 21
-454.00000000006088
 31
0.0
  0
LINE
  8
OUTLINE
  6
CONTINUOUS
 62
     3
 10
520.50000000007458
 20
-454.00000000006088
 30
0.0
 11
520.50000000007458
 21
-466.00000000005372
 31
0.0
  0
LINE
  8
OUTLINE
  6
CONTINUOUS
 62
     3
 10
520.50000000007458
 20
-466.00000000005372
 30
0.0
 11
470.70000000006797
 21
-466.00000000005821
 31
0.0
  0
LINE
  8
OUTLINE
  6
CONTINUOUS
 62
     3
 10
470.70000000006797
 20
-466.00000000005821
 30
0.0
 11
470.69990295953357
 21
-453.87507912476718
 31
0.0
  0
ARC
  8
OUTLINE
  6
CONTINUOUS
 62
     3
 10
467.50000000007185
 20
-453.9000000000579
 30
0.0
 40
3.1999999999995357
 50
0.446211065462478
 51
121.47594472611337
  0
LINE
  8
OUTLINE
  6
CONTINUOUS
 62
     3
 10
465.82915026231882
 20
-451.17084973782471
 30
0.0
 11
463.00000000008458
 21
-454.00000000006821
 31
0.0
  0
LINE
  8
OUTLINE
  6
CONTINUOUS
 62
     3
 10
463.00000000008458
 20
-454.00000000006821
 30
0.0
 11
450.00000000003268
 21
-454.00000000005161
 31
0.0
  0
LINE
  8
OUTLINE
  6
CONTINUOUS
 62
     3
 10
450.00000000003268
 20
-454.00000000005161
 30
0.0
 11
449.99999999864491
 21
-455.70000000005803
 31
0.0
  0
LINE
  8
OUTLINE
  6
CONTINUOUS
 62
     3
 10
449.99999999864491
 20
-455.70000000005803
 30
0.0
 11
442.00000000003268
 21
-524.40000000005762
 31
0.0
  0
LINE
  8
OUTLINE
  6
CONTINUOUS
 62
     3
 10
442.00000000003268
 20
-524.40000000005762
 30
0.0
 11
442.00000000003092
 21
-531.90000000005034
 31
0.0
  0
ARC
  8
OUTLINE
  6
CONTINUOUS
 62
     3
 10
440.90000000002112
 20
-531.90000000004636
 30
0.0
 40
1.1000000000097985
 50
270.0
 51
0.0
  0
LINE
  8
OUTLINE
  6
CONTINUOUS
 62
     3
 10
440.90000000003062
 20
-533.00000000005616
 30
0.0
 11
251.10000000003129
 21
-533.00000000005616
 31
0.0
  0
ARC
  8
OUTLINE
  6
CONTINUOUS
 62
     3
 10
251.10000000004075
 20
-531.90000000004636
 30
0.0
 40
1.1000000000098473
 50
180.0
 51
270.0
  0
LINE
  8
OUTLINE
  6
CONTINUOUS
 62
     3
 10
250.00000000003089
 20
-531.90000000005034
 30
0.0
 11
250.00000000003271
 21
-524.40000000005762
 31
0.0
  0
LINE
  8
OUTLINE
  6
CONTINUOUS
 62
     3
 10
250.00000000003271
 20
-524.40000000005762
 30
0.0
 11
242.00000000003499
 21
-455.70000000005803
 31
0.0
  0
LINE
  8
OUTLINE
  6
CONTINUOUS
 62
     3
 10
242.00000000003499
 20
-455.70000000005803
 30
0.0
 11
242.00000000003089
 21
-454.00000000005338
 31
0.0
  0
LINE
  8
OUTLINE
  6
CONTINUOUS
 62
     3
 10
242.00000000003089
 20
-454.00000000005338
 30
0.0
 11
-242.00000000097361
 21
-454.00000000005781
 31
0.0
  0
LINE
  8
OUTLINE
  6
CONTINUOUS
 62
     3
 10
-242.00000000097361
 20
-454.00000000005781
 30
0.0
 11
-242.00000000003459
 21
-455.70000000005803
 31
0.0
  0
LINE
  8
OUTLINE
  6
CONTINUOUS
 62
     3
 10
-242.00000000003459
 20
-455.70000000005803
 30
0.0
 11
-250.0000000009791
 21
-524.4000000000583
 31
0.0
  0
LINE
  8
OUTLINE
  6
CONTINUOUS
 62
     3
 10
-250.0000000009791
 20
-524.4000000000583
 30
0.0
 11
-250.0000000009791
 21
-531.90000000005102
 31
0.0
  0
ARC
  8
OUTLINE
  6
CONTINUOUS
 62
     3
 10
-251.10000000098168
 20
-531.90000000005432
 30
0.0
 40
1.1000000000025696
 50
270.0
 51
0.0
  0
LINE
  8
OUTLINE
  6
CONTINUOUS
 62
     3
 10
-251.1000000009758
 20
-533.00000000005684
 30
0.0
 11
-440.90000000097513
 21
-533.00000000005684
 31
0.0
  0
ARC
  8
OUTLINE
  6
CONTINUOUS
 62
     3
 10
-440.90000000096609
 20
-531.9000000000475
 30
0.0
 40
1.1000000000093137
 50
180.0
 51
270.0
  0
LINE
  8
OUTLINE
  6
CONTINUOUS
 62
     3
 10
-442.00000000097538
 20
-531.90000000005102
 30
0.0
 11
-442.00000000097538
 21
-524.4000000000583
 31
0.0
  0
LINE
  8
OUTLINE
  6
CONTINUOUS
 62
     3
 10
-442.00000000097538
 20
-524.4000000000583
 30
0.0
 11
-450.00000000097538
 21
-455.70000000005803
 31
0.0
  0
LINE
  8
OUTLINE
  6
CONTINUOUS
 62
     3
 10
-450.00000000097538
 20
-455.70000000005803
 30
0.0
 11
-450.00000000097538
 21
-454.0000000000523
 31
0.0
  0
LINE
  8
OUTLINE
  6
CONTINUOUS
 62
     3
 10
-450.00000000097538
 20
-454.0000000000523
 30
0.0
 11
-463.00000000007321
 21
-454.00000000005889
 31
0.0
  0
LINE
  8
OUTLINE
  6
CONTINUOUS
 62
     3
 10
-463.00000000007321
 20
-454.00000000005889
 30
0.0
 11
-465.82915026229921
 21
-451.17084973783238
 31
0.0
  0
ARC
  8
OUTLINE
  6
CONTINUOUS
 62
     3
 10
-467.50000000006395
 20
-453.90000000005921
 30
0.0
 40
3.2000000000001818
 50
58.524055273648287
 51
179.55378893660077
  0
LINE
  8
OUTLINE
  6
CONTINUOUS
 62
     3
 10
-470.69990295952721
 20
-453.87507912488371
 30
0.0
 11
-470.70000000006797
 21
-466.00000000005821
 31
0.0
  0
LINE
  8
OUTLINE
  6
CONTINUOUS
 62
     3
 10
-470.70000000006797
 20
-466.00000000005821
 30
0.0
 11
-520.50000000007412
 21
-466.00000000005821
 31
0.0
  0
LINE
  8
OUTLINE
  6
CONTINUOUS
 62
     3
 10
-520.50000000007412
 20
-466.00000000005821
 30
0.0
 11
-520.50000000007412
 21
-454.00000000005912
 31
0.0
  0
LINE
  8
OUTLINE
  6
CONTINUOUS
 62
     3
 10
-520.50000000007412
 20
-454.00000000005912
 30
0.0
 11
-500.50000000007412
 21
-454.00000000005821
 31
0.0
  0
ARC
  8
OUTLINE
  6
CONTINUOUS
 62
     3
 10
-500.50000000007412
 20
-447.50000000005821
 30
0.0
 40
6.5
 50
270.0
 51
90.0
  0
LINE
  8
OUTLINE
  6
CONTINUOUS
 62
     3
 10
-500.50000000007412
 20
-441.00000000005821
 30
0.0
 11
-520.50000000007412
 21
-441.0000000000573
 31
0.0
  0
LINE
  8
OUTLINE
  6
CONTINUOUS
 62
     3
 10
-520.50000000007412
 20
-441.0000000000573
 30
0.0
 11
-520.50000000007412
 21
-422.50000000006548
 31
0.0
  0
LINE
  8
OUTLINE
  6
CONTINUOUS
 62
     3
 10
-520.50000000007412
 20
-422.50000000006548
 30
0.0
 11
-477.00000000007412
 21
-422.50000000006548
 31
0.0
  0
LINE
  8
OUTLINE
  6
CONTINUOUS
 62
     3
 10
-477.00000000007412
 20
-422.50000000006548
 30
0.0
 11
-477.00000000006457
 21
-400.50000000004638
 31
0.0
  0
LINE
  8
OUTLINE
  6
CONTINUOUS
 62
     3
 10
-477.00000000006457
 20
-400.50000000004638
 30
0.0
 11
-521.19000000006781
 21
-400.50010001007058
 31
0.0
  0
ARC
  8
OUTLINE
  6
CONTINUOUS
 62
     3
 10
-521.19000000006781
 20
-401.00010001007058
 30
0.0
 40
0.4999999999999902
 50
0.0
 51
90.0
  0
LINE
  8
OUTLINE
  6
CONTINUOUS
 62
     3
 10
-520.69000000006781
 20
-401.00010001007058
 30
0.0
 11
-520.69000000006781
 21
-401.12459981007993
 31
0.0
  0
ARC
  8
OUTLINE
  6
CONTINUOUS
 62
     3
 10
-521.19000000006815
 20
-401.12459980992003
 30
0.0
 40
0.5000000000002953
 50
231.3178125642097
 51
0.0
  0
ARC
  8
OUTLINE
  6
CONTINUOUS
 62
     3
 10
-520.69000000006929
 20
-400.50010001008241
 30
0.0
 40
1.2999999999978307
 50
209.40091418820168
 51
231.31781255329588
  0
LINE
  8
OUTLINE
  6
CONTINUOUS
 62
     3
 10
-521.82256777192015
 20
-401.13829296065393
 30
0.0
 11
-527.00000000008731
 21
-404.04943100272658
 31
0.0
  0
LINE
  8
OUTLINE
  6
CONTINUOUS
 62
     3
 10
-527.00000000008731
 20
-404.04943100272658
 30
0.0
 11
-527.00000000008731
 21
-407.64943100272149
 31
0.0
  0
LINE
  8
OUTLINE
  6
CONTINUOUS
 62
     3
 10
-527.00000000008731
 20
-407.64943100272149
 30
0.0
 11
-525.00000000008367
 21
-407.64943100272149
 31
0.0
  0
LINE
  8
OUTLINE
  6
CONTINUOUS
 62
     3
 10
-525.00000000008367
 20
-407.64943100272149
 30
0.0
 11
-525.00000000008367
 21
-411.49943100272372
 31
0.0
  0
LINE
  8
OUTLINE
  6
CONTINUOUS
 62
     3
 10
-525.00000000008367
 20
-411.49943100272372
 30
0.0
 11
-526.7000000000844
 21
-411.49943100272372
 31
0.0
  0
LINE
  8
OUTLINE
  6
CONTINUOUS
 62
     3
 10
-526.7000000000844
 20
-411.49943100272372
 30
0.0
 11
-526.7000000000844
 21
-429.09943100272631
 31
0.0
  0
LINE
  8
OUTLINE
  6
CONTINUOUS
 62
     3
 10
-526.7000000000844
 20
-429.09943100272631
 30
0.0
 11
-534.7000000000844
 21
-429.09943100272631
 31
0.0
  0
LINE
  8
OUTLINE
  6
CONTINUOUS
 62
     3
 10
-534.7000000000844
 20
-429.09943100272631
 30
0.0
 11
-534.7000000000844
 21
-411.49943100272372
 31
0.0
  0
LINE
  8
OUTLINE
  6
CONTINUOUS
 62
     3
 10
-534.7000000000844
 20
-411.49943100272372
 30
0.0
 11
-536.40000000008149
 21
-411.49943100272372
 31
0.0
  0
LINE
  8
OUTLINE
  6
CONTINUOUS
 62
     3
 10
-536.40000000008149
 20
-411.49943100272372
 30
0.0
 11
-536.40000000008149
 21
-407.89943100272149
 31
0.0
  0
LINE
  8
OUTLINE
  6
CONTINUOUS
 62
     3
 10
-536.40000000008149
 20
-407.89943100272149
 30
0.0
 11
-534.40000000008877
 21
-407.89943100272149
 31
0.0
  0
LINE
  8
OUTLINE
  6
CONTINUOUS
 62
     3
 10
-534.40000000008877
 20
-407.89943100272149
 30
0.0
 11
-534.40000000008877
 21
-403.59943100272272
 31
0.0
  0
LINE
  8
OUTLINE
  6
CONTINUOUS
 62
     3
 10
-534.40000000008877
 20
-403.59943100272272
 30
0.0
 11
-539.53356526985954
 21
-401.07339094917052
 31
0.0
  0
ARC
  8
OUTLINE
  6
CONTINUOUS
 62
     3
 10
-540.70000000010373
 20
-400.49943100276346
 30
0.0
 40
1.2999999999997596
 50
308.68274796754326
 51
333.79988516739365
  0
ARC
  8
OUTLINE
  6
CONTINUOUS
 62
     3
 10
-540.20000000008747
 20
-401.12393080271676
 30
0.0
 40
0.5000000000005866
 50
180.0
 51
308.68364479670117
  0
LINE
  8
OUTLINE
  6
CONTINUOUS
 62
     3
 10
-540.70000000008804
 20
-401.12393080271698
 30
0.0
 11
-540.70000000008804
 21
-400.99943100271679
 31
0.0
  0
ARC
  8
OUTLINE
  6
CONTINUOUS
 62
     3
 10
-540.20000000008827
 20
-400.99943100271656
 30
0.0
 40
0.4999999999997962
 50
90.0
 51
180.0
  0
LINE
  8
OUTLINE
  6
CONTINUOUS
 62
     3
 10
-540.20000000008804
 20
-400.49943100271679
 30
0.0
 11
-547.90000000010332
 21
-400.50000000006412
 31
0.0
  0
ARC
  8
OUTLINE
  6
CONTINUOUS
 62
     3
 10
-550.9000000001032
 20
-400.50000000006418
 30
0.0
 40
2.9999999999999418
 50
270.0
 51
0.0
  0
LINE
  8
OUTLINE
  6
CONTINUOUS
 62
     3
 10
-550.90000000010332
 20
-403.50000000006412
 30
0.0
 11
-576.90000000010332
 21
-403.50000000006412
 31
0.0
  0
ARC
  8
OUTLINE
  6
CONTINUOUS
 62
     3
 10
-576.90000000010298
 20
-400.50000000006378
 30
0.0
 40
3.00000000000033
 50
180.0
 51
270.0
  0
LINE
  8
OUTLINE
  6
CONTINUOUS
 62
     3
 10
-579.90000000010332
 20
-400.50000000006412
 30
0.0
 11
-584.10000000008949
 21
-400.50000000005957
 31
0.0
  0
ARC
  8
OUTLINE
  6
CONTINUOUS
 62
     3
 10
-584.10000000008893
 20
-398.90000000006046
 30
0.0
 40
1.5999999999991155
 50
180.0
 51
270.0
  0
LINE
  8
OUTLINE
  6
CONTINUOUS
 62
     3
 10
-585.70000000008804
 20
-398.90000000005972
 30
0.0
 11
-585.70000000009168
 21
-396.50000000006088
 31
0.0
  0
LINE
  8
OUTLINE
  6
CONTINUOUS
 62
     3
 10
-585.70000000009168
 20
-396.50000000006088
 30
0.0
 11
-586.30000000008658
 21
-396.50000000006088
 31
0.0
  0
LINE
  8
OUTLINE
  6
CONTINUOUS
 62
     3
 10
-586.30000000008658
 20
-396.50000000006088
 30
0.0
 11
-586.30000000007567
 21
-238.70000000002031
 31
0.0
  0
LINE
  8
OUTLINE
  6
CONTINUOUS
 62
     3
 10
-586.30000000007567
 20
-238.70000000002031
 30
0.0
 11
-586.90000000007785
 21
-238.70000000002031
 31
0.0
  0
LINE
  8
OUTLINE
  6
CONTINUOUS
 62
     3
 10
-586.90000000007785
 20
-238.70000000002031
 30
0.0
 11
-586.90000000008149
 21
-227.30000000002289
 31
0.0
  0
ARC
  8
OUTLINE
  6
CONTINUOUS
 62
     3
 10
-585.70000000008133
 20
-227.30000000002332
 30
0.0
 40
1.2000000000002093
 50
90.0
 51
180.0
  0
LINE
  8
OUTLINE
  6
CONTINUOUS
 62
     3
 10
-585.70000000008076
 20
-226.1000000000231
 30
0.0
 11
-477.00000000006457
 21
-226.1000000000231
 31
0.0
  0
LINE
  8
OUTLINE
  6
CONTINUOUS
 62
     3
 10
-477.00000000006457
 20
-226.1000000000231
 30
0.0
 11
-477.00000000006457
 21
-203.70000000002159
 31
0.0
  0
LINE
  8
OUTLINE
  6
CONTINUOUS
 62
     3
 10
-477.00000000006457
 20
-203.70000000002159
 30
0.0
 11
-488.60000000006312
 21
-203.70000000002159
 31
0.0
  0
ARC
  8
OUTLINE
  6
CONTINUOUS
 62
     3
 10
-488.6000000000613
 20
-201.30000000002008
 30
0.0
 40
2.400000000001504
 50
149.94463625953779
 51
270.0
  0
LINE
  8
OUTLINE
  6
CONTINUOUS
 62
     3
 10
-490.67730046353148
 20
-200.09799218620449
 30
0.0
 11
-504.60000000007039
 21
-200.1000000000231
 31
0.0
  0
ARC
  8
OUTLINE
  6
CONTINUOUS
 62
     3
 10
-504.60000000007039
 20
-199.50000000002456
 30
0.0
 40
0.5999999999985448
 50
90.0
 51
270.0
  0
LINE
  8
OUTLINE
  6
CONTINUOUS
 62
     3
 10
-504.60000000007039
 20
-198.90000000002601
 30
0.0
 11
-489.56966294273212
 21
-198.90000000002601
 31
0.0
  0
LINE
  8
OUTLINE
  6
CONTINUOUS
 62
     3
 10
-489.56966294273212
 20
-198.90000000002601
 30
0.0
 11
-485.87920730673341
 21
-195.33616841868479
 31
0.0
  0
LINE
  8
OUTLINE
  6
CONTINUOUS
 62
     3
 10
-485.87920730673341
 20
-195.33616841868479
 30
0.0
 11
-485.04561726273369
 21
-196.19937618002129
 31
0.0
  0
LINE
  8
OUTLINE
  6
CONTINUOUS
 62
     3
 10
-485.04561726273369
 20
-196.19937618002129
 30
0.0
 11
-487.84219509473678
 21
-198.90000000002601
 31
0.0
  0
LINE
  8
OUTLINE
  6
CONTINUOUS
 62
     3
 10
-487.84219509473678
 20
-198.90000000002601
 30
0.0
 11
-484.7000000000653
 21
-198.90000000002601
 31
0.0
  0
LINE
  8
OUTLINE
  6
CONTINUOUS
 62
     3
 10
-484.7000000000653
 20
-198.90000000002601
 30
0.0
 11
-484.70000000006888
 21
197.85000000003771
 31
0.0
  0
LINE
  8
OUTLINE
  6
CONTINUOUS
 62
     3
 10
-484.70000000006888
 20
197.85000000003771
 30
0.0
 11
-490.70000000006621
 21
197.85000000003541
 31
0.0
  0
ARC
  8
OUTLINE
  6
CONTINUOUS
 62
     3
 10
-490.70000000007303
 20
196.85000000004587
 30
0.0
 40
0.9999999999895487
 50
90.0
 51
180.0
  0
LINE
  8
OUTLINE
  6
CONTINUOUS
 62
     3
 10
-491.70000000006257
 20
196.85000000003581
 30
0.0
 11
-491.70000000006257
 21
196.35000000003771
 31
0.0
  0
LINE
  8
OUTLINE
  6
CONTINUOUS
 62
     3
 10
-491.70000000006257
 20
196.35000000003771
 30
0.0
 11
-492.80000000006839
 21
196.35000000003581
 31
0.0
  0
LINE
  8
OUTLINE
  6
CONTINUOUS
 62
     3
 10
-492.80000000006839
 20
196.35000000003581
 30
0.0
 11
-492.80000000006839
 21
192.8500000000395
 31
0.0
  0
LINE
  8
OUTLINE
  6
CONTINUOUS
 62
     3
 10
-492.80000000006839
 20
192.8500000000395
 30
0.0
 11
-495.80000000006481
 21
192.8500000000395
 31
0.0
  0
LINE
  8
OUTLINE
  6
CONTINUOUS
 62
     3
 10
-495.80000000006481
 20
192.8500000000395
 30
0.0
 11
-495.80000000006481
 21
196.35000000003581
 31
0.0
  0
LINE
  8
OUTLINE
  6
CONTINUOUS
 62
     3
 10
-495.80000000006481
 20
196.35000000003581
 30
0.0
 11
-496.90000000006512
 21
196.35000000003771
 31
0.0
  0
LINE
  8
OUTLINE
  6
CONTINUOUS
 62
     3
 10
-496.90000000006512
 20
196.35000000003771
 30
0.0
 11
-496.90000000006512
 21
196.85000000003771
 31
0.0
  0
ARC
  8
OUTLINE
  6
CONTINUOUS
 62
     3
 10
-497.90000000005983
 20
196.85000000004072
 30
0.0
 40
0.999999999994692
 50
0.0
 51
90.0
  0
LINE
  8
OUTLINE
  6
CONTINUOUS
 62
     3
 10
-497.90000000006688
 20
197.85000000003541
 30
0.0
 11
-504.98153110451813
 21
197.85000000003811
 31
0.0
  0
LINE
  8
OUTLINE
  6
CONTINUOUS
 62
     3
 10
-504.98153110451813
 20
197.85000000003811
 30
0.0
 11
-497.45809641406322
 21
187.1054217420342
 31
0.0
  0
ARC
  8
OUTLINE
  6
CONTINUOUS
 62
     3
 10
-500.56526340757461
 20
184.92632216199809
 30
0.0
 40
3.7951234110737686
 50
334.95748472173693
 51
35.042515326826447
  0
LINE
  8
OUTLINE
  6
CONTINUOUS
 62
     3
 10
-497.12690459007132
 20
183.31988189003729
 30
0.0
 11
-506.30028585632732
 21
163.64750228211321
 31
0.0
  0
ARC
  8
OUTLINE
  6
CONTINUOUS
 62
     3
 10
-507.29722435953869
 20
164.11238250444526
 30
0.0
 40
1.1000000001367434
 50
155.00000772347767
 51
334.99999227812759
  0
LINE
  8
OUTLINE
  6
CONTINUOUS
 62
     3
 10
-508.29416298806882
 20
164.57726245803039
 30
0.0
 11
-499.12078172207248
 21
184.24964206602729
 31
0.0
  0
ARC
  8
OUTLINE
  6
CONTINUOUS
 62
     3
 10
-500.5708741833152
 20
184.92583128358186
 30
0.0
 40
1.6000000012781364
 50
335.00000006996424
 51
34.999999987766273
  0
LINE
  8
OUTLINE
  6
CONTINUOUS
 62
     3
 10
-499.26023091120987
 20
185.84355358219679
 30
0.0
 11
-501.36536735606342
 21
188.85000000003771
 31
0.0
  0
LINE
  8
OUTLINE
  6
CONTINUOUS
 62
     3
 10
-501.36536735606342
 20
188.85000000003771
 30
0.0
 11
-506.30000000006839
 21
188.85000000003629
 31
0.0
  0
LINE
  8
OUTLINE
  6
CONTINUOUS
 62
     3
 10
-506.30000000006839
 20
188.85000000003629
 30
0.0
 11
-506.30000000006481
 21
187.75000000003911
 31
0.0
  0
LINE
  8
OUTLINE
  6
CONTINUOUS
 62
     3
 10
-506.30000000006481
 20
187.75000000003911
 30
0.0
 11
-506.80000000006112
 21
187.75000000003911
 31
0.0
  0
ARC
  8
OUTLINE
  6
CONTINUOUS
 62
     3
 10
-506.80000000006015
 20
186.75000000003448
 30
0.0
 40
1.0000000000046383
 50
90.0
 51
180.0
  0
LINE
  8
OUTLINE
  6
CONTINUOUS
 62
     3
 10
-507.80000000006481
 20
186.75000000003229
 30
0.0
 11
-507.80000000007072
 21
183.85000000003771
 31
0.0
  0
LINE
  8
OUTLINE
  6
CONTINUOUS
 62
     3
 10
-507.80000000007072
 20
183.85000000003771
 30
0.0
 11
-512.80000000006476
 21
183.85000000003811
 31
0.0
  0
ARC
  8
OUTLINE
  6
CONTINUOUS
 62
     3
 10
-512.80000000006487
 20
186.85000000003805
 30
0.0
 40
2.9999999999999418
 50
180.0
 51
270.0
  0
LINE
  8
OUTLINE
  6
CONTINUOUS
 62
     3
 10
-515.80000000006476
 20
186.85000000003811
 30
0.0
 11
-515.80000000006476
 21
193.85000000003899
 31
0.0
  0
ARC
  8
OUTLINE
  6
CONTINUOUS
 62
     3
 10
-512.80000000006476
 20
193.85000000003859
 30
0.0
 40
2.9999999999999898
 50
90.0
 51
180.0
  0
LINE
  8
OUTLINE
  6
CONTINUOUS
 62
     3
 10
-512.80000000006476
 20
196.85000000003859
 30
0.0
 11
-508.80000000006481
 21
196.85000000003581
 31
0.0
  0
ARC
  8
OUTLINE
  6
CONTINUOUS
 62
     3
 10
-506.80000000006612
 20
196.85000000004331
 30
0.0
 40
1.9999999999987093
 50
127.84849213906034
 51
180.0
  0
ARC
  8
OUTLINE
  6
CONTINUOUS
 62
     3
 10
-504.63986559301509
 20
200.15156595401717
 30
0.0
 40
3.7999999991469515
 50
94.999999980178302
 51
206.95144464963209
  0
LINE
  8
OUTLINE
  6
CONTINUOUS
 62
     3
 10
-504.97105741407222
 20
203.93710580603059
 30
0.0
 11
-477.00000000006457
 21
206.3842562380332
 31
0.0
  0
LINE
  8
OUTLINE
  6
CONTINUOUS
 62
     3
 10
-477.00000000006457
 20
206.3842562380332
 30
0.0
 11
-477.00000000006457
 21
422.50000000006548
 31
0.0
  0
LINE
  8
OUTLINE
  6
CONTINUOUS
 62
     3
 10
-477.00000000006457
 20
422.50000000006548
 30
0.0
 11
-520.50000000006457
 21
422.50000000007589
 31
0.0
  0
LINE
  8
OUTLINE
  6
CONTINUOUS
 62
     3
 10
-520.50000000006457
 20
422.50000000007589
 30
0.0
 11
-520.50000000006457
 21
441.00000000006497
 31
0.0
  0
LINE
  8
OUTLINE
  6
CONTINUOUS
 62
     3
 10
-520.50000000006457
 20
441.00000000006497
 30
0.0
 11
-500.50000000006457
 21
441.00000000006679
 31
0.0
  0
ARC
  8
OUTLINE
  6
CONTINUOUS
 62
     3
 10
-500.50000000006457
 20
447.50000000006679
 30
0.0
 40
6.5
 50
270.0
 51
90.0
  0
LINE
  8
OUTLINE
  6
CONTINUOUS
 62
     3
 10
-500.50000000006457
 20
454.00000000006679
 30
0.0
 11
-520.50000000006457
 21
454.00000000006548
 31
0.0
  0
LINE
  8
OUTLINE
  6
CONTINUOUS
 62
     3
 10
-520.50000000006457
 20
454.00000000006548
 30
0.0
 11
-520.50000000006457
 21
466.00000000006548
 31
0.0
  0
LINE
  8
OUTLINE
  6
CONTINUOUS
 62
     3
 10
-520.50000000006457
 20
466.00000000006548
 30
0.0
 11
-470.70000000006758
 21
466.00000000007282
 31
0.0
  0
LINE
  8
OUTLINE
  6
CONTINUOUS
 62
     3
 10
-470.70000000006758
 20
466.00000000007282
 30
0.0
 11
-470.69990295953312
 21
453.97507912481387
 31
0.0
  0
ARC
  8
OUTLINE
  6
CONTINUOUS
 62
     3
 10
-467.50001834497249
 20
453.90086246837717
 30
0.0
 40
3.2007451723925828
 50
178.67134617440752
 51
301.46816354800126
  0
LINE
  8
OUTLINE
  6
CONTINUOUS
 62
     3
 10
-465.82915026241608
 20
451.17084973776792
 30
0.0
 11
-463.00000000006679
 21
454.00000000006821
 31
0.0
  0
LINE
  8
OUTLINE
  6
CONTINUOUS
 62
     3
 10
-463.00000000006679
 20
454.00000000006821
 30
0.0
 11
-450.00000000124652
 21
454.00000000006821
 31
0.0
  0
LINE
  8
OUTLINE
  6
CONTINUOUS
 62
     3
 10
-450.00000000124652
 20
454.00000000006821
 30
0.0
 11
-450.00000000124652
 21
455.7000000000653
 31
0.0
  0
LINE
  8
OUTLINE
  6
CONTINUOUS
 62
     3
 10
-450.00000000124652
 20
455.7000000000653
 30
0.0
 11
-442.00000000096588
 21
524.40000000006512
 31
0.0
  0
LINE
  8
OUTLINE
  6
CONTINUOUS
 62
     3
 10
-442.00000000096588
 20
524.40000000006512
 30
0.0
 11
-442.00000000096588
 21
531.90000000006512
 31
0.0
  0
ARC
  8
OUTLINE
  6
CONTINUOUS
 62
     3
 10
-440.9000000009683
 20
531.90000000006614
 30
0.0
 40
1.0999999999975723
 50
90.0
 51
180.0
  0
LINE
  8
OUTLINE
  6
CONTINUOUS
 62
     3
 10
-440.90000000096552
 20
533.00000000006366
 30
0.0
 11
-251.10000000096619
 21
533.00000000006366
 31
0.0
  0
ARC
  8
OUTLINE
  6
CONTINUOUS
 62
     3
 10
-251.10000000096304
 20
531.90000000006648
 30
0.0
 40
1.099999999997135
 50
0.0
 51
90.0
  0
LINE
  8
OUTLINE
  6
CONTINUOUS
 62
     3
 10
-250.00000000096591
 20
531.90000000006512
 30
0.0
 11
-250.00000000096949
 21
524.40000000006512
 31
0.0
  0
LINE
  8
OUTLINE
  6
CONTINUOUS
 62
     3
 10
-250.00000000096949
 20
524.40000000006512
 30
0.0
 11
-242.00000000003459
 21
455.7000000000653
 31
0.0
  0
LINE
  8
OUTLINE
  6
CONTINUOUS
 62
     3
 10
-242.00000000003459
 20
455.7000000000653
 30
0.0
 11
-242.00000000096409
 21
454.00000000006088
 31
0.0
  0
LINE
  8
OUTLINE
  6
CONTINUOUS
 62
     3
 10
-242.00000000096409
 20
454.00000000006088
 30
0.0
 11
242.00000000003499
 21
454.0000000000548
 31
0.0
  0
LINE
  8
OUTLINE
  6
CONTINUOUS
 62
     3
 10
242.00000000003499
 20
454.0000000000548
 30
0.0
 11
242.00000000003499
 21
455.7000000000653
 31
0.0
  0
LINE
  8
OUTLINE
  6
CONTINUOUS
 62
     3
 10
242.00000000003499
 20
455.7000000000653
 30
0.0
 11
250.00000000004229
 21
524.4000000000658
 31
0.0
  0
LINE
  8
OUTLINE
  6
CONTINUOUS
 62
     3
 10
250.00000000004229
 20
524.4000000000658
 30
0.0
 11
250.0000000000405
 21
531.9000000000658
 31
0.0
  0
ARC
  8
OUTLINE
  6
CONTINUOUS
 62
     3
 10
251.10000000003996
 20
531.90000000006626
 30
0.0
 40
1.0999999999994641
 50
90.0
 51
180.0
  0
LINE
  8
OUTLINE
  6
CONTINUOUS
 62
     3
 10
251.10000000004081
 20
533.00000000006571
 30
0.0
 11
440.90000000003971
 21
532.99999999873285
 31
0.0
  0
ARC
  8
OUTLINE
  6
CONTINUOUS
 62
     3
 10
440.90000000002993
 20
531.899999998721
 30
0.0
 40
1.1000000000118368
 50
0.0
 51
90.0
  0
LINE
  8
OUTLINE
  6
CONTINUOUS
 62
     3
 10
442.00000000004178
 20
531.89999999872703
 30
0.0
 11
442.00000000004178
 21
524.3999999987343
 31
0.0
  0
LINE
  8
OUTLINE
  6
CONTINUOUS
 62
     3
 10
442.00000000004178
 20
524.3999999987343
 30
0.0
 11
450.00000000004911
 21
455.5000000000598
 31
0.0
  0
LINE
  8
OUTLINE
  6
CONTINUOUS
 62
     3
 10
450.00000000004911
 20
455.5000000000598
 30
0.0
 11
450.00000000004178
 21
454.0000000000598
 31
0.0
  0
LINE
  8
OUTLINE
  6
CONTINUOUS
 62
     3
 10
450.00000000004178
 20
454.0000000000598
 30
0.0
 11
463.00000000008458
 21
454.00000000006088
 31
0.0
  0
LINE
  8
OUTLINE
  6
CONTINUOUS
 62
     3
 10
463.00000000008458
 20
454.00000000006088
 30
0.0
 11
465.8291502624279
 21
451.17084973776559
 31
0.0
  0
ARC
  8
OUTLINE
  6
CONTINUOUS
 62
     3
 10
467.50000000007077
 20
453.90000000006773
 30
0.0
 40
3.2000000000007951
 50
238.5240552762134
 51
359.55378893418151
  0
LINE
  8
OUTLINE
  6
CONTINUOUS
 62
     3
 10
470.69990295953357
 20
453.87507912475712
 30
0.0
 11
470.70000000006797
 21
466.00000000007282
 31
0.0
  0
LINE
  8
OUTLINE
  6
CONTINUOUS
 62
     3
 10
470.70000000006797
 20
466.00000000007282
 30
0.0
 11
520.50000000007458
 21
466.00000000007282
 31
0.0
  0
LINE
  8
OUTLINE
  6
CONTINUOUS
 62
     3
 10
520.50000000007458
 20
466.00000000007282
 30
0.0
 11
520.50000000007458
 21
454.00000000006997
 31
0.0
  0
LINE
  8
OUTLINE
  6
CONTINUOUS
 62
     3
 10
520.50000000007458
 20
454.00000000006997
 30
0.0
 11
500.5000000000764
 21
454.0000000000714
 31
0.0
  0
ARC
  8
OUTLINE
  6
CONTINUOUS
 62
     3
 10
500.5000000000764
 20
447.5000000000714
 30
0.0
 40
6.5
 50
90.0
 51
270.0
  0
LINE
  8
OUTLINE
  6
CONTINUOUS
 62
     3
 10
500.5000000000764
 20
441.0000000000714
 30
0.0
 11
520.50000000007458
 21
441.00000000006958
 31
0.0
  0
LINE
  8
OUTLINE
  6
CONTINUOUS
 62
     3
 10
520.50000000007458
 20
441.00000000006958
 30
0.0
 11
520.50000000007458
 21
422.50000000008049
 31
0.0
  0
LINE
  8
OUTLINE
  6
CONTINUOUS
 62
     3
 10
520.50000000007458
 20
422.50000000008049
 30
0.0
 11
477.00000000006912
 21
422.50000000008367
 31
0.0
  0
LINE
  8
OUTLINE
  6
CONTINUOUS
 62
     3
 10
477.00000000006912
 20
422.50000000008367
 30
0.0
 11
477.00000000007282
 21
-422.50000000006088
 31
0.0
  0
TEXT
  8
NOTE
  6
CONTINUOUS
 62
     4
 10
-400.59543826508337
 20
-617.35046242421777
 30
0.0
 40
64.065641025638456
  1
SA
 41
0.9
  0
TEXT
  8
NOTE
  6
CONTINUOUS
 62
     4
 10
294.43557055131902
 20
-617.35046242421777
 30
0.0
 40
64.065641025638456
  1
RA
 41
0.9
  0
TEXT
  8
NOTE
  6
CONTINUOUS
 62
     4
 10
-400.59543826508337
 20
553.28482139857942
 30
0.0
 40
64.065641025638456
  1
OA
 41
0.9
  0
TEXT
  8
NOTE
  6
CONTINUOUS
 62
     4
 10
294.43557055131902
 20
553.28482139857942
 30
0.0
 40
64.065641025638456
  1
EA
 41
0.9
  0
TEXT
  8
ETC
  6
CONTINUOUS
 62
    61
 10
869.74670705494191
 20
1319.136936681479
 30
0.0
 40
64.065641025638456
  1
LGH-65RVX3-E_6
 41
0.9
  0
TEXT
  8
ETC
  6
CONTINUOUS
 62
    61
 10
865.55641972776266
 20
1201.0606468615081
 30
0.0
 40
64.065641025638456
  1
LOSSNAY
 41
0.9
  0
TEXT
  8
ETC
  6
CONTINUOUS
 62
    61
 10
916.30981941041773
 20
1092.8009521569418
 30
0.0
 40
40.041025641024042
  1
LGH-65RVX3-E
 50
0.0
 41
0.9
 51
0.0
  7
STANDARD
 71
     0
 11
0.0
 21
0.0
 31
0.0
210
0.0
220
0.0
230
1.0
  0
TEXT
  8
NOTE
  6
CONTINUOUS
 62
     4
 10
-1065.7006040140964
 20
123.76579877750135
 30
0.0
 40
64.0
  1
Inspection
 50
0.0
 41
0.9
 51
0.0
  7
STANDARD
 71
     0
 72
     1
 11
-847.68460401409629
 21
123.76579877750135
 31
0.0
210
0.0
220
0.0
230
1.0
  0
TEXT
  8
NOTE
  6
CONTINUOUS
 62
     4
 10
-1013.2846040140963
 20
18.165798777501351
 30
0.0
 40
64.0
  1
opening
 50
0.0
 41
0.9
 51
0.0
  7
STANDARD
 71
     0
 72
     1
 11
-847.68460401409629
 21
18.165798777501351
 31
0.0
210
0.0
220
0.0
230
1.0
  0
TEXT
  8
NOTE
  6
CONTINUOUS
 62
     4
 10
-1038.0526040140962
 20
-87.434201222498643
 30
0.0
 40
64.0
  1
450X450
 50
0.0
 41
0.9
 51
0.0
  7
STANDARD
 71
     0
 72
     1
 11
-847.68460401409618
 21
-87.434201222498643
 31
0.0
210
0.0
220
0.0
230
1.0
  0
TEXT
  8
NOTE
  6
CONTINUOUS
 62
     4
 10
-1017.0286040140963
 20
-193.03420122249864
 30
0.0
 40
64.0
  1
or more
 50
0.0
 41
0.9
 51
0.0
  7
STANDARD
 71
     0
 72
     1
 11
-847.68460401409629
 21
-193.03420122249864
 31
0.0
210
0.0
220
0.0
230
1.0
  0
TEXT
  8
NOTE
  6
CONTINUOUS
 62
     4
 10
-1286.6541472796926
 20
-577.37170368851139
 30
0.0
 40
69.0
  1
Power supply
 50
0.0
 41
0.9
 51
0.0
  7
STANDARD
 71
     0
 72
     2
 11
-682.42114727969238
 21
-577.37170368851139
 31
0.0
210
0.0
220
0.0
230
1.0
  0
TEXT
  8
NOTE
  6
CONTINUOUS
 62
     4
 10
-1314.5991472796925
 20
-691.22170368851141
 30
0.0
 40
69.0
  1
cable opening
 50
0.0
 41
0.9
 51
0.0
  7
STANDARD
 71
     0
 72
     2
 11
-682.42114727969238
 21
-691.22170368851141
 31
0.0
210
0.0
220
0.0
230
1.0
  0
LINE
  8
NOTE
  6
CONTINUOUS
 62
     4
 10
-672.42114727969238
 20
-715.37170368851139
 30
0.0
 11
-1324.121147279692
 21
-715.37170368851139
 31
0.0
  0
LINE
  8
NOTE
  6
CONTINUOUS
 62
     4
 10
-583.3856828630087
 20
-434.04930009726394
 30
0.0
 11
-563.90000000010332
 21
-403.50000000006412
 31
0.0
  0
LINE
  8
NOTE
  6
CONTINUOUS
 62
     4
 10
-563.90000000010332
 20
-403.50000000006412
 30
0.0
 11
-565.50039177053918
 21
-439.69931379526776
 31
0.0
  0
LINE
  8
NOTE
  6
CONTINUOUS
 62
     4
 10
-563.90000000010332
 20
-403.50000000006412
 30
0.0
 11
-584.98607463344467
 21
-470.24861389246757
 31
0.0
  0
LINE
  8
NOTE
  6
CONTINUOUS
 62
     4
 10
-584.98607463344467
 20
-470.24861389246757
 30
0.0
 11
-662.42114727969238
 21
-715.37170368851139
 31
0.0
  0
LINE
  8
NOTE
  6
CONTINUOUS
 62
     4
 10
-662.42114727969238
 20
-715.37170368851139
 30
0.0
 11
-672.42114727969238
 21
-715.37170368851139
 31
0.0
  0
TEXT
  8
NOTE
  6
CONTINUOUS
 62
     4
 10
642.00887881158997
 20
897.00919975187162
 30
0.0
 40
69.0
  1
Ceiling suspension fixture
 50
0.0
 41
0.9
 51
0.0
  7
STANDARD
 71
     0
 11
0.0
 21
0.0
 31
0.0
210
0.0
220
0.0
230
1.0
  0
TEXT
  8
NOTE
  6
CONTINUOUS
 62
     4
 10
642.00887881158997
 20
783.1591997518716
 30
0.0
 40
69.0
  1
(4-13X20 oval)
 50
0.0
 41
0.9
 51
0.0
  7
STANDARD
 71
     0
 11
0.0
 21
0.0
 31
0.0
210
0.0
220
0.0
230
1.0
  0
LINE
  8
NOTE
  6
CONTINUOUS
 62
     4
 10
632.00887881158997
 20
745.86634260901383
 30
0.0
 11
1848.523164525875
 21
745.86634260901383
 31
0.0
  0
LINE
  8
NOTE
  6
CONTINUOUS
 62
     4
 10
522.38655601819585
 20
476.37785665595982
 30
0.0
 11
500.50000581987842
 21
447.50000193163811
 31
0.0
  0
LINE
  8
NOTE
  6
CONTINUOUS
 62
     4
 10
500.50000581987842
 20
447.50000193163811
 30
0.0
 11
505.01533275266951
 21
483.45223963324037
 31
0.0
  0
LINE
  8
NOTE
  6
CONTINUOUS
 62
     4
 10
500.50000581987842
 20
447.50000193163811
 30
0.0
 11
526.90188295098699
 21
512.33009435756207
 31
0.0
  0
LINE
  8
NOTE
  6
CONTINUOUS
 62
     4
 10
526.90188295098687
 20
512.33009435756207
 30
0.0
 11
622.00887881158997
 21
745.86634260901383
 31
0.0
  0
LINE
  8
NOTE
  6
CONTINUOUS
 62
     4
 10
622.00887881158997
 20
745.86634260901383
 30
0.0
 11
632.00887881158997
 21
745.86634260901383
 31
0.0
  0
ENDSEC
  0
EOF
