  0
SECTION
  2
HEADER
  9
$ACADVER
  1
AC1009
  9
$DWGCODEPAGE
  3
dos932
  9
$INSBASE
 10
0.0
 20
0.0
 30
0.0
  9
$EXTMIN
 10
-947.6119833272096
 20
-590.24046697914673
 30
-0.0015258207003583
  9
$EXTMAX
 10
1787.8189211453059
 20
852.99683449905933
 30
0.0000000349246037
  9
$LIMMIN
 10
-2970.0
 20
-2100.0
  9
$LIMMAX
 10
2970.0
 20
2100.0
  9
$ORTHOMODE
 70
     1
  9
$REGENMODE
 70
     1
  9
$FILLMODE
 70
     1
  9
$QTEXTMODE
 70
     0
  9
$MIRRTEXT
 70
     0
  9
$LTSCALE
 40
20.0
  9
$ATTMODE
 70
     1
  9
$TEXTSIZE
 40
64.0
  9
$TRACEWID
 40
0.05
  9
$TEXTSTYLE
  7
STANDARD
  9
$CLAYER
  8
SIZE
  9
$CELTYPE
  6
CONTINUOUS
  9
$CECOLOR
 62
     7
  9
$DIMSCALE
 40
1.0
  9
$DIMASZ
 40
12.0
  9
$DIMEXO
 40
20.0
  9
$DIMDLI
 40
200.0
  9
$DIMRND
 40
0.0
  9
$DIMDLE
 40
0.0
  9
$DIMEXE
 40
20.0
  9
$DIMTP
 40
0.0
  9
$DIMTM
 40
0.0
  9
$DIMTXT
 40
64.0
  9
$DIMCEN
 40
0.09
  9
$DIMTSZ
 40
0.0
  9
$DIMTOL
 70
     0
  9
$DIMLIM
 70
     0
  9
$DIMTIH
 70
     0
  9
$DIMTOH
 70
     0
  9
$DIMSE1
 70
     0
  9
$DIMSE2
 70
     0
  9
$DIMTAD
 70
     1
  9
$DIMZIN
 70
     8
  9
$DIMBLK
  1

  9
$DIMASO
 70
     1
  9
$DIMSHO
 70
     0
  9
$DIMPOST
  1

  9
$DIMAPOST
  1

  9
$DIMALT
 70
     0
  9
$DIMALTD
 70
     2
  9
$DIMALTF
 40
25.399999999999999
  9
$DIMLFAC
 40
1.0
  9
$DIMTOFL
 70
     1
  9
$DIMTVP
 40
0.0
  9
$DIMTIX
 70
     1
  9
$DIMSOXD
 70
     0
  9
$DIMSAH
 70
     0
  9
$DIMBLK1
  1

  9
$DIMBLK2
  1

  9
$DIMSTYLE
  2
STANDARD
  9
$DIMCLRD
 70
     7
  9
$DIMCLRE
 70
     7
  9
$DIMCLRT
 70
     7
  9
$DIMTFAC
 40
1.0
  9
$DIMGAP
 40
25.0
  9
$LUNITS
 70
     2
  9
$LUPREC
 70
     4
  9
$SKETCHINC
 40
0.1
  9
$FILLETRAD
 40
3.0
  9
$AUNITS
 70
     1
  9
$AUPREC
 70
     3
  9
$MENU
  1
ACAD
  9
$ELEVATION
 40
0.0
  9
$PELEVATION
 40
0.0
  9
$THICKNESS
 40
0.0
  9
$LIMCHECK
 70
     0
  9
$CHAMFERA
 40
0.0
  9
$CHAMFERB
 40
0.0
  9
$SKPOLY
 70
     0
  9
$TDCREATE
 40
2453019.62301037
  9
$TDUPDATE
 40
2460045.428693032
  9
$TDINDWG
 40
1.7181872801
  9
$TDUSRTIMER
 40
1.7181872801
  9
$USRTIMER
 70
     1
  9
$ANGBASE
 50
0.0
  9
$ANGDIR
 70
     0
  9
$PDMODE
 70
     3
  9
$PDSIZE
 40
-2.0
  9
$PLINEWID
 40
0.0
  9
$SPLFRAME
 70
     0
  9
$SPLINETYPE
 70
     6
  9
$SPLINESEGS
 70
     8
  9
$SURFTAB1
 70
     6
  9
$SURFTAB2
 70
     6
  9
$SURFTYPE
 70
     6
  9
$SURFU
 70
     6
  9
$SURFV
 70
     6
  9
$UCSNAME
  2

  9
$UCSORG
 10
0.0
 20
0.0
 30
0.0
  9
$UCSXDIR
 10
1.0
 20
0.0
 30
0.0
  9
$UCSYDIR
 10
0.0
 20
1.0
 30
0.0
  9
$PUCSNAME
  2

  9
$PUCSORG
 10
0.0
 20
0.0
 30
0.0
  9
$PUCSXDIR
 10
1.0
 20
0.0
 30
0.0
  9
$PUCSYDIR
 10
0.0
 20
1.0
 30
0.0
  9
$USERI1
 70
     0
  9
$USERI2
 70
     0
  9
$USERI3
 70
     0
  9
$USERI4
 70
     0
  9
$USERI5
 70
     0
  9
$USERR1
 40
20.0
  9
$USERR2
 40
0.0
  9
$USERR3
 40
0.0
  9
$USERR4
 40
0.0
  9
$USERR5
 40
0.0
  9
$WORLDVIEW
 70
     1
  9
$SHADEDGE
 70
     3
  9
$SHADEDIF
 70
    70
  9
$TILEMODE
 70
     1
  9
$MAXACTVP
 70
    48
  9
$PINSBASE
 10
0.0
 20
0.0
 30
0.0
  9
$PLIMCHECK
 70
     0
  9
$PEXTMIN
 10
-100000000000000000000.0
 20
-100000000000000000000.0
 30
-100000000000000000000.0
  9
$PEXTMAX
 10
100000000000000000000.0
 20
100000000000000000000.0
 30
100000000000000000000.0
  9
$PLIMMIN
 10
0.0
 20
0.0
  9
$PLIMMAX
 10
12.0
 20
9.0
  9
$UNITMODE
 70
     0
  9
$VISRETAIN
 70
     0
  9
$PLINEGEN
 70
     0
  9
$PSLTSCALE
 70
     0
  9
$TREEDEPTH
 70
  3020
  9
$ATTDIA
 70
     0
  9
$ATTREQ
 70
     1
  9
$BLIPMODE
 70
     1
  9
$COORDS
 70
     1
  9
$DRAGMODE
 70
     2
  9
$OSMODE
 70
     0
  9
$HANDLING
 70
     0
  9
$HANDSEED
  5
F700
  0
ENDSEC
  0
SECTION
  2
TABLES
  0
TABLE
  2
LTYPE
 70
     3
  0
LTYPE
  2
CONTINUOUS
 70
     0
  3
実線
 72
    65
 73
     0
 40
0.0
  0
LTYPE
  2
DASHDOT
 70
     0
  3
____ _ ____ _ ____ _ ____ _ ____ _ ____ _ ____
 72
    65
 73
     4
 40
5.5
 49
4.0
 49
-0.6
 49
0.3
 49
-0.6
  0
LTYPE
  2
DASHED
 70
     0
  3
-- -- -- -- -- -- -- -- -- -- -- -- -- -- --
 72
    65
 73
     2
 40
0.75
 49
0.5
 49
-0.25
  0
ENDTAB
  0
TABLE
  2
LAYER
 70
    12
  0
LAYER
  2
0
 70
     0
 62
     7
  6
CONTINUOUS
  0
LAYER
  2
BASIS
 70
     0
 62
     6
  6
DASHDOT
  0
LAYER
  2
OUTLINE
 70
     0
 62
     3
  6
CONTINUOUS
  0
LAYER
  2
DETAIL
 70
     0
 62
     5
  6
CONTINUOUS
  0
LAYER
  2
SIZE
 70
     0
 62
    30
  6
CONTINUOUS
  0
LAYER
  2
ARRANGE
 70
     0
 62
     1
  6
CONTINUOUS
  0
LAYER
  2
DEFPOINTS
 70
     0
 62
     7
  6
CONTINUOUS
  0
LAYER
  2
ETC
 70
     0
 62
    61
  6
CONTINUOUS
  0
LAYER
  2
FIX
 70
     0
 62
    11
  6
CONTINUOUS
  0
LAYER
  2
NOTE
 70
     0
 62
     4
  6
CONTINUOUS
  0
LAYER
  2
SERVICESPACE
 70
    64
 62
     2
  6
DASHDOT
  0
LAYER
  2
SYMBOLLINE
 70
    64
 62
    15
  6
CONTINUOUS
  0
ENDTAB
  0
TABLE
  2
STYLE
 70
     1
  0
STYLE
  2
STANDARD
 70
     0
 40
64.0
 41
0.9
 50
0.0
 71
     0
 42
64.0
  3
SIMPLEX.shx
  4
BIGFONT.shx
  0
ENDTAB
  0
TABLE
  2
APPID
 70
    23
  0
APPID
  2
ACAD
 70
     0
  0
APPID
  2
AUTOCAD_POSTSCRIPT_FIGURE
 70
     0
  0
APPID
  2
ACAD_EXEMPT_FROM_CAD_STANDARDS
 70
     0
  0
APPID
  2
ACAD_PSEXT
 70
     0
  0
APPID
  2
ACAUTHENVIRON
 70
     0
  0
APPID
  2
GENIUS_GENOENT_13
 70
     0
  0
APPID
  2
GENIUS_GENCFG_13
 70
     0
  0
APPID
  2
GENIUS_GENCFG0_13
 70
     0
  0
APPID
  2
GENIUS_GENCFG1_13
 70
     0
  0
APPID
  2
GENIUS_GENCFG2_13
 70
     0
  0
APPID
  2
GENIUS_GENCFG3_13
 70
     0
  0
APPID
  2
GENIUS_GENCFG4_13
 70
     0
  0
APPID
  2
GENIUS_GEVCFG0_13
 70
     0
  0
APPID
  2
CONTENTBLOCKICON
 70
     0
  0
APPID
  2
CONTENTBLOCKDESCRIPTION
 70
     0
  0
APPID
  2
ACAD_NAV_VCDISPLAY
 70
     0
  0
APPID
  2
ACAD_MLEADERVER
 70
     0
  0
APPID
  2
ACDBDYNAMICBLOCKTRUENAME
 70
     0
  0
APPID
  2
ACDBDYNAMICBLOCKGUID
 70
     0
  0
APPID
  2
ACAD_DSTYLE_DIMRADIAL_EXTENSION
 70
     0
  0
APPID
  2
GENIUS_GENODEF_13
 70
     0
  0
APPID
  2
GENIUS_GENOBJ-N-CEN_13
 70
     0
  0
APPID
  2
GENIUS_GENCEN_19
 70
     0
  0
ENDTAB
  0
TABLE
  2
DIMSTYLE
 70
     1
  0
DIMSTYLE
  2
STANDARD
 70
     0
  3

  4

  5
_ORIGIN
  6

  7

 40
1.0
 41
12.0
 42
20.0
 43
200.0
 44
20.0
 45
0.0
 46
0.0
 47
0.0
 48
0.0
140
64.0
141
0.09
142
0.0
143
25.399999999999999
144
1.0
145
0.0
146
1.0
147
25.0
 71
     0
 72
     0
 73
     0
 74
     0
 75
     0
 76
     0
 77
     1
 78
     8
170
     0
171
     2
172
     1
173
     0
174
     1
175
     0
176
     7
177
     7
178
     7
  0
ENDTAB
  0
TABLE
  2
VIEW
 70
     1
  0
VIEW
  2
ALL
 70
     0
 40
4282.6198079999986
 10
0.0
 20
41.309904000000003
 41
5940.0
 11
0.0
 21
0.0
 31
1.0
 12
0.0
 22
0.0
 32
0.0
 42
50.0
 43
0.0
 44
0.0
 50
0.0
 71
     0
  0
ENDTAB
  0
TABLE
  2
UCS
 70
     0
  0
ENDTAB
  0
TABLE
  2
VPORT
 70
     1
  0
VPORT
  2
*ACTIVE
 70
     0
 10
0.0
 20
0.0
 11
1.0
 21
1.0
 12
420.1034689090485
 22
131.3781837599563
 13
0.0
 23
0.0
 14
1.0
 24
1.0
 15
0.0
 25
0.0
 16
0.0
 26
0.0
 36
1.0
 17
0.0
 27
0.0
 37
0.0
 40
1541.475150037201
 41
1.781285231116122
 42
50.0
 43
0.0
 44
0.0
 50
0.0
 51
0.0
 71
     0
 72
  1000
 73
     1
 74
     3
 75
     0
 76
     0
 77
     0
 78
     0
  0
ENDTAB
  0
ENDSEC
  0
SECTION
  2
BLOCKS
  0
BLOCK
  8
0
  2
_ORIGIN
 70
     0
 10
0.0
 20
0.0
 30
0.0
  3
_ORIGIN
  1
_ORIGIN
  0
CIRCLE
  8
0
  6
CONTINUOUS
 62
     7
 10
0.0
 20
0.0
 30
0.0
 40
0.5
  0
LINE
  8
0
  6
CONTINUOUS
 62
     7
 10
0.0
 20
0.0
 30
0.0
 11
-1.0
 21
0.0
 31
0.0
  0
ENDBLK
  8
0
  0
ENDSEC
  0
SECTION
  2
ENTITIES
  0
LINE
  8
DETAIL
  6
CONTINUOUS
 62
     5
 10
-533.00000000007458
 20
-147.1500000000228
 30
0.0
 11
-533.00000000007458
 21
-336.95000000004569
 31
0.0
  0
LINE
  8
DETAIL
  6
CONTINUOUS
 62
     5
 10
-524.40000000008331
 20
-146.0500000000238
 30
0.0
 11
-524.40000000008331
 21
-338.05000000005163
 31
0.0
  0
LINE
  8
DETAIL
  6
CONTINUOUS
 62
     5
 10
-466.00000000006912
 20
-115.0000000000164
 30
0.0
 11
-466.00000000006912
 21
-70.000000000010459
 31
0.0
  0
LINE
  8
DETAIL
  6
CONTINUOUS
 62
     5
 10
-455.70000000006172
 20
-138.0499999996064
 30
0.0
 11
-455.70000000006172
 21
-346.05000000005248
 31
0.0
  0
LINE
  8
DETAIL
  6
CONTINUOUS
 62
     5
 10
-454.00000000006179
 20
-77.000000000011369
 30
0.0
 11
-454.00000000006179
 21
-70.000000000010459
 31
0.0
  0
LINE
  8
DETAIL
  6
CONTINUOUS
 62
     5
 10
-452.70000000006172
 20
-403.1500000000583
 30
0.0
 11
-452.70000000006172
 21
-402.6500000000583
 31
0.0
  0
LINE
  8
DETAIL
  6
CONTINUOUS
 62
     5
 10
-452.70000000006172
 20
-1.349999999999
 30
0.0
 11
-452.70000000006172
 21
-0.8499999999985448
 31
0.0
  0
LINE
  8
DETAIL
  6
CONTINUOUS
 62
     5
 10
-448.30000000006748
 20
-135.05000000001519
 30
0.0
 11
-448.30000000006748
 21
-349.05000000005339
 31
0.0
  0
LINE
  8
DETAIL
  6
CONTINUOUS
 62
     5
 10
-447.70000000006888
 20
-402.15000000005779
 30
0.0
 11
-447.70000000006888
 21
-93.000000000013642
 31
0.0
  0
LINE
  8
DETAIL
  6
CONTINUOUS
 62
     5
 10
-447.70000000006888
 20
-70.000000000010459
 30
0.0
 11
-447.70000000006888
 21
-1.850000000005821
 31
0.0
  0
LINE
  8
DETAIL
  6
CONTINUOUS
 62
     5
 10
-447.20000000006888
 20
-1.850000000005821
 30
0.0
 11
-447.20000000006888
 21
-2.849999999999
 31
0.0
  0
LINE
  8
DETAIL
  6
CONTINUOUS
 62
     5
 10
-447.20000000006888
 20
-402.15000000005779
 30
0.0
 11
-447.20000000006888
 21
-401.15000000005779
 31
0.0
  0
LINE
  8
DETAIL
  6
CONTINUOUS
 62
     5
 10
-445.70000000006888
 20
-403.1500000000583
 30
0.0
 11
-445.70000000006888
 21
-401.15000000005779
 31
0.0
  0
LINE
  8
DETAIL
  6
CONTINUOUS
 62
     5
 10
-445.70000000006888
 20
-2.849999999999
 30
0.0
 11
-445.70000000006888
 21
-0.8499999999985448
 31
0.0
  0
LINE
  8
DETAIL
  6
CONTINUOUS
 62
     5
 10
-444.80000000006748
 20
-404.00000000005639
 30
0.0
 11
-444.80000000006748
 21
-403.1500000000583
 31
0.0
  0
LINE
  8
DETAIL
  6
CONTINUOUS
 62
     5
 10
-444.80000000006748
 20
-0.8499999999985448
 30
0.0
 11
-444.80000000006748
 21
0.0
 31
0.0
  0
LINE
  8
DETAIL
  6
CONTINUOUS
 62
     5
 10
-441.00000000006912
 20
-66.200000000013915
 30
0.0
 11
-441.00000000006912
 21
-73.200000000007549
 31
0.0
  0
LINE
  8
DETAIL
  6
CONTINUOUS
 62
     5
 10
-440.00000000006912
 20
-142.04999999722801
 30
0.0
 11
-440.00000000006912
 21
-262.05000000004071
 31
0.0
  0
LINE
  8
DETAIL
  6
CONTINUOUS
 62
     5
 10
-447.13610168806832
 20
-1.5302664400005599
 30
0.0
 11
-447.02062500006201
 21
-2.849999999999
 31
0.0
  0
LINE
  8
DETAIL
  6
CONTINUOUS
 62
     5
 10
-446.33914671406728
 20
-1.4605328799957531
 30
0.0
 11
-446.2175683400701
 21
-2.849999999999
 31
0.0
  0
LINE
  8
DETAIL
  6
CONTINUOUS
 62
     5
 10
-422.50000000006179
 20
-88.000000000012733
 30
0.0
 11
-422.50000000006179
 21
-66.200000000013915
 31
0.0
  0
LINE
  8
DETAIL
  6
CONTINUOUS
 62
     5
 10
-447.0206482400672
 20
-401.15000000005779
 30
0.0
 11
-447.1361091820645
 21
-402.46972459406061
 31
0.0
  0
LINE
  8
DETAIL
  6
CONTINUOUS
 62
     5
 10
-446.21759237006239
 20
-401.15000000005779
 30
0.0
 11
-446.33915342406448
 21
-402.53944918806337
 31
0.0
  0
LINE
  8
DETAIL
  6
CONTINUOUS
 62
     5
 10
-390.00000000005463
 20
-92.050000000016098
 30
0.0
 11
-440.00000000006912
 21
-142.04999999722801
 31
0.0
  0
LINE
  8
DETAIL
  6
CONTINUOUS
 62
     5
 10
-440.00000000006912
 20
-262.05000000004071
 30
0.0
 11
-390.00000000005463
 21
-312.05000000004787
 31
0.0
  0
LINE
  8
DETAIL
  6
CONTINUOUS
 62
     5
 10
-220.00000000003999
 20
-262.05000000004071
 30
0.0
 11
-220.00000000003999
 21
-142.0500000000234
 31
0.0
  0
LINE
  8
DETAIL
  6
CONTINUOUS
 62
     5
 10
-210.83397459804019
 20
-99.550000000017008
 30
0.0
 11
-210.83397459804019
 21
-111.95000000001301
 31
0.0
  0
LINE
  8
DETAIL
  6
CONTINUOUS
 62
     5
 10
-210.83397459804019
 20
-319.55000000004929
 30
0.0
 11
-210.83397459804019
 21
-331.95000000004478
 31
0.0
  0
LINE
  8
DETAIL
  6
CONTINUOUS
 62
     5
 10
-210.83397459804019
 20
-304.55000000004662
 30
0.0
 11
-210.83397459804019
 21
-292.15000000004329
 31
0.0
  0
LINE
  8
DETAIL
  6
CONTINUOUS
 62
     5
 10
-210.83397459804019
 20
-84.550000000015189
 30
0.0
 11
-210.83397459804019
 21
-72.150000000011914
 31
0.0
  0
LINE
  8
DETAIL
  6
CONTINUOUS
 62
     5
 10
-207.47696574003109
 20
-99.550000000017008
 30
0.0
 11
-207.47696574003109
 21
-111.95000000001301
 31
0.0
  0
LINE
  8
DETAIL
  6
CONTINUOUS
 62
     5
 10
-207.47696574003109
 20
-319.55000000004929
 30
0.0
 11
-207.47696574003109
 21
-331.95000000004478
 31
0.0
  0
LINE
  8
DETAIL
  6
CONTINUOUS
 62
     5
 10
-207.47696574003109
 20
-304.55000000004662
 30
0.0
 11
-207.47696574003109
 21
-292.15000000004329
 31
0.0
  0
LINE
  8
DETAIL
  6
CONTINUOUS
 62
     5
 10
-207.47696574003109
 20
-84.550000000015189
 30
0.0
 11
-207.47696574003109
 21
-72.150000000011914
 31
0.0
  0
LINE
  8
DETAIL
  6
CONTINUOUS
 62
     5
 10
-203.92303426203489
 20
-99.550000000017008
 30
0.0
 11
-203.92303426203489
 21
-111.95000000001301
 31
0.0
  0
LINE
  8
DETAIL
  6
CONTINUOUS
 62
     5
 10
-203.92303426203489
 20
-319.55000000004929
 30
0.0
 11
-203.92303426203489
 21
-331.95000000004478
 31
0.0
  0
LINE
  8
DETAIL
  6
CONTINUOUS
 62
     5
 10
-203.92303426203489
 20
-304.55000000004662
 30
0.0
 11
-203.92303426203489
 21
-292.15000000004329
 31
0.0
  0
LINE
  8
DETAIL
  6
CONTINUOUS
 62
     5
 10
-203.92303426203489
 20
-84.550000000015189
 30
0.0
 11
-203.92303426203489
 21
-72.150000000011914
 31
0.0
  0
LINE
  8
DETAIL
  6
CONTINUOUS
 62
     5
 10
-203.75000000002819
 20
-347.17995170204682
 30
0.0
 11
-203.75000000002819
 21
-341.52004829804901
 31
0.0
  0
LINE
  8
DETAIL
  6
CONTINUOUS
 62
     5
 10
-200.85000000002671
 20
-348.35000000004862
 30
0.0
 11
-200.85000000002671
 21
-340.3500000000472
 31
0.0
  0
LINE
  8
DETAIL
  6
CONTINUOUS
 62
     5
 10
-200.5660254040331
 20
-99.550000000017008
 30
0.0
 11
-200.5660254040331
 21
-111.95000000001301
 31
0.0
  0
LINE
  8
DETAIL
  6
CONTINUOUS
 62
     5
 10
-200.5660254040331
 20
-319.55000000004929
 30
0.0
 11
-200.5660254040331
 21
-331.95000000004478
 31
0.0
  0
LINE
  8
DETAIL
  6
CONTINUOUS
 62
     5
 10
-200.5660254040331
 20
-304.55000000004662
 30
0.0
 11
-200.5660254040331
 21
-292.15000000004329
 31
0.0
  0
LINE
  8
DETAIL
  6
CONTINUOUS
 62
     5
 10
-200.5660254040331
 20
-84.550000000015189
 30
0.0
 11
-200.5660254040331
 21
-72.150000000011914
 31
0.0
  0
LINE
  8
DETAIL
  6
CONTINUOUS
 62
     5
 10
-200.0500000000311
 20
-5.5000000000004547
 30
0.0
 11
-200.0500000000311
 21
-67.25000000000955
 31
0.0
  0
LINE
  8
DETAIL
  6
CONTINUOUS
 62
     5
 10
-200.0500000000311
 20
-69.450000000007094
 30
0.0
 11
-200.0500000000311
 21
-114.6500000000183
 31
0.0
  0
LINE
  8
DETAIL
  6
CONTINUOUS
 62
     5
 10
-200.0500000000311
 20
-116.8500000000226
 30
0.0
 11
-200.0500000000311
 21
-287.25000000004093
 31
0.0
  0
LINE
  8
DETAIL
  6
CONTINUOUS
 62
     5
 10
-200.0500000000311
 20
-289.45000000003847
 30
0.0
 11
-200.0500000000311
 21
-334.65000000004972
 31
0.0
  0
LINE
  8
DETAIL
  6
CONTINUOUS
 62
     5
 10
-200.0500000000311
 20
-336.85000000005402
 30
0.0
 11
-200.0500000000311
 21
-398.60000000006312
 31
0.0
  0
LINE
  8
DETAIL
  6
CONTINUOUS
 62
     5
 10
-198.85000000002671
 20
-4.3000000000033651
 30
0.0
 11
-198.85000000002671
 21
-67.25000000000955
 31
0.0
  0
LINE
  8
DETAIL
  6
CONTINUOUS
 62
     5
 10
-198.85000000002671
 20
-69.450000000007094
 30
0.0
 11
-198.85000000002671
 21
-114.6500000000183
 31
0.0
  0
LINE
  8
DETAIL
  6
CONTINUOUS
 62
     5
 10
-198.85000000002671
 20
-116.8500000000226
 30
0.0
 11
-198.85000000002671
 21
-287.25000000004093
 31
0.0
  0
LINE
  8
DETAIL
  6
CONTINUOUS
 62
     5
 10
-198.85000000002671
 20
-289.45000000003847
 30
0.0
 11
-198.85000000002671
 21
-334.65000000004972
 31
0.0
  0
LINE
  8
DETAIL
  6
CONTINUOUS
 62
     5
 10
-198.85000000002671
 20
-399.80000000006021
 30
0.0
 11
-198.85000000002671
 21
-336.85000000005402
 31
0.0
  0
LINE
  8
DETAIL
  6
CONTINUOUS
 62
     5
 10
-197.85000000003399
 20
-324.35000000005272
 30
0.0
 11
-197.85000000003399
 21
-334.65000000004972
 31
0.0
  0
LINE
  8
DETAIL
  6
CONTINUOUS
 62
     5
 10
-197.85000000003399
 20
-336.85000000005402
 30
0.0
 11
-197.85000000003399
 21
-338.3500000000472
 31
0.0
  0
LINE
  8
DETAIL
  6
CONTINUOUS
 62
     5
 10
-197.85000000003399
 20
-364.35000000005863
 30
0.0
 11
-197.85000000003399
 21
-356.15000000005278
 31
0.0
  0
LINE
  8
DETAIL
  6
CONTINUOUS
 62
     5
 10
-196.85000000003399
 20
-356.15000000005278
 30
0.0
 11
-196.85000000003399
 21
-358.15000000005278
 31
0.0
  0
LINE
  8
DETAIL
  6
CONTINUOUS
 62
     5
 10
-196.85000000003399
 20
-338.3500000000472
 30
0.0
 11
-196.85000000003399
 21
-327.35000000005272
 31
0.0
  0
LINE
  8
DETAIL
  6
CONTINUOUS
 62
     5
 10
-190.85000000002671
 20
-358.15000000005278
 30
0.0
 11
-190.85000000002671
 21
-361.35000000005039
 31
0.0
  0
LINE
  8
DETAIL
  6
CONTINUOUS
 62
     5
 10
-183.85000000003399
 20
-327.35000000005272
 30
0.0
 11
-183.85000000003399
 21
-358.15000000005278
 31
0.0
  0
LINE
  8
DETAIL
  6
CONTINUOUS
 62
     5
 10
-165.21238237002311
 20
-72.250000000010459
 30
0.0
 11
-165.21238237002311
 21
-111.8499895200239
 31
0.0
  0
LINE
  8
DETAIL
  6
CONTINUOUS
 62
     5
 10
-165.21238237002311
 20
-292.25000000004178
 30
0.0
 11
-165.21238237002311
 21
-331.84998952005481
 31
0.0
  0
LINE
  8
DETAIL
  6
CONTINUOUS
 62
     5
 10
-163.01238237002599
 20
-72.250000000010459
 30
0.0
 11
-163.01238237002599
 21
-111.8499895200239
 31
0.0
  0
LINE
  8
DETAIL
  6
CONTINUOUS
 62
     5
 10
-163.01238237002599
 20
-292.25000000004178
 30
0.0
 11
-163.01238237002599
 21
-331.84998952005481
 31
0.0
  0
LINE
  8
DETAIL
  6
CONTINUOUS
 62
     5
 10
-441.43000000005031
 20
-404.00000000005639
 30
0.0
 11
-439.28000000007069
 21
-401.85000000006539
 31
0.0
  0
LINE
  8
DETAIL
  6
CONTINUOUS
 62
     5
 10
452.95000000006888
 20
-404.00000000005639
 30
0.0
 11
447.93306493806358
 21
-404.00000000005639
 31
0.0
  0
LINE
  8
DETAIL
  6
CONTINUOUS
 62
     5
 10
-452.95000000006888
 20
-404.00000000005639
 30
0.0
 11
-447.93306494007169
 21
-404.00000000005639
 31
0.0
  0
LINE
  8
DETAIL
  6
CONTINUOUS
 62
     5
 10
-444.80000000006748
 20
-404.00000000005639
 30
0.0
 11
444.80000000006748
 21
-404.00000000005639
 31
0.0
  0
LINE
  8
DETAIL
  6
CONTINUOUS
 62
     5
 10
452.95000000006888
 20
-403.20000000006121
 30
0.0
 11
447.93306493806358
 21
-403.20000000006121
 31
0.0
  0
LINE
  8
DETAIL
  6
CONTINUOUS
 62
     5
 10
-452.95000000006888
 20
-403.20000000006121
 30
0.0
 11
-447.93306494007169
 21
-403.20000000006121
 31
0.0
  0
LINE
  8
DETAIL
  6
CONTINUOUS
 62
     5
 10
-440.58000000005183
 20
-403.1500000000583
 30
0.0
 11
-445.70000000006888
 21
-403.1500000000583
 31
0.0
  0
LINE
  8
DETAIL
  6
CONTINUOUS
 62
     5
 10
-448.20000000006888
 20
-403.1500000000583
 30
0.0
 11
-452.70000000006172
 21
-403.1500000000583
 31
0.0
  0
LINE
  8
DETAIL
  6
CONTINUOUS
 62
     5
 10
440.58000000004449
 20
-403.1500000000583
 30
0.0
 11
445.70000000006888
 21
-403.1500000000583
 31
0.0
  0
LINE
  8
DETAIL
  6
CONTINUOUS
 62
     5
 10
448.20000000006888
 20
-403.1500000000583
 30
0.0
 11
452.70000000006888
 21
-403.1500000000583
 31
0.0
  0
LINE
  8
DETAIL
  6
CONTINUOUS
 62
     5
 10
448.20000000006888
 20
-402.6500000000583
 30
0.0
 11
452.92500000006021
 21
-402.65000000006512
 31
0.0
  0
LINE
  8
DETAIL
  6
CONTINUOUS
 62
     5
 10
-524.40000000008331
 20
-338.05000000005163
 30
0.0
 11
-455.70000000006172
 21
-346.05000000005248
 31
0.0
  0
LINE
  8
DETAIL
  6
CONTINUOUS
 62
     5
 10
-441.26730092006528
 20
0.0
 30
0.0
 11
-439.1173009200711
 21
-2.1499999999987272
 31
0.0
  0
LINE
  8
DETAIL
  6
CONTINUOUS
 62
     5
 10
524.40000000007603
 20
-338.05000000005163
 30
0.0
 11
455.70000000006172
 21
-346.05000000005248
 31
0.0
  0
LINE
  8
DETAIL
  6
CONTINUOUS
 62
     5
 10
447.70000000006888
 20
-401.15000000005779
 30
0.0
 11
445.70000000006888
 21
-401.15000000005779
 31
0.0
  0
LINE
  8
DETAIL
  6
CONTINUOUS
 62
     5
 10
-447.70000000006888
 20
-401.15000000005779
 30
0.0
 11
-445.70000000006888
 21
-401.15000000005779
 31
0.0
  0
LINE
  8
DETAIL
  6
CONTINUOUS
 62
     5
 10
198.85000000003399
 20
-399.80000000006021
 30
0.0
 11
-198.85000000002671
 21
-399.80000000006021
 31
0.0
  0
LINE
  8
DETAIL
  6
CONTINUOUS
 62
     5
 10
200.0500000000238
 20
-398.60000000006312
 30
0.0
 11
-200.0500000000311
 21
-398.60000000006312
 31
0.0
  0
LINE
  8
DETAIL
  6
CONTINUOUS
 62
     5
 10
-198.85000000002671
 20
-364.35000000005863
 30
0.0
 11
-193.85000000003399
 21
-364.35000000005863
 31
0.0
  0
LINE
  8
DETAIL
  6
CONTINUOUS
 62
     5
 10
-200.85000000002671
 20
-348.35000000004862
 30
0.0
 11
-202.83715574403229
 21
-348.17614640005098
 31
0.0
  0
LINE
  8
DETAIL
  6
CONTINUOUS
 62
     5
 10
-270.00000000004002
 20
-312.05000000004787
 30
0.0
 11
-220.00000000003999
 21
-262.05000000004071
 31
0.0
  0
LINE
  8
DETAIL
  6
CONTINUOUS
 62
     5
 10
-183.85000000003399
 20
-358.15000000005278
 30
0.0
 11
-196.85000000003399
 21
-358.15000000005278
 31
0.0
  0
LINE
  8
DETAIL
  6
CONTINUOUS
 62
     5
 10
-196.85000000003399
 20
-357.15000000005239
 30
0.0
 11
-183.85000000003399
 21
-357.15000000005239
 31
0.0
  0
LINE
  8
DETAIL
  6
CONTINUOUS
 62
     5
 10
-196.85000000003399
 20
-356.15000000005278
 30
0.0
 11
-198.85000000002671
 21
-356.15000000005278
 31
0.0
  0
LINE
  8
DETAIL
  6
CONTINUOUS
 62
     5
 10
448.30000000006748
 20
-349.05000000005339
 30
0.0
 11
447.70000000006888
 21
-349.05000000005339
 31
0.0
  0
LINE
  8
DETAIL
  6
CONTINUOUS
 62
     5
 10
-448.30000000006748
 20
-349.05000000005339
 30
0.0
 11
-447.70000000006888
 21
-349.05000000005339
 31
0.0
  0
LINE
  8
DETAIL
  6
CONTINUOUS
 62
     5
 10
227.30000000003841
 20
-348.50000000004678
 30
0.0
 11
238.70000000003259
 21
-348.50000000004678
 31
0.0
  0
LINE
  8
DETAIL
  6
CONTINUOUS
 62
     5
 10
227.30000000003841
 20
-347.90000000004829
 30
0.0
 11
396.50000000006457
 21
-347.90000000004829
 31
0.0
  0
LINE
  8
DETAIL
  6
CONTINUOUS
 62
     5
 10
224.70000000003259
 20
-347.30000000005072
 30
0.0
 11
235.70000000003259
 21
-347.30000000005072
 31
0.0
  0
LINE
  8
DETAIL
  6
CONTINUOUS
 62
     5
 10
-200.85000000002671
 20
-346.85000000005579
 30
0.0
 11
-200.0500000000311
 21
-346.85000000005579
 31
0.0
  0
LINE
  8
DETAIL
  6
CONTINUOUS
 62
     5
 10
398.90000000005148
 20
-346.55000000004969
 30
0.0
 11
396.50000000006457
 21
-346.55000000004969
 31
0.0
  0
LINE
  8
DETAIL
  6
CONTINUOUS
 62
     5
 10
455.70000000006172
 20
-346.05000000005248
 30
0.0
 11
448.30000000006748
 21
-346.05000000005248
 31
0.0
  0
LINE
  8
DETAIL
  6
CONTINUOUS
 62
     5
 10
-455.70000000006172
 20
-346.05000000005248
 30
0.0
 11
-448.90000000006597
 21
-346.05000000005248
 31
0.0
  0
LINE
  8
DETAIL
  6
CONTINUOUS
 62
     5
 10
400.50000000005002
 20
-344.9500000000512
 30
0.0
 11
415.5000000000573
 21
-344.9500000000512
 31
0.0
  0
LINE
  8
DETAIL
  6
CONTINUOUS
 62
     5
 10
-200.85000000002671
 20
-341.85000000005488
 30
0.0
 11
-200.0500000000311
 21
-341.85000000005488
 31
0.0
  0
LINE
  8
DETAIL
  6
CONTINUOUS
 62
     5
 10
-196.85000000003399
 20
-338.3500000000472
 30
0.0
 11
-198.85000000002671
 21
-338.3500000000472
 31
0.0
  0
LINE
  8
DETAIL
  6
CONTINUOUS
 62
     5
 10
531.90000000006876
 20
-338.05000000005163
 30
0.0
 11
524.40000000007603
 21
-338.05000000005163
 31
0.0
  0
LINE
  8
DETAIL
  6
CONTINUOUS
 62
     5
 10
-531.90000000007603
 20
-338.05000000005163
 30
0.0
 11
-524.40000000008331
 21
-338.05000000005163
 31
0.0
  0
LINE
  8
DETAIL
  6
CONTINUOUS
 62
     5
 10
-167.64697728202651
 20
-336.85000000005402
 30
0.0
 11
-183.85000000003399
 21
-336.85000000005402
 31
0.0
  0
LINE
  8
DETAIL
  6
CONTINUOUS
 62
     5
 10
-196.85000000003399
 20
-336.85000000005402
 30
0.0
 11
-205.360093130038
 21
-336.85000000005402
 31
0.0
  0
LINE
  8
DETAIL
  6
CONTINUOUS
 62
     5
 10
-167.64697728202651
 20
-334.65000000004972
 30
0.0
 11
-183.85000000003399
 21
-334.65000000004972
 31
0.0
  0
LINE
  8
DETAIL
  6
CONTINUOUS
 62
     5
 10
-196.85000000003399
 20
-334.65000000004972
 30
0.0
 11
-205.360093130038
 21
-334.65000000004972
 31
0.0
  0
LINE
  8
DETAIL
  6
CONTINUOUS
 62
     5
 10
-210.83397459804019
 20
-331.95000000004478
 30
0.0
 11
-200.5660254040331
 21
-331.95000000004478
 31
0.0
  0
LINE
  8
DETAIL
  6
CONTINUOUS
 62
     5
 10
-186.85000000002671
 20
-324.35000000005272
 30
0.0
 11
-198.85000000002671
 21
-324.35000000005272
 31
0.0
  0
LINE
  8
DETAIL
  6
CONTINUOUS
 62
     5
 10
-220.00000000003999
 20
-142.0500000000234
 30
0.0
 11
-270.00000000004002
 21
-92.050000000016098
 31
0.0
  0
LINE
  8
DETAIL
  6
CONTINUOUS
 62
     5
 10
-200.85000000002671
 20
-340.3500000000472
 30
0.0
 11
-202.83715574403229
 21
-340.52385360005252
 31
0.0
  0
LINE
  8
DETAIL
  6
CONTINUOUS
 62
     5
 10
198.6306804760234
 20
-316.55000000004839
 30
0.0
 11
197.42014353003381
 21
-316.55000000004839
 31
0.0
  0
LINE
  8
DETAIL
  6
CONTINUOUS
 62
     5
 10
198.85000000003399
 20
-314.55000000004839
 30
0.0
 11
197.76747271602559
 21
-314.55000000004839
 31
0.0
  0
LINE
  8
DETAIL
  6
CONTINUOUS
 62
     5
 10
200.0500000000238
 20
-314.55000000004839
 30
0.0
 11
217.50000000002819
 21
-314.55000000004839
 31
0.0
  0
LINE
  8
DETAIL
  6
CONTINUOUS
 62
     5
 10
-390.00000000005463
 20
-312.05000000004787
 30
0.0
 11
-270.00000000004002
 21
-312.05000000004787
 31
0.0
  0
LINE
  8
DETAIL
  6
CONTINUOUS
 62
     5
 10
395.5000000000573
 20
-295.70000000004387
 30
0.0
 11
395.30000000005288
 21
-295.70000000004387
 31
0.0
  0
LINE
  8
DETAIL
  6
CONTINUOUS
 62
     5
 10
-210.83397459804019
 20
-292.15000000004329
 30
0.0
 11
-200.5660254040331
 21
-292.15000000004329
 31
0.0
  0
LINE
  8
DETAIL
  6
CONTINUOUS
 62
     5
 10
-205.360093130038
 20
-289.45000000003847
 30
0.0
 11
-167.64697728202651
 21
-289.45000000003847
 31
0.0
  0
LINE
  8
DETAIL
  6
CONTINUOUS
 62
     5
 10
-205.360093130038
 20
-287.25000000004093
 30
0.0
 11
-167.64697728202651
 21
-287.25000000004093
 31
0.0
  0
LINE
  8
DETAIL
  6
CONTINUOUS
 62
     5
 10
395.5000000000573
 20
-280.70000000004211
 30
0.0
 11
395.30000000005288
 21
-280.70000000004211
 31
0.0
  0
LINE
  8
BASIS
  6
DASHDOT
 62
     6
 10
0.000000000003638
 20
39.33801894727776
 30
0.0
 11
0.000000000003638
 21
-443.43801894734088
 31
0.0
  0
LINE
  8
DETAIL
  6
CONTINUOUS
 62
     5
 10
198.85000000003399
 20
-268.55000000004162
 30
0.0
 11
197.76747271602559
 21
-268.55000000004162
 31
0.0
  0
LINE
  8
DETAIL
  6
CONTINUOUS
 62
     5
 10
200.0500000000238
 20
-268.55000000004162
 30
0.0
 11
217.50000000002819
 21
-268.55000000004162
 31
0.0
  0
LINE
  8
DETAIL
  6
CONTINUOUS
 62
     5
 10
198.6306804760234
 20
-266.55000000004111
 30
0.0
 11
197.42014353003381
 21
-266.55000000004111
 31
0.0
  0
LINE
  8
DETAIL
  6
CONTINUOUS
 62
     5
 10
415.5000000000573
 20
-262.70000000003938
 30
0.0
 11
407.70000000006172
 21
-262.70000000003938
 31
0.0
  0
LINE
  8
BASIS
  6
DASHDOT
 62
     6
 10
586.47375908556205
 20
-202.05000000003159
 30
0.0
 11
-586.47375908555523
 21
-202.05000000003159
 31
0.0
  0
LINE
  8
DETAIL
  6
CONTINUOUS
 62
     5
 10
213.70000000003259
 20
-189.7000000000285
 30
0.0
 11
218.70000000003259
 21
-189.7000000000285
 31
0.0
  0
LINE
  8
DETAIL
  6
CONTINUOUS
 62
     5
 10
213.70000000003259
 20
-161.7000000000248
 30
0.0
 11
218.70000000003259
 21
-161.7000000000248
 31
0.0
  0
LINE
  8
DETAIL
  6
CONTINUOUS
 62
     5
 10
395.5000000000573
 20
-154.70000000002389
 30
0.0
 11
395.30000000005288
 21
-154.70000000002389
 31
0.0
  0
LINE
  8
DETAIL
  6
CONTINUOUS
 62
     5
 10
410.30000000006021
 20
-152.3655069320271
 30
0.0
 11
409.10000000005579
 21
-152.3655069320271
 31
0.0
  0
LINE
  8
DETAIL
  6
CONTINUOUS
 62
     5
 10
531.90000000006876
 20
-146.0500000000238
 30
0.0
 11
524.40000000007603
 21
-146.0500000000238
 31
0.0
  0
LINE
  8
DETAIL
  6
CONTINUOUS
 62
     5
 10
-531.90000000007603
 20
-146.0500000000238
 30
0.0
 11
-524.40000000008331
 21
-146.0500000000238
 31
0.0
  0
LINE
  8
DETAIL
  6
CONTINUOUS
 62
     5
 10
395.5000000000573
 20
-139.70000000002119
 30
0.0
 11
395.30000000005288
 21
-139.70000000002119
 31
0.0
  0
LINE
  8
DETAIL
  6
CONTINUOUS
 62
     5
 10
415.5000000000573
 20
-137.70000000002119
 30
0.0
 11
410.30000000006021
 21
-137.70000000002119
 31
0.0
  0
LINE
  8
DETAIL
  6
CONTINUOUS
 62
     5
 10
409.10000000005579
 20
-137.70000000002119
 30
0.0
 11
407.70000000006172
 21
-137.70000000002119
 31
0.0
  0
LINE
  8
DETAIL
  6
CONTINUOUS
 62
     5
 10
403.5000000000573
 20
-128.70000000002031
 30
0.0
 11
411.5000000000573
 21
-128.70000000002031
 31
0.0
  0
LINE
  8
DETAIL
  6
CONTINUOUS
 62
     5
 10
198.6306804760234
 20
-126.5500000000211
 30
0.0
 11
197.42014353003381
 21
-126.5500000000211
 31
0.0
  0
LINE
  8
DETAIL
  6
CONTINUOUS
 62
     5
 10
198.85000000003399
 20
-124.5500000000211
 30
0.0
 11
197.76747271602559
 21
-124.5500000000211
 31
0.0
  0
LINE
  8
DETAIL
  6
CONTINUOUS
 62
     5
 10
200.0500000000238
 20
-124.5500000000211
 30
0.0
 11
217.50000000002819
 21
-124.5500000000211
 31
0.0
  0
LINE
  8
DETAIL
  6
CONTINUOUS
 62
     5
 10
-447.70000000006888
 20
-120.0000000000168
 30
0.0
 11
-461.00000000006912
 21
-120.0000000000168
 31
0.0
  0
LINE
  8
DETAIL
  6
CONTINUOUS
 62
     5
 10
447.70000000006888
 20
-120.0000000000168
 30
0.0
 11
461.00000000006179
 21
-120.0000000000168
 31
0.0
  0
LINE
  8
DETAIL
  6
CONTINUOUS
 62
     5
 10
411.5000000000573
 20
-119.9000000000228
 30
0.0
 11
419.10000000005579
 21
-119.9000000000228
 31
0.0
  0
LINE
  8
DETAIL
  6
CONTINUOUS
 62
     5
 10
403.5000000000573
 20
-118.70000000001851
 30
0.0
 11
419.10000000005579
 21
-118.70000000001851
 31
0.0
  0
LINE
  8
DETAIL
  6
CONTINUOUS
 62
     5
 10
-167.64697728202651
 20
-116.8500000000226
 30
0.0
 11
-205.360093130038
 21
-116.8500000000226
 31
0.0
  0
LINE
  8
DETAIL
  6
CONTINUOUS
 62
     5
 10
-524.40000000008331
 20
-146.0500000000238
 30
0.0
 11
-455.70000000006172
 21
-138.0499999996064
 31
0.0
  0
LINE
  8
DETAIL
  6
CONTINUOUS
 62
     5
 10
-167.64697728202651
 20
-114.6500000000183
 30
0.0
 11
-205.360093130038
 21
-114.6500000000183
 31
0.0
  0
LINE
  8
DETAIL
  6
CONTINUOUS
 62
     5
 10
-210.83397459804019
 20
-111.95000000001301
 30
0.0
 11
-200.5660254040331
 21
-111.95000000001301
 31
0.0
  0
LINE
  8
DETAIL
  6
CONTINUOUS
 62
     5
 10
-447.72641511006708
 20
-99.000000000014097
 30
0.0
 11
-450.9000000000633
 21
-99.000000000014097
 31
0.0
  0
LINE
  8
DETAIL
  6
CONTINUOUS
 62
     5
 10
447.72641510805897
 20
-99.000000000014097
 30
0.0
 11
450.9000000000633
 21
-99.000000000014097
 31
0.0
  0
LINE
  8
DETAIL
  6
CONTINUOUS
 62
     5
 10
-427.50000000006179
 20
-93.000000000013642
 30
0.0
 11
-450.9000000000633
 21
-93.000000000013642
 31
0.0
  0
LINE
  8
DETAIL
  6
CONTINUOUS
 62
     5
 10
427.50000000006179
 20
-93.000000000013642
 30
0.0
 11
450.9000000000633
 21
-93.000000000013642
 31
0.0
  0
LINE
  8
DETAIL
  6
CONTINUOUS
 62
     5
 10
-270.00000000004002
 20
-92.050000000016098
 30
0.0
 11
-390.00000000005463
 21
-92.050000000016098
 31
0.0
  0
LINE
  8
DETAIL
  6
CONTINUOUS
 62
     5
 10
400.50000000005002
 20
-90.450000000014825
 30
0.0
 11
415.5000000000573
 21
-90.450000000014825
 31
0.0
  0
LINE
  8
DETAIL
  6
CONTINUOUS
 62
     5
 10
396.50000000006457
 20
-88.85000000001628
 30
0.0
 11
398.90000000005148
 21
-88.85000000001628
 31
0.0
  0
LINE
  8
DETAIL
  6
CONTINUOUS
 62
     5
 10
436.50000000006179
 20
-88.000000000012733
 30
0.0
 11
434.50000000006179
 21
-88.000000000012733
 31
0.0
  0
LINE
  8
DETAIL
  6
CONTINUOUS
 62
     5
 10
-436.50000000006912
 20
-88.000000000012733
 30
0.0
 11
-434.50000000006179
 21
-88.000000000012733
 31
0.0
  0
LINE
  8
DETAIL
  6
CONTINUOUS
 62
     5
 10
224.70000000003259
 20
-88.10000000001537
 30
0.0
 11
235.70000000003259
 21
-88.10000000001537
 31
0.0
  0
LINE
  8
DETAIL
  6
CONTINUOUS
 62
     5
 10
396.50000000006457
 20
-87.500000000016826
 30
0.0
 11
227.30000000003841
 21
-87.500000000016826
 31
0.0
  0
LINE
  8
DETAIL
  6
CONTINUOUS
 62
     5
 10
227.30000000003841
 20
-86.900000000018281
 30
0.0
 11
238.70000000003259
 21
-86.900000000018281
 31
0.0
  0
LINE
  8
DETAIL
  6
CONTINUOUS
 62
     5
 10
-434.50000000006179
 20
-82.000000000011369
 30
0.0
 11
-436.50000000006912
 21
-82.000000000011369
 31
0.0
  0
LINE
  8
DETAIL
  6
CONTINUOUS
 62
     5
 10
434.50000000006179
 20
-82.000000000011369
 30
0.0
 11
436.50000000006179
 21
-82.000000000011369
 31
0.0
  0
LINE
  8
DETAIL
  6
CONTINUOUS
 62
     5
 10
463.00000000006179
 20
-80.000000000011369
 30
0.0
 11
457.00000000006179
 21
-80.000000000011369
 31
0.0
  0
LINE
  8
DETAIL
  6
CONTINUOUS
 62
     5
 10
-463.00000000006912
 20
-80.000000000011369
 30
0.0
 11
-457.00000000006912
 21
-80.000000000011369
 31
0.0
  0
LINE
  8
DETAIL
  6
CONTINUOUS
 62
     5
 10
198.85000000003399
 20
-78.550000000014279
 30
0.0
 11
197.76747271602559
 21
-78.550000000014279
 31
0.0
  0
LINE
  8
DETAIL
  6
CONTINUOUS
 62
     5
 10
200.0500000000238
 20
-78.550000000014279
 30
0.0
 11
217.50000000002819
 21
-78.550000000014279
 31
0.0
  0
LINE
  8
DETAIL
  6
CONTINUOUS
 62
     5
 10
198.6306804760234
 20
-76.550000000013824
 30
0.0
 11
197.42014353003381
 21
-76.550000000013824
 31
0.0
  0
LINE
  8
DETAIL
  6
CONTINUOUS
 62
     5
 10
524.40000000007603
 20
-146.0500000000238
 30
0.0
 11
455.70000000006172
 21
-138.0499999996064
 31
0.0
  0
LINE
  8
DETAIL
  6
CONTINUOUS
 62
     5
 10
221.96794919203151
 20
-267.16410161604239
 30
0.0
 11
223.70000000003259
 21
-270.16410161604239
 31
0.0
  0
LINE
  8
DETAIL
  6
CONTINUOUS
 62
     5
 10
195.33616841802629
 20
-313.55000000004787
 30
0.0
 11
195.33616841802629
 21
-269.55000000004162
 31
0.0
  0
LINE
  8
DETAIL
  6
CONTINUOUS
 62
     5
 10
195.33616841802629
 20
-123.5500000000206
 30
0.0
 11
195.33616841802629
 21
-79.550000000014279
 31
0.0
  0
LINE
  8
DETAIL
  6
CONTINUOUS
 62
     5
 10
197.76747271602559
 20
-76.550000000013824
 30
0.0
 11
197.76747271602559
 21
-78.550000000014279
 31
0.0
  0
LINE
  8
DETAIL
  6
CONTINUOUS
 62
     5
 10
197.76747271602559
 20
-266.55000000004111
 30
0.0
 11
197.76747271602559
 21
-268.55000000004162
 31
0.0
  0
LINE
  8
DETAIL
  6
CONTINUOUS
 62
     5
 10
197.76747271602559
 20
-316.55000000004839
 30
0.0
 11
197.76747271602559
 21
-314.55000000004839
 31
0.0
  0
LINE
  8
DETAIL
  6
CONTINUOUS
 62
     5
 10
197.76747271602559
 20
-126.5500000000211
 30
0.0
 11
197.76747271602559
 21
-124.5500000000211
 31
0.0
  0
LINE
  8
DETAIL
  6
CONTINUOUS
 62
     5
 10
198.6306804760234
 20
-76.550000000013824
 30
0.0
 11
198.6306804760234
 21
-78.550000000014279
 31
0.0
  0
LINE
  8
DETAIL
  6
CONTINUOUS
 62
     5
 10
198.6306804760234
 20
-266.55000000004111
 30
0.0
 11
198.6306804760234
 21
-268.55000000004162
 31
0.0
  0
LINE
  8
DETAIL
  6
CONTINUOUS
 62
     5
 10
198.6306804760234
 20
-316.55000000004839
 30
0.0
 11
198.6306804760234
 21
-314.55000000004839
 31
0.0
  0
LINE
  8
DETAIL
  6
CONTINUOUS
 62
     5
 10
198.6306804760234
 20
-126.5500000000211
 30
0.0
 11
198.6306804760234
 21
-124.5500000000211
 31
0.0
  0
LINE
  8
DETAIL
  6
CONTINUOUS
 62
     5
 10
198.85000000003399
 20
-399.80000000006021
 30
0.0
 11
198.85000000003399
 21
-4.3000000000033651
 31
0.0
  0
LINE
  8
DETAIL
  6
CONTINUOUS
 62
     5
 10
200.0500000000238
 20
-398.60000000006312
 30
0.0
 11
200.0500000000238
 21
-5.5000000000004547
 31
0.0
  0
LINE
  8
DETAIL
  6
CONTINUOUS
 62
     5
 10
203.70000000002531
 20
-314.55000000004839
 30
0.0
 11
203.70000000002531
 21
-268.55000000004162
 31
0.0
  0
LINE
  8
DETAIL
  6
CONTINUOUS
 62
     5
 10
203.70000000002531
 20
-124.5500000000211
 30
0.0
 11
203.70000000002531
 21
-78.550000000014279
 31
0.0
  0
LINE
  8
DETAIL
  6
CONTINUOUS
 62
     5
 10
210.70000000003259
 20
-164.7000000000248
 30
0.0
 11
210.70000000003259
 21
-186.7000000000285
 31
0.0
  0
LINE
  8
DETAIL
  6
CONTINUOUS
 62
     5
 10
223.70000000003259
 20
-227.23589838403899
 30
0.0
 11
221.96794919203151
 21
-230.23589838403271
 31
0.0
  0
LINE
  8
DETAIL
  6
CONTINUOUS
 62
     5
 10
441.26730091808622
 20
0.0
 30
0.0
 11
439.11730091806288
 21
-2.1499999999987272
 31
0.0
  0
LINE
  8
DETAIL
  6
CONTINUOUS
 62
     5
 10
-454.00000000006179
 20
-73.200000000007549
 30
0.0
 11
-422.50000000006179
 21
-73.200000000007549
 31
0.0
  0
LINE
  8
DETAIL
  6
CONTINUOUS
 62
     5
 10
422.50000000005463
 20
-73.200000000007549
 30
0.0
 11
454.00000000006179
 21
-73.200000000007549
 31
0.0
  0
LINE
  8
DETAIL
  6
CONTINUOUS
 62
     5
 10
-210.83397459804019
 20
-72.150000000011914
 30
0.0
 11
-200.5660254040331
 21
-72.150000000011914
 31
0.0
  0
LINE
  8
DETAIL
  6
CONTINUOUS
 62
     5
 10
-441.00000000006912
 20
-70.000000000010459
 30
0.0
 11
-466.00000000006912
 21
-70.000000000010459
 31
0.0
  0
LINE
  8
DETAIL
  6
CONTINUOUS
 62
     5
 10
441.00000000006179
 20
-70.000000000010459
 30
0.0
 11
466.00000000006179
 21
-70.000000000010459
 31
0.0
  0
LINE
  8
DETAIL
  6
CONTINUOUS
 62
     5
 10
-205.360093130038
 20
-69.450000000007094
 30
0.0
 11
-167.64697728202651
 21
-69.450000000007094
 31
0.0
  0
LINE
  8
DETAIL
  6
CONTINUOUS
 62
     5
 10
-205.360093130038
 20
-67.25000000000955
 30
0.0
 11
-167.64697728202651
 21
-67.25000000000955
 31
0.0
  0
LINE
  8
DETAIL
  6
CONTINUOUS
 62
     5
 10
-425.50000000006179
 20
-63.200000000006177
 30
0.0
 11
-438.00000000006912
 21
-63.200000000006177
 31
0.0
  0
LINE
  8
DETAIL
  6
CONTINUOUS
 62
     5
 10
425.50000000006179
 20
-63.200000000006177
 30
0.0
 11
438.00000000006179
 21
-63.200000000006177
 31
0.0
  0
LINE
  8
DETAIL
  6
CONTINUOUS
 62
     5
 10
441.43000000005759
 20
-404.00000000005639
 30
0.0
 11
439.28000000006341
 21
-401.85000000006539
 31
0.0
  0
LINE
  8
DETAIL
  6
CONTINUOUS
 62
     5
 10
221.96794919203151
 20
-211.16410161603329
 30
0.0
 11
223.70000000003259
 21
-214.16410161603429
 31
0.0
  0
LINE
  8
DETAIL
  6
CONTINUOUS
 62
     5
 10
217.50000000002819
 20
-314.55000000004839
 30
0.0
 11
217.50000000002819
 21
-268.55000000004162
 31
0.0
  0
LINE
  8
DETAIL
  6
CONTINUOUS
 62
     5
 10
217.50000000002819
 20
-124.5500000000211
 30
0.0
 11
217.50000000002819
 21
-78.550000000014279
 31
0.0
  0
LINE
  8
DETAIL
  6
CONTINUOUS
 62
     5
 10
221.70000000003259
 20
-91.10000000001628
 30
0.0
 11
221.70000000003259
 21
-158.70000000002389
 31
0.0
  0
LINE
  8
DETAIL
  6
CONTINUOUS
 62
     5
 10
221.70000000003259
 20
-344.30000000004969
 30
0.0
 11
221.70000000003259
 21
-287.23589838404808
 31
0.0
  0
LINE
  8
DETAIL
  6
CONTINUOUS
 62
     5
 10
221.70000000003259
 20
-266.16410161604148
 30
0.0
 11
221.70000000003259
 21
-231.23589838403271
 31
0.0
  0
LINE
  8
DETAIL
  6
CONTINUOUS
 62
     5
 10
221.70000000003259
 20
-210.16410161603429
 30
0.0
 11
221.70000000003259
 21
-192.70000000002941
 31
0.0
  0
LINE
  8
DETAIL
  6
CONTINUOUS
 62
     5
 10
223.70000000003259
 20
-214.16410161603429
 30
0.0
 11
223.70000000003259
 21
-227.23589838403899
 31
0.0
  0
LINE
  8
DETAIL
  6
CONTINUOUS
 62
     5
 10
223.70000000003259
 20
-270.16410161604239
 30
0.0
 11
223.70000000003259
 21
-283.23589838404001
 31
0.0
  0
LINE
  8
DETAIL
  6
CONTINUOUS
 62
     5
 10
226.10000000002671
 20
-347.30000000005072
 30
0.0
 11
226.10000000002671
 21
-88.10000000001537
 31
0.0
  0
LINE
  8
DETAIL
  6
CONTINUOUS
 62
     5
 10
227.30000000003841
 20
-347.30000000005072
 30
0.0
 11
227.30000000003841
 21
-347.90000000004829
 31
0.0
  0
LINE
  8
DETAIL
  6
CONTINUOUS
 62
     5
 10
227.30000000003841
 20
-88.10000000001537
 30
0.0
 11
227.30000000003841
 21
-87.500000000016826
 31
0.0
  0
LINE
  8
DETAIL
  6
CONTINUOUS
 62
     5
 10
238.70000000003259
 20
-91.10000000001628
 30
0.0
 11
238.70000000003259
 21
-344.30000000004969
 31
0.0
  0
LINE
  8
DETAIL
  6
CONTINUOUS
 62
     5
 10
238.70000000003259
 20
-347.90000000004829
 30
0.0
 11
238.70000000003259
 21
-348.50000000004678
 31
0.0
  0
LINE
  8
DETAIL
  6
CONTINUOUS
 62
     5
 10
238.70000000003259
 20
-87.500000000016826
 30
0.0
 11
238.70000000003259
 21
-86.900000000018281
 31
0.0
  0
LINE
  8
DETAIL
  6
CONTINUOUS
 62
     5
 10
223.70000000003259
 20
-283.23589838404001
 30
0.0
 11
221.96794919203151
 21
-286.23589838404001
 31
0.0
  0
LINE
  8
DETAIL
  6
CONTINUOUS
 62
     5
 10
-200.0500000000311
 20
-5.5000000000004547
 30
0.0
 11
200.0500000000238
 21
-5.5000000000004547
 31
0.0
  0
LINE
  8
DETAIL
  6
CONTINUOUS
 62
     5
 10
-198.85000000002671
 20
-4.3000000000033651
 30
0.0
 11
198.85000000003399
 21
-4.3000000000033651
 31
0.0
  0
LINE
  8
DETAIL
  6
CONTINUOUS
 62
     5
 10
447.70000000006888
 20
-2.849999999999
 30
0.0
 11
445.70000000006888
 21
-2.849999999999
 31
0.0
  0
LINE
  8
DETAIL
  6
CONTINUOUS
 62
     5
 10
-447.70000000006888
 20
-2.849999999999
 30
0.0
 11
-445.70000000006888
 21
-2.849999999999
 31
0.0
  0
LINE
  8
DETAIL
  6
CONTINUOUS
 62
     5
 10
448.20000000006888
 20
-1.349999999999
 30
0.0
 11
452.92500000006021
 21
-1.349999999999
 31
0.0
  0
LINE
  8
DETAIL
  6
CONTINUOUS
 62
     5
 10
449.70000000006888
 20
-2.1499999999987272
 30
0.0
 11
452.92500000006021
 21
-2.1499999999987272
 31
0.0
  0
LINE
  8
DETAIL
  6
CONTINUOUS
 62
     5
 10
-452.70000000006172
 20
-0.8499999999985448
 30
0.0
 11
-448.20000000006888
 21
-0.8499999999985448
 31
0.0
  0
LINE
  8
DETAIL
  6
CONTINUOUS
 62
     5
 10
-445.70000000006888
 20
-0.8499999999985448
 30
0.0
 11
-440.41730092007401
 21
-0.8499999999985448
 31
0.0
  0
LINE
  8
DETAIL
  6
CONTINUOUS
 62
     5
 10
448.20000000006888
 20
-0.8499999999985448
 30
0.0
 11
452.70000000006888
 21
-0.8499999999985448
 31
0.0
  0
LINE
  8
DETAIL
  6
CONTINUOUS
 62
     5
 10
440.41730091807312
 20
-0.8499999999980901
 30
0.0
 11
445.70000000006888
 21
-0.8499999999985448
 31
0.0
  0
LINE
  8
DETAIL
  6
CONTINUOUS
 62
     5
 10
452.92500000006021
 20
-0.8000000000029104
 30
0.0
 11
447.93305666006108
 21
-0.8000000000029104
 31
0.0
  0
LINE
  8
DETAIL
  6
CONTINUOUS
 62
     5
 10
-452.95000000006888
 20
-0.8000000000029104
 30
0.0
 11
-447.93305666206919
 21
-0.8000000000029104
 31
0.0
  0
LINE
  8
DETAIL
  6
CONTINUOUS
 62
     5
 10
452.92500000006021
 20
0.0
 30
0.0
 11
447.93305666006108
 21
0.0
 31
0.0
  0
LINE
  8
DETAIL
  6
CONTINUOUS
 62
     5
 10
-452.95000000006888
 20
0.0
 30
0.0
 11
-447.93305666206919
 21
0.0
 31
0.0
  0
LINE
  8
DETAIL
  6
CONTINUOUS
 62
     5
 10
-444.80000000006748
 20
0.0
 30
0.0
 11
444.80000000006748
 21
0.0
 31
0.0
  0
LINE
  8
DETAIL
  6
CONTINUOUS
 62
     5
 10
415.5000000000573
 20
-137.70000000002119
 30
0.0
 11
418.50000000006457
 21
-134.70000000002031
 31
0.0
  0
LINE
  8
DETAIL
  6
CONTINUOUS
 62
     5
 10
418.50000000006457
 20
-265.70000000003938
 30
0.0
 11
415.5000000000573
 21
-262.70000000003938
 31
0.0
  0
LINE
  8
DETAIL
  6
CONTINUOUS
 62
     5
 10
395.30000000005288
 20
-295.70000000004387
 30
0.0
 11
395.30000000005288
 21
-280.70000000004211
 31
0.0
  0
LINE
  8
DETAIL
  6
CONTINUOUS
 62
     5
 10
395.30000000005288
 20
-154.70000000002389
 30
0.0
 11
395.30000000005288
 21
-139.70000000002119
 31
0.0
  0
LINE
  8
DETAIL
  6
CONTINUOUS
 62
     5
 10
396.50000000006457
 20
-347.90000000004829
 30
0.0
 11
396.50000000006457
 21
-296.70000000004387
 31
0.0
  0
LINE
  8
DETAIL
  6
CONTINUOUS
 62
     5
 10
396.50000000006457
 20
-279.7000000000412
 30
0.0
 11
396.50000000006457
 21
-155.70000000002389
 31
0.0
  0
LINE
  8
DETAIL
  6
CONTINUOUS
 62
     5
 10
396.50000000006457
 20
-138.7000000000221
 30
0.0
 11
396.50000000006457
 21
-87.500000000016826
 31
0.0
  0
LINE
  8
DETAIL
  6
CONTINUOUS
 62
     5
 10
400.50000000005002
 20
-344.9500000000512
 30
0.0
 11
400.50000000005002
 21
-90.450000000014825
 31
0.0
  0
LINE
  8
DETAIL
  6
CONTINUOUS
 62
     5
 10
401.62449979806019
 20
-123.0703671400192
 30
0.0
 11
401.62449979806019
 21
-121.6296328600142
 31
0.0
  0
LINE
  8
DETAIL
  6
CONTINUOUS
 62
     5
 10
403.5000000000573
 20
-98.85000000001628
 30
0.0
 11
403.5000000000573
 21
-118.8500000000199
 31
0.0
  0
LINE
  8
DETAIL
  6
CONTINUOUS
 62
     5
 10
403.5000000000573
 20
-125.8500000000208
 30
0.0
 11
403.5000000000573
 21
-145.85000000002449
 31
0.0
  0
LINE
  8
DETAIL
  6
CONTINUOUS
 62
     5
 10
403.5000000000573
 20
-296.55000000004247
 30
0.0
 11
403.5000000000573
 21
-316.55000000004611
 31
0.0
  0
LINE
  8
DETAIL
  6
CONTINUOUS
 62
     5
 10
403.60000000006312
 20
-118.70000000001851
 30
0.0
 11
403.60000000006312
 21
-128.70000000002031
 31
0.0
  0
LINE
  8
DETAIL
  6
CONTINUOUS
 62
     5
 10
404.70000000006172
 20
-259.70000000003847
 30
0.0
 11
404.70000000006172
 21
-140.70000000002119
 31
0.0
  0
LINE
  8
DETAIL
  6
CONTINUOUS
 62
     5
 10
407.90000000005881
 20
-128.70000000002031
 30
0.0
 11
407.90000000005881
 21
-118.70000000001851
 31
0.0
  0
LINE
  8
DETAIL
  6
CONTINUOUS
 62
     5
 10
409.10000000005579
 20
-109.9000000000219
 30
0.0
 11
409.10000000005579
 21
-118.70000000001851
 31
0.0
  0
LINE
  8
DETAIL
  6
CONTINUOUS
 62
     5
 10
409.10000000005579
 20
-152.3655069320271
 30
0.0
 11
409.10000000005579
 21
-128.70000000002031
 31
0.0
  0
LINE
  8
DETAIL
  6
CONTINUOUS
 62
     5
 10
410.30000000006021
 20
-109.9000000000219
 30
0.0
 11
410.30000000006021
 21
-118.70000000001851
 31
0.0
  0
LINE
  8
DETAIL
  6
CONTINUOUS
 62
     5
 10
410.30000000006021
 20
-128.70000000002031
 30
0.0
 11
410.30000000006021
 21
-152.3655069320271
 31
0.0
  0
LINE
  8
DETAIL
  6
CONTINUOUS
 62
     5
 10
411.5000000000573
 20
-118.70000000001851
 30
0.0
 11
411.5000000000573
 21
-128.70000000002031
 31
0.0
  0
LINE
  8
DETAIL
  6
CONTINUOUS
 62
     5
 10
418.50000000006457
 20
-93.450000000014825
 30
0.0
 11
418.50000000006457
 21
-99.928730512020138
 31
0.0
  0
LINE
  8
DETAIL
  6
CONTINUOUS
 62
     5
 10
418.50000000006457
 20
-101.13232991401721
 30
0.0
 11
418.50000000006457
 21
-118.70000000001851
 31
0.0
  0
LINE
  8
DETAIL
  6
CONTINUOUS
 62
     5
 10
418.50000000006457
 20
-119.9000000000228
 30
0.0
 11
418.50000000006457
 21
-134.70000000002031
 31
0.0
  0
LINE
  8
DETAIL
  6
CONTINUOUS
 62
     5
 10
418.50000000006457
 20
-265.70000000003938
 30
0.0
 11
418.50000000006457
 21
-341.9500000000503
 31
0.0
  0
LINE
  8
DETAIL
  6
CONTINUOUS
 62
     5
 10
415.5000000000573
 20
-344.9500000000512
 30
0.0
 11
418.50000000006457
 21
-341.9500000000503
 31
0.0
  0
LINE
  8
DETAIL
  6
CONTINUOUS
 62
     5
 10
418.50000000006457
 20
-93.450000000014825
 30
0.0
 11
415.5000000000573
 21
-90.450000000014825
 31
0.0
  0
LINE
  8
DETAIL
  6
CONTINUOUS
 62
     5
 10
446.33915342206359
 20
-402.53944918806337
 30
0.0
 11
446.21759236806162
 21
-401.15000000005779
 31
0.0
  0
LINE
  8
DETAIL
  6
CONTINUOUS
 62
     5
 10
447.13610918005628
 20
-402.46972459406061
 30
0.0
 11
447.02064823805898
 21
-401.15000000005779
 31
0.0
  0
LINE
  8
DETAIL
  6
CONTINUOUS
 62
     5
 10
422.50000000005463
 20
-88.000000000012733
 30
0.0
 11
422.50000000005463
 21
-66.200000000013915
 31
0.0
  0
LINE
  8
DETAIL
  6
CONTINUOUS
 62
     5
 10
441.00000000006179
 20
-66.200000000013915
 30
0.0
 11
441.00000000006179
 21
-73.200000000007549
 31
0.0
  0
LINE
  8
DETAIL
  6
CONTINUOUS
 62
     5
 10
444.80000000006748
 20
-404.00000000005639
 30
0.0
 11
444.80000000006748
 21
-403.1500000000583
 31
0.0
  0
LINE
  8
DETAIL
  6
CONTINUOUS
 62
     5
 10
444.80000000006748
 20
-0.8499999999985448
 30
0.0
 11
444.80000000006748
 21
0.0
 31
0.0
  0
LINE
  8
DETAIL
  6
CONTINUOUS
 62
     5
 10
445.70000000006888
 20
-0.8499999999985448
 30
0.0
 11
445.70000000006888
 21
-2.849999999999
 31
0.0
  0
LINE
  8
DETAIL
  6
CONTINUOUS
 62
     5
 10
445.70000000006888
 20
-403.1500000000583
 30
0.0
 11
445.70000000006888
 21
-401.15000000005779
 31
0.0
  0
LINE
  8
DETAIL
  6
CONTINUOUS
 62
     5
 10
447.20000000006172
 20
-1.850000000005821
 30
0.0
 11
447.20000000006172
 21
-2.849999999999
 31
0.0
  0
LINE
  8
DETAIL
  6
CONTINUOUS
 62
     5
 10
447.20000000006172
 20
-402.15000000005779
 30
0.0
 11
447.20000000006172
 21
-401.15000000005779
 31
0.0
  0
LINE
  8
DETAIL
  6
CONTINUOUS
 62
     5
 10
447.70000000006888
 20
-402.15000000005779
 30
0.0
 11
447.70000000006888
 21
-93.000000000013642
 31
0.0
  0
LINE
  8
DETAIL
  6
CONTINUOUS
 62
     5
 10
447.70000000006888
 20
-70.000000000010459
 30
0.0
 11
447.70000000006888
 21
-1.850000000005821
 31
0.0
  0
LINE
  8
DETAIL
  6
CONTINUOUS
 62
     5
 10
448.30000000006748
 20
-349.05000000005339
 30
0.0
 11
448.30000000006748
 21
-135.05000000001519
 31
0.0
  0
LINE
  8
DETAIL
  6
CONTINUOUS
 62
     5
 10
452.70000000006888
 20
-0.8499999999985448
 30
0.0
 11
452.70000000006888
 21
-1.349999999999
 31
0.0
  0
LINE
  8
DETAIL
  6
CONTINUOUS
 62
     5
 10
452.70000000006888
 20
-402.6500000000583
 30
0.0
 11
452.70000000006888
 21
-403.1500000000583
 31
0.0
  0
LINE
  8
DETAIL
  6
CONTINUOUS
 62
     5
 10
454.00000000006179
 20
-77.000000000011369
 30
0.0
 11
454.00000000006179
 21
-70.000000000010459
 31
0.0
  0
LINE
  8
DETAIL
  6
CONTINUOUS
 62
     5
 10
455.70000000006172
 20
-346.05000000005248
 30
0.0
 11
455.70000000006172
 21
-138.0499999996064
 31
0.0
  0
LINE
  8
DETAIL
  6
CONTINUOUS
 62
     5
 10
446.21756833806188
 20
-2.849999999999
 30
0.0
 11
446.33914671206639
 21
-1.4605328799957531
 31
0.0
  0
LINE
  8
DETAIL
  6
CONTINUOUS
 62
     5
 10
447.02062500006201
 20
-2.849999999999
 30
0.0
 11
447.13610168606738
 21
-1.5302664400005599
 31
0.0
  0
LINE
  8
DETAIL
  6
CONTINUOUS
 62
     5
 10
466.00000000006179
 20
-115.0000000000164
 30
0.0
 11
466.00000000006179
 21
-70.000000000010459
 31
0.0
  0
LINE
  8
DETAIL
  6
CONTINUOUS
 62
     5
 10
524.40000000007603
 20
-338.05000000005163
 30
0.0
 11
524.40000000007603
 21
-146.0500000000238
 31
0.0
  0
LINE
  8
DETAIL
  6
CONTINUOUS
 62
     5
 10
533.00000000008185
 20
-336.95000000004569
 30
0.0
 11
533.00000000008185
 21
-147.1500000000228
 31
0.0
  0
ARC
  8
DETAIL
  6
CONTINUOUS
 62
     5
 10
-447.93306494007169
 20
-402.40000000005779
 30
0.0
 40
1.6000000000002319
 50
270.0
 51
354.99999999997402
  0
ARC
  8
DETAIL
  6
CONTINUOUS
 62
     5
 10
-531.90000000007603
 20
-336.95000000004569
 30
0.0
 40
1.10000000000016
 50
180.0
 51
270.0
  0
ARC
  8
DETAIL
  6
CONTINUOUS
 62
     5
 10
-448.20000000006888
 20
-402.15000000005779
 30
0.0
 40
1.0000000000001441
 50
270.0
 51
0.0
  0
ARC
  8
DETAIL
  6
CONTINUOUS
 62
     5
 10
-447.93306494007169
 20
-402.40000000005779
 30
0.0
 40
0.8000000000001152
 50
270.0
 51
354.99999999997402
  0
ARC
  8
DETAIL
  6
CONTINUOUS
 62
     5
 10
-448.90000000006597
 20
-346.65000000005148
 30
0.0
 40
0.6000000000000859
 50
0.0
 51
90.0
  0
ARC
  8
DETAIL
  6
CONTINUOUS
 62
     5
 10
-448.20000000006888
 20
-402.15000000005779
 30
0.0
 40
0.5000000000000722
 50
270.0
 51
0.0
  0
CIRCLE
  8
DETAIL
  6
CONTINUOUS
 62
     5
 10
-409.19595949405272
 20
-281.24595949204007
 30
0.0
 40
4.700000000000677
  0
ARC
  8
DETAIL
  6
CONTINUOUS
 62
     5
 10
-193.85000000003399
 20
-361.35000000005039
 30
0.0
 40
3.000000000000433
 50
270.0
 51
0.0
  0
ARC
  8
DETAIL
  6
CONTINUOUS
 62
     5
 10
-198.25526315803199
 20
-354.35000000005681
 30
0.0
 40
2.594736842000374
 50
133.84961891646819
 51
226.15038108346039
  0
ARC
  8
DETAIL
  6
CONTINUOUS
 62
     5
 10
-205.70000000003259
 20
-336.95000000004569
 30
0.0
 40
1.950000000000282
 50
118.7797296329251
 51
2.9430013392205332
  0
ARC
  8
DETAIL
  6
CONTINUOUS
 62
     5
 10
-202.75000000002819
 20
-341.52004829804901
 30
0.0
 40
1.0000000000001441
 50
95.000000008107676
 51
180.0
  0
ARC
  8
DETAIL
  6
CONTINUOUS
 62
     5
 10
-202.75000000002819
 20
-347.17995170204682
 30
0.0
 40
1.0000000000001441
 50
180.0
 51
264.99999999189242
  0
ARC
  8
DETAIL
  6
CONTINUOUS
 62
     5
 10
-205.70000000003259
 20
-304.55000000004662
 30
0.0
 40
5.1339745960007406
 50
180.0
 51
0.0
  0
ARC
  8
DETAIL
  6
CONTINUOUS
 62
     5
 10
-205.70000000003259
 20
-319.55000000004929
 30
0.0
 40
5.1339745960007406
 50
0.0
 51
180.0
  0
CIRCLE
  8
DETAIL
  6
CONTINUOUS
 62
     5
 10
-250.80404050803551
 20
-281.24595949204007
 30
0.0
 40
4.700000000000677
  0
CIRCLE
  8
DETAIL
  6
CONTINUOUS
 62
     5
 10
-190.35000000003399
 20
-330.85000000004578
 30
0.0
 40
4.700000000000677
  0
ARC
  8
DETAIL
  6
CONTINUOUS
 62
     5
 10
-193.85000000003399
 20
-327.35000000005272
 30
0.0
 40
3.000000000000433
 50
90.0
 51
180.0
  0
ARC
  8
DETAIL
  6
CONTINUOUS
 62
     5
 10
-186.85000000002671
 20
-327.35000000005272
 30
0.0
 40
3.000000000000433
 50
0.0
 51
90.0
  0
ARC
  8
DETAIL
  6
CONTINUOUS
 62
     5
 10
-198.25526315803199
 20
-334.35000000005363
 30
0.0
 40
2.594736842000374
 50
133.84961891517599
 51
186.65105007010379
  0
ARC
  8
DETAIL
  6
CONTINUOUS
 62
     5
 10
-205.70000000003259
 20
-287.15000000004238
 30
0.0
 40
1.950000000000282
 50
357.05699866067499
 51
241.2173362479821
  0
ARC
  8
DETAIL
  6
CONTINUOUS
 62
     5
 10
-205.70000000003259
 20
-304.55000000004662
 30
0.0
 40
1.7769657400002561
 50
180.0
 51
0.0
  0
ARC
  8
DETAIL
  6
CONTINUOUS
 62
     5
 10
-205.70000000003259
 20
-319.55000000004929
 30
0.0
 40
1.7769657400002561
 50
0.0
 51
180.0
  0
ARC
  8
DETAIL
  6
CONTINUOUS
 62
     5
 10
-461.00000000006912
 20
-115.0000000000164
 30
0.0
 40
5.0000000000007221
 50
180.0
 51
270.0
  0
ARC
  8
DETAIL
  6
CONTINUOUS
 62
     5
 10
-531.90000000007603
 20
-147.1500000000228
 30
0.0
 40
1.10000000000016
 50
90.0
 51
180.0
  0
CIRCLE
  8
DETAIL
  6
CONTINUOUS
 62
     5
 10
-409.19595949405272
 20
-122.854040506023
 30
0.0
 40
4.700000000000677
  0
ARC
  8
DETAIL
  6
CONTINUOUS
 62
     5
 10
-427.50000000006179
 20
-88.000000000012733
 30
0.0
 40
5.0000000000007221
 50
270.0
 51
0.0
  0
ARC
  8
DETAIL
  6
CONTINUOUS
 62
     5
 10
-450.9000000000633
 20
-96.000000000013642
 30
0.0
 40
3.000000000000433
 50
90.0
 51
269.99999999989569
  0
ARC
  8
DETAIL
  6
CONTINUOUS
 62
     5
 10
-434.50000000006179
 20
-85.000000000011823
 30
0.0
 40
3.000000000000433
 50
270.0
 51
90.0
  0
ARC
  8
DETAIL
  6
CONTINUOUS
 62
     5
 10
-425.50000000006179
 20
-66.200000000013915
 30
0.0
 40
3.000000000000433
 50
0.0
 51
90.0
  0
ARC
  8
DETAIL
  6
CONTINUOUS
 62
     5
 10
-438.00000000006912
 20
-66.200000000013915
 30
0.0
 40
3.000000000000433
 50
90.0
 51
180.0
  0
ARC
  8
DETAIL
  6
CONTINUOUS
 62
     5
 10
-436.50000000006912
 20
-85.000000000011823
 30
0.0
 40
3.000000000000433
 50
90.0
 51
270.0
  0
ARC
  8
DETAIL
  6
CONTINUOUS
 62
     5
 10
-457.00000000006912
 20
-77.000000000011369
 30
0.0
 40
3.000000000000433
 50
270.0
 51
0.0
  0
ARC
  8
DETAIL
  6
CONTINUOUS
 62
     5
 10
-463.00000000006912
 20
-77.000000000011369
 30
0.0
 40
3.000000000000433
 50
180.0
 51
270.0
  0
CIRCLE
  8
DETAIL
  6
CONTINUOUS
 62
     5
 10
-435.50000000006912
 20
-85.000000000011823
 30
0.0
 40
2.500000000000361
  0
ARC
  8
DETAIL
  6
CONTINUOUS
 62
     5
 10
-447.93305666206919
 20
-1.599999999999
 30
0.0
 40
1.6000000000002319
 50
5.0006445976299743
 51
90.0
  0
ARC
  8
DETAIL
  6
CONTINUOUS
 62
     5
 10
-448.20000000006888
 20
-1.850000000005821
 30
0.0
 40
1.0000000000001441
 50
0.0
 51
90.0
  0
ARC
  8
DETAIL
  6
CONTINUOUS
 62
     5
 10
-447.93305666206919
 20
-1.599999999999
 30
0.0
 40
0.8000000000001152
 50
5.0006445976299743
 51
90.0
  0
ARC
  8
DETAIL
  6
CONTINUOUS
 62
     5
 10
-448.20000000006888
 20
-1.850000000005821
 30
0.0
 40
0.5000000000000722
 50
0.0
 51
90.0
  0
CIRCLE
  8
DETAIL
  6
CONTINUOUS
 62
     5
 10
-250.80404050803551
 20
-122.854040506023
 30
0.0
 40
4.700000000000677
  0
ARC
  8
DETAIL
  6
CONTINUOUS
 62
     5
 10
-205.70000000003259
 20
-116.9500000000144
 30
0.0
 40
1.950000000000282
 50
118.7797296329251
 51
2.943001339324951
  0
ARC
  8
DETAIL
  6
CONTINUOUS
 62
     5
 10
-205.70000000003259
 20
-84.550000000015189
 30
0.0
 40
5.1339745960007406
 50
180.0
 51
0.0
  0
ARC
  8
DETAIL
  6
CONTINUOUS
 62
     5
 10
-205.70000000003259
 20
-99.550000000017008
 30
0.0
 40
5.1339745960007406
 50
0.0
 51
180.0
  0
ARC
  8
DETAIL
  6
CONTINUOUS
 62
     5
 10
-205.70000000003259
 20
-67.150000000011005
 30
0.0
 40
1.950000000000282
 50
357.05699866077953
 51
241.2173362479821
  0
ARC
  8
DETAIL
  6
CONTINUOUS
 62
     5
 10
-205.70000000003259
 20
-84.550000000015189
 30
0.0
 40
1.7769657400002561
 50
180.0
 51
0.0
  0
ARC
  8
DETAIL
  6
CONTINUOUS
 62
     5
 10
-205.70000000003259
 20
-99.550000000017008
 30
0.0
 40
1.7769657400002561
 50
0.0
 51
180.0
  0
CIRCLE
  8
DETAIL
  6
CONTINUOUS
 62
     5
 10
210.50000000002089
 20
-309.05000000004748
 30
0.0
 40
4.700000000000677
  0
ARC
  8
DETAIL
  6
CONTINUOUS
 62
     5
 10
224.70000000003259
 20
-344.30000000004969
 30
0.0
 40
3.000000000000433
 50
180.0
 51
270.0
  0
ARC
  8
DETAIL
  6
CONTINUOUS
 62
     5
 10
235.70000000003259
 20
-344.30000000004969
 30
0.0
 40
3.000000000000433
 50
270.0
 51
0.0
  0
ARC
  8
DETAIL
  6
CONTINUOUS
 62
     5
 10
227.30000000003841
 20
-347.30000000005072
 30
0.0
 40
1.200000000000174
 50
180.0
 51
270.0
  0
ARC
  8
DETAIL
  6
CONTINUOUS
 62
     5
 10
227.30000000003841
 20
-347.30000000005072
 30
0.0
 40
0.6000000000000859
 50
180.0
 51
270.0
  0
CIRCLE
  8
DETAIL
  6
CONTINUOUS
 62
     5
 10
210.50000000002089
 20
-284.05000000004378
 30
0.0
 40
4.700000000000677
  0
ARC
  8
DETAIL
  6
CONTINUOUS
 62
     5
 10
223.70000000003259
 20
-266.16410161604148
 30
0.0
 40
2.0000000000002891
 50
180.0
 51
209.9999999999977
  0
ARC
  8
DETAIL
  6
CONTINUOUS
 62
     5
 10
223.70000000003259
 20
-231.23589838403271
 30
0.0
 40
2.0000000000002891
 50
150.0000000000023
 51
180.0
  0
ARC
  8
DETAIL
  6
CONTINUOUS
 62
     5
 10
223.70000000003259
 20
-210.16410161603429
 30
0.0
 40
2.0000000000002891
 50
180.0
 51
209.9999999999977
  0
ARC
  8
DETAIL
  6
CONTINUOUS
 62
     5
 10
223.70000000003259
 20
-287.23589838404808
 30
0.0
 40
2.0000000000002891
 50
150.0000000000023
 51
180.0
  0
CIRCLE
  8
DETAIL
  6
CONTINUOUS
 62
     5
 10
410.5000000000573
 20
-317.70000000004671
 30
0.0
 40
4.700000000000677
  0
CIRCLE
  8
DETAIL
  6
CONTINUOUS
 62
     5
 10
389.70000000005439
 20
-322.70000000004762
 30
0.0
 40
4.700000000000677
  0
ARC
  8
DETAIL
  6
CONTINUOUS
 62
     5
 10
400.50000000005002
 20
-316.55000000004611
 30
0.0
 40
3.000000000000433
 50
270.0
 51
0.0
  0
ARC
  8
DETAIL
  6
CONTINUOUS
 62
     5
 10
398.90000000005148
 20
-344.9500000000512
 30
0.0
 40
1.6000000000002319
 50
270.0
 51
0.0
  0
ARC
  8
DETAIL
  6
CONTINUOUS
 62
     5
 10
447.93306493806358
 20
-402.40000000005779
 30
0.0
 40
1.6000000000002319
 50
185.00000000002589
 51
270.0
  0
ARC
  8
DETAIL
  6
CONTINUOUS
 62
     5
 10
448.20000000006888
 20
-402.15000000005779
 30
0.0
 40
1.0000000000001441
 50
180.0
 51
270.0
  0
ARC
  8
DETAIL
  6
CONTINUOUS
 62
     5
 10
447.93306493806358
 20
-402.40000000005779
 30
0.0
 40
0.8000000000001152
 50
185.00000000002589
 51
270.0
  0
ARC
  8
DETAIL
  6
CONTINUOUS
 62
     5
 10
448.20000000006888
 20
-402.15000000005779
 30
0.0
 40
0.5000000000000722
 50
180.0
 51
270.0
  0
ARC
  8
DETAIL
  6
CONTINUOUS
 62
     5
 10
531.90000000006876
 20
-336.95000000004569
 30
0.0
 40
1.10000000000016
 50
270.0
 51
0.0
  0
ARC
  8
DETAIL
  6
CONTINUOUS
 62
     5
 10
400.50000000005002
 20
-296.55000000004247
 30
0.0
 40
3.000000000000433
 50
0.0
 51
90.0
  0
ARC
  8
DETAIL
  6
CONTINUOUS
 62
     5
 10
407.70000000006172
 20
-259.70000000003847
 30
0.0
 40
3.000000000000433
 50
180.0
 51
270.0
  0
ARC
  8
DETAIL
  6
CONTINUOUS
 62
     5
 10
395.5000000000573
 20
-279.7000000000412
 30
0.0
 40
1.0000000000001441
 50
270.0
 51
0.0
  0
ARC
  8
DETAIL
  6
CONTINUOUS
 62
     5
 10
395.5000000000573
 20
-296.70000000004387
 30
0.0
 40
1.0000000000001441
 50
0.0
 51
90.0
  0
CIRCLE
  8
DETAIL
  6
CONTINUOUS
 62
     5
 10
210.50000000002089
 20
-119.0500000000202
 30
0.0
 40
4.700000000000677
  0
CIRCLE
  8
DETAIL
  6
CONTINUOUS
 62
     5
 10
217.00000000002819
 20
-175.70000000002659
 30
0.0
 40
4.700000000000677
  0
ARC
  8
DETAIL
  6
CONTINUOUS
 62
     5
 10
213.70000000003259
 20
-186.7000000000285
 30
0.0
 40
3.000000000000433
 50
180.0
 51
270.0
  0
ARC
  8
DETAIL
  6
CONTINUOUS
 62
     5
 10
213.70000000003259
 20
-164.7000000000248
 30
0.0
 40
3.000000000000433
 50
90.0
 51
180.0
  0
ARC
  8
DETAIL
  6
CONTINUOUS
 62
     5
 10
218.70000000003259
 20
-158.70000000002389
 30
0.0
 40
3.000000000000433
 50
270.0
 51
0.0
  0
ARC
  8
DETAIL
  6
CONTINUOUS
 62
     5
 10
218.70000000003259
 20
-192.70000000002941
 30
0.0
 40
3.000000000000433
 50
0.0
 51
90.0
  0
CIRCLE
  8
DETAIL
  6
CONTINUOUS
 62
     5
 10
210.50000000002089
 20
-94.050000000016553
 30
0.0
 40
4.700000000000677
  0
ARC
  8
DETAIL
  6
CONTINUOUS
 62
     5
 10
224.70000000003259
 20
-91.10000000001628
 30
0.0
 40
3.000000000000433
 50
90.0
 51
180.0
  0
ARC
  8
DETAIL
  6
CONTINUOUS
 62
     5
 10
235.70000000003259
 20
-91.10000000001628
 30
0.0
 40
3.000000000000433
 50
0.0
 51
90.0
  0
ARC
  8
DETAIL
  6
CONTINUOUS
 62
     5
 10
227.30000000003841
 20
-88.10000000001537
 30
0.0
 40
1.200000000000174
 50
90.0
 51
180.0
  0
ARC
  8
DETAIL
  6
CONTINUOUS
 62
     5
 10
227.30000000003841
 20
-88.10000000001537
 30
0.0
 40
0.6000000000000859
 50
90.0
 51
180.0
  0
ARC
  8
DETAIL
  6
CONTINUOUS
 62
     5
 10
400.50000000005002
 20
-145.85000000002449
 30
0.0
 40
3.000000000000433
 50
270.0
 51
0.0
  0
ARC
  8
DETAIL
  6
CONTINUOUS
 62
     5
 10
407.70000000006172
 20
-140.70000000002119
 30
0.0
 40
3.000000000000433
 50
90.0
 51
180.0
  0
ARC
  8
DETAIL
  6
CONTINUOUS
 62
     5
 10
395.5000000000573
 20
-138.7000000000221
 30
0.0
 40
1.0000000000001441
 50
270.0
 51
0.0
  0
ARC
  8
DETAIL
  6
CONTINUOUS
 62
     5
 10
395.5000000000573
 20
-155.70000000002389
 30
0.0
 40
1.0000000000001441
 50
0.0
 51
90.0
  0
ARC
  8
DETAIL
  6
CONTINUOUS
 62
     5
 10
419.10000000005579
 20
-109.9000000000219
 30
0.0
 40
10.000000000001441
 50
270.0
 51
180.0
  0
ARC
  8
DETAIL
  6
CONTINUOUS
 62
     5
 10
419.10000000005579
 20
-109.9000000000219
 30
0.0
 40
8.8000000000012726
 50
270.0
 51
180.0
  0
ARC
  8
DETAIL
  6
CONTINUOUS
 62
     5
 10
410.5000000000573
 20
-109.7000000000176
 30
0.0
 40
5.500000000000794
 50
131.97416068472029
 51
255.24000878680371
  0
ARC
  8
DETAIL
  6
CONTINUOUS
 62
     5
 10
410.5000000000573
 20
-109.7000000000176
 30
0.0
 40
5.500000000000794
 50
267.91752440258438
 51
48.025839315279661
  0
ARC
  8
DETAIL
  6
CONTINUOUS
 62
     5
 10
410.5000000000573
 20
-102.7000000000166
 30
0.0
 40
4.700000000000677
 50
22.833675615687341
 51
257.24802663449702
  0
ARC
  8
DETAIL
  6
CONTINUOUS
 62
     5
 10
410.5000000000573
 20
-102.7000000000166
 30
0.0
 40
4.700000000000677
 50
272.24859668198121
 51
7.8924166607133994
  0
CIRCLE
  8
DETAIL
  6
CONTINUOUS
 62
     5
 10
389.70000000005439
 20
-112.7000000000176
 30
0.0
 40
4.700000000000677
  0
ARC
  8
DETAIL
  6
CONTINUOUS
 62
     5
 10
400.50000000005002
 20
-125.8500000000208
 30
0.0
 40
3.000000000000433
 50
0.0
 51
90.0
  0
ARC
  8
DETAIL
  6
CONTINUOUS
 62
     5
 10
400.50000000005002
 20
-98.85000000001628
 30
0.0
 40
3.000000000000433
 50
0.0
 51
90.0
  0
ARC
  8
DETAIL
  6
CONTINUOUS
 62
     5
 10
400.50000000005002
 20
-118.8500000000199
 30
0.0
 40
3.000000000000433
 50
270.0
 51
0.0
  0
ARC
  8
DETAIL
  6
CONTINUOUS
 62
     5
 10
531.90000000006876
 20
-147.1500000000228
 30
0.0
 40
1.10000000000016
 50
0.0
 51
90.0
  0
ARC
  8
DETAIL
  6
CONTINUOUS
 62
     5
 10
461.00000000006179
 20
-115.0000000000164
 30
0.0
 40
5.0000000000007221
 50
270.0
 51
0.0
  0
ARC
  8
DETAIL
  6
CONTINUOUS
 62
     5
 10
427.50000000006179
 20
-88.000000000012733
 30
0.0
 40
5.0000000000007221
 50
180.0
 51
270.0
  0
ARC
  8
DETAIL
  6
CONTINUOUS
 62
     5
 10
450.9000000000633
 20
-96.000000000013642
 30
0.0
 40
3.000000000000433
 50
270.00000000007822
 51
90.0
  0
ARC
  8
DETAIL
  6
CONTINUOUS
 62
     5
 10
434.50000000006179
 20
-85.000000000011823
 30
0.0
 40
3.000000000000433
 50
90.0
 51
270.0
  0
ARC
  8
DETAIL
  6
CONTINUOUS
 62
     5
 10
425.50000000006179
 20
-66.200000000013915
 30
0.0
 40
3.000000000000433
 50
90.0
 51
180.0
  0
ARC
  8
DETAIL
  6
CONTINUOUS
 62
     5
 10
438.00000000006179
 20
-66.200000000013915
 30
0.0
 40
3.000000000000433
 50
0.0
 51
90.0
  0
ARC
  8
DETAIL
  6
CONTINUOUS
 62
     5
 10
436.50000000006179
 20
-85.000000000011823
 30
0.0
 40
3.000000000000433
 50
270.0
 51
90.0
  0
ARC
  8
DETAIL
  6
CONTINUOUS
 62
     5
 10
457.00000000006179
 20
-77.000000000011369
 30
0.0
 40
3.000000000000433
 50
180.0
 51
270.0
  0
ARC
  8
DETAIL
  6
CONTINUOUS
 62
     5
 10
463.00000000006179
 20
-77.000000000011369
 30
0.0
 40
3.000000000000433
 50
270.0
 51
0.0
  0
CIRCLE
  8
DETAIL
  6
CONTINUOUS
 62
     5
 10
435.50000000006179
 20
-85.000000000011823
 30
0.0
 40
2.500000000000361
  0
ARC
  8
DETAIL
  6
CONTINUOUS
 62
     5
 10
447.93305666006108
 20
-1.599999999999
 30
0.0
 40
1.6000000000002319
 50
90.0
 51
174.99935540237001
  0
ARC
  8
DETAIL
  6
CONTINUOUS
 62
     5
 10
398.90000000005148
 20
-90.450000000014825
 30
0.0
 40
1.6000000000002319
 50
0.0
 51
90.0
  0
ARC
  8
DETAIL
  6
CONTINUOUS
 62
     5
 10
448.20000000006888
 20
-1.850000000005821
 30
0.0
 40
1.0000000000001441
 50
90.0
 51
180.0
  0
ARC
  8
DETAIL
  6
CONTINUOUS
 62
     5
 10
447.93305666006108
 20
-1.599999999999
 30
0.0
 40
0.8000000000001152
 50
90.0
 51
174.99935540237001
  0
ARC
  8
DETAIL
  6
CONTINUOUS
 62
     5
 10
448.20000000006888
 20
-1.850000000005821
 30
0.0
 40
0.5000000000000722
 50
90.0
 51
180.0
  0
LINE
  8
DETAIL
  6
CONTINUOUS
 62
     5
 10
197.42014353003381
 20
-266.55000000004111
 30
0.0
 11
196.98198580039565
 21
-266.61895260294415
 31
0.0
  0
LINE
  8
DETAIL
  6
CONTINUOUS
 62
     5
 10
196.98198580039565
 20
-266.61895260294415
 30
0.0
 11
196.57622357500159
 21
-266.80659530563736
 31
0.0
  0
LINE
  8
DETAIL
  6
CONTINUOUS
 62
     5
 10
196.57622357500159
 20
-266.80659530563736
 30
0.0
 11
196.23104529572856
 21
-267.084874167046
 31
0.0
  0
LINE
  8
DETAIL
  6
CONTINUOUS
 62
     5
 10
196.23104529572856
 20
-267.084874167046
 30
0.0
 11
195.94710533518048
 21
-267.42788031858328
 31
0.0
  0
LINE
  8
DETAIL
  6
CONTINUOUS
 62
     5
 10
195.94710533518048
 20
-267.42788031858328
 30
0.0
 11
195.7205662932106
 21
-267.8127021371111
 31
0.0
  0
LINE
  8
DETAIL
  6
CONTINUOUS
 62
     5
 10
195.7205662932106
 20
-267.8127021371111
 30
0.0
 11
195.5486787374341
 21
-268.22700191247299
 31
0.0
  0
LINE
  8
DETAIL
  6
CONTINUOUS
 62
     5
 10
195.5486787374341
 20
-268.22700191247299
 30
0.0
 11
195.42896701092604
 21
-268.66110274670586
 31
0.0
  0
LINE
  8
DETAIL
  6
CONTINUOUS
 62
     5
 10
195.42896701092604
 20
-268.66110274670586
 30
0.0
 11
195.35895545676419
 21
-269.10532774187396
 31
0.0
  0
LINE
  8
DETAIL
  6
CONTINUOUS
 62
     5
 10
195.35895545676419
 20
-269.10532774187396
 30
0.0
 11
195.33616841802629
 21
-269.55000000004162
 31
0.0
  0
LINE
  8
DETAIL
  6
CONTINUOUS
 62
     5
 10
195.33616841802629
 20
-313.55000000004787
 30
0.0
 11
195.35895545676419
 21
-313.99467225738852
 31
0.0
  0
LINE
  8
DETAIL
  6
CONTINUOUS
 62
     5
 10
195.35895545676419
 20
-313.99467225738852
 30
0.0
 11
195.42896701092607
 21
-314.4388972523364
 31
0.0
  0
LINE
  8
DETAIL
  6
CONTINUOUS
 62
     5
 10
195.42896701092607
 20
-314.4388972523364
 30
0.0
 11
195.5486787374341
 21
-314.87299808674487
 31
0.0
  0
LINE
  8
DETAIL
  6
CONTINUOUS
 62
     5
 10
195.5486787374341
 20
-314.87299808674487
 30
0.0
 11
195.7205662932106
 21
-315.28729786246708
 31
0.0
  0
LINE
  8
DETAIL
  6
CONTINUOUS
 62
     5
 10
195.7205662932106
 20
-315.28729786246708
 30
0.0
 11
195.94710533518045
 21
-315.67211968132904
 31
0.0
  0
LINE
  8
DETAIL
  6
CONTINUOUS
 62
     5
 10
195.94710533518045
 20
-315.67211968132904
 30
0.0
 11
196.23104529572862
 21
-316.01512583301746
 31
0.0
  0
LINE
  8
DETAIL
  6
CONTINUOUS
 62
     5
 10
196.23104529572862
 20
-316.01512583301746
 30
0.0
 11
196.57622357500162
 21
-316.29340469445219
 31
0.0
  0
LINE
  8
DETAIL
  6
CONTINUOUS
 62
     5
 10
196.57622357500162
 20
-316.29340469445219
 30
0.0
 11
196.98198580039565
 21
-316.4810473971454
 31
0.0
  0
LINE
  8
DETAIL
  6
CONTINUOUS
 62
     5
 10
196.98198580039565
 20
-316.4810473971454
 30
0.0
 11
197.42014353003381
 21
-316.55000000004839
 31
0.0
  0
LINE
  8
DETAIL
  6
CONTINUOUS
 62
     5
 10
197.42014353003381
 20
-76.550000000013824
 30
0.0
 11
196.98198580039565
 21
-76.618952602916863
 31
0.0
  0
LINE
  8
DETAIL
  6
CONTINUOUS
 62
     5
 10
196.98198580039565
 20
-76.618952602916863
 30
0.0
 11
196.57622357500159
 21
-76.806595305610102
 31
0.0
  0
LINE
  8
DETAIL
  6
CONTINUOUS
 62
     5
 10
196.57622357500159
 20
-76.806595305610102
 30
0.0
 11
196.23104529572856
 21
-77.084874167018782
 31
0.0
  0
LINE
  8
DETAIL
  6
CONTINUOUS
 62
     5
 10
196.23104529572856
 20
-77.084874167018782
 30
0.0
 11
195.94710533518048
 21
-77.427880318556021
 31
0.0
  0
LINE
  8
DETAIL
  6
CONTINUOUS
 62
     5
 10
195.94710533518048
 20
-77.427880318556021
 30
0.0
 11
195.7205662932106
 21
-77.812702137083846
 31
0.0
  0
LINE
  8
DETAIL
  6
CONTINUOUS
 62
     5
 10
195.7205662932106
 20
-77.812702137083846
 30
0.0
 11
195.5486787374341
 21
-78.227001912445687
 31
0.0
  0
LINE
  8
DETAIL
  6
CONTINUOUS
 62
     5
 10
195.5486787374341
 20
-78.227001912445687
 30
0.0
 11
195.42896701092604
 21
-78.661102746678523
 31
0.0
  0
LINE
  8
DETAIL
  6
CONTINUOUS
 62
     5
 10
195.42896701092604
 20
-78.661102746678523
 30
0.0
 11
195.35895545676419
 21
-79.105327741846637
 31
0.0
  0
LINE
  8
DETAIL
  6
CONTINUOUS
 62
     5
 10
195.35895545676419
 20
-79.105327741846637
 30
0.0
 11
195.33616841802629
 21
-79.550000000014279
 31
0.0
  0
LINE
  8
DETAIL
  6
CONTINUOUS
 62
     5
 10
195.33616841802629
 20
-123.5500000000206
 30
0.0
 11
195.35895545676419
 21
-123.99467225736119
 31
0.0
  0
LINE
  8
DETAIL
  6
CONTINUOUS
 62
     5
 10
195.35895545676419
 20
-123.99467225736119
 30
0.0
 11
195.42896701092607
 21
-124.43889725230899
 31
0.0
  0
LINE
  8
DETAIL
  6
CONTINUOUS
 62
     5
 10
195.42896701092607
 20
-124.43889725230899
 30
0.0
 11
195.5486787374341
 21
-124.87299808671736
 31
0.0
  0
LINE
  8
DETAIL
  6
CONTINUOUS
 62
     5
 10
195.5486787374341
 20
-124.87299808671736
 30
0.0
 11
195.7205662932106
 21
-125.28729786243959
 31
0.0
  0
LINE
  8
DETAIL
  6
CONTINUOUS
 62
     5
 10
195.7205662932106
 20
-125.28729786243959
 30
0.0
 11
195.94710533518045
 21
-125.67211968130165
 31
0.0
  0
LINE
  8
DETAIL
  6
CONTINUOUS
 62
     5
 10
195.94710533518045
 20
-125.67211968130165
 30
0.0
 11
196.23104529572862
 21
-126.01512583299018
 31
0.0
  0
LINE
  8
DETAIL
  6
CONTINUOUS
 62
     5
 10
196.23104529572862
 20
-126.01512583299018
 30
0.0
 11
196.57622357500162
 21
-126.29340469442506
 31
0.0
  0
LINE
  8
DETAIL
  6
CONTINUOUS
 62
     5
 10
196.57622357500162
 20
-126.29340469442506
 30
0.0
 11
196.98198580039565
 21
-126.48104739711818
 31
0.0
  0
LINE
  8
DETAIL
  6
CONTINUOUS
 62
     5
 10
196.98198580039565
 20
-126.48104739711818
 30
0.0
 11
197.42014353003381
 21
-126.5500000000211
 31
0.0
  0
LINE
  8
DETAIL
  6
CONTINUOUS
 62
     5
 10
-163.01238237002599
 20
-111.85000000002169
 30
0.0
 11
-163.08173517099175
 21
-112.68333487118943
 31
0.0
  0
LINE
  8
DETAIL
  6
CONTINUOUS
 62
     5
 10
-163.08173517099175
 20
-112.68333487118943
 30
0.0
 11
-163.28477200797661
 21
-113.50739962118671
 31
0.0
  0
LINE
  8
DETAIL
  6
CONTINUOUS
 62
     5
 10
-163.28477200797661
 20
-113.50739962118671
 30
0.0
 11
-163.61396056774907
 21
-114.2938145720546
 31
0.0
  0
LINE
  8
DETAIL
  6
CONTINUOUS
 62
     5
 10
-163.61396056774907
 20
-114.2938145720546
 30
0.0
 11
-164.06176853707757
 21
-115.01420004583406
 31
0.0
  0
LINE
  8
DETAIL
  6
CONTINUOUS
 62
     5
 10
-164.06176853707757
 20
-115.01420004583406
 30
0.0
 11
-164.62052006164859
 21
-115.64040320741694
 31
0.0
  0
LINE
  8
DETAIL
  6
CONTINUOUS
 62
     5
 10
-164.62052006164859
 20
-115.64040320741694
 30
0.0
 11
-165.27839780289906
 21
-116.15081615002848
 31
0.0
  0
LINE
  8
DETAIL
  6
CONTINUOUS
 62
     5
 10
-165.27839780289906
 20
-116.15081615002848
 30
0.0
 11
-166.01888527398896
 21
-116.53121417680957
 31
0.0
  0
LINE
  8
DETAIL
  6
CONTINUOUS
 62
     5
 10
-166.01888527398896
 20
-116.53121417680957
 30
0.0
 11
-166.81976320020533
 21
-116.76831090105652
 31
0.0
  0
LINE
  8
DETAIL
  6
CONTINUOUS
 62
     5
 10
-166.81976320020533
 20
-116.76831090105652
 30
0.0
 11
-167.64697540602259
 21
-116.8500000000226
 31
0.0
  0
LINE
  8
DETAIL
  6
CONTINUOUS
 62
     5
 10
-165.21238237002311
 20
-111.85000000002169
 30
0.0
 11
-165.252261402117
 21
-112.35433526500347
 31
0.0
  0
LINE
  8
DETAIL
  6
CONTINUOUS
 62
     5
 10
-165.252261402117
 20
-112.35433526500347
 30
0.0
 11
-165.37280995928103
 21
-112.85216604649048
 31
0.0
  0
LINE
  8
DETAIL
  6
CONTINUOUS
 62
     5
 10
-165.37280995928103
 20
-112.85216604649048
 30
0.0
 11
-165.57539526655475
 21
-113.32460942175133
 31
0.0
  0
LINE
  8
DETAIL
  6
CONTINUOUS
 62
     5
 10
-165.57539526655475
 20
-113.32460942175133
 30
0.0
 11
-165.86138454897772
 21
-113.75278246805469
 31
0.0
  0
LINE
  8
DETAIL
  6
CONTINUOUS
 62
     5
 10
-165.86138454897772
 20
-113.75278246805469
 30
0.0
 11
-166.2305133836727
 21
-114.11783854994471
 31
0.0
  0
LINE
  8
DETAIL
  6
CONTINUOUS
 62
     5
 10
-166.2305133836727
 20
-114.11783854994471
 30
0.0
 11
-166.66717782836295
 21
-114.40127217747954
 31
0.0
  0
LINE
  8
DETAIL
  6
CONTINUOUS
 62
     5
 10
-166.66717782836295
 20
-114.40127217747954
 30
0.0
 11
-167.14736584453567
 21
-114.58476485381911
 31
0.0
  0
LINE
  8
DETAIL
  6
CONTINUOUS
 62
     5
 10
-167.14736584453567
 20
-114.58476485381911
 30
0.0
 11
-167.6469791560294
 21
-114.6500000000183
 31
0.0
  0
LINE
  8
DETAIL
  6
CONTINUOUS
 62
     5
 10
-167.64697540802351
 20
-67.25000000000955
 30
0.0
 11
-166.81976337530429
 21
-67.331689076204611
 31
0.0
  0
LINE
  8
DETAIL
  6
CONTINUOUS
 62
     5
 10
-166.81976337530429
 20
-67.331689076204611
 30
0.0
 11
-166.01888563632485
 21
-67.568785733672897
 31
0.0
  0
LINE
  8
DETAIL
  6
CONTINUOUS
 62
     5
 10
-166.01888563632485
 20
-67.568785733672897
 30
0.0
 11
-165.27839826461462
 21
-67.949183646736742
 31
0.0
  0
LINE
  8
DETAIL
  6
CONTINUOUS
 62
     5
 10
-165.27839826461462
 20
-67.949183646736742
 30
0.0
 11
-164.62052049010325
 21
-68.459596415563425
 31
0.0
  0
LINE
  8
DETAIL
  6
CONTINUOUS
 62
     5
 10
-164.62052049010325
 20
-68.459596415563425
 30
0.0
 11
-164.06176889995285
 21
-69.085799344739215
 31
0.0
  0
LINE
  8
DETAIL
  6
CONTINUOUS
 62
     5
 10
-164.06176889995285
 20
-69.085799344739215
 30
0.0
 11
-163.61396088483733
 21
-69.806184569215219
 31
0.0
  0
LINE
  8
DETAIL
  6
CONTINUOUS
 62
     5
 10
-163.61396088483733
 20
-69.806184569215219
 30
0.0
 11
-163.28477227126513
 21
-70.592599277221794
 31
0.0
  0
LINE
  8
DETAIL
  6
CONTINUOUS
 62
     5
 10
-163.28477227126513
 20
-70.592599277221794
 30
0.0
 11
-163.08173533955511
 21
-71.416663809806437
 31
0.0
  0
LINE
  8
DETAIL
  6
CONTINUOUS
 62
     5
 10
-163.08173533955511
 20
-71.416663809806437
 30
0.0
 11
-163.01238237002599
 21
-72.249998508016688
 31
0.0
  0
LINE
  8
DETAIL
  6
CONTINUOUS
 62
     5
 10
-167.6469791560294
 20
-69.450000000007094
 30
0.0
 11
-167.14736592485582
 21
-69.515235105059588
 31
0.0
  0
LINE
  8
DETAIL
  6
CONTINUOUS
 62
     5
 10
-167.14736592485582
 20
-69.515235105059588
 30
0.0
 11
-166.6671779659263
 21
-69.698727679106611
 31
0.0
  0
LINE
  8
DETAIL
  6
CONTINUOUS
 62
     5
 10
-166.6671779659263
 20
-69.698727679106611
 30
0.0
 11
-166.23051355546426
 21
-69.98216117010891
 31
0.0
  0
LINE
  8
DETAIL
  6
CONTINUOUS
 62
     5
 10
-166.23051355546426
 20
-69.98216117010891
 30
0.0
 11
-165.86138473261886
 21
-70.347217108053442
 31
0.0
  0
LINE
  8
DETAIL
  6
CONTINUOUS
 62
     5
 10
-165.86138473261886
 20
-70.347217108053442
 30
0.0
 11
-165.57539544738299
 21
-70.775390021057675
 31
0.0
  0
LINE
  8
DETAIL
  6
CONTINUOUS
 62
     5
 10
-165.57539544738299
 20
-70.775390021057675
 30
0.0
 11
-165.37281011623136
 21
-71.247833275128059
 31
0.0
  0
LINE
  8
DETAIL
  6
CONTINUOUS
 62
     5
 10
-165.37281011623136
 20
-71.247833275128059
 30
0.0
 11
-165.25226150262458
 21
-71.745663947150121
 31
0.0
  0
LINE
  8
DETAIL
  6
CONTINUOUS
 62
     5
 10
-165.25226150262458
 20
-71.745663947150121
 30
0.0
 11
-165.21238237002311
 21
-72.24999911400937
 31
0.0
  0
LINE
  8
DETAIL
  6
CONTINUOUS
 62
     5
 10
-204.59988438203351
 20
-72.149885208007163
 30
0.0
 11
-204.597707441121
 21
-71.811968949539221
 31
0.0
  0
LINE
  8
DETAIL
  6
CONTINUOUS
 62
     5
 10
-204.597707441121
 20
-71.811968949539221
 30
0.0
 11
-204.59295340657354
 21
-71.474054665531426
 31
0.0
  0
LINE
  8
DETAIL
  6
CONTINUOUS
 62
     5
 10
-204.59295340657354
 20
-71.474054665531426
 30
0.0
 11
-204.58586981928673
 21
-71.136089942551877
 31
0.0
  0
LINE
  8
DETAIL
  6
CONTINUOUS
 62
     5
 10
-204.58586981928673
 20
-71.136089942551877
 30
0.0
 11
-204.5759965888856
 21
-70.798138117084193
 31
0.0
  0
LINE
  8
DETAIL
  6
CONTINUOUS
 62
     5
 10
-204.5759965888856
 20
-70.798138117084193
 30
0.0
 11
-204.56249527366563
 21
-70.460324413965836
 31
0.0
  0
LINE
  8
DETAIL
  6
CONTINUOUS
 62
     5
 10
-204.56249527366563
 20
-70.460324413965836
 30
0.0
 11
-204.54452386232083
 21
-70.122774641927393
 31
0.0
  0
LINE
  8
DETAIL
  6
CONTINUOUS
 62
     5
 10
-204.54452386232083
 20
-70.122774641927393
 30
0.0
 11
-204.52124034354529
 21
-69.785614609699479
 31
0.0
  0
LINE
  8
DETAIL
  6
CONTINUOUS
 62
     5
 10
-204.52124034354529
 20
-69.785614609699479
 30
0.0
 11
-204.49180270603301
 21
-69.448970126012682
 31
0.0
  0
LINE
  8
DETAIL
  6
CONTINUOUS
 62
     5
 10
-206.79989003603171
 20
-72.149895696008571
 30
0.0
 11
-206.79648732709032
 21
-71.687342919217173
 31
0.0
  0
LINE
  8
DETAIL
  6
CONTINUOUS
 62
     5
 10
-206.79648732709032
 20
-71.687342919217173
 30
0.0
 11
-206.78817747826193
 21
-71.22484629723499
 31
0.0
  0
LINE
  8
DETAIL
  6
CONTINUOUS
 62
     5
 10
-206.78817747826193
 20
-71.22484629723499
 30
0.0
 11
-206.77476076328503
 21
-70.762422493242923
 31
0.0
  0
LINE
  8
DETAIL
  6
CONTINUOUS
 62
     5
 10
-206.77476076328503
 20
-70.762422493242923
 30
0.0
 11
-206.75602385185871
 21
-70.300090241928942
 31
0.0
  0
LINE
  8
DETAIL
  6
CONTINUOUS
 62
     5
 10
-206.75602385185871
 20
-70.300090241928942
 30
0.0
 11
-206.73061517429051
 21
-69.838041599360594
 31
0.0
  0
LINE
  8
DETAIL
  6
CONTINUOUS
 62
     5
 10
-206.73061517429051
 20
-69.838041599360594
 30
0.0
 11
-206.69520357896587
 21
-69.376770055444823
 31
0.0
  0
LINE
  8
DETAIL
  6
CONTINUOUS
 62
     5
 10
-206.69520357896587
 20
-69.376770055444823
 30
0.0
 11
-206.64620604995955
 21
-68.916809828272463
 31
0.0
  0
LINE
  8
DETAIL
  6
CONTINUOUS
 62
     5
 10
-206.64620604995955
 20
-68.916809828272463
 30
0.0
 11
-206.57491819461833
 21
-68.459707634012261
 31
0.0
  0
LINE
  8
DETAIL
  6
CONTINUOUS
 62
     5
 10
-206.57491819461833
 20
-68.459707634012261
 30
0.0
 11
-206.44691101642769
 21
-68.014986475798764
 31
0.0
  0
LINE
  8
DETAIL
  6
CONTINUOUS
 62
     5
 10
-206.44691101642769
 20
-68.014986475798764
 30
0.0
 11
-206.20019548741018
 21
-67.621165376003702
 31
0.0
  0
LINE
  8
DETAIL
  6
CONTINUOUS
 62
     5
 10
-206.20019548741018
 20
-67.621165376003702
 30
0.0
 11
-205.817488841553
 21
-67.349211213978208
 31
0.0
  0
LINE
  8
DETAIL
  6
CONTINUOUS
 62
     5
 10
-205.817488841553
 20
-67.349211213978208
 30
0.0
 11
-205.36011262603191
 21
-67.25000000000955
 31
0.0
  0
LINE
  8
DETAIL
  6
CONTINUOUS
 62
     5
 10
-204.49188871203569
 20
-114.65012354601819
 30
0.0
 11
-204.52067330243946
 21
-114.31351656750729
 31
0.0
  0
LINE
  8
DETAIL
  6
CONTINUOUS
 62
     5
 10
-204.52067330243946
 20
-114.31351656750729
 30
0.0
 11
-204.54326618715842
 21
-113.97640849926533
 31
0.0
  0
LINE
  8
DETAIL
  6
CONTINUOUS
 62
     5
 10
-204.54326618715842
 20
-113.97640849926533
 30
0.0
 11
-204.56142426784527
 21
-113.63902602440854
 31
0.0
  0
LINE
  8
DETAIL
  6
CONTINUOUS
 62
     5
 10
-204.56142426784527
 20
-113.63902602440854
 30
0.0
 11
-204.57561097862293
 21
-113.30143695868995
 31
0.0
  0
LINE
  8
DETAIL
  6
CONTINUOUS
 62
     5
 10
-204.57561097862293
 20
-113.30143695868995
 30
0.0
 11
-204.58618832776125
 21
-112.96369666045067
 31
0.0
  0
LINE
  8
DETAIL
  6
CONTINUOUS
 62
     5
 10
-204.58618832776125
 20
-112.96369666045067
 30
0.0
 11
-204.59351832352962
 21
-112.62586048803175
 31
0.0
  0
LINE
  8
DETAIL
  6
CONTINUOUS
 62
     5
 10
-204.59351832352962
 20
-112.62586048803175
 30
0.0
 11
-204.59796297419783
 21
-112.28798379977425
 31
0.0
  0
LINE
  8
DETAIL
  6
CONTINUOUS
 62
     5
 10
-204.59796297419783
 20
-112.28798379977425
 30
0.0
 11
-204.59988428803541
 21
-111.95012195401929
 31
0.0
  0
LINE
  8
DETAIL
  6
CONTINUOUS
 62
     5
 10
-205.36011262803279
 20
-116.8500000000226
 30
0.0
 11
-205.81742812353252
 21
-116.75067711286084
 31
0.0
  0
LINE
  8
DETAIL
  6
CONTINUOUS
 62
     5
 10
-205.81742812353252
 20
-116.75067711286084
 30
0.0
 11
-206.20015085848118
 21
-116.47864931163521
 31
0.0
  0
LINE
  8
DETAIL
  6
CONTINUOUS
 62
     5
 10
-206.20015085848118
 20
-116.47864931163521
 30
0.0
 11
-206.44697504172893
 21
-116.0849228213944
 31
0.0
  0
LINE
  8
DETAIL
  6
CONTINUOUS
 62
     5
 10
-206.44697504172893
 20
-116.0849228213944
 30
0.0
 11
-206.57494953775162
 21
-115.6402108493056
 31
0.0
  0
LINE
  8
DETAIL
  6
CONTINUOUS
 62
     5
 10
-206.57494953775162
 20
-115.6402108493056
 30
0.0
 11
-206.64621147724367
 21
-115.18311085333931
 31
0.0
  0
LINE
  8
DETAIL
  6
CONTINUOUS
 62
     5
 10
-206.64621147724367
 20
-115.18311085333931
 30
0.0
 11
-206.69521535186752
 21
-114.72316678368851
 31
0.0
  0
LINE
  8
DETAIL
  6
CONTINUOUS
 62
     5
 10
-206.69521535186752
 20
-114.72316678368851
 30
0.0
 11
-206.73062490456832
 21
-114.26190561045038
 31
0.0
  0
LINE
  8
DETAIL
  6
CONTINUOUS
 62
     5
 10
-206.73062490456832
 20
-114.26190561045038
 30
0.0
 11
-206.75602783407618
 21
-113.79986484959947
 31
0.0
  0
LINE
  8
DETAIL
  6
CONTINUOUS
 62
     5
 10
-206.75602783407618
 20
-113.79986484959947
 30
0.0
 11
-206.7747603317936
 21
-113.3375412970377
 31
0.0
  0
LINE
  8
DETAIL
  6
CONTINUOUS
 62
     5
 10
-206.7747603317936
 20
-113.3375412970377
 30
0.0
 11
-206.78817623312941
 21
-112.87512787720402
 31
0.0
  0
LINE
  8
DETAIL
  6
CONTINUOUS
 62
     5
 10
-206.78817623312941
 20
-112.87512787720402
 30
0.0
 11
-206.79648693664791
 21
-112.41264239263367
 31
0.0
  0
LINE
  8
DETAIL
  6
CONTINUOUS
 62
     5
 10
-206.79648693664791
 20
-112.41264239263367
 30
0.0
 11
-206.79989009003381
 21
-111.9501005380166
 31
0.0
  0
LINE
  8
DETAIL
  6
CONTINUOUS
 62
     5
 10
-163.01238237002599
 20
-331.85000000005363
 30
0.0
 11
-163.08173517099175
 21
-332.68333487122106
 31
0.0
  0
LINE
  8
DETAIL
  6
CONTINUOUS
 62
     5
 10
-163.08173517099175
 20
-332.68333487122106
 30
0.0
 11
-163.28477200797661
 21
-333.50739962121821
 31
0.0
  0
LINE
  8
DETAIL
  6
CONTINUOUS
 62
     5
 10
-163.28477200797661
 20
-333.50739962121821
 30
0.0
 11
-163.61396056774907
 21
-334.29381457208621
 31
0.0
  0
LINE
  8
DETAIL
  6
CONTINUOUS
 62
     5
 10
-163.61396056774907
 20
-334.29381457208621
 30
0.0
 11
-164.06176853707757
 21
-335.01420004586572
 31
0.0
  0
LINE
  8
DETAIL
  6
CONTINUOUS
 62
     5
 10
-164.06176853707757
 20
-335.01420004586572
 30
0.0
 11
-164.62052006164859
 21
-335.64040320744868
 31
0.0
  0
LINE
  8
DETAIL
  6
CONTINUOUS
 62
     5
 10
-164.62052006164859
 20
-335.64040320744868
 30
0.0
 11
-165.27839780289906
 21
-336.15081615006028
 31
0.0
  0
LINE
  8
DETAIL
  6
CONTINUOUS
 62
     5
 10
-165.27839780289906
 20
-336.15081615006028
 30
0.0
 11
-166.01888527398896
 21
-336.53121417684122
 31
0.0
  0
LINE
  8
DETAIL
  6
CONTINUOUS
 62
     5
 10
-166.01888527398896
 20
-336.53121417684122
 30
0.0
 11
-166.81976320020533
 21
-336.76831090108806
 31
0.0
  0
LINE
  8
DETAIL
  6
CONTINUOUS
 62
     5
 10
-166.81976320020533
 20
-336.76831090108806
 30
0.0
 11
-167.64697540602259
 21
-336.85000000005402
 31
0.0
  0
LINE
  8
DETAIL
  6
CONTINUOUS
 62
     5
 10
-165.21238237002311
 20
-331.85000000005363
 30
0.0
 11
-165.252261402117
 21
-332.35433526503527
 31
0.0
  0
LINE
  8
DETAIL
  6
CONTINUOUS
 62
     5
 10
-165.252261402117
 20
-332.35433526503527
 30
0.0
 11
-165.37280995928103
 21
-332.85216604652214
 31
0.0
  0
LINE
  8
DETAIL
  6
CONTINUOUS
 62
     5
 10
-165.37280995928103
 20
-332.85216604652214
 30
0.0
 11
-165.57539526655475
 21
-333.32460942178318
 31
0.0
  0
LINE
  8
DETAIL
  6
CONTINUOUS
 62
     5
 10
-165.57539526655475
 20
-333.32460942178318
 30
0.0
 11
-165.86138454897772
 21
-333.75278246808665
 31
0.0
  0
LINE
  8
DETAIL
  6
CONTINUOUS
 62
     5
 10
-165.86138454897772
 20
-333.75278246808665
 30
0.0
 11
-166.2305133836727
 21
-334.11783854997668
 31
0.0
  0
LINE
  8
DETAIL
  6
CONTINUOUS
 62
     5
 10
-166.2305133836727
 20
-334.11783854997668
 30
0.0
 11
-166.66717782836295
 21
-334.40127217751143
 31
0.0
  0
LINE
  8
DETAIL
  6
CONTINUOUS
 62
     5
 10
-166.66717782836295
 20
-334.40127217751143
 30
0.0
 11
-167.14736584453567
 21
-334.58476485385074
 31
0.0
  0
LINE
  8
DETAIL
  6
CONTINUOUS
 62
     5
 10
-167.14736584453567
 20
-334.58476485385074
 30
0.0
 11
-167.6469791560294
 21
-334.65000000004972
 31
0.0
  0
LINE
  8
DETAIL
  6
CONTINUOUS
 62
     5
 10
-167.64697540802351
 20
-287.25000000004093
 30
0.0
 11
-166.81976337530429
 21
-287.33168907623644
 31
0.0
  0
LINE
  8
DETAIL
  6
CONTINUOUS
 62
     5
 10
-166.81976337530429
 20
-287.33168907623644
 30
0.0
 11
-166.01888563632485
 21
-287.56878573370477
 31
0.0
  0
LINE
  8
DETAIL
  6
CONTINUOUS
 62
     5
 10
-166.01888563632485
 20
-287.56878573370477
 30
0.0
 11
-165.27839826461462
 21
-287.94918364676857
 31
0.0
  0
LINE
  8
DETAIL
  6
CONTINUOUS
 62
     5
 10
-165.27839826461462
 20
-287.94918364676857
 30
0.0
 11
-164.62052049010325
 21
-288.45959641559534
 31
0.0
  0
LINE
  8
DETAIL
  6
CONTINUOUS
 62
     5
 10
-164.62052049010325
 20
-288.45959641559534
 30
0.0
 11
-164.06176889995285
 21
-289.0857993447712
 31
0.0
  0
LINE
  8
DETAIL
  6
CONTINUOUS
 62
     5
 10
-164.06176889995285
 20
-289.0857993447712
 30
0.0
 11
-163.61396088483733
 21
-289.80618456924725
 31
0.0
  0
LINE
  8
DETAIL
  6
CONTINUOUS
 62
     5
 10
-163.61396088483733
 20
-289.80618456924725
 30
0.0
 11
-163.28477227126513
 21
-290.59259927725395
 31
0.0
  0
LINE
  8
DETAIL
  6
CONTINUOUS
 62
     5
 10
-163.28477227126513
 20
-290.59259927725395
 30
0.0
 11
-163.08173533955511
 21
-291.41666380983872
 31
0.0
  0
LINE
  8
DETAIL
  6
CONTINUOUS
 62
     5
 10
-163.08173533955511
 20
-291.41666380983872
 30
0.0
 11
-163.01238237002599
 21
-292.24999850804898
 31
0.0
  0
LINE
  8
DETAIL
  6
CONTINUOUS
 62
     5
 10
-167.6469791560294
 20
-289.45000000003847
 30
0.0
 11
-167.14736592485582
 21
-289.51523510509094
 31
0.0
  0
LINE
  8
DETAIL
  6
CONTINUOUS
 62
     5
 10
-167.14736592485582
 20
-289.51523510509094
 30
0.0
 11
-166.6671779659263
 21
-289.69872767913813
 31
0.0
  0
LINE
  8
DETAIL
  6
CONTINUOUS
 62
     5
 10
-166.6671779659263
 20
-289.69872767913813
 30
0.0
 11
-166.23051355546426
 21
-289.9821611701405
 31
0.0
  0
LINE
  8
DETAIL
  6
CONTINUOUS
 62
     5
 10
-166.23051355546426
 20
-289.9821611701405
 30
0.0
 11
-165.86138473261886
 21
-290.34721710808526
 31
0.0
  0
LINE
  8
DETAIL
  6
CONTINUOUS
 62
     5
 10
-165.86138473261886
 20
-290.34721710808526
 30
0.0
 11
-165.57539544738299
 21
-290.77539002108972
 31
0.0
  0
LINE
  8
DETAIL
  6
CONTINUOUS
 62
     5
 10
-165.57539544738299
 20
-290.77539002108972
 30
0.0
 11
-165.37281011623136
 21
-291.24783327516013
 31
0.0
  0
LINE
  8
DETAIL
  6
CONTINUOUS
 62
     5
 10
-165.37281011623136
 20
-291.24783327516013
 30
0.0
 11
-165.25226150262458
 21
-291.74566394718238
 31
0.0
  0
LINE
  8
DETAIL
  6
CONTINUOUS
 62
     5
 10
-165.25226150262458
 20
-291.74566394718238
 30
0.0
 11
-165.21238237002311
 21
-292.24999911404171
 31
0.0
  0
LINE
  8
DETAIL
  6
CONTINUOUS
 62
     5
 10
-204.59988438203351
 20
-292.14988520803848
 30
0.0
 11
-204.597707441121
 21
-291.81196894957071
 31
0.0
  0
LINE
  8
DETAIL
  6
CONTINUOUS
 62
     5
 10
-204.597707441121
 20
-291.81196894957071
 30
0.0
 11
-204.59295340657354
 21
-291.47405466556302
 31
0.0
  0
LINE
  8
DETAIL
  6
CONTINUOUS
 62
     5
 10
-204.59295340657354
 20
-291.47405466556302
 30
0.0
 11
-204.58586981928673
 21
-291.13608994258357
 31
0.0
  0
LINE
  8
DETAIL
  6
CONTINUOUS
 62
     5
 10
-204.58586981928673
 20
-291.13608994258357
 30
0.0
 11
-204.5759965888856
 21
-290.79813811711597
 31
0.0
  0
LINE
  8
DETAIL
  6
CONTINUOUS
 62
     5
 10
-204.5759965888856
 20
-290.79813811711597
 30
0.0
 11
-204.56249527366563
 21
-290.46032441399768
 31
0.0
  0
LINE
  8
DETAIL
  6
CONTINUOUS
 62
     5
 10
-204.56249527366563
 20
-290.46032441399768
 30
0.0
 11
-204.54452386232083
 21
-290.12277464195915
 31
0.0
  0
LINE
  8
DETAIL
  6
CONTINUOUS
 62
     5
 10
-204.54452386232083
 20
-290.12277464195915
 30
0.0
 11
-204.52124034354529
 21
-289.78561460973128
 31
0.0
  0
LINE
  8
DETAIL
  6
CONTINUOUS
 62
     5
 10
-204.52124034354529
 20
-289.78561460973128
 30
0.0
 11
-204.49180270603301
 21
-289.44897012604451
 31
0.0
  0
LINE
  8
DETAIL
  6
CONTINUOUS
 62
     5
 10
-206.79989003603171
 20
-292.1498956960404
 30
0.0
 11
-206.79648732709032
 21
-291.68734291924875
 31
0.0
  0
LINE
  8
DETAIL
  6
CONTINUOUS
 62
     5
 10
-206.79648732709032
 20
-291.68734291924875
 30
0.0
 11
-206.78817747826193
 21
-291.22484629726648
 31
0.0
  0
LINE
  8
DETAIL
  6
CONTINUOUS
 62
     5
 10
-206.78817747826193
 20
-291.22484629726648
 30
0.0
 11
-206.77476076328503
 21
-290.76242249327441
 31
0.0
  0
LINE
  8
DETAIL
  6
CONTINUOUS
 62
     5
 10
-206.77476076328503
 20
-290.76242249327441
 30
0.0
 11
-206.75602385185871
 21
-290.30009024196062
 31
0.0
  0
LINE
  8
DETAIL
  6
CONTINUOUS
 62
     5
 10
-206.75602385185871
 20
-290.30009024196062
 30
0.0
 11
-206.73061517429051
 21
-289.83804159939257
 31
0.0
  0
LINE
  8
DETAIL
  6
CONTINUOUS
 62
     5
 10
-206.73061517429051
 20
-289.83804159939257
 30
0.0
 11
-206.69520357896587
 21
-289.37677005547789
 31
0.0
  0
LINE
  8
DETAIL
  6
CONTINUOUS
 62
     5
 10
-206.69520357896587
 20
-289.37677005547789
 30
0.0
 11
-206.64620604995955
 21
-288.91680982830809
 31
0.0
  0
LINE
  8
DETAIL
  6
CONTINUOUS
 62
     5
 10
-206.64620604995955
 20
-288.91680982830809
 30
0.0
 11
-206.57491819461833
 21
-288.45970763404881
 31
0.0
  0
LINE
  8
DETAIL
  6
CONTINUOUS
 62
     5
 10
-206.57491819461833
 20
-288.45970763404881
 30
0.0
 11
-206.44691101642769
 21
-288.01498647583162
 31
0.0
  0
LINE
  8
DETAIL
  6
CONTINUOUS
 62
     5
 10
-206.44691101642769
 20
-288.01498647583162
 30
0.0
 11
-206.20019548741018
 21
-287.62116537603526
 31
0.0
  0
LINE
  8
DETAIL
  6
CONTINUOUS
 62
     5
 10
-206.20019548741018
 20
-287.62116537603526
 30
0.0
 11
-205.817488841553
 21
-287.34921121400981
 31
0.0
  0
LINE
  8
DETAIL
  6
CONTINUOUS
 62
     5
 10
-205.817488841553
 20
-287.34921121400981
 30
0.0
 11
-205.36011262603191
 21
-287.25000000004093
 31
0.0
  0
LINE
  8
DETAIL
  6
CONTINUOUS
 62
     5
 10
-204.49188871203569
 20
-334.6501235460496
 30
0.0
 11
-204.52067330243946
 21
-334.31351656753907
 31
0.0
  0
LINE
  8
DETAIL
  6
CONTINUOUS
 62
     5
 10
-204.52067330243946
 20
-334.31351656753907
 30
0.0
 11
-204.54326618715842
 21
-333.97640849929712
 31
0.0
  0
LINE
  8
DETAIL
  6
CONTINUOUS
 62
     5
 10
-204.54326618715842
 20
-333.97640849929712
 30
0.0
 11
-204.56142426784527
 21
-333.63902602444034
 31
0.0
  0
LINE
  8
DETAIL
  6
CONTINUOUS
 62
     5
 10
-204.56142426784527
 20
-333.63902602444034
 30
0.0
 11
-204.57561097862293
 21
-333.30143695872164
 31
0.0
  0
LINE
  8
DETAIL
  6
CONTINUOUS
 62
     5
 10
-204.57561097862293
 20
-333.30143695872164
 30
0.0
 11
-204.58618832776125
 21
-332.9636966604823
 31
0.0
  0
LINE
  8
DETAIL
  6
CONTINUOUS
 62
     5
 10
-204.58618832776125
 20
-332.9636966604823
 30
0.0
 11
-204.59351832352962
 21
-332.62586048806338
 31
0.0
  0
LINE
  8
DETAIL
  6
CONTINUOUS
 62
     5
 10
-204.59351832352962
 20
-332.62586048806338
 30
0.0
 11
-204.59796297419783
 21
-332.287983799806
 31
0.0
  0
LINE
  8
DETAIL
  6
CONTINUOUS
 62
     5
 10
-204.59796297419783
 20
-332.287983799806
 30
0.0
 11
-204.59988428803541
 21
-331.95012195405121
 31
0.0
  0
LINE
  8
DETAIL
  6
CONTINUOUS
 62
     5
 10
-205.36011262803279
 20
-336.85000000005402
 30
0.0
 11
-205.81742812353252
 21
-336.75067711289228
 31
0.0
  0
LINE
  8
DETAIL
  6
CONTINUOUS
 62
     5
 10
-205.81742812353252
 20
-336.75067711289228
 30
0.0
 11
-206.20015085848118
 21
-336.47864931166657
 31
0.0
  0
LINE
  8
DETAIL
  6
CONTINUOUS
 62
     5
 10
-206.20015085848118
 20
-336.47864931166657
 30
0.0
 11
-206.44697504172893
 21
-336.08492282142578
 31
0.0
  0
LINE
  8
DETAIL
  6
CONTINUOUS
 62
     5
 10
-206.44697504172893
 20
-336.08492282142578
 30
0.0
 11
-206.57494953775162
 21
-335.64021084933694
 31
0.0
  0
LINE
  8
DETAIL
  6
CONTINUOUS
 62
     5
 10
-206.57494953775162
 20
-335.64021084933694
 30
0.0
 11
-206.64621147724367
 21
-335.18311085337069
 31
0.0
  0
LINE
  8
DETAIL
  6
CONTINUOUS
 62
     5
 10
-206.64621147724367
 20
-335.18311085337069
 30
0.0
 11
-206.69521535186752
 21
-334.72316678371988
 31
0.0
  0
LINE
  8
DETAIL
  6
CONTINUOUS
 62
     5
 10
-206.69521535186752
 20
-334.72316678371988
 30
0.0
 11
-206.73062490456832
 21
-334.26190561048179
 31
0.0
  0
LINE
  8
DETAIL
  6
CONTINUOUS
 62
     5
 10
-206.73062490456832
 20
-334.26190561048179
 30
0.0
 11
-206.75602783407618
 21
-333.79986484963086
 31
0.0
  0
LINE
  8
DETAIL
  6
CONTINUOUS
 62
     5
 10
-206.75602783407618
 20
-333.79986484963086
 30
0.0
 11
-206.7747603317936
 21
-333.33754129706915
 31
0.0
  0
LINE
  8
DETAIL
  6
CONTINUOUS
 62
     5
 10
-206.7747603317936
 20
-333.33754129706915
 30
0.0
 11
-206.78817623312941
 21
-332.87512787723546
 31
0.0
  0
LINE
  8
DETAIL
  6
CONTINUOUS
 62
     5
 10
-206.78817623312941
 20
-332.87512787723546
 30
0.0
 11
-206.79648693664791
 21
-332.41264239266525
 31
0.0
  0
LINE
  8
DETAIL
  6
CONTINUOUS
 62
     5
 10
-206.79648693664791
 20
-332.41264239266525
 30
0.0
 11
-206.79989009003381
 21
-331.95010053804839
 31
0.0
  0
LINE
  8
DETAIL
  6
CONTINUOUS
 62
     5
 10
455.70000000006172
 20
-138.05000000001519
 30
0.0
 11
448.30000000006748
 21
-138.05000000001519
 31
0.0
  0
LINE
  8
DETAIL
  6
CONTINUOUS
 62
     5
 10
448.30000000006748
 20
-135.05000000001519
 30
0.0
 11
447.70000000006888
 21
-135.05000000001519
 31
0.0
  0
LINE
  8
DETAIL
  6
CONTINUOUS
 62
     5
 10
-448.30000000006748
 20
-135.05000000001519
 30
0.0
 11
-447.70000000006888
 21
-135.05000000001519
 31
0.0
  0
LINE
  8
DETAIL
  6
CONTINUOUS
 62
     5
 10
-455.70000000006172
 20
-138.05000000001519
 30
0.0
 11
-448.90000000006597
 21
-138.05000000001519
 31
0.0
  0
ARC
  8
DETAIL
  6
CONTINUOUS
 62
     5
 10
-448.90000000006597
 20
-137.4500000000171
 30
0.0
 40
0.6000000000000859
 50
270.0
 51
0.0
  0
CIRCLE
  8
DETAIL
  6
DASHED
 62
     5
 10
-330.00000000004729
 20
-202.0485940936924
 30
0.0
 40
100.0
  0
LINE
  8
DETAIL
  6
CONTINUOUS
 62
     5
 10
449.70000000006888
 20
-1.349999999999
 30
0.0
 11
449.70000000006888
 21
-2.1499999999987272
 31
0.0
  0
ARC
  8
DETAIL
  6
CONTINUOUS
 62
     5
 10
452.92500000006021
 20
-1.0750000000011819
 30
0.0
 40
0.2749999999978477
 50
270.0
 51
90.0
  0
ARC
  8
DETAIL
  6
CONTINUOUS
 62
     5
 10
452.92500000006021
 20
-1.0749999999993629
 30
0.0
 40
1.07499999999942
 50
270.0
 51
90.0
  0
LINE
  8
DETAIL
  6
CONTINUOUS
 62
     5
 10
-449.70000000006172
 20
-2.1499999999987272
 30
0.0
 11
-452.92500000006748
 21
-2.1499999999987272
 31
0.0
  0
LINE
  8
DETAIL
  6
CONTINUOUS
 62
     5
 10
-449.70000000006172
 20
-1.349999999999
 30
0.0
 11
-449.70000000006172
 21
-2.1499999999987272
 31
0.0
  0
ARC
  8
DETAIL
  6
CONTINUOUS
 62
     5
 10
-452.92500000006748
 20
-1.0750000000011819
 30
0.0
 40
0.2749999999978477
 50
90.0
 51
270.0
  0
ARC
  8
DETAIL
  6
CONTINUOUS
 62
     5
 10
-452.92500000006748
 20
-1.0749999999993629
 30
0.0
 40
1.07499999999942
 50
90.0
 51
270.0
  0
LINE
  8
DETAIL
  6
CONTINUOUS
 62
     5
 10
-448.20000000006888
 20
-1.349999999999
 30
0.0
 11
-452.92500000006748
 21
-1.349999999999
 31
0.0
  0
LINE
  8
DETAIL
  6
CONTINUOUS
 62
     5
 10
-439.1173009200711
 20
-2.1499999999987272
 30
0.0
 11
439.11730091806288
 21
-2.1499999999987272
 31
0.0
  0
LINE
  8
DETAIL
  6
CONTINUOUS
 62
     5
 10
449.70000000006888
 20
-401.85000000006539
 30
0.0
 11
452.92500000006021
 21
-401.85000000006539
 31
0.0
  0
LINE
  8
DETAIL
  6
CONTINUOUS
 62
     5
 10
449.70000000006888
 20
-402.65000000006512
 30
0.0
 11
449.70000000006888
 21
-401.85000000006539
 31
0.0
  0
ARC
  8
DETAIL
  6
CONTINUOUS
 62
     5
 10
452.92500000006021
 20
-402.92500000006339
 30
0.0
 40
0.2749999999978477
 50
270.0
 51
90.0
  0
ARC
  8
DETAIL
  6
CONTINUOUS
 62
     5
 10
452.92500000006021
 20
-402.92500000006481
 30
0.0
 40
1.07499999999942
 50
270.0
 51
90.0
  0
LINE
  8
DETAIL
  6
CONTINUOUS
 62
     5
 10
-449.70000000006172
 20
-401.85000000006539
 30
0.0
 11
-452.92500000006748
 21
-401.85000000006539
 31
0.0
  0
LINE
  8
DETAIL
  6
CONTINUOUS
 62
     5
 10
-449.70000000006172
 20
-402.65000000006512
 30
0.0
 11
-449.70000000006172
 21
-401.85000000006539
 31
0.0
  0
ARC
  8
DETAIL
  6
CONTINUOUS
 62
     5
 10
-452.92500000006748
 20
-402.92500000006339
 30
0.0
 40
0.2749999999978477
 50
90.0
 51
270.0
  0
ARC
  8
DETAIL
  6
CONTINUOUS
 62
     5
 10
-452.92500000006748
 20
-402.92500000006481
 30
0.0
 40
1.07499999999942
 50
90.0
 51
270.0
  0
LINE
  8
DETAIL
  6
CONTINUOUS
 62
     5
 10
-448.20000000006888
 20
-402.6500000000583
 30
0.0
 11
-452.92500000006748
 21
-402.65000000006512
 31
0.0
  0
LINE
  8
DETAIL
  6
CONTINUOUS
 62
     5
 10
-439.28000000007069
 20
-401.85000000006539
 30
0.0
 11
439.28000000006341
 21
-401.85000000006539
 31
0.0
  0
LINE
  8
BASIS
  6
DASHDOT
 62
     6
 10
568.00000000007458
 20
-242.05000000003429
 30
0.0
 11
431.71596961739027
 21
-242.05000000003429
 31
0.0
1001
GENIUS_GENODEF_13
1002
{
1000
HIER
1070
     0
1002
}
1002
{
1000
MANEDIT
1070
     0
1002
}
1002
{
1000
NOSEL
1070
     0
1002
}
1002
{
1000
BEHIND
1070
     0
1002
}
1002
{
1000
OTHER
1070
     0
1002
}
1002
{
1000
REACTOR
1002
}
1001
GENIUS_GENOBJ-N-CEN_13
1002
{
1000
OWNER
1000
GEN
1002
}
1001
GENIUS_GENCEN_19
1002
{
1040
5.0
1002
}
  0
LINE
  8
BASIS
  6
DASHDOT
 62
     6
 10
-568.00000000008185
 20
-242.05000000003429
 30
0.0
 11
-431.71596961739027
 21
-242.05000000003429
 31
0.0
1001
GENIUS_GENODEF_13
1002
{
1000
HIER
1070
     0
1002
}
1002
{
1000
MANEDIT
1070
     0
1002
}
1002
{
1000
NOSEL
1070
     0
1002
}
1002
{
1000
BEHIND
1070
     0
1002
}
1002
{
1000
OTHER
1070
     0
1002
}
1002
{
1000
REACTOR
1002
}
1001
GENIUS_GENOBJ-N-CEN_13
1002
{
1000
OWNER
1000
GEN
1002
}
1001
GENIUS_GENCEN_19
1002
{
1040
5.0
1002
}
  0
LINE
  8
BASIS
  6
DASHDOT
 62
     6
 10
-330.00000000004729
 20
-328.14696646343282
 30
0.0
 11
-330.00000000004729
 21
-75.953033536630301
 31
0.0
1001
GENIUS_GENODEF_13
1002
{
1000
HIER
1070
     0
1002
}
1002
{
1000
MANEDIT
1070
     0
1002
}
1002
{
1000
NOSEL
1070
     0
1002
}
1002
{
1000
BEHIND
1070
     0
1002
}
1002
{
1000
OTHER
1070
     0
1002
}
1002
{
1000
REACTOR
1002
}
1001
GENIUS_GENOBJ-N-CEN_13
1002
{
1000
OWNER
1000
GEN
1002
}
1001
GENIUS_GENCEN_19
1002
{
1040
5.0
1002
}
  0
LINE
  8
SIZE
  6
CONTINUOUS
 62
    30
 10
-454.00000000006679
 20
18.92500000000064
 30
0.0
 11
-454.00000000006679
 21
229.23618554887659
 31
0.0
  0
LINE
  8
SIZE
  6
CONTINUOUS
 62
    30
 10
454.00000000006003
 20
18.92500000000064
 30
0.0
 11
454.00000000006003
 21
229.23618554887659
 31
0.0
  0
LINE
  8
SIZE
  6
CONTINUOUS
 62
    30
 10
-442.00000000006679
 20
209.23618554887659
 30
0.0
 11
442.00000000006003
 21
209.23618554887659
 31
0.0
  0
CIRCLE
  8
SIZE
  6
CONTINUOUS
 62
    30
 10
-454.00000000006679
 20
209.23618554887659
 30
0.0
 40
6.0
  0
LINE
  8
SIZE
  6
CONTINUOUS
 62
    30
 10
-454.00000000006679
 20
209.23618554887659
 30
0.0
 11
-442.00000000006679
 21
209.23618554887659
 31
0.0
  0
CIRCLE
  8
SIZE
  6
CONTINUOUS
 62
    30
 10
454.00000000006003
 20
209.23618554887659
 30
0.0
 40
6.0
  0
LINE
  8
SIZE
  6
CONTINUOUS
 62
    30
 10
454.00000000006003
 20
209.23618554887659
 30
0.0
 11
442.00000000006003
 21
209.23618554887659
 31
0.0
  0
TEXT
  8
SIZE
  6
CONTINUOUS
 62
    30
 10
-80.928000000003408
 20
234.23618554887662
 30
0.0
 40
64.0
  1
908
 50
0.0
 41
0.9
 51
0.0
  7
STANDARD
 71
     0
 72
     1
 11
-0.0000000000034106
 21
234.23618554887662
 31
0.0
210
0.0
220
0.0
230
1.0
  0
POINT
  8
DEFPOINTS
  6
CONTINUOUS
 62
    30
 10
-454.00000000006679
 20
-1.0749999999993629
 30
0.0
  0
POINT
  8
DEFPOINTS
  6
CONTINUOUS
 62
    30
 10
454.00000000006003
 20
-1.0749999999993629
 30
0.0
  0
POINT
  8
DEFPOINTS
  6
CONTINUOUS
 62
    30
 10
454.00000000006003
 20
209.23618554887659
 30
0.0
  0
LINE
  8
SIZE
  6
CONTINUOUS
 62
    30
 10
-533.00000000007458
 20
-127.1500000000228
 30
0.0
 11
-533.00000000007458
 21
229.23618554887659
 31
0.0
  0
LINE
  8
SIZE
  6
CONTINUOUS
 62
    30
 10
-454.00000000006679
 20
18.92500000000064
 30
0.0
 11
-454.00000000006679
 21
229.23618554887659
 31
0.0
  0
LINE
  8
SIZE
  6
CONTINUOUS
 62
    30
 10
-545.00000000007458
 20
209.23618554887659
 30
0.0
 11
-557.00000000007458
 21
209.23618554887659
 31
0.0
  0
LINE
  8
SIZE
  6
CONTINUOUS
 62
    30
 10
-442.00000000006679
 20
209.23618554887659
 30
0.0
 11
-430.00000000006679
 21
209.23618554887659
 31
0.0
  0
LINE
  8
SIZE
  6
CONTINUOUS
 62
    30
 10
-533.00000000007458
 20
209.23618554887659
 30
0.0
 11
-454.00000000006679
 21
209.23618554887659
 31
0.0
  0
CIRCLE
  8
SIZE
  6
CONTINUOUS
 62
    30
 10
-533.00000000007458
 20
209.23618554887659
 30
0.0
 40
6.0
  0
LINE
  8
SIZE
  6
CONTINUOUS
 62
    30
 10
-533.00000000007458
 20
209.23618554887659
 30
0.0
 11
-545.00000000007458
 21
209.23618554887659
 31
0.0
  0
CIRCLE
  8
SIZE
  6
CONTINUOUS
 62
    30
 10
-454.00000000006679
 20
209.23618554887659
 30
0.0
 40
6.0
  0
LINE
  8
SIZE
  6
CONTINUOUS
 62
    30
 10
-454.00000000006679
 20
209.23618554887659
 30
0.0
 11
-442.00000000006679
 21
209.23618554887659
 31
0.0
  0
TEXT
  8
SIZE
  6
CONTINUOUS
 62
    30
 10
-547.0680000000707
 20
234.23618554887662
 30
0.0
 40
64.0
  1
79
 50
0.0
 41
0.9
 51
0.0
  7
STANDARD
 71
     0
 72
     1
 11
-493.50000000007071
 21
234.23618554887662
 31
0.0
210
0.0
220
0.0
230
1.0
  0
POINT
  8
DEFPOINTS
  6
CONTINUOUS
 62
    30
 10
-533.00000000007458
 20
-147.1500000000228
 30
0.0
  0
POINT
  8
DEFPOINTS
  6
CONTINUOUS
 62
    30
 10
-454.00000000006679
 20
-1.0749999999993629
 30
0.0
  0
POINT
  8
DEFPOINTS
  6
CONTINUOUS
 62
    30
 10
-454.00000000006679
 20
209.23618554887659
 30
0.0
  0
LINE
  8
SIZE
  6
CONTINUOUS
 62
    30
 10
533.00000000008185
 20
-127.1500000000228
 30
0.0
 11
533.00000000008185
 21
229.23618554887659
 31
0.0
  0
LINE
  8
SIZE
  6
CONTINUOUS
 62
    30
 10
454.00000000006003
 20
18.92500000000064
 30
0.0
 11
454.00000000006003
 21
229.23618554887659
 31
0.0
  0
LINE
  8
SIZE
  6
CONTINUOUS
 62
    30
 10
545.00000000008185
 20
209.23618554887659
 30
0.0
 11
557.00000000008185
 21
209.23618554887659
 31
0.0
  0
LINE
  8
SIZE
  6
CONTINUOUS
 62
    30
 10
442.00000000006003
 20
209.23618554887659
 30
0.0
 11
430.00000000006003
 21
209.23618554887659
 31
0.0
  0
LINE
  8
SIZE
  6
CONTINUOUS
 62
    30
 10
533.00000000008185
 20
209.23618554887659
 30
0.0
 11
454.00000000006003
 21
209.23618554887659
 31
0.0
  0
CIRCLE
  8
SIZE
  6
CONTINUOUS
 62
    30
 10
533.00000000008185
 20
209.23618554887659
 30
0.0
 40
6.0
  0
LINE
  8
SIZE
  6
CONTINUOUS
 62
    30
 10
533.00000000008185
 20
209.23618554887659
 30
0.0
 11
545.00000000008185
 21
209.23618554887659
 31
0.0
  0
CIRCLE
  8
SIZE
  6
CONTINUOUS
 62
    30
 10
454.00000000006003
 20
209.23618554887659
 30
0.0
 40
6.0
  0
LINE
  8
SIZE
  6
CONTINUOUS
 62
    30
 10
454.00000000006003
 20
209.23618554887659
 30
0.0
 11
442.00000000006003
 21
209.23618554887659
 31
0.0
  0
TEXT
  8
SIZE
  6
CONTINUOUS
 62
    30
 10
439.9320000000709
 20
234.23618554887662
 30
0.0
 40
64.0
  1
79
 50
0.0
 41
0.9
 51
0.0
  7
STANDARD
 71
     0
 72
     1
 11
493.50000000007088
 21
234.23618554887662
 31
0.0
210
0.0
220
0.0
230
1.0
  0
POINT
  8
DEFPOINTS
  6
CONTINUOUS
 62
    30
 10
533.00000000008185
 20
-147.1500000000228
 30
0.0
  0
POINT
  8
DEFPOINTS
  6
CONTINUOUS
 62
    30
 10
454.00000000006003
 20
-1.0749999999993629
 30
0.0
  0
POINT
  8
DEFPOINTS
  6
CONTINUOUS
 62
    30
 10
454.00000000006003
 20
209.23618554887659
 30
0.0
  0
LINE
  8
SIZE
  6
CONTINUOUS
 62
    30
 10
-454.00000000006679
 20
-422.92500000006481
 30
0.0
 11
-454.00000000006679
 21
-588.01871528447327
 31
0.0
  0
LINE
  8
SIZE
  6
CONTINUOUS
 62
    30
 10
-330.00000000004729
 20
-348.14696646343282
 30
0.0
 11
-330.00000000004729
 21
-588.01871528447327
 31
0.0
  0
LINE
  8
SIZE
  6
CONTINUOUS
 62
    30
 10
-342.00000000004729
 20
-568.01871528447327
 30
0.0
 11
-442.00000000006679
 21
-568.01871528447327
 31
0.0
  0
LINE
  8
SIZE
  6
CONTINUOUS
 62
    30
 10
-454.00000000006679
 20
-568.01871528447327
 30
0.0
 11
-655.88571428578121
 21
-568.01871528447327
 31
0.0
  0
CIRCLE
  8
SIZE
  6
CONTINUOUS
 62
    30
 10
-330.00000000004729
 20
-568.01871528447327
 30
0.0
 40
6.0
  0
LINE
  8
SIZE
  6
CONTINUOUS
 62
    30
 10
-330.00000000004729
 20
-568.01871528447327
 30
0.0
 11
-342.00000000004729
 21
-568.01871528447327
 31
0.0
  0
CIRCLE
  8
SIZE
  6
CONTINUOUS
 62
    30
 10
-454.00000000006679
 20
-568.01871528447327
 30
0.0
 40
6.0
  0
LINE
  8
SIZE
  6
CONTINUOUS
 62
    30
 10
-454.00000000006679
 20
-568.01871528447327
 30
0.0
 11
-442.00000000006679
 21
-568.01871528447327
 31
0.0
  0
TEXT
  8
SIZE
  6
CONTINUOUS
 62
    30
 10
-636.11085714292403
 20
-543.01871528447327
 30
0.0
 40
64.0
  1
124
 50
0.0
 41
0.9
 51
0.0
  7
STANDARD
 71
     0
 72
     1
 11
-560.94285714292403
 21
-543.01871528447327
 31
0.0
210
0.0
220
0.0
230
1.0
  0
POINT
  8
DEFPOINTS
  6
CONTINUOUS
 62
    30
 10
-454.00000000006679
 20
-402.92500000006481
 30
0.0
  0
POINT
  8
DEFPOINTS
  6
CONTINUOUS
 62
    30
 10
-330.00000000004729
 20
-328.14696646343282
 30
0.0
  0
POINT
  8
DEFPOINTS
  6
CONTINUOUS
 62
    30
 10
-330.00000000004729
 20
-568.01871528447327
 30
0.0
  0
LINE
  8
SIZE
  6
CONTINUOUS
 62
    30
 10
-606.47375908555546
 20
-202.0500000000317
 30
0.0
 11
-764.97754571411917
 21
-202.0500000000317
 31
0.0
  0
LINE
  8
SIZE
  6
CONTINUOUS
 62
    30
 10
-588.00000000008208
 20
-242.0500000000344
 30
0.0
 11
-764.97754571411917
 21
-242.05000000003449
 31
0.0
  0
LINE
  8
SIZE
  6
CONTINUOUS
 62
    30
 10
-744.97754571411917
 20
-190.0500000000317
 30
0.0
 11
-744.97754571411917
 21
-178.0500000000317
 31
0.0
  0
LINE
  8
SIZE
  6
CONTINUOUS
 62
    30
 10
-744.97754571411917
 20
-254.05000000003449
 30
0.0
 11
-744.97754571411906
 21
-266.05000000003452
 31
0.0
  0
LINE
  8
SIZE
  6
CONTINUOUS
 62
    30
 10
-744.97754571411917
 20
-202.0500000000317
 30
0.0
 11
-744.97754571411917
 21
-242.05000000003449
 31
0.0
  0
CIRCLE
  8
SIZE
  6
CONTINUOUS
 62
    30
 10
-744.97754571411917
 20
-202.0500000000317
 30
0.0
 40
6.0
  0
LINE
  8
SIZE
  6
CONTINUOUS
 62
    30
 10
-744.97754571411917
 20
-202.0500000000317
 30
0.0
 11
-744.97754571411917
 21
-190.0500000000317
 31
0.0
  0
CIRCLE
  8
SIZE
  6
CONTINUOUS
 62
    30
 10
-744.97754571411917
 20
-242.05000000003449
 30
0.0
 40
6.0
  0
LINE
  8
SIZE
  6
CONTINUOUS
 62
    30
 10
-744.97754571411917
 20
-242.05000000003449
 30
0.0
 11
-744.97754571411917
 21
-254.05000000003449
 31
0.0
  0
TEXT
  8
SIZE
  6
CONTINUOUS
 62
    30
 10
-769.97754571411906
 20
-276.77000000003284
 30
0.0
 40
64.0
  1
40
 50
90.0
 41
0.9
 51
0.0
  7
STANDARD
 71
     0
 72
     1
 11
-769.97754571411906
 21
-222.05000000003281
 31
0.0
210
0.0
220
0.0
230
1.0
  0
POINT
  8
DEFPOINTS
  6
CONTINUOUS
 62
    30
 10
-586.47375908555546
 20
-202.0500000000317
 30
0.0
  0
POINT
  8
DEFPOINTS
  6
CONTINUOUS
 62
    30
 10
-568.00000000008208
 20
-242.0500000000344
 30
0.0
  0
POINT
  8
DEFPOINTS
  6
CONTINUOUS
 62
    30
 10
-744.97754571411917
 20
-242.05000000003449
 30
0.0
  0
LINE
  8
SIZE
  6
CONTINUOUS
 62
    30
 10
-472.95000000006922
 20
-0.0000000000000032
 30
0.0
 11
-764.97754571412327
 21
-0.0000000000000502
 31
0.0
  0
LINE
  8
SIZE
  6
CONTINUOUS
 62
    30
 10
-518.43427874105441
 20
-70.000000000016399
 30
0.0
 11
-764.97754571412327
 21
-70.000000000016442
 31
0.0
  0
LINE
  8
SIZE
  6
CONTINUOUS
 62
    30
 10
-744.97754571412327
 20
-82.000000000016442
 30
0.0
 11
-744.97754571412327
 21
-94.000000000016442
 31
0.0
  0
LINE
  8
SIZE
  6
CONTINUOUS
 62
    30
 10
-744.97754571412327
 20
11.999999999999959
 30
0.0
 11
-744.97754571412327
 21
167.25714285714281
 31
0.0
  0
LINE
  8
SIZE
  6
CONTINUOUS
 62
    30
 10
-744.97754571412327
 20
-70.000000000016442
 30
0.0
 11
-744.97754571412327
 21
-0.000000000000047
 31
0.0
  0
CIRCLE
  8
SIZE
  6
CONTINUOUS
 62
    30
 10
-744.97754571412327
 20
-70.000000000016442
 30
0.0
 40
6.0
  0
LINE
  8
SIZE
  6
CONTINUOUS
 62
    30
 10
-744.97754571412327
 20
-70.000000000016442
 30
0.0
 11
-744.97754571412327
 21
-82.000000000016442
 31
0.0
  0
CIRCLE
  8
SIZE
  6
CONTINUOUS
 62
    30
 10
-744.97754571412327
 20
-0.000000000000047
 30
0.0
 40
6.0
  0
LINE
  8
SIZE
  6
CONTINUOUS
 62
    30
 10
-744.97754571412327
 20
-0.000000000000047
 30
0.0
 11
-744.97754571412327
 21
11.999999999999954
 31
0.0
  0
TEXT
  8
SIZE
  6
CONTINUOUS
 62
    30
 10
-769.97754571412315
 20
41.484571428571584
 30
0.0
 40
64.0
  1
70
 50
90.0
 41
0.9
 51
0.0
  7
STANDARD
 71
     0
 72
     1
 11
-769.97754571412315
 21
95.62857142857159
 31
0.0
210
0.0
220
0.0
230
1.0
  0
POINT
  8
DEFPOINTS
  6
CONTINUOUS
 62
    30
 10
-452.95000000006922
 20
0.0
 30
0.0
  0
POINT
  8
DEFPOINTS
  6
CONTINUOUS
 62
    30
 10
-498.43427874105441
 20
-70.000000000016399
 30
0.0
  0
POINT
  8
DEFPOINTS
  6
CONTINUOUS
 62
    30
 10
-744.97754571412327
 20
-70.000000000016442
 30
0.0
  0
LINE
  8
SIZE
  6
CONTINUOUS
 62
    30
 10
518.43427874104532
 20
-70.000000000016399
 30
0.0
 11
784.27452540655509
 21
-70.000000000016357
 31
0.0
  0
LINE
  8
SIZE
  6
CONTINUOUS
 62
    30
 10
472.92500000006038
 20
0.0000000000000032
 30
0.0
 11
784.27452540655509
 21
0.0000000000000533
 31
0.0
  0
LINE
  8
SIZE
  6
CONTINUOUS
 62
    30
 10
764.27452540655497
 20
-82.000000000016357
 30
0.0
 11
764.27452540655497
 21
-94.000000000016357
 31
0.0
  0
LINE
  8
SIZE
  6
CONTINUOUS
 62
    30
 10
764.27452540655497
 20
12.00000000000005
 30
0.0
 11
764.27452540655497
 21
167.25714285714301
 31
0.0
  0
LINE
  8
SIZE
  6
CONTINUOUS
 62
    30
 10
764.27452540655497
 20
-70.000000000016357
 30
0.0
 11
764.27452540655497
 21
0.0000000000000501
 31
0.0
  0
CIRCLE
  8
SIZE
  6
CONTINUOUS
 62
    30
 10
764.27452540655497
 20
-70.000000000016357
 30
0.0
 40
6.0
  0
LINE
  8
SIZE
  6
CONTINUOUS
 62
    30
 10
764.27452540655497
 20
-70.000000000016357
 30
0.0
 11
764.27452540655497
 21
-82.000000000016357
 31
0.0
  0
CIRCLE
  8
SIZE
  6
CONTINUOUS
 62
    30
 10
764.27452540655497
 20
0.0000000000000501
 30
0.0
 40
6.0
  0
LINE
  8
SIZE
  6
CONTINUOUS
 62
    30
 10
764.27452540655497
 20
0.0000000000000501
 30
0.0
 11
764.27452540655497
 21
12.00000000000005
 31
0.0
  0
TEXT
  8
SIZE
  6
CONTINUOUS
 62
    30
 10
739.27452540655486
 20
41.484571428571272
 30
0.0
 40
64.0
  1
70
 50
90.0
 41
0.9
 51
0.0
  7
STANDARD
 71
     0
 72
     1
 11
739.27452540655486
 21
95.628571428571277
 31
0.0
210
0.0
220
0.0
230
1.0
  0
POINT
  8
DEFPOINTS
  6
CONTINUOUS
 62
    30
 10
498.43427874104532
 20
-70.000000000016399
 30
0.0
  0
POINT
  8
DEFPOINTS
  6
CONTINUOUS
 62
    30
 10
452.92500000006038
 20
0.0
 30
0.0
  0
POINT
  8
DEFPOINTS
  6
CONTINUOUS
 62
    30
 10
764.27452540655497
 20
0.0000000000000501
 30
0.0
  0
LINE
  8
SIZE
  6
CONTINUOUS
 62
    30
 10
-472.95000000006922
 20
-0.0000000000000032
 30
0.0
 11
-878.28311129370707
 21
-0.0000000000000684
 31
0.0
  0
LINE
  8
SIZE
  6
CONTINUOUS
 62
    30
 10
-472.95000000006922
 20
-404.00000000005662
 30
0.0
 11
-878.28311129370695
 21
-404.00000000005667
 31
0.0
  0
LINE
  8
SIZE
  6
CONTINUOUS
 62
    30
 10
-858.28311129370707
 20
-12.000000000000069
 30
0.0
 11
-858.28311129370695
 21
-392.00000000005667
 31
0.0
  0
CIRCLE
  8
SIZE
  6
CONTINUOUS
 62
    30
 10
-858.28311129370707
 20
-0.0000000000000652
 30
0.0
 40
6.0
  0
LINE
  8
SIZE
  6
CONTINUOUS
 62
    30
 10
-858.28311129370707
 20
-0.0000000000000652
 30
0.0
 11
-858.28311129370707
 21
-12.000000000000066
 31
0.0
  0
CIRCLE
  8
SIZE
  6
CONTINUOUS
 62
    30
 10
-858.28311129370695
 20
-404.00000000005667
 30
0.0
 40
6.0
  0
LINE
  8
SIZE
  6
CONTINUOUS
 62
    30
 10
-858.28311129370695
 20
-404.00000000005667
 30
0.0
 11
-858.28311129370695
 21
-392.00000000005667
 31
0.0
  0
TEXT
  8
SIZE
  6
CONTINUOUS
 62
    30
 10
-883.28311129370684
 20
-284.08000000002812
 30
0.0
 40
64.0
  1
404
 50
90.0
 41
0.9
 51
0.0
  7
STANDARD
 71
     0
 72
     1
 11
-883.28311129370684
 21
-202.00000000002811
 31
0.0
210
0.0
220
0.0
230
1.0
  0
POINT
  8
DEFPOINTS
  6
CONTINUOUS
 62
    30
 10
-452.95000000006922
 20
0.0
 30
0.0
  0
POINT
  8
DEFPOINTS
  6
CONTINUOUS
 62
    30
 10
-452.95000000006922
 20
-404.00000000005662
 30
0.0
  0
POINT
  8
DEFPOINTS
  6
CONTINUOUS
 62
    30
 10
-858.28311129370695
 20
-404.00000000005667
 30
0.0
  0
LINE
  8
SIZE
  6
CONTINUOUS
 62
    30
 10
551.90000000006899
 20
-338.05000000005168
 30
0.0
 11
932.53776393688474
 21
-338.05000000005163
 31
0.0
  0
LINE
  8
SIZE
  6
CONTINUOUS
 62
    30
 10
551.90000000006899
 20
-146.05000000002391
 30
0.0
 11
932.53776393688463
 21
-146.0500000000238
 31
0.0
  0
LINE
  8
SIZE
  6
CONTINUOUS
 62
    30
 10
912.53776393688474
 20
-326.05000000005163
 30
0.0
 11
912.53776393688463
 21
-158.0500000000238
 31
0.0
  0
LINE
  8
SIZE
  6
CONTINUOUS
 62
    30
 10
912.53776393688463
 20
-146.0500000000238
 30
0.0
 11
912.53776393688463
 21
105.20714285711909
 31
0.0
  0
CIRCLE
  8
SIZE
  6
CONTINUOUS
 62
    30
 10
912.53776393688474
 20
-338.05000000005163
 30
0.0
 40
6.0
  0
LINE
  8
SIZE
  6
CONTINUOUS
 62
    30
 10
912.53776393688474
 20
-338.05000000005163
 30
0.0
 11
912.53776393688474
 21
-326.05000000005163
 31
0.0
  0
CIRCLE
  8
SIZE
  6
CONTINUOUS
 62
    30
 10
912.53776393688463
 20
-146.0500000000238
 30
0.0
 40
6.0
  0
LINE
  8
SIZE
  6
CONTINUOUS
 62
    30
 10
912.53776393688463
 20
-146.0500000000238
 30
0.0
 11
912.53776393688463
 21
-158.0500000000238
 31
0.0
  0
TEXT
  8
SIZE
  6
CONTINUOUS
 62
    30
 10
887.5377639368844
 20
-123.57342857145265
 30
0.0
 40
64.0
  1
φ192
 50
90.0
 41
0.9
 51
0.0
  7
STANDARD
 71
     0
 72
     1
 11
887.5377639368844
 21
-14.421428571452612
 31
0.0
210
0.0
220
0.0
230
1.0
  0
POINT
  8
DEFPOINTS
  6
CONTINUOUS
 62
    30
 10
531.90000000006899
 20
-338.05000000005168
 30
0.0
  0
POINT
  8
DEFPOINTS
  6
CONTINUOUS
 62
    30
 10
531.90000000006899
 20
-146.05000000002391
 30
0.0
  0
POINT
  8
DEFPOINTS
  6
CONTINUOUS
 62
    30
 10
912.53776393688463
 20
-146.0500000000238
 30
0.0
  0
LINE
  8
SIZE
  6
CONTINUOUS
 62
    30
 10
475.70000000006189
 20
-346.05000000005259
 30
0.0
 11
1048.9963705980981
 21
-346.05000000005248
 31
0.0
  0
LINE
  8
SIZE
  6
CONTINUOUS
 62
    30
 10
475.70000000006189
 20
-138.0499999996064
 30
0.0
 11
1048.9963705980981
 21
-138.04999999960631
 31
0.0
  0
LINE
  8
SIZE
  6
CONTINUOUS
 62
    30
 10
1028.9963705980981
 20
-334.05000000005248
 30
0.0
 11
1028.9963705980981
 21
-150.04999999960631
 31
0.0
  0
LINE
  8
SIZE
  6
CONTINUOUS
 62
    30
 10
1028.9963705980981
 20
-138.04999999960631
 30
0.0
 11
1028.9963705980981
 21
124.1785714289651
 31
0.0
  0
CIRCLE
  8
SIZE
  6
CONTINUOUS
 62
    30
 10
1028.9963705980981
 20
-346.05000000005248
 30
0.0
 40
6.0
  0
LINE
  8
SIZE
  6
CONTINUOUS
 62
    30
 10
1028.9963705980981
 20
-346.05000000005248
 30
0.0
 11
1028.9963705980981
 21
-334.05000000005248
 31
0.0
  0
CIRCLE
  8
SIZE
  6
CONTINUOUS
 62
    30
 10
1028.9963705980981
 20
-138.04999999960631
 30
0.0
 40
6.0
  0
LINE
  8
SIZE
  6
CONTINUOUS
 62
    30
 10
1028.9963705980981
 20
-138.04999999960631
 30
0.0
 11
1028.9963705980981
 21
-150.04999999960631
 31
0.0
  0
TEXT
  8
SIZE
  6
CONTINUOUS
 62
    30
 10
1003.9963705980981
 20
-116.42371428532095
 30
0.0
 40
64.0
  1
φ208
 50
90.0
 41
0.9
 51
0.0
  7
STANDARD
 71
     0
 72
     1
 11
1003.9963705980981
 21
-0.9357142853208996
 31
0.0
210
0.0
220
0.0
230
1.0
  0
POINT
  8
DEFPOINTS
  6
CONTINUOUS
 62
    30
 10
455.70000000006189
 20
-346.05000000005259
 30
0.0
  0
POINT
  8
DEFPOINTS
  6
CONTINUOUS
 62
    30
 10
455.70000000006189
 20
-138.0499999996064
 30
0.0
  0
POINT
  8
DEFPOINTS
  6
CONTINUOUS
 62
    30
 10
1028.9963705980981
 20
-138.04999999960631
 30
0.0
  0
LINE
  8
BASIS
  6
DASHDOT
 62
     6
 10
-396.5657212590786
 20
-70.000000000016371
 30
0.0
 11
-498.43427874105419
 21
-70.000000000016371
 31
0.0
  0
LINE
  8
BASIS
  6
DASHDOT
 62
     6
 10
-447.50000000006997
 20
-19.065721259028582
 30
0.0
 11
-447.50000000006997
 21
-120.9342787409923
 31
0.0
  0
LINE
  8
BASIS
  6
DASHDOT
 62
     6
 10
498.43427874104509
 20
-70.000000000016371
 30
0.0
 11
396.56572125908411
 21
-70.000000000016371
 31
0.0
  0
LINE
  8
BASIS
  6
DASHDOT
 62
     6
 10
447.50000000006821
 20
-19.065721259028582
 30
0.0
 11
447.50000000006821
 21
-120.9342787409923
 31
0.0
  0
LINE
  8
SIZE
  6
CONTINUOUS
 62
    30
 10
-447.50000000006997
 20
0.9342787409714219
 30
0.0
 11
-447.50000000006997
 21
115.6734050425098
 31
0.0
  0
LINE
  8
SIZE
  6
CONTINUOUS
 62
    30
 10
447.50000000006821
 20
0.9342787409714219
 30
0.0
 11
447.50000000006821
 21
115.6734050425098
 31
0.0
  0
LINE
  8
SIZE
  6
CONTINUOUS
 62
    30
 10
-435.50000000006997
 20
95.673405042509785
 30
0.0
 11
435.50000000006821
 21
95.673405042509785
 31
0.0
  0
CIRCLE
  8
SIZE
  6
CONTINUOUS
 62
    30
 10
-447.50000000006997
 20
95.673405042509785
 30
0.0
 40
6.0
  0
LINE
  8
SIZE
  6
CONTINUOUS
 62
    30
 10
-447.50000000006997
 20
95.673405042509785
 30
0.0
 11
-435.50000000006997
 21
95.673405042509785
 31
0.0
  0
CIRCLE
  8
SIZE
  6
CONTINUOUS
 62
    30
 10
447.50000000006821
 20
95.673405042509785
 30
0.0
 40
6.0
  0
LINE
  8
SIZE
  6
CONTINUOUS
 62
    30
 10
447.50000000006821
 20
95.673405042509785
 30
0.0
 11
435.50000000006821
 21
95.673405042509785
 31
0.0
  0
TEXT
  8
SIZE
  6
CONTINUOUS
 62
    30
 10
-80.352000000000913
 20
120.67340504250981
 30
0.0
 40
64.0
  1
895
 50
0.0
 41
0.9
 51
0.0
  7
STANDARD
 71
     0
 72
     1
 11
-0.0000000000009095
 21
120.67340504250981
 31
0.0
210
0.0
220
0.0
230
1.0
  0
POINT
  8
DEFPOINTS
  6
CONTINUOUS
 62
    30
 10
-447.50000000006997
 20
-19.065721259028582
 30
0.0
  0
POINT
  8
DEFPOINTS
  6
CONTINUOUS
 62
    30
 10
447.50000000006821
 20
-19.065721259028582
 30
0.0
  0
POINT
  8
DEFPOINTS
  6
CONTINUOUS
 62
    30
 10
447.50000000006821
 20
95.673405042509785
 30
0.0
  0
CIRCLE
  8
FIX
  6
CONTINUOUS
 62
    11
 10
447.50000000006457
 20
-70.000000000016371
 30
0.0
 40
6.5
  0
CIRCLE
  8
FIX
  6
CONTINUOUS
 62
    11
 10
-447.50000000006997
 20
-70.000000000016371
 30
0.0
 40
6.5
  0
POINT
  8
ARRANGE
  6
CONTINUOUS
 62
     1
 10
0.0
 20
0.0
 30
0.0
  0
CIRCLE
  8
ARRANGE
  6
CONTINUOUS
 62
     1
 10
0.0
 20
0.0
 30
0.0
 40
40.0
  0
ARC
  8
OUTLINE
  6
CONTINUOUS
 62
     3
 10
-448.90000000006575
 20
-346.65000000005125
 30
0.0
 40
0.5999999999996194
 50
0.0
 51
90.0
  0
LINE
  8
OUTLINE
  6
CONTINUOUS
 62
     3
 10
-448.90000000006597
 20
-346.05000000005163
 30
0.0
 11
-455.70000000006888
 21
-346.05000000005248
 31
0.0
  0
LINE
  8
OUTLINE
  6
CONTINUOUS
 62
     3
 10
-455.70000000006888
 20
-346.05000000005248
 30
0.0
 11
-524.50000000006821
 21
-338.05000000005612
 31
0.0
  0
LINE
  8
OUTLINE
  6
CONTINUOUS
 62
     3
 10
-524.50000000006821
 20
-338.05000000005612
 30
0.0
 11
-531.90000000007603
 21
-338.05000000005163
 31
0.0
  0
ARC
  8
OUTLINE
  6
CONTINUOUS
 62
     3
 10
-531.90000000006808
 20
-336.95000000004563
 30
0.0
 40
1.1000000000060146
 50
180.0
 51
270.0
  0
LINE
  8
OUTLINE
  6
CONTINUOUS
 62
     3
 10
-533.00000000007412
 20
-336.95000000004569
 30
0.0
 11
-533.00000000007458
 21
-147.1500000000228
 31
0.0
  0
ARC
  8
OUTLINE
  6
CONTINUOUS
 62
     3
 10
-531.90000000008376
 20
-147.15000000001689
 30
0.0
 40
1.0999999999907795
 50
90.0
 51
180.0
  0
LINE
  8
OUTLINE
  6
CONTINUOUS
 62
     3
 10
-531.90000000007603
 20
-146.0500000000261
 30
0.0
 11
-524.50000000006821
 21
-146.05000000005609
 31
0.0
  0
LINE
  8
OUTLINE
  6
CONTINUOUS
 62
     3
 10
-524.50000000006821
 20
-146.05000000005609
 30
0.0
 11
-455.70000000006172
 21
-138.0499999996064
 31
0.0
  0
LINE
  8
OUTLINE
  6
CONTINUOUS
 62
     3
 10
-455.70000000006172
 20
-138.0499999996064
 30
0.0
 11
-448.90000000006597
 21
-138.05000000001519
 31
0.0
  0
ARC
  8
OUTLINE
  6
CONTINUOUS
 62
     3
 10
-448.90000000006222
 20
-137.45000000001906
 30
0.0
 40
0.5999999999961264
 50
270.0
 51
0.0
  0
LINE
  8
OUTLINE
  6
CONTINUOUS
 62
     3
 10
-448.30000000006612
 20
-137.4500000000171
 30
0.0
 11
-448.30000000006748
 21
-135.05000000001519
 31
0.0
  0
LINE
  8
OUTLINE
  6
CONTINUOUS
 62
     3
 10
-448.30000000006748
 20
-135.05000000001519
 30
0.0
 11
-447.70000000006888
 21
-135.05000000001519
 31
0.0
  0
LINE
  8
OUTLINE
  6
CONTINUOUS
 62
     3
 10
-447.70000000006888
 20
-135.05000000001519
 30
0.0
 11
-447.70000000006888
 21
-120.0000000000168
 31
0.0
  0
LINE
  8
OUTLINE
  6
CONTINUOUS
 62
     3
 10
-447.70000000006888
 20
-120.0000000000168
 30
0.0
 11
-461.00000000006912
 21
-120.0000000000168
 31
0.0
  0
ARC
  8
OUTLINE
  6
CONTINUOUS
 62
     3
 10
-461.00000000007054
 20
-115.0000000000182
 30
0.0
 40
4.9999999999985922
 50
180.0
 51
270.0
  0
LINE
  8
OUTLINE
  6
CONTINUOUS
 62
     3
 10
-466.00000000006912
 20
-115.0000000000164
 30
0.0
 11
-466.00000000006912
 21
-70.000000000010459
 31
0.0
  0
LINE
  8
OUTLINE
  6
CONTINUOUS
 62
     3
 10
-466.00000000006912
 20
-70.000000000010459
 30
0.0
 11
-447.70000000006888
 21
-70.000000000010459
 31
0.0
  0
LINE
  8
OUTLINE
  6
CONTINUOUS
 62
     3
 10
-447.70000000006888
 20
-70.000000000010459
 30
0.0
 11
-447.70000000006888
 21
-1.850000000005821
 31
0.0
  0
ARC
  8
OUTLINE
  6
CONTINUOUS
 62
     3
 10
-448.20000000006763
 20
-1.8500000000059138
 30
0.0
 40
0.4999999999987287
 50
0.0
 51
90.0
  0
LINE
  8
OUTLINE
  6
CONTINUOUS
 62
     3
 10
-448.20000000007258
 20
-1.350000000007185
 30
0.0
 11
-449.70000000006888
 21
-1.35000000000764
 31
0.0
  0
LINE
  8
OUTLINE
  6
CONTINUOUS
 62
     3
 10
-449.70000000006888
 20
-1.35000000000764
 30
0.0
 11
-449.70000000006172
 21
-2.1499999999987272
 31
0.0
  0
LINE
  8
OUTLINE
  6
CONTINUOUS
 62
     3
 10
-449.70000000006172
 20
-2.1499999999987272
 30
0.0
 11
-452.92500000006748
 21
-2.1499999999987272
 31
0.0
  0
ARC
  8
OUTLINE
  6
CONTINUOUS
 62
     3
 10
-452.9248529412406
 20
-1.074852941175779
 30
0.0
 40
1.0751470688803157
 50
91.340236868421698
 51
269.99216307201982
  0
LINE
  8
OUTLINE
  6
CONTINUOUS
 62
     3
 10
-452.95000000006888
 20
0.0
 30
0.0
 11
-447.93305666206919
 21
0.0000000000013642
 31
0.0
  0
ARC
  8
OUTLINE
  6
CONTINUOUS
 62
     3
 10
-448.05660002740865
 20
-1.7348254473896063
 30
0.0
 40
1.7392188752525297
 50
9.0740133077938481
 51
85.926631272602719
  0
LINE
  8
OUTLINE
  6
CONTINUOUS
 62
     3
 10
-446.33914671406728
 20
-1.4605328799957531
 30
0.0
 11
-446.2175683400701
 21
-2.849999999999
 31
0.0
  0
LINE
  8
OUTLINE
  6
CONTINUOUS
 62
     3
 10
-446.2175683400701
 20
-2.849999999999
 30
0.0
 11
-445.70000000006888
 21
-2.8500000000085488
 31
0.0
  0
LINE
  8
OUTLINE
  6
CONTINUOUS
 62
     3
 10
-445.70000000006888
 20
-2.8500000000085488
 30
0.0
 11
-445.70000000006888
 21
-0.8500000000094587
 31
0.0
  0
LINE
  8
OUTLINE
  6
CONTINUOUS
 62
     3
 10
-445.70000000006888
 20
-0.8500000000094587
 30
0.0
 11
-444.80000000006748
 21
-0.8499999999985448
 31
0.0
  0
LINE
  8
OUTLINE
  6
CONTINUOUS
 62
     3
 10
-444.80000000006748
 20
-0.8499999999985448
 30
0.0
 11
-444.80000000006748
 21
0.0
 31
0.0
  0
LINE
  8
OUTLINE
  6
CONTINUOUS
 62
     3
 10
-444.80000000006748
 20
0.0
 30
0.0
 11
444.80000000006748
 21
0.0
 31
0.0
  0
LINE
  8
OUTLINE
  6
CONTINUOUS
 62
     3
 10
444.80000000006748
 20
0.0
 30
0.0
 11
444.80000000006748
 21
-0.8499999999985448
 31
0.0
  0
LINE
  8
OUTLINE
  6
CONTINUOUS
 62
     3
 10
444.80000000006748
 20
-0.8499999999985448
 30
0.0
 11
445.70000000006888
 21
-0.8499999999985448
 31
0.0
  0
LINE
  8
OUTLINE
  6
CONTINUOUS
 62
     3
 10
445.70000000006888
 20
-0.8499999999985448
 30
0.0
 11
445.70000000006888
 21
-2.849999999999
 31
0.0
  0
LINE
  8
OUTLINE
  6
CONTINUOUS
 62
     3
 10
445.70000000006888
 20
-2.849999999999
 30
0.0
 11
446.21756833806188
 21
-2.849999999999
 31
0.0
  0
LINE
  8
OUTLINE
  6
CONTINUOUS
 62
     3
 10
446.21756833806188
 20
-2.849999999999
 30
0.0
 11
446.33914671206639
 21
-1.4605328799957531
 31
0.0
  0
ARC
  8
OUTLINE
  6
CONTINUOUS
 62
     3
 10
447.93305666002925
 20
-1.5999999999242069
 30
0.0
 40
1.5999999999237522
 50
90.0
 51
174.99935542093101
  0
LINE
  8
OUTLINE
  6
CONTINUOUS
 62
     3
 10
447.93305666006108
 20
-0.0000000000004547
 30
0.0
 11
452.92500000006021
 21
0.0
 31
0.0
  0
ARC
  8
OUTLINE
  6
CONTINUOUS
 62
     3
 10
452.92500000006021
 20
-1.0749999999993636
 30
0.0
 40
1.0749999999993636
 50
270.0
 51
90.0
  0
LINE
  8
OUTLINE
  6
CONTINUOUS
 62
     3
 10
452.92500000006021
 20
-2.1499999999987272
 30
0.0
 11
449.70000000006888
 21
-2.1499999999987272
 31
0.0
  0
LINE
  8
OUTLINE
  6
CONTINUOUS
 62
     3
 10
449.70000000006888
 20
-2.1499999999987272
 30
0.0
 11
449.70000000006888
 21
-1.349999999999
 31
0.0
  0
LINE
  8
OUTLINE
  6
CONTINUOUS
 62
     3
 10
449.70000000006888
 20
-1.349999999999
 30
0.0
 11
448.2000000000653
 21
-1.349999999999
 31
0.0
  0
ARC
  8
OUTLINE
  6
CONTINUOUS
 62
     3
 10
448.20000000006206
 20
-1.8499999999957879
 30
0.0
 40
0.499999999996788
 50
90.0
 51
180.0
  0
LINE
  8
OUTLINE
  6
CONTINUOUS
 62
     3
 10
447.7000000000653
 20
-1.849999999997181
 30
0.0
 11
447.70000000006888
 21
-70.000000000010459
 31
0.0
  0
LINE
  8
OUTLINE
  6
CONTINUOUS
 62
     3
 10
447.70000000006888
 20
-70.000000000010459
 30
0.0
 11
466.00000000006179
 21
-70.000000000010459
 31
0.0
  0
LINE
  8
OUTLINE
  6
CONTINUOUS
 62
     3
 10
466.00000000006179
 20
-70.000000000010459
 30
0.0
 11
466.00000000006179
 21
-115.0000000000164
 31
0.0
  0
ARC
  8
OUTLINE
  6
CONTINUOUS
 62
     3
 10
461.00000000006298
 20
-115.00000000001801
 30
0.0
 40
4.9999999999987859
 50
270.0
 51
0.0
  0
LINE
  8
OUTLINE
  6
CONTINUOUS
 62
     3
 10
461.00000000006179
 20
-120.0000000000168
 30
0.0
 11
447.70000000006888
 21
-120.0000000000168
 31
0.0
  0
LINE
  8
OUTLINE
  6
CONTINUOUS
 62
     3
 10
447.70000000006888
 20
-120.0000000000168
 30
0.0
 11
447.70000000006888
 21
-135.05000000001519
 31
0.0
  0
LINE
  8
OUTLINE
  6
CONTINUOUS
 62
     3
 10
447.70000000006888
 20
-135.05000000001519
 30
0.0
 11
448.30000000006748
 21
-135.05000000001519
 31
0.0
  0
LINE
  8
OUTLINE
  6
CONTINUOUS
 62
     3
 10
448.30000000006748
 20
-135.05000000001519
 30
0.0
 11
448.30000000006748
 21
-138.05000000001519
 31
0.0
  0
LINE
  8
OUTLINE
  6
CONTINUOUS
 62
     3
 10
448.30000000006748
 20
-138.05000000001519
 30
0.0
 11
455.70000000357231
 21
-138.05000000001519
 31
0.0
  0
LINE
  8
OUTLINE
  6
CONTINUOUS
 62
     3
 10
455.70000000357231
 20
-138.05000000001519
 30
0.0
 11
524.40000000007603
 21
-146.0500000000238
 31
0.0
  0
LINE
  8
OUTLINE
  6
CONTINUOUS
 62
     3
 10
524.40000000007603
 20
-146.0500000000238
 30
0.0
 11
531.90000000007603
 21
-146.0500000000238
 31
0.0
  0
ARC
  8
OUTLINE
  6
CONTINUOUS
 62
     3
 10
531.90000000008399
 20
-147.15000000001444
 30
0.0
 40
1.0999999999906342
 50
0.0
 51
90.0
  0
LINE
  8
OUTLINE
  6
CONTINUOUS
 62
     3
 10
533.00000000007458
 20
-147.15000000002061
 30
0.0
 11
533.00000000006912
 21
-336.95000000004569
 31
0.0
  0
ARC
  8
OUTLINE
  6
CONTINUOUS
 62
     3
 10
531.90000000010536
 20
-336.95000000005996
 30
0.0
 40
1.0999999999638028
 50
270.0
 51
0.0
  0
LINE
  8
OUTLINE
  6
CONTINUOUS
 62
     3
 10
531.90000000007603
 20
-338.05000000002377
 30
0.0
 11
524.40000000007603
 21
-338.05000000005163
 31
0.0
  0
LINE
  8
OUTLINE
  6
CONTINUOUS
 62
     3
 10
524.40000000007603
 20
-338.05000000005163
 30
0.0
 11
455.70000000006172
 21
-346.05000000005248
 31
0.0
  0
LINE
  8
OUTLINE
  6
CONTINUOUS
 62
     3
 10
455.70000000006172
 20
-346.05000000005248
 30
0.0
 11
448.30000000006748
 21
-346.05000000005248
 31
0.0
  0
LINE
  8
OUTLINE
  6
CONTINUOUS
 62
     3
 10
448.30000000006748
 20
-346.05000000005248
 30
0.0
 11
448.30000000006748
 21
-349.05000000005339
 31
0.0
  0
LINE
  8
OUTLINE
  6
CONTINUOUS
 62
     3
 10
448.30000000006748
 20
-349.05000000005339
 30
0.0
 11
447.70000000006888
 21
-349.05000000005339
 31
0.0
  0
LINE
  8
OUTLINE
  6
CONTINUOUS
 62
     3
 10
447.70000000006888
 20
-349.05000000005339
 30
0.0
 11
447.70000000006888
 21
-402.15000000006188
 31
0.0
  0
ARC
  8
OUTLINE
  6
CONTINUOUS
 62
     3
 10
448.20000000006888
 20
-402.15000000006188
 30
0.0
 40
0.4999999999999902
 50
180.0
 51
270.0
  0
LINE
  8
OUTLINE
  6
CONTINUOUS
 62
     3
 10
448.20000000006888
 20
-402.65000000006188
 30
0.0
 11
449.70000000006888
 21
-402.65000000006057
 31
0.0
  0
LINE
  8
OUTLINE
  6
CONTINUOUS
 62
     3
 10
449.70000000006888
 20
-402.65000000006057
 30
0.0
 11
449.70000000006888
 21
-401.8500000000422
 31
0.0
  0
LINE
  8
OUTLINE
  6
CONTINUOUS
 62
     3
 10
449.70000000006888
 20
-401.8500000000422
 30
0.0
 11
452.92500000006021
 21
-401.85000000006539
 31
0.0
  0
ARC
  8
OUTLINE
  6
CONTINUOUS
 62
     3
 10
452.92485294125999
 20
-402.92514705888425
 30
0.0
 40
1.0751470688762224
 50
271.34023686739351
 51
89.992163073440622
  0
LINE
  8
OUTLINE
  6
CONTINUOUS
 62
     3
 10
452.95000000006888
 20
-404.00000000005639
 30
0.0
 11
447.93306493806358
 21
-404.00000000005639
 31
0.0
  0
ARC
  8
OUTLINE
  6
CONTINUOUS
 62
     3
 10
447.93306493806023
 20
-402.40000000005995
 30
0.0
 40
1.5999999999964183
 50
184.99999999996487
 51
270.0
  0
LINE
  8
OUTLINE
  6
CONTINUOUS
 62
     3
 10
446.33915342111692
 20
-402.53944918845491
 30
0.0
 11
446.21759236806162
 21
-401.15000000005779
 31
0.0
  0
LINE
  8
OUTLINE
  6
CONTINUOUS
 62
     3
 10
446.21759236806162
 20
-401.15000000005779
 30
0.0
 11
445.70000000007622
 21
-401.15000000005881
 31
0.0
  0
LINE
  8
OUTLINE
  6
CONTINUOUS
 62
     3
 10
445.70000000007622
 20
-401.15000000005881
 30
0.0
 11
445.70000000007622
 21
-403.15000000005779
 31
0.0
  0
LINE
  8
OUTLINE
  6
CONTINUOUS
 62
     3
 10
445.70000000007622
 20
-403.15000000005779
 30
0.0
 11
444.80000000006748
 21
-403.1500000000583
 31
0.0
  0
LINE
  8
OUTLINE
  6
CONTINUOUS
 62
     3
 10
444.80000000006748
 20
-403.1500000000583
 30
0.0
 11
444.80000000006748
 21
-404.00000000005639
 31
0.0
  0
LINE
  8
OUTLINE
  6
CONTINUOUS
 62
     3
 10
444.80000000006748
 20
-404.00000000005639
 30
0.0
 11
-444.80000000006748
 21
-404.00000000005639
 31
0.0
  0
LINE
  8
OUTLINE
  6
CONTINUOUS
 62
     3
 10
-444.80000000006748
 20
-404.00000000005639
 30
0.0
 11
-444.80000000006748
 21
-403.1500000000583
 31
0.0
  0
LINE
  8
OUTLINE
  6
CONTINUOUS
 62
     3
 10
-444.80000000006748
 20
-403.1500000000583
 30
0.0
 11
-445.70000000006888
 21
-403.1500000000583
 31
0.0
  0
LINE
  8
OUTLINE
  6
CONTINUOUS
 62
     3
 10
-445.70000000006888
 20
-403.1500000000583
 30
0.0
 11
-445.70000000006888
 21
-401.15000000006057
 31
0.0
  0
LINE
  8
OUTLINE
  6
CONTINUOUS
 62
     3
 10
-445.70000000006888
 20
-401.15000000006057
 30
0.0
 11
-446.21759237006239
 21
-401.15000000005779
 31
0.0
  0
LINE
  8
OUTLINE
  6
CONTINUOUS
 62
     3
 10
-446.21759237006239
 20
-401.15000000005779
 30
0.0
 11
-446.33915342312463
 21
-402.53944918845491
 31
0.0
  0
ARC
  8
OUTLINE
  6
CONTINUOUS
 62
     3
 10
-447.9330649400718
 20
-402.40000000005773
 30
0.0
 40
1.6000000000004873
 50
270.0
 51
354.99999999996817
  0
LINE
  8
OUTLINE
  6
CONTINUOUS
 62
     3
 10
-447.93306494007169
 20
-404.00000000005821
 30
0.0
 11
-452.95000000006888
 21
-404.00000000005639
 31
0.0
  0
ARC
  8
OUTLINE
  6
CONTINUOUS
 62
     3
 10
-452.92485294123509
 20
-402.92514705888453
 30
0.0
 40
1.0751470688765157
 50
90.007836928273946
 51
268.65976313127976
  0
LINE
  8
OUTLINE
  6
CONTINUOUS
 62
     3
 10
-452.92500000006748
 20
-401.85000000006539
 30
0.0
 11
-449.70000000006172
 21
-401.85000000004402
 31
0.0
  0
LINE
  8
OUTLINE
  6
CONTINUOUS
 62
     3
 10
-449.70000000006172
 20
-401.85000000004402
 30
0.0
 11
-449.7000000000653
 21
-402.65000000006103
 31
0.0
  0
LINE
  8
OUTLINE
  6
CONTINUOUS
 62
     3
 10
-449.7000000000653
 20
-402.65000000006103
 30
0.0
 11
-448.2000000000653
 21
-402.65000000006148
 31
0.0
  0
ARC
  8
OUTLINE
  6
CONTINUOUS
 62
     3
 10
-448.20000000006507
 20
-402.15000000006171
 30
0.0
 40
0.4999999999997962
 50
270.0
 51
0.0
  0
LINE
  8
OUTLINE
  6
CONTINUOUS
 62
     3
 10
-447.7000000000653
 20
-402.15000000006148
 30
0.0
 11
-447.70000000006888
 21
-349.05000000005339
 31
0.0
  0
LINE
  8
OUTLINE
  6
CONTINUOUS
 62
     3
 10
-447.70000000006888
 20
-349.05000000005339
 30
0.0
 11
-448.30000000006748
 21
-349.04999999605161
 31
0.0
  0
LINE
  8
OUTLINE
  6
CONTINUOUS
 62
     3
 10
-448.30000000006748
 20
-349.04999999605161
 30
0.0
 11
-448.30000000006612
 21
-346.65000000005148
 31
0.0
  0
TEXT
  8
NOTE
  6
CONTINUOUS
 62
     4
 10
592.96250524046809
 20
-277.09615046929463
 30
0.0
 40
64.065641025638456
  1
SA
 41
0.9
  0
TEXT
  8
NOTE
  6
CONTINUOUS
 62
     4
 10
-691.8066371085888
 20
-277.09615046929463
 30
0.0
 40
64.065641025638456
  1
OA
 41
0.9
  0
TEXT
  8
ETC
  6
CONTINUOUS
 62
    61
 10
857.65479278279145
 20
788.79021878178492
 30
0.0
 40
64.065641025638456
  1
LGH-65RVX3-E_5
 41
0.9
  0
TEXT
  8
ETC
  6
CONTINUOUS
 62
    61
 10
853.4645054556122
 20
670.71392896181442
 30
0.0
 40
64.065641025638456
  1
LOSSNAY
 41
0.9
  0
TEXT
  8
ETC
  6
CONTINUOUS
 62
    61
 10
904.21790513826727
 20
562.45423425724823
 30
0.0
 40
40.041025641024042
  1
LGH-65RVX3-E
 50
0.0
 41
0.9
 51
0.0
  7
STANDARD
 71
     0
 11
0.0
 21
0.0
 31
0.0
210
0.0
220
0.0
230
1.0
  0
TEXT
  8
NOTE
  6
CONTINUOUS
 62
     4
 10
523.4630332269071
 20
-452.21626031278129
 30
0.0
 40
69.0
  1
Power supply
 50
0.0
 41
0.9
 51
0.0
  7
STANDARD
 71
     0
 11
0.0
 21
0.0
 31
0.0
210
0.0
220
0.0
230
1.0
  0
TEXT
  8
NOTE
  6
CONTINUOUS
 62
     4
 10
523.4630332269071
 20
-566.06626031278131
 30
0.0
 40
69.0
  1
cable opening
 50
0.0
 41
0.9
 51
0.0
  7
STANDARD
 71
     0
 11
0.0
 21
0.0
 31
0.0
210
0.0
220
0.0
230
1.0
  0
LINE
  8
NOTE
  6
CONTINUOUS
 62
     4
 10
513.4630332269071
 20
-590.21626031278129
 30
0.0
 11
1165.1630332269069
 21
-590.21626031278129
 31
0.0
  0
LINE
  8
NOTE
  6
CONTINUOUS
 62
     4
 10
406.28760843104158
 20
-342.67728625708281
 30
0.0
 11
403.5000000000573
 21
-306.55000000004429
 31
0.0
  0
LINE
  8
NOTE
  6
CONTINUOUS
 62
     4
 10
403.5000000000573
 20
-306.55000000004429
 30
0.0
 11
423.97782789317603
 21
-336.44331259403941
 31
0.0
  0
LINE
  8
NOTE
  6
CONTINUOUS
 62
     4
 10
403.5000000000573
 20
-306.55000000004429
 30
0.0
 11
426.76543632416031
 21
-372.57059885107799
 31
0.0
  0
LINE
  8
NOTE
  6
CONTINUOUS
 62
     4
 10
426.76543632416019
 20
-372.57059885107799
 30
0.0
 11
503.4630332269071
 21
-590.21626031278129
 31
0.0
  0
LINE
  8
NOTE
  6
CONTINUOUS
 62
     4
 10
503.4630332269071
 20
-590.21626031278129
 30
0.0
 11
513.4630332269071
 21
-590.21626031278129
 31
0.0
  0
TEXT
  8
NOTE
  6
CONTINUOUS
 62
     4
 10
625.02552478934922
 20
379.50919782021668
 30
0.0
 40
69.0
  1
Ceiling suspension fixture
 50
0.0
 41
0.9
 51
0.0
  7
STANDARD
 71
     0
 11
0.0
 21
0.0
 31
0.0
210
0.0
220
0.0
230
1.0
  0
TEXT
  8
NOTE
  6
CONTINUOUS
 62
     4
 10
625.02552478934922
 20
265.65919782021672
 30
0.0
 40
69.0
  1
(4-13X20 oval)
 50
0.0
 41
0.9
 51
0.0
  7
STANDARD
 71
     0
 11
0.0
 21
0.0
 31
0.0
210
0.0
220
0.0
230
1.0
  0
LINE
  8
NOTE
  6
CONTINUOUS
 62
     4
 10
615.02552478934922
 20
228.3663406773594
 30
0.0
 11
1831.539810503635
 21
228.3663406773594
 31
0.0
  0
LINE
  8
NOTE
  6
CONTINUOUS
 62
     4
 10
472.1343223502513
 20
-43.427425126482007
 30
0.0
 11
447.50000000006457
 21
-70.000000000016371
 31
0.0
  0
LINE
  8
NOTE
  6
CONTINUOUS
 62
     4
 10
447.50000000006457
 20
-70.000000000016371
 30
0.0
 11
455.54760828371565
 21
-34.670301813145166
 31
0.0
  0
LINE
  8
NOTE
  6
CONTINUOUS
 62
     4
 10
447.50000000006457
 20
-70.000000000016371
 30
0.0
 11
480.18193063390243
 21
-8.0977269396108014
 31
0.0
  0
LINE
  8
NOTE
  6
CONTINUOUS
 62
     4
 10
480.18193063390231
 20
-8.0977269396107445
 30
0.0
 11
605.02552478934922
 21
228.3663406773594
 31
0.0
  0
LINE
  8
NOTE
  6
CONTINUOUS
 62
     4
 10
605.02552478934922
 20
228.3663406773594
 30
0.0
 11
615.02552478934922
 21
228.3663406773594
 31
0.0
  0
ENDSEC
  0
EOF
