  0
SECTION
  2
HEADER
  9
$ACADVER
  1
AC1009
  9
$DWGCODEPAGE
  3
dos932
  9
$INSBASE
 10
0.0
 20
0.0
 30
0.0
  9
$EXTMIN
 10
-829.33042801373085
 20
-577.74351872241095
 30
-0.0015258207003583
  9
$EXTMAX
 10
1879.815686389124
 20
892.73072126406441
 30
0.0000000349246037
  9
$LIMMIN
 10
-2970.0
 20
-2100.0
  9
$LIMMAX
 10
2970.0
 20
2100.0
  9
$ORTHOMODE
 70
     1
  9
$REGENMODE
 70
     1
  9
$FILLMODE
 70
     1
  9
$QTEXTMODE
 70
     0
  9
$MIRRTEXT
 70
     0
  9
$LTSCALE
 40
20.0
  9
$ATTMODE
 70
     1
  9
$TEXTSIZE
 40
64.0
  9
$TRACEWID
 40
0.05
  9
$TEXTSTYLE
  7
STANDARD
  9
$CLAYER
  8
SIZE
  9
$CELTYPE
  6
CONTINUOUS
  9
$CECOLOR
 62
     7
  9
$DIMSCALE
 40
1.0
  9
$DIMASZ
 40
12.0
  9
$DIMEXO
 40
20.0
  9
$DIMDLI
 40
200.0
  9
$DIMRND
 40
0.0
  9
$DIMDLE
 40
0.0
  9
$DIMEXE
 40
20.0
  9
$DIMTP
 40
0.0
  9
$DIMTM
 40
0.0
  9
$DIMTXT
 40
64.0
  9
$DIMCEN
 40
0.09
  9
$DIMTSZ
 40
0.0
  9
$DIMTOL
 70
     0
  9
$DIMLIM
 70
     0
  9
$DIMTIH
 70
     0
  9
$DIMTOH
 70
     0
  9
$DIMSE1
 70
     0
  9
$DIMSE2
 70
     0
  9
$DIMTAD
 70
     1
  9
$DIMZIN
 70
     8
  9
$DIMBLK
  1

  9
$DIMASO
 70
     1
  9
$DIMSHO
 70
     0
  9
$DIMPOST
  1

  9
$DIMAPOST
  1

  9
$DIMALT
 70
     0
  9
$DIMALTD
 70
     2
  9
$DIMALTF
 40
25.399999999999999
  9
$DIMLFAC
 40
1.0
  9
$DIMTOFL
 70
     1
  9
$DIMTVP
 40
0.0
  9
$DIMTIX
 70
     1
  9
$DIMSOXD
 70
     0
  9
$DIMSAH
 70
     0
  9
$DIMBLK1
  1

  9
$DIMBLK2
  1

  9
$DIMSTYLE
  2
STANDARD
  9
$DIMCLRD
 70
     7
  9
$DIMCLRE
 70
     7
  9
$DIMCLRT
 70
     7
  9
$DIMTFAC
 40
1.0
  9
$DIMGAP
 40
25.0
  9
$LUNITS
 70
     2
  9
$LUPREC
 70
     4
  9
$SKETCHINC
 40
0.1
  9
$FILLETRAD
 40
3.0
  9
$AUNITS
 70
     1
  9
$AUPREC
 70
     3
  9
$MENU
  1
ACAD
  9
$ELEVATION
 40
0.0
  9
$PELEVATION
 40
0.0
  9
$THICKNESS
 40
0.0
  9
$LIMCHECK
 70
     0
  9
$CHAMFERA
 40
0.0
  9
$CHAMFERB
 40
0.0
  9
$SKPOLY
 70
     0
  9
$TDCREATE
 40
2453019.62301037
  9
$TDUPDATE
 40
2460045.428609665
  9
$TDINDWG
 40
1.7178400579
  9
$TDUSRTIMER
 40
1.7178400579
  9
$USRTIMER
 70
     1
  9
$ANGBASE
 50
0.0
  9
$ANGDIR
 70
     0
  9
$PDMODE
 70
     3
  9
$PDSIZE
 40
-2.0
  9
$PLINEWID
 40
0.0
  9
$SPLFRAME
 70
     0
  9
$SPLINETYPE
 70
     6
  9
$SPLINESEGS
 70
     8
  9
$SURFTAB1
 70
     6
  9
$SURFTAB2
 70
     6
  9
$SURFTYPE
 70
     6
  9
$SURFU
 70
     6
  9
$SURFV
 70
     6
  9
$UCSNAME
  2

  9
$UCSORG
 10
0.0
 20
0.0
 30
0.0
  9
$UCSXDIR
 10
1.0
 20
0.0
 30
0.0
  9
$UCSYDIR
 10
0.0
 20
1.0
 30
0.0
  9
$PUCSNAME
  2

  9
$PUCSORG
 10
0.0
 20
0.0
 30
0.0
  9
$PUCSXDIR
 10
1.0
 20
0.0
 30
0.0
  9
$PUCSYDIR
 10
0.0
 20
1.0
 30
0.0
  9
$USERI1
 70
     0
  9
$USERI2
 70
     0
  9
$USERI3
 70
     0
  9
$USERI4
 70
     0
  9
$USERI5
 70
     0
  9
$USERR1
 40
20.0
  9
$USERR2
 40
0.0
  9
$USERR3
 40
0.0
  9
$USERR4
 40
0.0
  9
$USERR5
 40
0.0
  9
$WORLDVIEW
 70
     1
  9
$SHADEDGE
 70
     3
  9
$SHADEDIF
 70
    70
  9
$TILEMODE
 70
     1
  9
$MAXACTVP
 70
    48
  9
$PINSBASE
 10
0.0
 20
0.0
 30
0.0
  9
$PLIMCHECK
 70
     0
  9
$PEXTMIN
 10
-100000000000000000000.0
 20
-100000000000000000000.0
 30
-100000000000000000000.0
  9
$PEXTMAX
 10
100000000000000000000.0
 20
100000000000000000000.0
 30
100000000000000000000.0
  9
$PLIMMIN
 10
0.0
 20
0.0
  9
$PLIMMAX
 10
12.0
 20
9.0
  9
$UNITMODE
 70
     0
  9
$VISRETAIN
 70
     0
  9
$PLINEGEN
 70
     0
  9
$PSLTSCALE
 70
     0
  9
$TREEDEPTH
 70
  3020
  9
$ATTDIA
 70
     0
  9
$ATTREQ
 70
     1
  9
$BLIPMODE
 70
     1
  9
$COORDS
 70
     1
  9
$DRAGMODE
 70
     2
  9
$OSMODE
 70
     0
  9
$HANDLING
 70
     0
  9
$HANDSEED
  5
F114
  0
ENDSEC
  0
SECTION
  2
TABLES
  0
TABLE
  2
LTYPE
 70
     2
  0
LTYPE
  2
CONTINUOUS
 70
     0
  3
実線
 72
    65
 73
     0
 40
0.0
  0
LTYPE
  2
DASHDOT
 70
     0
  3
____ _ ____ _ ____ _ ____ _ ____ _ ____ _ ____
 72
    65
 73
     4
 40
5.5
 49
4.0
 49
-0.6
 49
0.3
 49
-0.6
  0
ENDTAB
  0
TABLE
  2
LAYER
 70
    12
  0
LAYER
  2
0
 70
     0
 62
     7
  6
CONTINUOUS
  0
LAYER
  2
BASIS
 70
     0
 62
     6
  6
DASHDOT
  0
LAYER
  2
OUTLINE
 70
     0
 62
     3
  6
CONTINUOUS
  0
LAYER
  2
DETAIL
 70
     0
 62
     5
  6
CONTINUOUS
  0
LAYER
  2
SIZE
 70
     0
 62
    30
  6
CONTINUOUS
  0
LAYER
  2
ARRANGE
 70
     0
 62
     1
  6
CONTINUOUS
  0
LAYER
  2
DEFPOINTS
 70
     0
 62
     7
  6
CONTINUOUS
  0
LAYER
  2
ETC
 70
     0
 62
    61
  6
CONTINUOUS
  0
LAYER
  2
FIX
 70
     0
 62
    11
  6
CONTINUOUS
  0
LAYER
  2
NOTE
 70
     0
 62
     4
  6
CONTINUOUS
  0
LAYER
  2
SERVICESPACE
 70
    64
 62
     2
  6
DASHDOT
  0
LAYER
  2
SYMBOLLINE
 70
    64
 62
    15
  6
CONTINUOUS
  0
ENDTAB
  0
TABLE
  2
STYLE
 70
     1
  0
STYLE
  2
STANDARD
 70
     0
 40
64.0
 41
0.9
 50
0.0
 71
     0
 42
64.0
  3
SIMPLEX.shx
  4
BIGFONT.shx
  0
ENDTAB
  0
TABLE
  2
APPID
 70
    20
  0
APPID
  2
ACAD
 70
     0
  0
APPID
  2
AUTOCAD_POSTSCRIPT_FIGURE
 70
     0
  0
APPID
  2
ACAD_EXEMPT_FROM_CAD_STANDARDS
 70
     0
  0
APPID
  2
ACAD_PSEXT
 70
     0
  0
APPID
  2
ACAUTHENVIRON
 70
     0
  0
APPID
  2
GENIUS_GENOENT_13
 70
     0
  0
APPID
  2
GENIUS_GENCFG_13
 70
     0
  0
APPID
  2
GENIUS_GENCFG0_13
 70
     0
  0
APPID
  2
GENIUS_GENCFG1_13
 70
     0
  0
APPID
  2
GENIUS_GENCFG2_13
 70
     0
  0
APPID
  2
GENIUS_GENCFG3_13
 70
     0
  0
APPID
  2
GENIUS_GENCFG4_13
 70
     0
  0
APPID
  2
GENIUS_GEVCFG0_13
 70
     0
  0
APPID
  2
CONTENTBLOCKICON
 70
     0
  0
APPID
  2
CONTENTBLOCKDESCRIPTION
 70
     0
  0
APPID
  2
ACAD_NAV_VCDISPLAY
 70
     0
  0
APPID
  2
ACAD_MLEADERVER
 70
     0
  0
APPID
  2
ACDBDYNAMICBLOCKTRUENAME
 70
     0
  0
APPID
  2
ACDBDYNAMICBLOCKGUID
 70
     0
  0
APPID
  2
ACAD_DSTYLE_DIMRADIAL_EXTENSION
 70
     0
  0
ENDTAB
  0
TABLE
  2
DIMSTYLE
 70
     1
  0
DIMSTYLE
  2
STANDARD
 70
     0
  3

  4

  5
_ORIGIN
  6

  7

 40
1.0
 41
12.0
 42
20.0
 43
200.0
 44
20.0
 45
0.0
 46
0.0
 47
0.0
 48
0.0
140
64.0
141
0.09
142
0.0
143
25.399999999999999
144
1.0
145
0.0
146
1.0
147
25.0
 71
     0
 72
     0
 73
     0
 74
     0
 75
     0
 76
     0
 77
     1
 78
     8
170
     0
171
     2
172
     1
173
     0
174
     1
175
     0
176
     7
177
     7
178
     7
  0
ENDTAB
  0
TABLE
  2
VIEW
 70
     1
  0
VIEW
  2
ALL
 70
     0
 40
4282.6198079999986
 10
0.0
 20
41.309904000000003
 41
5940.0
 11
0.0
 21
0.0
 31
1.0
 12
0.0
 22
0.0
 32
0.0
 42
50.0
 43
0.0
 44
0.0
 50
0.0
 71
     0
  0
ENDTAB
  0
TABLE
  2
UCS
 70
     0
  0
ENDTAB
  0
TABLE
  2
VPORT
 70
     1
  0
VPORT
  2
*ACTIVE
 70
     0
 10
0.0
 20
0.0
 11
1.0
 21
1.0
 12
525.24262918769648
 22
157.4936012708267
 13
0.0
 23
0.0
 14
1.0
 24
1.0
 15
0.0
 25
0.0
 16
0.0
 26
0.0
 36
1.0
 17
0.0
 27
0.0
 37
0.0
 40
1526.6630958741509
 41
1.781285231116122
 42
50.0
 43
0.0
 44
0.0
 50
0.0
 51
0.0
 71
     0
 72
  1000
 73
     1
 74
     3
 75
     0
 76
     0
 77
     0
 78
     0
  0
ENDTAB
  0
ENDSEC
  0
SECTION
  2
BLOCKS
  0
BLOCK
  8
0
  2
_ORIGIN
 70
     0
 10
0.0
 20
0.0
 30
0.0
  3
_ORIGIN
  1
_ORIGIN
  0
CIRCLE
  8
0
  6
CONTINUOUS
 62
     7
 10
0.0
 20
0.0
 30
0.0
 40
0.5
  0
LINE
  8
0
  6
CONTINUOUS
 62
     7
 10
0.0
 20
0.0
 30
0.0
 11
-1.0
 21
0.0
 31
0.0
  0
ENDBLK
  8
0
  0
ENDSEC
  0
SECTION
  2
ENTITIES
  0
LINE
  8
DETAIL
  6
CONTINUOUS
 62
     5
 10
586.9000000000824
 20
-88.100000000003092
 30
0.0
 11
586.9000000000824
 21
-347.30000000004378
 31
0.0
  0
LINE
  8
DETAIL
  6
CONTINUOUS
 62
     5
 10
586.30000000008386
 20
-346.50000000004093
 30
0.0
 11
586.30000000008295
 21
-88.900000000006003
 31
0.0
  0
LINE
  8
DETAIL
  6
CONTINUOUS
 62
     5
 10
586.30000000008295
 20
-88.100000000003092
 30
0.0
 11
586.30000000008295
 21
-88.801866672006327
 31
0.0
  0
LINE
  8
DETAIL
  6
CONTINUOUS
 62
     5
 10
586.30000000008386
 20
-346.59813333004882
 30
0.0
 11
586.30000000008386
 21
-347.30000000004378
 31
0.0
  0
LINE
  8
DETAIL
  6
CONTINUOUS
 62
     5
 10
585.70000000007713
 20
-86.899999999998727
 30
0.0
 11
585.70000000007713
 21
-87.752055014007965
 31
0.0
  0
LINE
  8
DETAIL
  6
CONTINUOUS
 62
     5
 10
585.70000000007713
 20
-347.64794498603902
 30
0.0
 11
585.70000000007713
 21
-348.50000000004093
 31
0.0
  0
LINE
  8
DETAIL
  6
CONTINUOUS
 62
     5
 10
520.50000000007094
 20
-63.200000000004373
 30
0.0
 11
520.50000000007094
 21
-66.80000000000291
 31
0.0
  0
LINE
  8
DETAIL
  6
CONTINUOUS
 62
     5
 10
520.50000000007094
 20
-76.400000000008731
 30
0.0
 11
520.50000000007094
 21
-80.0
 31
0.0
  0
LINE
  8
DETAIL
  6
CONTINUOUS
 62
     5
 10
517.30000000006567
 20
-63.200000000004373
 30
0.0
 11
517.30000000006567
 21
-66.80000000000291
 31
0.0
  0
LINE
  8
DETAIL
  6
CONTINUOUS
 62
     5
 10
517.30000000006567
 20
-76.400000000008731
 30
0.0
 11
517.30000000006567
 21
-80.0
 31
0.0
  0
LINE
  8
DETAIL
  6
CONTINUOUS
 62
     5
 10
515.8000000000693
 20
-357.15000000003778
 30
0.0
 11
515.8000000000693
 21
-358.15000000003778
 31
0.0
  0
LINE
  8
DETAIL
  6
CONTINUOUS
 62
     5
 10
508.80000000006021
 20
-356.15000000003778
 30
0.0
 11
508.80000000006021
 21
-348.50000000004093
 31
0.0
  0
LINE
  8
DETAIL
  6
CONTINUOUS
 62
     5
 10
508.39722442207039
 20
-73.200000000011642
 30
0.0
 11
508.39722442207039
 21
-86.899999999998727
 31
0.0
  0
LINE
  8
DETAIL
  6
CONTINUOUS
 62
     5
 10
507.80000000006748
 20
-356.15000000003778
 30
0.0
 11
507.80000000006748
 21
-348.50000000004093
 31
0.0
  0
LINE
  8
DETAIL
  6
CONTINUOUS
 62
     5
 10
506.80000000006748
 20
-361.35000000004948
 30
0.0
 11
506.80000000006748
 21
-356.15000000003778
 31
0.0
  0
LINE
  8
DETAIL
  6
CONTINUOUS
 62
     5
 10
506.19722442206597
 20
-73.200000000011642
 30
0.0
 11
506.19722442206597
 21
-86.899999999998727
 31
0.0
  0
LINE
  8
DETAIL
  6
CONTINUOUS
 62
     5
 10
505.20000000006888
 20
-356.49192597404908
 30
0.0
 11
505.20000000006888
 21
-348.50000000004093
 31
0.0
  0
LINE
  8
DETAIL
  6
CONTINUOUS
 62
     5
 10
505.20000000006797
 20
-86.899999999998727
 30
0.0
 11
505.20000000006797
 21
-73.200000000011642
 31
0.0
  0
LINE
  8
DETAIL
  6
CONTINUOUS
 62
     5
 10
505.20000000006797
 20
-70.0
 30
0.0
 11
505.20000000006797
 21
-47.608074492003652
 31
0.0
  0
LINE
  8
DETAIL
  6
CONTINUOUS
 62
     5
 10
497.20000000006797
 20
-86.899999999998727
 30
0.0
 11
497.20000000006797
 21
-77.80000000000291
 31
0.0
  0
LINE
  8
DETAIL
  6
CONTINUOUS
 62
     5
 10
497.20000000006797
 20
-59.750000000007283
 30
0.0
 11
497.20000000006797
 21
-44.75
 31
0.0
  0
LINE
  8
DETAIL
  6
CONTINUOUS
 62
     5
 10
491.40000000006421
 20
-44.75
 30
0.0
 11
491.40000000006421
 21
-59.750000000007283
 31
0.0
  0
LINE
  8
DETAIL
  6
CONTINUOUS
 62
     5
 10
491.10000000006772
 20
-86.899999999998727
 30
0.0
 11
491.10000000006772
 21
-78.300000000010186
 31
0.0
  0
LINE
  8
DETAIL
  6
CONTINUOUS
 62
     5
 10
488.70000000006621
 20
-75.80000000000291
 30
0.0
 11
488.70000000006621
 21
-78.300000000010186
 31
0.0
  0
LINE
  8
DETAIL
  6
CONTINUOUS
 62
     5
 10
483.80000000005663
 20
-70.0
 30
0.0
 11
483.80000000005663
 21
-32.400000000001462
 31
0.0
  0
LINE
  8
DETAIL
  6
CONTINUOUS
 62
     5
 10
480.30000000006379
 20
-32.400000000001462
 30
0.0
 11
480.30000000006379
 21
-70.0
 31
0.0
  0
LINE
  8
DETAIL
  6
CONTINUOUS
 62
     5
 10
479.60000000006681
 20
-399.20000000004802
 30
0.0
 11
479.60000000006681
 21
-398.60000000004948
 31
0.0
  0
LINE
  8
DETAIL
  6
CONTINUOUS
 62
     5
 10
479.60000000006681
 20
-4.8999999999869033
 30
0.0
 11
479.60000000006681
 21
-5.5
 31
0.0
  0
LINE
  8
DETAIL
  6
CONTINUOUS
 62
     5
 10
476.00000000006088
 20
-347.8956253240367
 30
0.0
 11
476.00000000006088
 21
-347.30000000004378
 31
0.0
  0
LINE
  8
DETAIL
  6
CONTINUOUS
 62
     5
 10
476.00000000006088
 20
-87.500000000004547
 30
0.0
 11
476.00000000006088
 21
-86.899999999998727
 31
0.0
  0
LINE
  8
DETAIL
  6
CONTINUOUS
 62
     5
 10
476.00000000006088
 20
-87.504374678003842
 30
0.0
 11
476.00000000006088
 21
-88.100000000003092
 31
0.0
  0
LINE
  8
DETAIL
  6
CONTINUOUS
 62
     5
 10
476.00000000006088
 20
-347.90000000004238
 30
0.0
 11
476.00000000006088
 21
-348.50000000004093
 31
0.0
  0
LINE
  8
DETAIL
  6
CONTINUOUS
 62
     5
 10
475.70000000006348
 20
-403.15000000005062
 30
0.0
 11
475.70000000006348
 21
-402.65000000004329
 31
0.0
  0
LINE
  8
DETAIL
  6
CONTINUOUS
 62
     5
 10
475.70000000006348
 20
-1.3499999999912691
 30
0.0
 11
475.70000000006348
 21
-0.8499999999912689
 31
0.0
  0
LINE
  8
DETAIL
  6
CONTINUOUS
 62
     5
 10
473.90000000006148
 20
-120.0000000000073
 30
0.0
 11
473.90000000006148
 21
-76.400000000008731
 31
0.0
  0
LINE
  8
DETAIL
  6
CONTINUOUS
 62
     5
 10
473.70000000006439
 20
-400.95000000005348
 30
0.0
 11
473.70000000006439
 21
-347.30000000004378
 31
0.0
  0
LINE
  8
DETAIL
  6
CONTINUOUS
 62
     5
 10
473.70000000006439
 20
-70.985376524004096
 30
0.0
 11
473.70000000006439
 21
-3.049999999995634
 31
0.0
  0
LINE
  8
DETAIL
  6
CONTINUOUS
 62
     5
 10
471.5000000000673
 20
-346.58360070203798
 30
0.0
 11
471.5000000000673
 21
-347.30000000004378
 31
0.0
  0
LINE
  8
DETAIL
  6
CONTINUOUS
 62
     5
 10
470.70000000006439
 20
-402.15000000005062
 30
0.0
 11
470.70000000006439
 21
-1.8499999999912691
 31
0.0
  0
LINE
  8
DETAIL
  6
CONTINUOUS
 62
     5
 10
470.20000000006348
 20
-402.15000000005062
 30
0.0
 11
470.20000000006348
 21
-401.15000000005779
 31
0.0
  0
LINE
  8
DETAIL
  6
CONTINUOUS
 62
     5
 10
470.20000000006348
 20
-1.8499999999912691
 30
0.0
 11
470.20000000006348
 21
-2.8499999999912689
 31
0.0
  0
LINE
  8
DETAIL
  6
CONTINUOUS
 62
     5
 10
468.70000000006348
 20
-403.15000000005062
 30
0.0
 11
468.70000000006348
 21
-401.15000000005779
 31
0.0
  0
LINE
  8
DETAIL
  6
CONTINUOUS
 62
     5
 10
468.70000000006348
 20
-0.8499999999912689
 30
0.0
 11
468.70000000006348
 21
-2.8499999999912689
 31
0.0
  0
LINE
  8
DETAIL
  6
CONTINUOUS
 62
     5
 10
467.80000000006203
 20
-0.8499999999912689
 30
0.0
 11
467.80000000006203
 21
0.0
 31
0.0
  0
LINE
  8
DETAIL
  6
CONTINUOUS
 62
     5
 10
467.80000000006203
 20
-403.15000000005062
 30
0.0
 11
467.80000000006203
 21
-404.00000000005639
 31
0.0
  0
LINE
  8
DETAIL
  6
CONTINUOUS
 62
     5
 10
470.13610918206001
 20
-1.5302754059885051
 30
0.0
 11
470.02064824006271
 21
-2.8499999999912689
 31
0.0
  0
LINE
  8
DETAIL
  6
CONTINUOUS
 62
     5
 10
469.33915342206637
 20
-1.460550811993016
 30
0.0
 11
469.21759237006432
 21
-2.8499999999912689
 31
0.0
  0
LINE
  8
DETAIL
  6
CONTINUOUS
 62
     5
 10
453.00000000006179
 20
-193.49898680802559
 30
0.0
 11
453.00000000006179
 21
-290.60121319403243
 31
0.0
  0
LINE
  8
DETAIL
  6
CONTINUOUS
 62
     5
 10
450.70000000006172
 20
-115.0000000000073
 30
0.0
 11
450.70000000006172
 21
-108.5021363240012
 31
0.0
  0
LINE
  8
DETAIL
  6
CONTINUOUS
 62
     5
 10
470.02064824006271
 20
-401.15000000005779
 30
0.0
 11
470.13610918206092
 21
-402.46972459404611
 31
0.0
  0
LINE
  8
DETAIL
  6
CONTINUOUS
 62
     5
 10
469.21759237006432
 20
-401.15000000005779
 30
0.0
 11
469.33915342206728
 21
-402.5394491880561
 31
0.0
  0
LINE
  8
DETAIL
  6
CONTINUOUS
 62
     5
 10
-475.95000000007258
 20
0.0
 30
0.0
 11
-470.93306493807268
 21
0.0
 31
0.0
  0
LINE
  8
DETAIL
  6
CONTINUOUS
 62
     5
 10
475.95000000006439
 20
0.0
 30
0.0
 11
470.93306494006077
 21
0.0
 31
0.0
  0
LINE
  8
DETAIL
  6
CONTINUOUS
 62
     5
 10
467.80000000006203
 20
0.0
 30
0.0
 11
-467.80000000007573
 21
0.0
 31
0.0
  0
LINE
  8
DETAIL
  6
CONTINUOUS
 62
     5
 10
-475.95000000007258
 20
-0.7999999999883585
 30
0.0
 11
-470.93306493807268
 21
-0.7999999999883585
 31
0.0
  0
LINE
  8
DETAIL
  6
CONTINUOUS
 62
     5
 10
475.95000000006439
 20
-0.7999999999883585
 30
0.0
 11
470.93306494006077
 21
-0.7999999999883585
 31
0.0
  0
LINE
  8
DETAIL
  6
CONTINUOUS
 62
     5
 10
468.70000000006348
 20
-0.8499999999912689
 30
0.0
 11
463.4173009180513
 21
-0.8499999999912689
 31
0.0
  0
LINE
  8
DETAIL
  6
CONTINUOUS
 62
     5
 10
475.70000000006348
 20
-0.8499999999912689
 30
0.0
 11
471.20000000006439
 21
-0.8499999999912689
 31
0.0
  0
LINE
  8
DETAIL
  6
CONTINUOUS
 62
     5
 10
-463.41730091807682
 20
-0.8499999999912689
 30
0.0
 11
-468.70000000007889
 21
-0.8499999999912689
 31
0.0
  0
LINE
  8
DETAIL
  6
CONTINUOUS
 62
     5
 10
-471.20000000007991
 20
-0.8499999999912689
 30
0.0
 11
-475.70000000007258
 21
-0.8499999999912689
 31
0.0
  0
LINE
  8
DETAIL
  6
CONTINUOUS
 62
     5
 10
-471.20000000007991
 20
-1.3499999999912691
 30
0.0
 11
-475.92500000007391
 21
-1.3499999999912691
 31
0.0
  0
LINE
  8
DETAIL
  6
CONTINUOUS
 62
     5
 10
-470.70000000007082
 20
-1.8499999999912691
 30
0.0
 11
-471.20000000007991
 21
-1.8499999999912691
 31
0.0
  0
LINE
  8
DETAIL
  6
CONTINUOUS
 62
     5
 10
470.70000000006439
 20
-2.8499999999912689
 30
0.0
 11
468.70000000006348
 21
-2.8499999999912689
 31
0.0
  0
LINE
  8
DETAIL
  6
CONTINUOUS
 62
     5
 10
-468.70000000007889
 20
-2.8499999999912689
 30
0.0
 11
-470.70000000007082
 21
-2.8499999999912689
 31
0.0
  0
LINE
  8
DETAIL
  6
CONTINUOUS
 62
     5
 10
473.70000000006439
 20
-3.049999999995634
 30
0.0
 11
470.70000000006439
 21
-3.049999999995634
 31
0.0
  0
LINE
  8
DETAIL
  6
CONTINUOUS
 62
     5
 10
474.90000000006239
 20
-4.2999999999956344
 30
0.0
 11
484.10000000006039
 21
-4.2999999999956344
 31
0.0
  0
LINE
  8
DETAIL
  6
CONTINUOUS
 62
     5
 10
474.90000000006239
 20
-4.8999999999869033
 30
0.0
 11
484.10000000006039
 21
-4.8999999999869033
 31
0.0
  0
LINE
  8
DETAIL
  6
CONTINUOUS
 62
     5
 10
-464.43000000007669
 20
-404.00000000004911
 30
0.0
 11
-462.2800000000725
 21
-401.85000000004771
 31
0.0
  0
LINE
  8
DETAIL
  6
CONTINUOUS
 62
     5
 10
239.00000000002461
 20
-193.49910116402589
 30
0.0
 11
239.00000000002461
 21
-290.60109883603133
 31
0.0
  0
LINE
  8
DETAIL
  6
CONTINUOUS
 62
     5
 10
484.70000000006621
 20
-398.60000000004948
 30
0.0
 11
485.08091743206393
 21
-399.06357514004782
 31
0.0
  0
LINE
  8
DETAIL
  6
CONTINUOUS
 62
     5
 10
484.70000000006621
 20
-5.5
 30
0.0
 11
473.70000000006439
 21
-5.5
 31
0.0
  0
LINE
  8
DETAIL
  6
CONTINUOUS
 62
     5
 10
464.43000000004491
 20
-404.00000000004911
 30
0.0
 11
462.28000000005341
 21
-401.85000000004771
 31
0.0
  0
LINE
  8
DETAIL
  6
CONTINUOUS
 62
     5
 10
517.30000000006567
 20
-63.200000000004373
 30
0.0
 11
520.50000000007094
 21
-63.200000000004373
 31
0.0
  0
LINE
  8
DETAIL
  6
CONTINUOUS
 62
     5
 10
-517.30000000008022
 20
-63.200000000004373
 30
0.0
 11
-520.50000000007731
 21
-63.200000000004373
 31
0.0
  0
LINE
  8
DETAIL
  6
CONTINUOUS
 62
     5
 10
505.20000000006797
 20
-69.200000000004366
 30
0.0
 11
505.52593763806999
 21
-69.200000000004366
 31
0.0
  0
LINE
  8
DETAIL
  6
CONTINUOUS
 62
     5
 10
-514.10000000007676
 20
-70.0
 30
0.0
 11
-477.10000000007489
 21
-70.0
 31
0.0
  0
LINE
  8
DETAIL
  6
CONTINUOUS
 62
     5
 10
514.10000000006858
 20
-70.0
 30
0.0
 11
477.10000000006579
 21
-70.0
 31
0.0
  0
LINE
  8
DETAIL
  6
CONTINUOUS
 62
     5
 10
-514.10000000007676
 20
-73.200000000011642
 30
0.0
 11
-477.10000000007489
 21
-73.200000000011642
 31
0.0
  0
LINE
  8
DETAIL
  6
CONTINUOUS
 62
     5
 10
514.10000000006858
 20
-73.200000000011642
 30
0.0
 11
477.10000000006579
 21
-73.200000000011642
 31
0.0
  0
LINE
  8
DETAIL
  6
CONTINUOUS
 62
     5
 10
492.70000000006712
 20
-75.80000000000291
 30
0.0
 11
488.70000000006621
 21
-75.80000000000291
 31
0.0
  0
LINE
  8
DETAIL
  6
CONTINUOUS
 62
     5
 10
497.20000000006797
 20
-77.80000000000291
 30
0.0
 11
494.70000000006712
 21
-77.80000000000291
 31
0.0
  0
LINE
  8
DETAIL
  6
CONTINUOUS
 62
     5
 10
473.90000000006148
 20
-78.300000000010186
 30
0.0
 11
491.09998262406322
 21
-78.300000000010186
 31
0.0
  0
LINE
  8
DETAIL
  6
CONTINUOUS
 62
     5
 10
517.30000000006567
 20
-80.0
 30
0.0
 11
520.50000000007094
 21
-80.0
 31
0.0
  0
LINE
  8
DETAIL
  6
CONTINUOUS
 62
     5
 10
-517.30000000008022
 20
-80.0
 30
0.0
 11
-520.50000000007731
 21
-80.0
 31
0.0
  0
LINE
  8
DETAIL
  6
CONTINUOUS
 62
     5
 10
150.90000000001601
 20
-404.00000000005639
 30
0.0
 11
150.90000000001601
 21
-404.2000000000462
 31
0.0
  0
LINE
  8
DETAIL
  6
CONTINUOUS
 62
     5
 10
147.90000000001601
 20
-404.00000000005639
 30
0.0
 11
147.90000000001601
 21
-404.2000000000462
 31
0.0
  0
LINE
  8
DETAIL
  6
CONTINUOUS
 62
     5
 10
585.70000000007713
 20
-86.899999999998727
 30
0.0
 11
476.00000000006088
 21
-86.899999999998727
 31
0.0
  0
LINE
  8
DETAIL
  6
CONTINUOUS
 62
     5
 10
476.00000000006088
 20
-87.500000000004547
 30
0.0
 11
584.90000000007421
 21
-87.500000000004547
 31
0.0
  0
LINE
  8
DETAIL
  6
CONTINUOUS
 62
     5
 10
584.99813333007478
 20
-87.500000000004547
 30
0.0
 11
585.70000000007713
 21
-87.500000000004547
 31
0.0
  0
LINE
  8
DETAIL
  6
CONTINUOUS
 62
     5
 10
473.90000000006148
 20
-88.100000000003092
 30
0.0
 11
476.00000000006088
 21
-88.100000000003092
 31
0.0
  0
LINE
  8
DETAIL
  6
CONTINUOUS
 62
     5
 10
586.9000000000824
 20
-88.100000000003092
 30
0.0
 11
586.04794305808264
 21
-88.100000000003092
 31
0.0
  0
LINE
  8
DETAIL
  6
CONTINUOUS
 62
     5
 10
468.08087488806001
 20
-99.000000000014552
 30
0.0
 11
468.61355287205703
 21
-99.000000000014552
 31
0.0
  0
LINE
  8
DETAIL
  6
CONTINUOUS
 62
     5
 10
-468.08087488807541
 20
-99.000000000014552
 30
0.0
 11
-468.61355287207152
 21
-99.000000000014552
 31
0.0
  0
LINE
  8
DETAIL
  6
CONTINUOUS
 62
     5
 10
473.90000000006148
 20
-120.0000000000073
 30
0.0
 11
455.69999996726352
 21
-120.0000000345681
 31
0.0
  0
LINE
  8
DETAIL
  6
CONTINUOUS
 62
     5
 10
-455.70000000027449
 20
-119.9999999995707
 30
0.0
 11
-473.90000000006881
 21
-120.0000000000073
 31
0.0
  0
LINE
  8
BASIS
  6
DASHDOT
 62
     6
 10
508.83497718602581
 20
-202.05000000001749
 30
0.0
 11
-512.49885115515008
 21
-202.05000000001749
 31
0.0
  0
LINE
  8
BASIS
  6
DASHDOT
 62
     6
 10
-0.000000000003638
 20
40.288394209594117
 30
0.0
 11
-0.0000000000027285
 21
-445.69739163768833
 31
0.0
  0
LINE
  8
DETAIL
  6
CONTINUOUS
 62
     5
 10
453.99128468405979
 20
-103.8031692060031
 30
0.0
 11
466.37215957405721
 21
-99.301032884010056
 31
0.0
  0
LINE
  8
DETAIL
  6
CONTINUOUS
 62
     5
 10
-453.99128468407338
 20
-103.8031692060031
 30
0.0
 11
-466.37215957207258
 21
-99.301032884010056
 31
0.0
  0
LINE
  8
DETAIL
  6
CONTINUOUS
 62
     5
 10
586.9000000000824
 20
-347.30000000004378
 30
0.0
 11
586.04794305808264
 21
-347.30000000004378
 31
0.0
  0
LINE
  8
DETAIL
  6
CONTINUOUS
 62
     5
 10
476.00000000006088
 20
-347.30000000004378
 30
0.0
 11
471.5000000000673
 21
-347.30000000004378
 31
0.0
  0
LINE
  8
DETAIL
  6
CONTINUOUS
 62
     5
 10
585.70000000007713
 20
-347.90000000004238
 30
0.0
 11
584.99813333007478
 21
-347.90000000004238
 31
0.0
  0
LINE
  8
DETAIL
  6
CONTINUOUS
 62
     5
 10
584.90000000007512
 20
-347.90000000004238
 30
0.0
 11
476.00000000006088
 21
-347.90000000004238
 31
0.0
  0
LINE
  8
DETAIL
  6
CONTINUOUS
 62
     5
 10
585.70000000007713
 20
-348.50000000004093
 30
0.0
 11
476.00000000006088
 21
-348.50000000004093
 31
0.0
  0
LINE
  8
DETAIL
  6
CONTINUOUS
 62
     5
 10
507.80000000006748
 20
-356.15000000003778
 30
0.0
 11
506.80000000006748
 21
-356.15000000003778
 31
0.0
  0
LINE
  8
DETAIL
  6
CONTINUOUS
 62
     5
 10
515.8000000000693
 20
-357.15000000003778
 30
0.0
 11
509.80000000006748
 21
-357.15000000003778
 31
0.0
  0
LINE
  8
DETAIL
  6
CONTINUOUS
 62
     5
 10
509.80000000006748
 20
-358.15000000003778
 30
0.0
 11
515.8000000000693
 21
-358.15000000003778
 31
0.0
  0
LINE
  8
DETAIL
  6
CONTINUOUS
 62
     5
 10
484.70000000006621
 20
-398.60000000004948
 30
0.0
 11
473.70000000006439
 21
-398.60000000004948
 31
0.0
  0
LINE
  8
DETAIL
  6
CONTINUOUS
 62
     5
 10
484.10000000006039
 20
-399.20000000004802
 30
0.0
 11
474.90000000006239
 21
-399.20000000004802
 31
0.0
  0
LINE
  8
DETAIL
  6
CONTINUOUS
 62
     5
 10
484.10000000006039
 20
-399.80000000005379
 30
0.0
 11
474.90000000006239
 21
-399.80000000005379
 31
0.0
  0
LINE
  8
DETAIL
  6
CONTINUOUS
 62
     5
 10
473.70000000006439
 20
-400.95000000005348
 30
0.0
 11
470.70000000006439
 21
-400.95000000005348
 31
0.0
  0
LINE
  8
DETAIL
  6
CONTINUOUS
 62
     5
 10
470.70000000006439
 20
-401.15000000005779
 30
0.0
 11
468.70000000006348
 21
-401.15000000005779
 31
0.0
  0
LINE
  8
DETAIL
  6
CONTINUOUS
 62
     5
 10
-468.70000000007889
 20
-401.15000000005779
 30
0.0
 11
-470.70000000007082
 21
-401.15000000005779
 31
0.0
  0
LINE
  8
DETAIL
  6
CONTINUOUS
 62
     5
 10
-470.70000000007082
 20
-402.15000000005062
 30
0.0
 11
-471.20000000007991
 21
-402.15000000005062
 31
0.0
  0
LINE
  8
DETAIL
  6
CONTINUOUS
 62
     5
 10
-471.20000000007991
 20
-402.65000000004329
 30
0.0
 11
-475.92500000007391
 21
-402.65000000004329
 31
0.0
  0
LINE
  8
DETAIL
  6
CONTINUOUS
 62
     5
 10
471.20000000006439
 20
-403.15000000005062
 30
0.0
 11
475.70000000006348
 21
-403.15000000005062
 31
0.0
  0
LINE
  8
DETAIL
  6
CONTINUOUS
 62
     5
 10
468.70000000006348
 20
-403.15000000005062
 30
0.0
 11
463.58000000005359
 21
-403.15000000006512
 31
0.0
  0
LINE
  8
DETAIL
  6
CONTINUOUS
 62
     5
 10
-463.58000000008451
 20
-403.15000000005062
 30
0.0
 11
-468.70000000007889
 21
-403.15000000005062
 31
0.0
  0
LINE
  8
DETAIL
  6
CONTINUOUS
 62
     5
 10
-471.20000000007991
 20
-403.15000000005062
 30
0.0
 11
-475.70000000007258
 21
-403.15000000005062
 31
0.0
  0
LINE
  8
DETAIL
  6
CONTINUOUS
 62
     5
 10
-475.95000000007258
 20
-403.2000000000462
 30
0.0
 11
-470.93306493807268
 21
-403.2000000000462
 31
0.0
  0
LINE
  8
DETAIL
  6
CONTINUOUS
 62
     5
 10
475.95000000006439
 20
-403.2000000000462
 30
0.0
 11
470.93306494006077
 21
-403.2000000000462
 31
0.0
  0
LINE
  8
DETAIL
  6
CONTINUOUS
 62
     5
 10
-475.95000000007258
 20
-404.00000000005639
 30
0.0
 11
-470.93306493807268
 21
-404.00000000005639
 31
0.0
  0
LINE
  8
DETAIL
  6
CONTINUOUS
 62
     5
 10
475.95000000006439
 20
-404.00000000005639
 30
0.0
 11
470.93306494006077
 21
-404.00000000005639
 31
0.0
  0
LINE
  8
DETAIL
  6
CONTINUOUS
 62
     5
 10
467.80000000006203
 20
-404.00000000005639
 30
0.0
 11
-467.80000000007573
 21
-404.00000000005639
 31
0.0
  0
LINE
  8
DETAIL
  6
CONTINUOUS
 62
     5
 10
147.9053018640179
 20
-404.2000000000462
 30
0.0
 11
150.8946981360132
 21
-404.2000000000462
 31
0.0
  0
LINE
  8
DETAIL
  6
CONTINUOUS
 62
     5
 10
464.26730091805712
 20
0.0
 30
0.0
 11
462.11730091806021
 21
-2.1499999999941788
 31
0.0
  0
LINE
  8
DETAIL
  6
CONTINUOUS
 62
     5
 10
-464.26730091807531
 20
0.0
 30
0.0
 11
-462.11730091806749
 21
-2.1499999999941788
 31
0.0
  0
LINE
  8
DETAIL
  6
CONTINUOUS
 62
     5
 10
484.70000000006621
 20
-5.5
 30
0.0
 11
485.08091743206393
 21
-5.0364248600017163
 31
0.0
  0
LINE
  8
DETAIL
  6
CONTINUOUS
 62
     5
 10
-469.33915342207371
 20
-402.5394491880561
 30
0.0
 11
-469.21759237007251
 21
-401.15000000005779
 31
0.0
  0
LINE
  8
DETAIL
  6
CONTINUOUS
 62
     5
 10
-470.13610918007362
 20
-402.46972459404611
 30
0.0
 11
-470.0206482400763
 21
-401.15000000005779
 31
0.0
  0
LINE
  8
DETAIL
  6
CONTINUOUS
 62
     5
 10
-450.70000000006797
 20
-115.0000000000073
 30
0.0
 11
-450.70000000006797
 21
-108.5021363240012
 31
0.0
  0
LINE
  8
DETAIL
  6
CONTINUOUS
 62
     5
 10
-467.80000000007573
 20
-0.8499999999912689
 30
0.0
 11
-467.80000000007573
 21
0.0
 31
0.0
  0
LINE
  8
DETAIL
  6
CONTINUOUS
 62
     5
 10
-467.80000000007573
 20
-403.15000000005062
 30
0.0
 11
-467.80000000007573
 21
-404.00000000005639
 31
0.0
  0
LINE
  8
DETAIL
  6
CONTINUOUS
 62
     5
 10
-468.70000000007889
 20
-403.15000000005062
 30
0.0
 11
-468.70000000007889
 21
-401.15000000005779
 31
0.0
  0
LINE
  8
DETAIL
  6
CONTINUOUS
 62
     5
 10
-468.70000000007889
 20
-2.8499999999912689
 30
0.0
 11
-468.70000000007889
 21
-0.8499999999912689
 31
0.0
  0
LINE
  8
DETAIL
  6
CONTINUOUS
 62
     5
 10
-470.20000000007258
 20
-402.15000000005062
 30
0.0
 11
-470.20000000007258
 21
-401.15000000005779
 31
0.0
  0
LINE
  8
DETAIL
  6
CONTINUOUS
 62
     5
 10
-470.20000000007258
 20
-1.8499999999912691
 30
0.0
 11
-470.20000000007258
 21
-2.8499999999912689
 31
0.0
  0
LINE
  8
DETAIL
  6
CONTINUOUS
 62
     5
 10
-470.70000000007082
 20
-1.8499999999912691
 30
0.0
 11
-470.70000000007082
 21
-402.15000000005062
 31
0.0
  0
LINE
  8
DETAIL
  6
CONTINUOUS
 62
     5
 10
-471.20000000007991
 20
-402.15000000005062
 30
0.0
 11
-471.20000000007991
 21
-120.0000000000073
 31
0.0
  0
LINE
  8
DETAIL
  6
CONTINUOUS
 62
     5
 10
-471.20000000007991
 20
-73.923726160006481
 30
0.0
 11
-471.20000000007991
 21
-1.8499999999912691
 31
0.0
  0
LINE
  8
DETAIL
  6
CONTINUOUS
 62
     5
 10
-473.90000000006881
 20
-120.0000000000073
 30
0.0
 11
-473.90000000006881
 21
-76.400000000008731
 31
0.0
  0
LINE
  8
DETAIL
  6
CONTINUOUS
 62
     5
 10
-469.21759237007251
 20
-2.8499999999912689
 30
0.0
 11
-469.33915342207371
 21
-1.460550811993016
 31
0.0
  0
LINE
  8
DETAIL
  6
CONTINUOUS
 62
     5
 10
-470.0206482400763
 20
-2.8499999999912689
 30
0.0
 11
-470.13610918007362
 21
-1.5302754059885051
 31
0.0
  0
LINE
  8
DETAIL
  6
CONTINUOUS
 62
     5
 10
-475.70000000007258
 20
-0.8499999999912689
 30
0.0
 11
-475.70000000007258
 21
-1.3499999999912691
 31
0.0
  0
LINE
  8
DETAIL
  6
CONTINUOUS
 62
     5
 10
-475.70000000007258
 20
-402.65000000004329
 30
0.0
 11
-475.70000000007258
 21
-403.15000000005062
 31
0.0
  0
LINE
  8
DETAIL
  6
CONTINUOUS
 62
     5
 10
-517.30000000008022
 20
-63.200000000004373
 30
0.0
 11
-517.30000000008022
 21
-66.80000000000291
 31
0.0
  0
LINE
  8
DETAIL
  6
CONTINUOUS
 62
     5
 10
-517.30000000008022
 20
-76.400000000008731
 30
0.0
 11
-517.30000000008022
 21
-80.0
 31
0.0
  0
LINE
  8
DETAIL
  6
CONTINUOUS
 62
     5
 10
-520.50000000007731
 20
-63.200000000004373
 30
0.0
 11
-520.50000000007731
 21
-66.80000000000291
 31
0.0
  0
LINE
  8
DETAIL
  6
CONTINUOUS
 62
     5
 10
-520.50000000007731
 20
-76.400000000008731
 30
0.0
 11
-520.50000000007731
 21
-80.0
 31
0.0
  0
ARC
  8
DETAIL
  6
CONTINUOUS
 62
     5
 10
514.10000000006858
 20
-66.80000000000291
 30
0.0
 40
6.4000000000009249
 50
311.34354484787372
 51
0.000000000000007
  0
ARC
  8
DETAIL
  6
CONTINUOUS
 62
     5
 10
514.10000000006858
 20
-76.400000000008731
 30
0.0
 40
6.4000000000009249
 50
0.000000000000007
 51
90.000000000000014
  0
ARC
  8
DETAIL
  6
CONTINUOUS
 62
     5
 10
514.10000000006858
 20
-76.400000000008731
 30
0.0
 40
3.200000000000462
 50
0.000000000000007
 51
90.000000000000014
  0
ARC
  8
DETAIL
  6
CONTINUOUS
 62
     5
 10
514.10000000006858
 20
-66.80000000000291
 30
0.0
 40
3.200000000000462
 50
270.0
 51
0.000000000000007
  0
ARC
  8
DETAIL
  6
CONTINUOUS
 62
     5
 10
584.90000000007421
 20
-88.900000000006003
 30
0.0
 40
1.4000000000002031
 50
0.000000000000007
 51
90.000000000000014
  0
ARC
  8
DETAIL
  6
CONTINUOUS
 62
     5
 10
450.10000000005579
 20
-47.608075235999422
 30
0.0
 40
55.100000000007931
 50
0.0000007737844841
 51
50.590221408989507
  0
ARC
  8
DETAIL
  6
CONTINUOUS
 62
     5
 10
477.10000000006579
 20
-76.400000000008731
 30
0.0
 40
6.4000000000009249
 50
90.000000000000014
 51
180.0
  0
ARC
  8
DETAIL
  6
CONTINUOUS
 62
     5
 10
477.10000000006579
 20
-76.400000000008731
 30
0.0
 40
3.200000000000462
 50
90.000000000000014
 51
180.0
  0
ARC
  8
DETAIL
  6
CONTINUOUS
 62
     5
 10
494.30000000006572
 20
-59.750000000007283
 30
0.0
 40
2.9000000000004178
 50
180.0
 51
0.000000000000007
  0
ARC
  8
DETAIL
  6
CONTINUOUS
 62
     5
 10
494.30000000006572
 20
-44.75
 30
0.0
 40
2.9000000000004178
 50
0.000000000000007
 51
180.0
  0
ARC
  8
DETAIL
  6
CONTINUOUS
 62
     5
 10
482.05000000006481
 20
-71.850000000005821
 30
0.0
 40
1.7500000000002529
 50
230.5322423024933
 51
309.46775769750673
  0
ARC
  8
DETAIL
  6
CONTINUOUS
 62
     5
 10
482.05000000006481
 20
-32.400000000001462
 30
0.0
 40
1.7500000000002529
 50
0.000000000000007
 51
180.0
  0
ARC
  8
DETAIL
  6
CONTINUOUS
 62
     5
 10
470.93306494006077
 20
-1.599999999998545
 30
0.0
 40
1.6000000000002319
 50
90.000000000000014
 51
175.00000000002649
  0
ARC
  8
DETAIL
  6
CONTINUOUS
 62
     5
 10
474.90000000006239
 20
-5.5
 30
0.0
 40
1.200000000000174
 50
90.000000000000014
 51
180.0
  0
ARC
  8
DETAIL
  6
CONTINUOUS
 62
     5
 10
471.20000000006439
 20
-1.8499999999912691
 30
0.0
 40
1.0000000000001441
 50
90.000000000000014
 51
180.0
  0
ARC
  8
DETAIL
  6
CONTINUOUS
 62
     5
 10
494.70000000006712
 20
-76.800000000010186
 30
0.0
 40
1.0000000000001441
 50
180.0
 51
270.0
  0
ARC
  8
DETAIL
  6
CONTINUOUS
 62
     5
 10
492.70000000006712
 20
-76.800000000010186
 30
0.0
 40
1.0000000000001441
 50
0.000000000000007
 51
90.000000000000014
  0
ARC
  8
DETAIL
  6
CONTINUOUS
 62
     5
 10
470.93306494006077
 20
-1.599999999998545
 30
0.0
 40
0.8000000000001152
 50
90.000000000000014
 51
175.00000000002649
  0
ARC
  8
DETAIL
  6
CONTINUOUS
 62
     5
 10
474.90000000006239
 20
-5.5
 30
0.0
 40
0.6000000000000859
 50
90.000000000000014
 51
180.0
  0
ARC
  8
DETAIL
  6
CONTINUOUS
 62
     5
 10
484.10000000006039
 20
-4.8999999999869033
 30
0.0
 40
0.6000000000000859
 50
270.0
 51
90.000000000000014
  0
ARC
  8
DETAIL
  6
CONTINUOUS
 62
     5
 10
471.20000000006439
 20
-1.8499999999912691
 30
0.0
 40
0.5000000000000722
 50
90.000000000000014
 51
180.0
  0
CIRCLE
  8
DETAIL
  6
CONTINUOUS
 62
     5
 10
459.70000000006348
 20
-111.00000000001459
 30
0.0
 40
7.0000000000010107
  0
ARC
  8
DETAIL
  6
CONTINUOUS
 62
     5
 10
455.70000000006257
 20
-108.5021363240012
 30
0.0
 40
5.0000000000007221
 50
109.98310652186549
 51
180.0
  0
ARC
  8
DETAIL
  6
CONTINUOUS
 62
     5
 10
468.08087488806001
 20
-104.0000000000073
 30
0.0
 40
5.0000000000007221
 50
90.000000000000014
 51
109.98310652186549
  0
CIRCLE
  8
DETAIL
  6
CONTINUOUS
 62
     5
 10
445.20000000006081
 20
-99.000000000014552
 30
0.0
 40
4.700000000000677
  0
ARC
  8
DETAIL
  6
CONTINUOUS
 62
     5
 10
509.80000000006748
 20
-356.15000000003778
 30
0.0
 40
2.0000000000002891
 50
180.0
 51
270.0
  0
ARC
  8
DETAIL
  6
CONTINUOUS
 62
     5
 10
584.90000000007512
 20
-346.50000000004093
 30
0.0
 40
1.4000000000002031
 50
270.0
 51
0.000000000000007
  0
ARC
  8
DETAIL
  6
CONTINUOUS
 62
     5
 10
509.80000000006748
 20
-356.15000000003778
 30
0.0
 40
1.0000000000001441
 50
180.0
 51
270.0
  0
ARC
  8
DETAIL
  6
CONTINUOUS
 62
     5
 10
450.10000000005579
 20
-356.49192476604372
 30
0.0
 40
55.100000000007931
 50
309.40977859101048
 51
359.99999874419609
  0
ARC
  8
DETAIL
  6
CONTINUOUS
 62
     5
 10
503.80000000006021
 20
-361.35000000004948
 30
0.0
 40
3.000000000000433
 50
286.49856688768512
 51
0.000000000000007
  0
ARC
  8
DETAIL
  6
CONTINUOUS
 62
     5
 10
470.93306494006077
 20
-402.40000000005779
 30
0.0
 40
1.6000000000002319
 50
184.99999999997351
 51
270.0
  0
ARC
  8
DETAIL
  6
CONTINUOUS
 62
     5
 10
474.90000000006239
 20
-398.60000000004948
 30
0.0
 40
1.200000000000174
 50
180.0
 51
270.0
  0
ARC
  8
DETAIL
  6
CONTINUOUS
 62
     5
 10
471.20000000006439
 20
-402.15000000005062
 30
0.0
 40
1.0000000000001441
 50
180.0
 51
269.99999999989569
  0
ARC
  8
DETAIL
  6
CONTINUOUS
 62
     5
 10
470.93306494006077
 20
-402.40000000005779
 30
0.0
 40
0.8000000000001152
 50
184.99999999997351
 51
270.0
  0
ARC
  8
DETAIL
  6
CONTINUOUS
 62
     5
 10
474.90000000006239
 20
-398.60000000004948
 30
0.0
 40
0.6000000000000859
 50
180.0
 51
270.0
  0
ARC
  8
DETAIL
  6
CONTINUOUS
 62
     5
 10
484.10000000006039
 20
-399.20000000004802
 30
0.0
 40
0.6000000000000859
 50
270.0
 51
90.000000000000014
  0
ARC
  8
DETAIL
  6
CONTINUOUS
 62
     5
 10
471.20000000006439
 20
-402.15000000005062
 30
0.0
 40
0.5000000000000722
 50
180.0
 51
270.0
  0
ARC
  8
DETAIL
  6
CONTINUOUS
 62
     5
 10
345.9999999980455
 20
-242.05015135203121
 30
0.0
 40
117.499944326017
 50
24.40613347159216
 51
155.59391730633709
  0
ARC
  8
DETAIL
  6
CONTINUOUS
 62
     5
 10
345.9999999980455
 20
-242.05004865001959
 30
0.0
 40
117.499944326017
 50
204.40608269366291
 51
335.59386652840777
  0
CIRCLE
  8
DETAIL
  6
CONTINUOUS
 62
     5
 10
346.00000000004638
 20
-242.05010000002491
 30
0.0
 40
104.00000000001501
  0
CIRCLE
  8
DETAIL
  6
CONTINUOUS
 62
     5
 10
346.00000000004638
 20
-242.05010000002491
 30
0.0
 40
96.000000000013841
  0
ARC
  8
DETAIL
  6
CONTINUOUS
 62
     5
 10
-477.10000000007489
 20
-76.400000000008731
 30
0.0
 40
6.4000000000009249
 50
0.000000000000007
 51
90.000000000000014
  0
ARC
  8
DETAIL
  6
CONTINUOUS
 62
     5
 10
-477.10000000007489
 20
-76.400000000008731
 30
0.0
 40
3.200000000000462
 50
0.000000000000007
 51
90.000000000000014
  0
ARC
  8
DETAIL
  6
CONTINUOUS
 62
     5
 10
-470.93306493807268
 20
-1.599999999998545
 30
0.0
 40
1.6000000000002319
 50
4.9999999999735136
 51
90.000000000000014
  0
ARC
  8
DETAIL
  6
CONTINUOUS
 62
     5
 10
-471.20000000007991
 20
-1.8499999999912691
 30
0.0
 40
1.0000000000001441
 50
0.000000000000007
 51
90.000000000000014
  0
ARC
  8
DETAIL
  6
CONTINUOUS
 62
     5
 10
-470.93306493807268
 20
-1.599999999998545
 30
0.0
 40
0.8000000000001152
 50
4.9999999999735136
 51
90.000000000000014
  0
ARC
  8
DETAIL
  6
CONTINUOUS
 62
     5
 10
-471.20000000007991
 20
-1.8499999999912691
 30
0.0
 40
0.5000000000000722
 50
0.000000000000007
 51
90.000000000000014
  0
ARC
  8
DETAIL
  6
CONTINUOUS
 62
     5
 10
-514.10000000007676
 20
-66.80000000000291
 30
0.0
 40
6.4000000000009249
 50
180.0
 51
228.6564551521264
  0
ARC
  8
DETAIL
  6
CONTINUOUS
 62
     5
 10
-514.10000000007676
 20
-76.400000000008731
 30
0.0
 40
6.4000000000009249
 50
90.000000000000014
 51
180.0
  0
ARC
  8
DETAIL
  6
CONTINUOUS
 62
     5
 10
-514.10000000007676
 20
-76.400000000008731
 30
0.0
 40
3.200000000000462
 50
90.000000000000014
 51
180.0
  0
ARC
  8
DETAIL
  6
CONTINUOUS
 62
     5
 10
-514.10000000007676
 20
-66.80000000000291
 30
0.0
 40
3.200000000000462
 50
180.0
 51
270.0
  0
CIRCLE
  8
DETAIL
  6
CONTINUOUS
 62
     5
 10
-459.70000000006979
 20
-111.00000000001459
 30
0.0
 40
7.0000000000010107
  0
ARC
  8
DETAIL
  6
CONTINUOUS
 62
     5
 10
-468.08087488807541
 20
-104.0000000000073
 30
0.0
 40
5.0000000000007221
 50
70.01689347813452
 51
90.000000000104237
  0
ARC
  8
DETAIL
  6
CONTINUOUS
 62
     5
 10
-455.70000000006979
 20
-108.5021363240012
 30
0.0
 40
5.0000000000007221
 50
0.000000000000007
 51
70.01689347813452
  0
CIRCLE
  8
DETAIL
  6
CONTINUOUS
 62
     5
 10
-445.20000000006712
 20
-99.000000000014552
 30
0.0
 40
4.700000000000677
  0
ARC
  8
DETAIL
  6
CONTINUOUS
 62
     5
 10
-470.93306493807268
 20
-402.40000000005779
 30
0.0
 40
1.6000000000002319
 50
270.0
 51
355.00000000002649
  0
ARC
  8
DETAIL
  6
CONTINUOUS
 62
     5
 10
-471.20000000007991
 20
-402.15000000005062
 30
0.0
 40
1.0000000000001441
 50
270.00000000010431
 51
0.000000000000007
  0
ARC
  8
DETAIL
  6
CONTINUOUS
 62
     5
 10
-470.93306493807268
 20
-402.40000000005779
 30
0.0
 40
0.8000000000001152
 50
270.0
 51
355.00000000002649
  0
ARC
  8
DETAIL
  6
CONTINUOUS
 62
     5
 10
-471.20000000007991
 20
-402.15000000005062
 30
0.0
 40
0.5000000000000722
 50
270.0
 51
0.000000000000007
  0
LINE
  8
DETAIL
  6
CONTINUOUS
 62
     5
 10
-468.61355287207152
 20
-99.000000000014552
 30
0.0
 11
-468.9850934925413
 21
-98.997391446558453
 31
0.0
  0
LINE
  8
DETAIL
  6
CONTINUOUS
 62
     5
 10
-468.9850934925413
 20
-98.997391446558453
 30
0.0
 11
-469.35593275272043
 21
-98.976482820702046
 31
0.0
  0
LINE
  8
DETAIL
  6
CONTINUOUS
 62
     5
 10
-469.35593275272043
 20
-98.976482820702046
 30
0.0
 11
-469.72267086470669
 21
-98.917648591106456
 31
0.0
  0
LINE
  8
DETAIL
  6
CONTINUOUS
 62
     5
 10
-469.72267086470669
 20
-98.917648591106456
 30
0.0
 11
-470.07238506417383
 21
-98.792771977070927
 31
0.0
  0
LINE
  8
DETAIL
  6
CONTINUOUS
 62
     5
 10
-470.07238506417383
 20
-98.792771977070927
 30
0.0
 11
-470.35994981024987
 21
-98.557928747605473
 31
0.0
  0
LINE
  8
DETAIL
  6
CONTINUOUS
 62
     5
 10
-470.35994981024987
 20
-98.557928747605473
 30
0.0
 11
-470.54252968578885
 21
-98.239078377214554
 31
0.0
  0
LINE
  8
DETAIL
  6
CONTINUOUS
 62
     5
 10
-470.54252968578885
 20
-98.239078377214554
 30
0.0
 11
-470.63418821884204
 21
-97.874922915857184
 31
0.0
  0
LINE
  8
DETAIL
  6
CONTINUOUS
 62
     5
 10
-470.63418821884204
 20
-97.874922915857184
 30
0.0
 11
-470.6746756141265
 21
-97.496775618176684
 31
0.0
  0
LINE
  8
DETAIL
  6
CONTINUOUS
 62
     5
 10
-470.6746756141265
 20
-97.496775618176684
 30
0.0
 11
-470.69322956342808
 21
-97.124329842086766
 31
0.0
  0
LINE
  8
DETAIL
  6
CONTINUOUS
 62
     5
 10
-470.69322956342808
 20
-97.124329842086766
 30
0.0
 11
-470.69923542163133
 21
-96.755684201505986
 31
0.0
  0
LINE
  8
DETAIL
  6
CONTINUOUS
 62
     5
 10
-470.69923542163133
 20
-96.755684201505986
 30
0.0
 11
-470.69990884607341
 21
-96.386577182005567
 31
0.0
  0
LINE
  8
DETAIL
  6
CONTINUOUS
 62
     5
 10
468.61355287205703
 20
-99.000000000014552
 30
0.0
 11
468.9850934939542
 21
-98.997391446558453
 31
0.0
  0
LINE
  8
DETAIL
  6
CONTINUOUS
 62
     5
 10
468.9850934939542
 20
-98.997391446558453
 30
0.0
 11
469.35593275464242
 21
-98.976482820702046
 31
0.0
  0
LINE
  8
DETAIL
  6
CONTINUOUS
 62
     5
 10
469.35593275464242
 20
-98.976482820702046
 30
0.0
 11
469.72267086669223
 21
-98.917648591106456
 31
0.0
  0
LINE
  8
DETAIL
  6
CONTINUOUS
 62
     5
 10
469.72267086669223
 20
-98.917648591106456
 30
0.0
 11
470.07238506597628
 21
-98.792771977070927
 31
0.0
  0
LINE
  8
DETAIL
  6
CONTINUOUS
 62
     5
 10
470.07238506597628
 20
-98.792771977070927
 30
0.0
 11
470.35994981117057
 21
-98.557928747605473
 31
0.0
  0
LINE
  8
DETAIL
  6
CONTINUOUS
 62
     5
 10
470.35994981117057
 20
-98.557928747605473
 30
0.0
 11
470.54252968602617
 21
-98.239078377214554
 31
0.0
  0
LINE
  8
DETAIL
  6
CONTINUOUS
 62
     5
 10
470.54252968602617
 20
-98.239078377214554
 30
0.0
 11
470.63418821898193
 21
-97.874922915857184
 31
0.0
  0
LINE
  8
DETAIL
  6
CONTINUOUS
 62
     5
 10
470.63418821898193
 20
-97.874922915857184
 30
0.0
 11
470.67467561462229
 21
-97.496775618176684
 31
0.0
  0
LINE
  8
DETAIL
  6
CONTINUOUS
 62
     5
 10
470.67467561462229
 20
-97.496775618176684
 30
0.0
 11
470.69322956443102
 21
-97.124329842086766
 31
0.0
  0
LINE
  8
DETAIL
  6
CONTINUOUS
 62
     5
 10
470.69322956443102
 20
-97.124329842086766
 30
0.0
 11
470.69923542267998
 21
-96.755684201505986
 31
0.0
  0
LINE
  8
DETAIL
  6
CONTINUOUS
 62
     5
 10
470.69923542267998
 20
-96.755684201505986
 30
0.0
 11
470.69990884605983
 21
-96.386577182005567
 31
0.0
  0
ARC
  8
DETAIL
  6
CONTINUOUS
 62
     5
 10
-455.70000000027449
 20
-114.9999999998181
 30
0.0
 40
4.9999999997510862
 50
270.0
 51
0.000000000000007
  0
LINE
  8
BASIS
  6
DASHDOT
 62
     6
 10
490.44585385750912
 20
-242.05004865001959
 30
0.0
 11
-489.7150907115265
 21
-242.05004865001959
 31
0.0
  0
LINE
  8
BASIS
  6
DASHDOT
 62
     6
 10
345.9999999980455
 20
-104.41962538479039
 30
0.0
 11
345.9999999980455
 21
-379.68047191524869
 31
0.0
  0
LINE
  8
BASIS
  6
DASHDOT
 62
     6
 10
-346.00001101763161
 20
-104.44578213073601
 30
0.0
 11
-346.00001101763058
 21
-379.7066286611871
 31
0.0
  0
CIRCLE
  8
DETAIL
  6
CONTINUOUS
 62
     5
 10
266.80404050803099
 20
-162.85414050802049
 30
0.0
 40
4.700000000000677
  0
CIRCLE
  8
DETAIL
  6
CONTINUOUS
 62
     5
 10
266.80404050803099
 20
-321.24605949403758
 30
0.0
 40
4.700000000000677
  0
CIRCLE
  8
DETAIL
  6
CONTINUOUS
 62
     5
 10
425.1959594940563
 20
-321.24605949403758
 30
0.0
 40
4.700000000000677
  0
CIRCLE
  8
DETAIL
  6
CONTINUOUS
 62
     5
 10
425.1959594940563
 20
-162.85414050802049
 30
0.0
 40
4.700000000000677
  0
LINE
  8
DETAIL
  6
CONTINUOUS
 62
     5
 10
-452.97684865007892
 20
-193.49910116402589
 30
0.0
 11
-452.97684865007892
 21
-290.60109883603133
 31
0.0
  0
ARC
  8
DETAIL
  6
CONTINUOUS
 62
     5
 10
-345.97684865205611
 20
-242.05015135203121
 30
0.0
 40
117.499944326017
 50
24.40613347159216
 51
155.59391730633709
  0
ARC
  8
DETAIL
  6
CONTINUOUS
 62
     5
 10
-345.97684865205611
 20
-242.05004865001959
 30
0.0
 40
117.499944326017
 50
204.40608269366291
 51
335.59386652840777
  0
CIRCLE
  8
DETAIL
  6
CONTINUOUS
 62
     5
 10
-345.97684865005522
 20
-242.05010000002491
 30
0.0
 40
104.00000000001501
  0
CIRCLE
  8
DETAIL
  6
CONTINUOUS
 62
     5
 10
-345.97684865005522
 20
-242.05010000002491
 30
0.0
 40
96.000000000013841
  0
CIRCLE
  8
DETAIL
  6
CONTINUOUS
 62
     5
 10
-425.17280814207061
 20
-162.85414050802049
 30
0.0
 40
4.700000000000677
  0
CIRCLE
  8
DETAIL
  6
CONTINUOUS
 62
     5
 10
-425.17280814207061
 20
-321.24605949403758
 30
0.0
 40
4.700000000000677
  0
CIRCLE
  8
DETAIL
  6
CONTINUOUS
 62
     5
 10
-266.7808891560453
 20
-321.24605949403758
 30
0.0
 40
4.700000000000677
  0
CIRCLE
  8
DETAIL
  6
CONTINUOUS
 62
     5
 10
-266.7808891560453
 20
-162.85414050802049
 30
0.0
 40
4.700000000000677
  0
ARC
  8
DETAIL
  6
CONTINUOUS
 62
     5
 10
455.69999996726352
 20
-115.0000000348155
 30
0.0
 40
4.9999999997510862
 50
180.0
 51
270.0
  0
LINE
  8
DETAIL
  6
CONTINUOUS
 62
     5
 10
-472.70000000007258
 20
-2.1499999999941788
 30
0.0
 11
-475.92500000007573
 21
-2.1499999999941788
 31
0.0
  0
LINE
  8
DETAIL
  6
CONTINUOUS
 62
     5
 10
-472.70000000007258
 20
-1.3499999999912691
 30
0.0
 11
-472.70000000007258
 21
-2.1499999999941788
 31
0.0
  0
ARC
  8
DETAIL
  6
CONTINUOUS
 62
     5
 10
-475.92500000007391
 20
-1.0749999999970901
 30
0.0
 40
0.2749999999978477
 50
90.000000000000014
 51
270.0
  0
ARC
  8
DETAIL
  6
CONTINUOUS
 62
     5
 10
-475.92500000007573
 20
-1.0749999999970901
 30
0.0
 40
1.07499999999942
 50
90.000000000000014
 51
270.0
  0
LINE
  8
DETAIL
  6
CONTINUOUS
 62
     5
 10
-472.70000000007258
 20
-401.85000000004771
 30
0.0
 11
-475.92500000007573
 21
-401.85000000004771
 31
0.0
  0
LINE
  8
DETAIL
  6
CONTINUOUS
 62
     5
 10
-472.70000000007258
 20
-402.65000000004329
 30
0.0
 11
-472.70000000007258
 21
-401.85000000004771
 31
0.0
  0
ARC
  8
DETAIL
  6
CONTINUOUS
 62
     5
 10
-475.92500000007391
 20
-402.92500000004469
 30
0.0
 40
0.2749999999978477
 50
90.000000000000014
 51
270.0
  0
ARC
  8
DETAIL
  6
CONTINUOUS
 62
     5
 10
-475.92500000007573
 20
-402.92500000004469
 30
0.0
 40
1.07499999999942
 50
90.000000000000014
 51
270.0
  0
LINE
  8
DETAIL
  6
CONTINUOUS
 62
     5
 10
472.70000000006348
 20
-401.85000000004771
 30
0.0
 11
475.9250000000693
 21
-401.85000000004771
 31
0.0
  0
LINE
  8
DETAIL
  6
CONTINUOUS
 62
     5
 10
472.70000000006348
 20
-402.65000000004329
 30
0.0
 11
472.70000000006348
 21
-401.85000000004771
 31
0.0
  0
ARC
  8
DETAIL
  6
CONTINUOUS
 62
     5
 10
475.92500000006748
 20
-402.92500000004469
 30
0.0
 40
0.2749999999978477
 50
270.0
 51
90.000000000000014
  0
ARC
  8
DETAIL
  6
CONTINUOUS
 62
     5
 10
475.9250000000693
 20
-402.92500000004469
 30
0.0
 40
1.07499999999942
 50
270.0
 51
90.000000000000014
  0
LINE
  8
DETAIL
  6
CONTINUOUS
 62
     5
 10
471.20000000006439
 20
-402.65000000004329
 30
0.0
 11
475.92500000006748
 21
-402.65000000004329
 31
0.0
  0
LINE
  8
DETAIL
  6
CONTINUOUS
 62
     5
 10
472.70000000006348
 20
-2.1499999999941788
 30
0.0
 11
475.92500000006839
 21
-2.1499999999941788
 31
0.0
  0
LINE
  8
DETAIL
  6
CONTINUOUS
 62
     5
 10
472.70000000006348
 20
-1.3499999999912691
 30
0.0
 11
472.70000000006348
 21
-2.1499999999941788
 31
0.0
  0
ARC
  8
DETAIL
  6
CONTINUOUS
 62
     5
 10
475.92500000006748
 20
-1.0749999999970901
 30
0.0
 40
0.2749999999978477
 50
270.0
 51
90.000000000000014
  0
ARC
  8
DETAIL
  6
CONTINUOUS
 62
     5
 10
475.92500000006839
 20
-1.0749999999970901
 30
0.0
 40
1.07499999999942
 50
270.0
 51
90.000000000000014
  0
LINE
  8
DETAIL
  6
CONTINUOUS
 62
     5
 10
471.20000000006439
 20
-1.3499999999912691
 30
0.0
 11
475.92500000006748
 21
-1.3499999999912691
 31
0.0
  0
LINE
  8
DETAIL
  6
CONTINUOUS
 62
     5
 10
462.11730091806021
 20
-2.1499999999941788
 30
0.0
 11
-462.11730091806749
 21
-2.1499999999941788
 31
0.0
  0
LINE
  8
DETAIL
  6
CONTINUOUS
 62
     5
 10
462.28000000005341
 20
-401.85000000004771
 30
0.0
 11
-462.2800000000725
 21
-401.85000000004771
 31
0.0
  0
LINE
  8
DETAIL
  6
CONTINUOUS
 62
     5
 10
-238.97684865403519
 20
-193.49910116402589
 30
0.0
 11
-238.97684865403519
 21
-290.60109883603133
 31
0.0
  0
ARC
  8
DETAIL
  6
CONTINUOUS
 62
     5
 10
503.63170319530218
 20
-70.63383005043579
 30
0.0
 40
2.3757088916139359
 50
15.533606673828441
 51
37.123694282946559
  0
ARC
  8
DETAIL
  6
CONTINUOUS
 62
     5
 10
504.97504941826082
 20
-70.150243733478419
 30
0.0
 40
3.22153249403202
 50
2.7059167269446021
 51
85.995938041954389
  0
LINE
  8
SIZE
  6
CONTINUOUS
 62
    30
 10
345.9999999980455
 20
-84.419625384790379
 30
0.0
 11
345.9999999980455
 21
101.98117603408539
 31
0.0
  0
LINE
  8
SIZE
  6
CONTINUOUS
 62
    30
 10
-346.00001101763161
 20
-84.445782130736006
 30
0.0
 11
-346.00001101763161
 21
101.98117603408539
 31
0.0
  0
LINE
  8
SIZE
  6
CONTINUOUS
 62
    30
 10
333.9999999980455
 20
81.981176034085365
 30
0.0
 11
-334.00001101763161
 21
81.981176034085365
 31
0.0
  0
CIRCLE
  8
SIZE
  6
CONTINUOUS
 62
    30
 10
345.9999999980455
 20
81.981176034085365
 30
0.0
 40
6.0
  0
LINE
  8
SIZE
  6
CONTINUOUS
 62
    30
 10
345.9999999980455
 20
81.981176034085365
 30
0.0
 11
333.9999999980455
 21
81.981176034085365
 31
0.0
  0
CIRCLE
  8
SIZE
  6
CONTINUOUS
 62
    30
 10
-346.00001101763161
 20
81.981176034085365
 30
0.0
 40
6.0
  0
LINE
  8
SIZE
  6
CONTINUOUS
 62
    30
 10
-346.00001101763161
 20
81.981176034085365
 30
0.0
 11
-334.00001101763161
 21
81.981176034085365
 31
0.0
  0
TEXT
  8
SIZE
  6
CONTINUOUS
 62
    30
 10
-80.352005509793031
 20
106.98117603408539
 30
0.0
 40
64.0
  1
692
 50
0.0
 41
0.9
 51
0.0
  7
STANDARD
 71
     0
 72
     1
 11
-0.0000055097930272
 21
106.98117603408539
 31
0.0
210
0.0
220
0.0
230
1.0
  0
POINT
  8
DEFPOINTS
  6
CONTINUOUS
 62
    30
 10
345.9999999980455
 20
-104.41962538479039
 30
0.0
  0
POINT
  8
DEFPOINTS
  6
CONTINUOUS
 62
    30
 10
-346.00001101763161
 20
-104.44578213073601
 30
0.0
  0
POINT
  8
DEFPOINTS
  6
CONTINUOUS
 62
    30
 10
-346.00001101763161
 20
81.981176034085365
 30
0.0
  0
LINE
  8
SIZE
  6
CONTINUOUS
 62
    30
 10
-683.98889229367887
 20
-394.30768994790981
 30
0.0
 11
-444.65990257929172
 21
-286.43069792587647
 31
0.0
  0
LINE
  8
SIZE
  6
CONTINUOUS
 62
    30
 10
-247.73999472081999
 20
-197.6695020741779
 30
0.0
 11
-236.79999983979519
 21
-192.73832452686199
 31
0.0
  0
TEXT
  8
SIZE
  6
CONTINUOUS
 62
    30
 10
-684.71104236731526
 20
-367.21088112898974
 30
0.0
 40
64.0
  1
φ192
 50
24.263361245319004
 41
0.9
 51
0.0
  7
STANDARD
 71
     0
 72
     1
 11
-585.20084892951434
 21
-322.35689015860402
 31
0.0
210
0.0
220
0.0
230
1.0
  0
LINE
  8
SIZE
  6
CONTINUOUS
 62
    30
 10
-258.67998960184468
 20
-202.60067962149381
 30
0.0
 11
-433.71990769826698
 21
-281.49952037856048
 31
0.0
  0
CIRCLE
  8
SIZE
  6
CONTINUOUS
 62
    30
 10
-258.67998960184468
 20
-202.60067962149381
 30
0.0
 40
6.0
  0
LINE
  8
SIZE
  6
CONTINUOUS
 62
    30
 10
-258.67998960184468
 20
-202.60067962149381
 30
0.0
 11
-247.73999472081996
 21
-197.66950207417787
 31
0.0
  0
CIRCLE
  8
SIZE
  6
CONTINUOUS
 62
    30
 10
-433.71990769826698
 20
-281.49952037856048
 30
0.0
 40
6.0
  0
LINE
  8
SIZE
  6
CONTINUOUS
 62
    30
 10
-433.71990769826698
 20
-281.49952037856048
 30
0.0
 11
-444.65990257929172
 21
-286.43069792587642
 31
0.0
  0
POINT
  8
DEFPOINTS
  6
CONTINUOUS
 62
    30
 10
-433.71990769826698
 20
-281.49952037856048
 30
0.0
  0
POINT
  8
DEFPOINTS
  6
CONTINUOUS
 62
    30
 10
-258.67998960184468
 20
-202.60067962149381
 30
0.0
  0
LINE
  8
SIZE
  6
CONTINUOUS
 62
    30
 10
-649.08262103787649
 20
-571.18904962769034
 30
0.0
 11
-424.55722999632269
 21
-327.37960056974771
 31
0.0
  0
LINE
  8
SIZE
  6
CONTINUOUS
 62
    30
 10
-267.39646730378217
 20
-156.72059943030499
 30
0.0
 11
-259.26746233692768
 21
-147.893409716197
 31
0.0
  0
TEXT
  8
SIZE
  6
CONTINUOUS
 62
    30
 10
-660.9515892436192
 20
-547.17253509322597
 30
0.0
 40
64.0
  1
φ208
 50
47.357867162891012
 41
0.9
 51
0.0
  7
STANDARD
 71
     0
 72
     1
 11
-582.71804544261113
 21
-462.2196612846505
 31
0.0
210
0.0
220
0.0
230
1.0
  0
LINE
  8
SIZE
  6
CONTINUOUS
 62
    30
 10
-275.52547227063678
 20
-165.547789144413
 30
0.0
 11
-416.42822502946808
 21
-318.55241085563972
 31
0.0
  0
CIRCLE
  8
SIZE
  6
CONTINUOUS
 62
    30
 10
-275.52547227063678
 20
-165.547789144413
 30
0.0
 40
6.0
  0
LINE
  8
SIZE
  6
CONTINUOUS
 62
    30
 10
-275.52547227063678
 20
-165.547789144413
 30
0.0
 11
-267.39646730378223
 21
-156.72059943030499
 31
0.0
  0
CIRCLE
  8
SIZE
  6
CONTINUOUS
 62
    30
 10
-416.42822502946808
 20
-318.55241085563972
 30
0.0
 40
6.0
  0
LINE
  8
SIZE
  6
CONTINUOUS
 62
    30
 10
-416.42822502946808
 20
-318.55241085563972
 30
0.0
 11
-424.55722999632263
 21
-327.37960056974771
 31
0.0
  0
POINT
  8
DEFPOINTS
  6
CONTINUOUS
 62
    30
 10
-416.42822502946808
 20
-318.55241085563972
 30
0.0
  0
POINT
  8
DEFPOINTS
  6
CONTINUOUS
 62
    30
 10
-275.52547227063678
 20
-165.547789144413
 30
0.0
  0
LINE
  8
SIZE
  6
CONTINUOUS
 62
    30
 10
-477.00000000007549
 20
18.92500000000291
 30
0.0
 11
-477.00000000007549
 21
222.18253880040541
 31
0.0
  0
LINE
  8
SIZE
  6
CONTINUOUS
 62
    30
 10
477.00000000006821
 20
18.92500000000291
 30
0.0
 11
477.00000000006821
 21
222.18253880040541
 31
0.0
  0
LINE
  8
SIZE
  6
CONTINUOUS
 62
    30
 10
-465.00000000007549
 20
202.18253880040541
 30
0.0
 11
465.00000000006821
 21
202.18253880040541
 31
0.0
  0
CIRCLE
  8
SIZE
  6
CONTINUOUS
 62
    30
 10
-477.00000000007549
 20
202.18253880040541
 30
0.0
 40
6.0
  0
LINE
  8
SIZE
  6
CONTINUOUS
 62
    30
 10
-477.00000000007549
 20
202.18253880040541
 30
0.0
 11
-465.00000000007549
 21
202.18253880040541
 31
0.0
  0
CIRCLE
  8
SIZE
  6
CONTINUOUS
 62
    30
 10
477.00000000006821
 20
202.18253880040541
 30
0.0
 40
6.0
  0
LINE
  8
SIZE
  6
CONTINUOUS
 62
    30
 10
477.00000000006821
 20
202.18253880040541
 30
0.0
 11
465.00000000006821
 21
202.18253880040541
 31
0.0
  0
TEXT
  8
SIZE
  6
CONTINUOUS
 62
    30
 10
-80.928000000003635
 20
227.18253880040538
 30
0.0
 40
64.0
  1
954
 50
0.0
 41
0.9
 51
0.0
  7
STANDARD
 71
     0
 72
     1
 11
-0.000000000003638
 21
227.18253880040538
 31
0.0
210
0.0
220
0.0
230
1.0
  0
POINT
  8
DEFPOINTS
  6
CONTINUOUS
 62
    30
 10
-477.00000000007549
 20
-1.0749999999970901
 30
0.0
  0
POINT
  8
DEFPOINTS
  6
CONTINUOUS
 62
    30
 10
477.00000000006821
 20
-1.0749999999970901
 30
0.0
  0
POINT
  8
DEFPOINTS
  6
CONTINUOUS
 62
    30
 10
477.00000000006821
 20
202.18253880040541
 30
0.0
  0
LINE
  8
DETAIL
  6
CONTINUOUS
 62
     5
 10
471.50000328239457
 20
-346.5836023874208
 30
0.0
 11
470.70000000006439
 21
-346.58360238742171
 31
0.0
  0
LINE
  8
SIZE
  6
CONTINUOUS
 62
    30
 10
470.70000000006439
 20
-422.15000000005062
 30
0.0
 11
470.70000000006439
 21
-577.58996268964984
 31
0.0
  0
LINE
  8
SIZE
  6
CONTINUOUS
 62
    30
 10
585.70000000007713
 20
-368.50000000004093
 30
0.0
 11
585.70000000007713
 21
-577.58996268964984
 31
0.0
  0
LINE
  8
SIZE
  6
CONTINUOUS
 62
    30
 10
573.70000000007713
 20
-557.58996268964984
 30
0.0
 11
482.70000000006439
 21
-557.58996268964984
 31
0.0
  0
LINE
  8
SIZE
  6
CONTINUOUS
 62
    30
 10
470.70000000006439
 20
-557.58996268964984
 30
0.0
 11
282.5285714286357
 21
-557.58996268964984
 31
0.0
  0
CIRCLE
  8
SIZE
  6
CONTINUOUS
 62
    30
 10
585.70000000007713
 20
-557.58996268964984
 30
0.0
 40
6.0
  0
LINE
  8
SIZE
  6
CONTINUOUS
 62
    30
 10
585.70000000007713
 20
-557.58996268964984
 30
0.0
 11
573.70000000007713
 21
-557.58996268964984
 31
0.0
  0
CIRCLE
  8
SIZE
  6
CONTINUOUS
 62
    30
 10
470.70000000006439
 20
-557.58996268964984
 30
0.0
 40
6.0
  0
LINE
  8
SIZE
  6
CONTINUOUS
 62
    30
 10
470.70000000006439
 20
-557.58996268964984
 30
0.0
 11
482.70000000006439
 21
-557.58996268964984
 31
0.0
  0
TEXT
  8
SIZE
  6
CONTINUOUS
 62
    30
 10
301.78228571435
 20
-532.58996268964984
 30
0.0
 40
64.0
  1
115
 50
0.0
 41
0.9
 51
0.0
  7
STANDARD
 71
     0
 72
     1
 11
370.61428571434999
 21
-532.58996268964984
 31
0.0
210
0.0
220
0.0
230
1.0
  0
POINT
  8
DEFPOINTS
  6
CONTINUOUS
 62
    30
 10
470.70000000006439
 20
-402.15000000005062
 30
0.0
  0
POINT
  8
DEFPOINTS
  6
CONTINUOUS
 62
    30
 10
585.70000000007713
 20
-348.50000000004093
 30
0.0
  0
POINT
  8
DEFPOINTS
  6
CONTINUOUS
 62
    30
 10
585.70000000007713
 20
-557.58996268964984
 30
0.0
  0
LINE
  8
SIZE
  6
CONTINUOUS
 62
    30
 10
528.83497718602587
 20
-202.0500000000176
 30
0.0
 11
828.73109665865672
 21
-202.05000000001749
 31
0.0
  0
LINE
  8
SIZE
  6
CONTINUOUS
 62
    30
 10
510.44585385750929
 20
-242.0500486500197
 30
0.0
 11
828.73109665865672
 21
-242.05004865001959
 31
0.0
  0
LINE
  8
SIZE
  6
CONTINUOUS
 62
    30
 10
808.73109665865672
 20
-190.05000000001749
 30
0.0
 11
808.73109665865672
 21
-178.05000000001749
 31
0.0
  0
LINE
  8
SIZE
  6
CONTINUOUS
 62
    30
 10
808.73109665865672
 20
-254.05004865001959
 30
0.0
 11
808.73109665865684
 21
-561.06621135326338
 31
0.0
  0
LINE
  8
SIZE
  6
CONTINUOUS
 62
    30
 10
808.73109665865672
 20
-202.05000000001749
 30
0.0
 11
808.73109665865672
 21
-242.05004865001959
 31
0.0
  0
CIRCLE
  8
SIZE
  6
CONTINUOUS
 62
    30
 10
808.73109665865672
 20
-202.05000000001749
 30
0.0
 40
6.0
  0
LINE
  8
SIZE
  6
CONTINUOUS
 62
    30
 10
808.73109665865672
 20
-202.05000000001749
 30
0.0
 11
808.73109665865672
 21
-190.05000000001749
 31
0.0
  0
CIRCLE
  8
SIZE
  6
CONTINUOUS
 62
    30
 10
808.73109665865672
 20
-242.05004865001959
 30
0.0
 40
6.0
  0
LINE
  8
SIZE
  6
CONTINUOUS
 62
    30
 10
808.73109665865672
 20
-242.05004865001959
 30
0.0
 11
808.73109665865672
 21
-254.05004865001959
 31
0.0
  0
TEXT
  8
SIZE
  6
CONTINUOUS
 62
    30
 10
783.7310966586565
 20
-544.15763992469215
 30
0.0
 40
64.0
  1
40
 50
90.0
 41
0.9
 51
0.0
  7
STANDARD
 71
     0
 72
     1
 11
783.7310966586565
 21
-489.43763992469212
 31
0.0
210
0.0
220
0.0
230
1.0
  0
POINT
  8
DEFPOINTS
  6
CONTINUOUS
 62
    30
 10
508.83497718602598
 20
-202.0500000000176
 30
0.0
  0
POINT
  8
DEFPOINTS
  6
CONTINUOUS
 62
    30
 10
490.44585385750929
 20
-242.0500486500197
 30
0.0
  0
POINT
  8
DEFPOINTS
  6
CONTINUOUS
 62
    30
 10
808.73109665865672
 20
-242.05004865001959
 30
0.0
  0
LINE
  8
SIZE
  6
CONTINUOUS
 62
    30
 10
495.95000000006462
 20
0.0000000000000032
 30
0.0
 11
828.73109665865672
 21
0.0000000000000567
 31
0.0
  0
LINE
  8
SIZE
  6
CONTINUOUS
 62
    30
 10
571.43427874105078
 20
-70.000000000000938
 30
0.0
 11
828.73109665865672
 21
-70.000000000000895
 31
0.0
  0
LINE
  8
SIZE
  6
CONTINUOUS
 62
    30
 10
808.73109665865672
 20
-82.000000000000895
 30
0.0
 11
808.73109665865672
 21
-94.000000000000895
 31
0.0
  0
LINE
  8
SIZE
  6
CONTINUOUS
 62
    30
 10
808.73109665865672
 20
12.00000000000006
 30
0.0
 11
808.73109665865672
 21
167.25714285714329
 31
0.0
  0
LINE
  8
SIZE
  6
CONTINUOUS
 62
    30
 10
808.73109665865672
 20
-70.000000000000895
 30
0.0
 11
808.73109665865672
 21
0.0000000000000535
 31
0.0
  0
CIRCLE
  8
SIZE
  6
CONTINUOUS
 62
    30
 10
808.73109665865672
 20
-70.000000000000895
 30
0.0
 40
6.0
  0
LINE
  8
SIZE
  6
CONTINUOUS
 62
    30
 10
808.73109665865672
 20
-70.000000000000895
 30
0.0
 11
808.73109665865672
 21
-82.000000000000895
 31
0.0
  0
CIRCLE
  8
SIZE
  6
CONTINUOUS
 62
    30
 10
808.73109665865672
 20
0.0000000000000535
 30
0.0
 40
6.0
  0
LINE
  8
SIZE
  6
CONTINUOUS
 62
    30
 10
808.73109665865672
 20
0.0000000000000535
 30
0.0
 11
808.73109665865672
 21
12.000000000000053
 31
0.0
  0
TEXT
  8
SIZE
  6
CONTINUOUS
 62
    30
 10
783.7310966586565
 20
41.484571428571599
 30
0.0
 40
64.0
  1
70
 50
90.0
 41
0.9
 51
0.0
  7
STANDARD
 71
     0
 72
     1
 11
783.7310966586565
 21
95.628571428571604
 31
0.0
210
0.0
220
0.0
230
1.0
  0
POINT
  8
DEFPOINTS
  6
CONTINUOUS
 62
    30
 10
475.95000000006462
 20
0.0
 30
0.0
  0
POINT
  8
DEFPOINTS
  6
CONTINUOUS
 62
    30
 10
551.43427874105078
 20
-70.000000000000938
 30
0.0
  0
POINT
  8
DEFPOINTS
  6
CONTINUOUS
 62
    30
 10
808.73109665865672
 20
-70.000000000000895
 30
0.0
  0
LINE
  8
SIZE
  6
CONTINUOUS
 62
    30
 10
-495.9250000000759
 20
0.0000000000027253
 30
0.0
 11
-760.01275339303913
 21
0.0000000000026828
 31
0.0
  0
LINE
  8
SIZE
  6
CONTINUOUS
 62
    30
 10
-571.43427874105714
 20
-70.000000000000938
 30
0.0
 11
-760.01275339303913
 21
-70.000000000000966
 31
0.0
  0
LINE
  8
SIZE
  6
CONTINUOUS
 62
    30
 10
-740.01275339303913
 20
-82.000000000000966
 30
0.0
 11
-740.01275339303913
 21
-94.000000000000966
 31
0.0
  0
LINE
  8
SIZE
  6
CONTINUOUS
 62
    30
 10
-740.01275339303913
 20
12.000000000002689
 30
0.0
 11
-740.01275339303913
 21
167.2571428571456
 31
0.0
  0
LINE
  8
SIZE
  6
CONTINUOUS
 62
    30
 10
-740.01275339303913
 20
-70.000000000000966
 30
0.0
 11
-740.01275339303913
 21
0.000000000002686
 31
0.0
  0
CIRCLE
  8
SIZE
  6
CONTINUOUS
 62
    30
 10
-740.01275339303913
 20
-70.000000000000966
 30
0.0
 40
6.0
  0
LINE
  8
SIZE
  6
CONTINUOUS
 62
    30
 10
-740.01275339303913
 20
-70.000000000000966
 30
0.0
 11
-740.01275339303913
 21
-82.000000000000966
 31
0.0
  0
CIRCLE
  8
SIZE
  6
CONTINUOUS
 62
    30
 10
-740.01275339303913
 20
0.000000000002686
 30
0.0
 40
6.0
  0
LINE
  8
SIZE
  6
CONTINUOUS
 62
    30
 10
-740.01275339303913
 20
0.000000000002686
 30
0.0
 11
-740.01275339303913
 21
12.000000000002686
 31
0.0
  0
TEXT
  8
SIZE
  6
CONTINUOUS
 62
    30
 10
-765.01275339303902
 20
41.484571428574327
 30
0.0
 40
64.0
  1
70
 50
90.0
 41
0.9
 51
0.0
  7
STANDARD
 71
     0
 72
     1
 11
-765.01275339303902
 21
95.628571428574332
 31
0.0
210
0.0
220
0.0
230
1.0
  0
POINT
  8
DEFPOINTS
  6
CONTINUOUS
 62
    30
 10
-475.9250000000759
 20
0.0000000000027285
 30
0.0
  0
POINT
  8
DEFPOINTS
  6
CONTINUOUS
 62
    30
 10
-551.43427874105714
 20
-70.000000000000938
 30
0.0
  0
POINT
  8
DEFPOINTS
  6
CONTINUOUS
 62
    30
 10
-740.01275339303913
 20
-70.000000000000966
 30
0.0
  0
LINE
  8
SIZE
  6
CONTINUOUS
 62
    30
 10
495.95000000006462
 20
0.0000000000000032
 30
0.0
 11
948.39331859762717
 21
0.000000000000076
 31
0.0
  0
LINE
  8
SIZE
  6
CONTINUOUS
 62
    30
 10
495.92500000006947
 20
-404.00000000005662
 30
0.0
 11
948.39331859762729
 21
-404.00000000005662
 31
0.0
  0
LINE
  8
SIZE
  6
CONTINUOUS
 62
    30
 10
928.39331859762717
 20
-11.999999999999931
 30
0.0
 11
928.39331859762729
 21
-392.0000000000565
 31
0.0
  0
CIRCLE
  8
SIZE
  6
CONTINUOUS
 62
    30
 10
928.39331859762717
 20
0.0000000000000728
 30
0.0
 40
6.0
  0
LINE
  8
SIZE
  6
CONTINUOUS
 62
    30
 10
928.39331859762717
 20
0.0000000000000728
 30
0.0
 11
928.39331859762717
 21
-11.999999999999927
 31
0.0
  0
CIRCLE
  8
SIZE
  6
CONTINUOUS
 62
    30
 10
928.39331859762729
 20
-404.0000000000565
 30
0.0
 40
6.0
  0
LINE
  8
SIZE
  6
CONTINUOUS
 62
    30
 10
928.39331859762729
 20
-404.0000000000565
 30
0.0
 11
928.39331859762729
 21
-392.0000000000565
 31
0.0
  0
TEXT
  8
SIZE
  6
CONTINUOUS
 62
    30
 10
903.39331859762694
 20
-284.08000000002846
 30
0.0
 40
64.0
  1
404
 50
90.0
 41
0.9
 51
0.0
  7
STANDARD
 71
     0
 72
     1
 11
903.39331859762694
 21
-202.00000000002839
 31
0.0
210
0.0
220
0.0
230
1.0
  0
POINT
  8
DEFPOINTS
  6
CONTINUOUS
 62
    30
 10
475.95000000006462
 20
0.0
 30
0.0
  0
POINT
  8
DEFPOINTS
  6
CONTINUOUS
 62
    30
 10
475.92500000006947
 20
-404.00000000005662
 30
0.0
  0
POINT
  8
DEFPOINTS
  6
CONTINUOUS
 62
    30
 10
928.39331859762729
 20
-404.0000000000565
 30
0.0
  0
LINE
  8
BASIS
  6
DASHDOT
 62
     6
 10
500.50000000007373
 20
-120.9342787409778
 30
0.0
 11
500.50000000007373
 21
-19.065721259016751
 31
0.0
  0
LINE
  8
BASIS
  6
DASHDOT
 62
     6
 10
449.56572125908502
 20
-70.000000000000909
 30
0.0
 11
551.43427874105055
 21
-70.000000000000909
 31
0.0
  0
LINE
  8
BASIS
  6
DASHDOT
 62
     6
 10
-500.50000000006912
 20
-120.9342787409778
 30
0.0
 11
-500.50000000006912
 21
-19.065721259016751
 31
0.0
  0
LINE
  8
BASIS
  6
DASHDOT
 62
     6
 10
-551.43427874105691
 20
-70.000000000000909
 30
0.0
 11
-449.56572125909321
 21
-70.000000000000909
 31
0.0
  0
LINE
  8
SIZE
  6
CONTINUOUS
 62
    30
 10
-500.50000000006912
 20
0.9342787409832454
 30
0.0
 11
-500.50000000006912
 21
342.32969331113691
 31
0.0
  0
LINE
  8
SIZE
  6
CONTINUOUS
 62
    30
 10
500.50000000007373
 20
0.9342787409832454
 30
0.0
 11
500.50000000007373
 21
342.32969331113691
 31
0.0
  0
LINE
  8
SIZE
  6
CONTINUOUS
 62
    30
 10
-488.50000000006912
 20
322.32969331113691
 30
0.0
 11
488.50000000007373
 21
322.32969331113691
 31
0.0
  0
CIRCLE
  8
SIZE
  6
CONTINUOUS
 62
    30
 10
-500.50000000006912
 20
322.32969331113691
 30
0.0
 40
6.0
  0
LINE
  8
SIZE
  6
CONTINUOUS
 62
    30
 10
-500.50000000006912
 20
322.32969331113691
 30
0.0
 11
-488.50000000006912
 21
322.32969331113691
 31
0.0
  0
CIRCLE
  8
SIZE
  6
CONTINUOUS
 62
    30
 10
500.50000000007373
 20
322.32969331113691
 30
0.0
 40
6.0
  0
LINE
  8
SIZE
  6
CONTINUOUS
 62
    30
 10
500.50000000007373
 20
322.32969331113691
 30
0.0
 11
488.50000000007373
 21
322.32969331113691
 31
0.0
  0
TEXT
  8
SIZE
  6
CONTINUOUS
 62
    30
 10
-96.767999999997727
 20
347.32969331113691
 30
0.0
 40
64.0
  1
1001
 50
0.0
 41
0.9
 51
0.0
  7
STANDARD
 71
     0
 72
     1
 11
0.0000000000022737
 21
347.32969331113691
 31
0.0
210
0.0
220
0.0
230
1.0
  0
POINT
  8
DEFPOINTS
  6
CONTINUOUS
 62
    30
 10
-500.50000000006912
 20
-19.065721259016751
 30
0.0
  0
POINT
  8
DEFPOINTS
  6
CONTINUOUS
 62
    30
 10
500.50000000007373
 20
-19.065721259016751
 30
0.0
  0
POINT
  8
DEFPOINTS
  6
CONTINUOUS
 62
    30
 10
500.50000000007373
 20
322.32969331113691
 30
0.0
  0
LINE
  8
SIZE
  6
CONTINUOUS
 62
    30
 10
500.50000000007373
 20
0.9342787409832454
 30
0.0
 11
500.50000000007373
 21
342.32969331115601
 31
0.0
  0
LINE
  8
SIZE
  6
CONTINUOUS
 62
    30
 10
520.50000000007003
 20
-43.200000000004373
 30
0.0
 11
520.50000000007003
 21
342.32969331115601
 31
0.0
  0
LINE
  8
SIZE
  6
CONTINUOUS
 62
    30
 10
488.50000000007373
 20
322.32969331115601
 30
0.0
 11
476.50000000007373
 21
322.32969331115601
 31
0.0
  0
LINE
  8
SIZE
  6
CONTINUOUS
 62
    30
 10
532.50000000007003
 20
322.32969331115601
 30
0.0
 11
687.75714285721472
 21
322.32969331115601
 31
0.0
  0
LINE
  8
SIZE
  6
CONTINUOUS
 62
    30
 10
500.50000000007373
 20
322.32969331115601
 30
0.0
 11
520.50000000007003
 21
322.32969331115601
 31
0.0
  0
CIRCLE
  8
SIZE
  6
CONTINUOUS
 62
    30
 10
500.50000000007373
 20
322.32969331115601
 30
0.0
 40
6.0
  0
LINE
  8
SIZE
  6
CONTINUOUS
 62
    30
 10
500.50000000007373
 20
322.32969331115601
 30
0.0
 11
488.50000000007373
 21
322.32969331115601
 31
0.0
  0
CIRCLE
  8
SIZE
  6
CONTINUOUS
 62
    30
 10
520.50000000007003
 20
322.32969331115601
 30
0.0
 40
6.0
  0
LINE
  8
SIZE
  6
CONTINUOUS
 62
    30
 10
520.50000000007003
 20
322.32969331115601
 30
0.0
 11
532.50000000007003
 21
322.32969331115601
 31
0.0
  0
TEXT
  8
SIZE
  6
CONTINUOUS
 62
    30
 10
561.98457142864322
 20
347.32969331115601
 30
0.0
 40
64.0
  1
20
 50
0.0
 41
0.9
 51
0.0
  7
STANDARD
 71
     0
 72
     1
 11
616.12857142864323
 21
347.32969331115601
 31
0.0
210
0.0
220
0.0
230
1.0
  0
POINT
  8
DEFPOINTS
  6
CONTINUOUS
 62
    30
 10
500.50000000007373
 20
-19.065721259016751
 30
0.0
  0
POINT
  8
DEFPOINTS
  6
CONTINUOUS
 62
    30
 10
520.50000000007003
 20
-63.200000000004373
 30
0.0
  0
POINT
  8
DEFPOINTS
  6
CONTINUOUS
 62
    30
 10
520.50000000007003
 20
322.32969331115601
 30
0.0
  0
CIRCLE
  8
FIX
  6
CONTINUOUS
 62
    11
 10
500.50000000007373
 20
-70.000000000000909
 30
0.0
 40
6.5
  0
CIRCLE
  8
FIX
  6
CONTINUOUS
 62
    11
 10
-500.50000000006912
 20
-69.999999999997272
 30
0.0
 40
6.5
  0
POINT
  8
ARRANGE
  6
CONTINUOUS
 62
     1
 10
-0.0000000000063665
 20
0.0
 30
0.0
 50
270.0
  0
CIRCLE
  8
ARRANGE
  6
CONTINUOUS
 62
     1
 10
-0.0000000000063665
 20
0.0
 30
0.0
 40
40.0
  0
LINE
  8
OUTLINE
  6
CONTINUOUS
 62
     3
 10
-471.20000000007991
 20
-73.923726160006481
 30
0.0
 11
-471.20000000007991
 21
-1.8499999999912691
 31
0.0
  0
LINE
  8
OUTLINE
  6
CONTINUOUS
 62
     3
 10
-471.20000000007991
 20
-1.8499999999912691
 30
0.0
 11
-470.70000000007991
 21
-1.8499999999912691
 31
0.0
  0
ARC
  8
OUTLINE
  6
CONTINUOUS
 62
     3
 10
-471.20000000007582
 20
-1.8499999999953691
 30
0.0
 40
0.4999999999959151
 50
0.0
 51
90.0
  0
LINE
  8
OUTLINE
  6
CONTINUOUS
 62
     3
 10
-471.20000000007991
 20
-1.3499999999994541
 30
0.0
 11
-472.70000000007622
 21
-1.3499999999994541
 31
0.0
  0
LINE
  8
OUTLINE
  6
CONTINUOUS
 62
     3
 10
-472.70000000007622
 20
-1.3499999999994541
 30
0.0
 11
-472.70000000007258
 21
-2.1499999999941788
 31
0.0
  0
LINE
  8
OUTLINE
  6
CONTINUOUS
 62
     3
 10
-472.70000000007258
 20
-2.1499999999941788
 30
0.0
 11
-475.92500000007573
 21
-2.149999999996453
 31
0.0
  0
ARC
  8
OUTLINE
  6
CONTINUOUS
 62
     3
 10
-475.92485294127329
 20
-1.074852941174979
 30
0.0
 40
1.0751470688788383
 50
91.340236866878172
 51
269.99216307332244
  0
LINE
  8
OUTLINE
  6
CONTINUOUS
 62
     3
 10
-475.95000000007258
 20
0.0
 30
0.0
 11
-470.93306493807268
 21
0.0000000000017053
 31
0.0
  0
ARC
  8
OUTLINE
  6
CONTINUOUS
 62
     3
 10
-471.05737387066767
 20
-1.735659394897743
 30
0.0
 40
1.7401052398707479
 50
9.0965620687918545
 51
85.903437931164149
  0
LINE
  8
OUTLINE
  6
CONTINUOUS
 62
     3
 10
-469.33915342112601
 20
-1.460550811603071
 30
0.0
 11
-469.21759237007251
 21
-2.8499999999912689
 31
0.0
  0
LINE
  8
OUTLINE
  6
CONTINUOUS
 62
     3
 10
-469.21759237007251
 20
-2.8499999999912689
 30
0.0
 11
-468.70000000007889
 21
-2.8499999999912689
 31
0.0
  0
LINE
  8
OUTLINE
  6
CONTINUOUS
 62
     3
 10
-468.70000000007889
 20
-2.8499999999912689
 30
0.0
 11
-468.70000000007889
 21
-0.8499999999912689
 31
0.0
  0
LINE
  8
OUTLINE
  6
CONTINUOUS
 62
     3
 10
-468.70000000007889
 20
-0.8499999999912689
 30
0.0
 11
-467.80000000007573
 21
-0.8499999999912689
 31
0.0
  0
LINE
  8
OUTLINE
  6
CONTINUOUS
 62
     3
 10
-467.80000000007573
 20
-0.8499999999912689
 30
0.0
 11
-467.80000000007573
 21
0.0
 31
0.0
  0
LINE
  8
OUTLINE
  6
CONTINUOUS
 62
     3
 10
-467.80000000007573
 20
0.0
 30
0.0
 11
467.80000000006203
 21
0.0
 31
0.0
  0
LINE
  8
OUTLINE
  6
CONTINUOUS
 62
     3
 10
467.80000000006203
 20
0.0
 30
0.0
 11
467.80000000006203
 21
-0.8499999999912689
 31
0.0
  0
LINE
  8
OUTLINE
  6
CONTINUOUS
 62
     3
 10
467.80000000006203
 20
-0.8499999999912689
 30
0.0
 11
468.70000000006348
 21
-0.8499999999912689
 31
0.0
  0
LINE
  8
OUTLINE
  6
CONTINUOUS
 62
     3
 10
468.70000000006348
 20
-0.8499999999912689
 30
0.0
 11
468.70000000006348
 21
-2.8499999999912689
 31
0.0
  0
LINE
  8
OUTLINE
  6
CONTINUOUS
 62
     3
 10
468.70000000006348
 20
-2.8499999999912689
 30
0.0
 11
469.21759237006432
 21
-2.8499999999912689
 31
0.0
  0
LINE
  8
OUTLINE
  6
CONTINUOUS
 62
     3
 10
469.21759237006432
 20
-2.8499999999912689
 30
0.0
 11
469.33915342206637
 21
-1.460550811993016
 31
0.0
  0
ARC
  8
OUTLINE
  6
CONTINUOUS
 62
     3
 10
470.93306494080753
 20
-1.6000000019191789
 30
0.0
 40
1.6000000019208842
 50
90.0
 51
174.99999995102291
  0
LINE
  8
OUTLINE
  6
CONTINUOUS
 62
     3
 10
470.93306494006077
 20
0.0000000000017053
 30
0.0
 11
475.95000000006439
 21
0.0
 31
0.0
  0
ARC
  8
OUTLINE
  6
CONTINUOUS
 62
     3
 10
475.92485294120792
 20
-1.074852941174314
 30
0.0
 40
1.0751470688795113
 50
270.00783692977029
 51
88.659763130074396
  0
LINE
  8
OUTLINE
  6
CONTINUOUS
 62
     3
 10
475.92500000006839
 20
-2.149999999996453
 30
0.0
 11
472.70000000006348
 21
-2.1499999999941788
 31
0.0
  0
LINE
  8
OUTLINE
  6
CONTINUOUS
 62
     3
 10
472.70000000006348
 20
-2.1499999999941788
 30
0.0
 11
472.70000000006348
 21
-1.350000000003774
 31
0.0
  0
LINE
  8
OUTLINE
  6
CONTINUOUS
 62
     3
 10
472.70000000006348
 20
-1.350000000003774
 30
0.0
 11
471.20000000006712
 21
-1.350000000003774
 31
0.0
  0
ARC
  8
OUTLINE
  6
CONTINUOUS
 62
     3
 10
471.20000000005462
 20
-1.8499999999912462
 30
0.0
 40
0.4999999999874724
 50
90.0
 51
180.0
  0
LINE
  8
OUTLINE
  6
CONTINUOUS
 62
     3
 10
470.70000000006712
 20
-1.849999999996498
 30
0.0
 11
470.70000000006439
 21
-3.049999999995634
 31
0.0
  0
LINE
  8
OUTLINE
  6
CONTINUOUS
 62
     3
 10
470.70000000006439
 20
-3.049999999995634
 30
0.0
 11
473.70000000006439
 21
-3.049999999995634
 31
0.0
  0
LINE
  8
OUTLINE
  6
CONTINUOUS
 62
     3
 10
473.70000000006439
 20
-3.049999999995634
 30
0.0
 11
473.70113113206389
 21
-5.5008654853298822
 31
0.0
  0
ARC
  8
OUTLINE
  6
CONTINUOUS
 62
     3
 10
474.90113113205877
 20
-5.5008654853276653
 30
0.0
 40
1.1999999999948729
 50
90.0
 51
180.0
  0
LINE
  8
OUTLINE
  6
CONTINUOUS
 62
     3
 10
474.90113113206462
 20
-4.3008654853327926
 30
0.0
 11
484.10000000006039
 21
-4.2999999999885858
 31
0.0
  0
ARC
  8
OUTLINE
  6
CONTINUOUS
 62
     3
 10
484.10000000006039
 20
-4.8999999999878128
 30
0.0
 40
0.5999999999992269
 50
270.0
 51
90.0
  0
LINE
  8
OUTLINE
  6
CONTINUOUS
 62
     3
 10
484.10000000006039
 20
-5.4999999999870397
 30
0.0
 11
484.70113113206389
 21
-5.5008654853298822
 31
0.0
  0
LINE
  8
OUTLINE
  6
CONTINUOUS
 62
     3
 10
484.70113113206389
 20
-5.5008654853298822
 30
0.0
 11
485.08091743206393
 21
-5.0364248600016026
 31
0.0
  0
ARC
  8
OUTLINE
  6
CONTINUOUS
 62
     3
 10
450.09999999434712
 20
-47.608075237289988
 30
0.0
 40
55.100000005720851
 50
0.0
 51
50.590221405153443
  0
LINE
  8
OUTLINE
  6
CONTINUOUS
 62
     3
 10
505.20000000006797
 20
-47.608074492003652
 30
0.0
 11
505.19999999725769
 21
-66.936574670380423
 31
0.0
  0
ARC
  8
OUTLINE
  6
CONTINUOUS
 62
     3
 10
504.97504941826162
 20
-70.150243733477282
 30
0.0
 40
3.2215324940308254
 50
2.7059167269251816
 51
85.995938041972806
  0
LINE
  8
OUTLINE
  6
CONTINUOUS
 62
     3
 10
508.19298992006861
 20
-69.998156466006435
 30
0.0
 11
514.10000000006858
 21
-70.0
 31
0.0
  0
ARC
  8
OUTLINE
  6
CONTINUOUS
 62
     3
 10
514.1000000000746
 20
-66.800000000005269
 30
0.0
 40
3.1999999999947359
 50
270.0
 51
0.0
  0
LINE
  8
OUTLINE
  6
CONTINUOUS
 62
     3
 10
517.3000000000693
 20
-66.80000000000291
 30
0.0
 11
517.30000000006567
 21
-63.200000000004373
 31
0.0
  0
LINE
  8
OUTLINE
  6
CONTINUOUS
 62
     3
 10
517.30000000006567
 20
-63.200000000004373
 30
0.0
 11
520.50000000007094
 21
-63.200000000004373
 31
0.0
  0
LINE
  8
OUTLINE
  6
CONTINUOUS
 62
     3
 10
520.50000000007094
 20
-63.200000000004373
 30
0.0
 11
520.50000000006912
 21
-66.80000000000291
 31
0.0
  0
ARC
  8
OUTLINE
  6
CONTINUOUS
 62
     3
 10
514.10000000007381
 20
-66.800000000005397
 30
0.0
 40
6.3999999999952806
 50
311.34354484783535
 51
0.0
  0
ARC
  8
OUTLINE
  6
CONTINUOUS
 62
     3
 10
514.35163095443954
 20
-76.295771045995295
 30
0.0
 40
6.1492524420543155
 50
359.02879818116855
 51
49.715159321467866
  0
LINE
  8
OUTLINE
  6
CONTINUOUS
 62
     3
 10
520.50000000006912
 20
-76.400000000008731
 30
0.0
 11
520.50000000007094
 21
-80.0
 31
0.0
  0
LINE
  8
OUTLINE
  6
CONTINUOUS
 62
     3
 10
520.50000000007094
 20
-80.0
 30
0.0
 11
517.30000000006567
 21
-80.0
 31
0.0
  0
LINE
  8
OUTLINE
  6
CONTINUOUS
 62
     3
 10
517.30000000006567
 20
-80.0
 30
0.0
 11
517.3000000000693
 21
-76.400000000008731
 31
0.0
  0
ARC
  8
OUTLINE
  6
CONTINUOUS
 62
     3
 10
514.10000000006858
 20
-76.400000000008987
 30
0.0
 40
3.2000000000007525
 50
0.0
 51
90.0
  0
LINE
  8
OUTLINE
  6
CONTINUOUS
 62
     3
 10
514.10000000006858
 20
-73.200000000008231
 30
0.0
 11
508.39722442207039
 21
-73.200000000011642
 31
0.0
  0
LINE
  8
OUTLINE
  6
CONTINUOUS
 62
     3
 10
508.39722442207039
 20
-73.200000000011642
 30
0.0
 11
508.39722442207039
 21
-86.899999999998727
 31
0.0
  0
LINE
  8
OUTLINE
  6
CONTINUOUS
 62
     3
 10
508.39722442207039
 20
-86.899999999998727
 30
0.0
 11
508.39722442207039
 21
-86.899999999998727
 31
0.0
  0
LINE
  8
OUTLINE
  6
CONTINUOUS
 62
     3
 10
508.39722442207039
 20
-86.899999999998727
 30
0.0
 11
585.70000000008531
 21
-86.899999999999636
 31
0.0
  0
LINE
  8
OUTLINE
  6
CONTINUOUS
 62
     3
 10
585.70000000008531
 20
-86.899999999999636
 30
0.0
 11
585.70000000008531
 21
-87.751087470693165
 31
0.0
  0
ARC
  8
OUTLINE
  6
CONTINUOUS
 62
     3
 10
584.90000000008376
 20
-88.899999999989618
 30
0.0
 40
1.3999999999917083
 50
34.849904578609824
 51
55.150095420640753
  0
LINE
  8
OUTLINE
  6
CONTINUOUS
 62
     3
 10
586.04891252939069
 20
-88.100000000003092
 30
0.0
 11
586.9000000000824
 21
-88.100000000003092
 31
0.0
  0
LINE
  8
OUTLINE
  6
CONTINUOUS
 62
     3
 10
586.9000000000824
 20
-88.100000000003092
 30
0.0
 11
586.90000000007421
 21
-347.30000000003753
 31
0.0
  0
LINE
  8
OUTLINE
  6
CONTINUOUS
 62
     3
 10
586.90000000007421
 20
-347.30000000003753
 30
0.0
 11
586.04891252938432
 21
-347.30000000003662
 31
0.0
  0
ARC
  8
OUTLINE
  6
CONTINUOUS
 62
     3
 10
584.90000000007308
 20
-346.50000000004439
 30
0.0
 40
1.3999999999985526
 50
304.84990457929007
 51
325.15009542129974
  0
LINE
  8
OUTLINE
  6
CONTINUOUS
 62
     3
 10
585.70000000007713
 20
-347.6489125293474
 30
0.0
 11
585.70000000007713
 21
-348.50000000004093
 31
0.0
  0
LINE
  8
OUTLINE
  6
CONTINUOUS
 62
     3
 10
585.70000000007713
 20
-348.50000000004093
 30
0.0
 11
508.80000000006021
 21
-348.50456560486538
 31
0.0
  0
LINE
  8
OUTLINE
  6
CONTINUOUS
 62
     3
 10
508.80000000006021
 20
-348.50456560486538
 30
0.0
 11
508.80000000006021
 21
-356.15000000003778
 31
0.0
  0
ARC
  8
OUTLINE
  6
CONTINUOUS
 62
     3
 10
509.80000000007271
 20
-356.15000000002539
 30
0.0
 40
1.0000000000124984
 50
180.0
 51
270.0
  0
LINE
  8
OUTLINE
  6
CONTINUOUS
 62
     3
 10
509.80000000006748
 20
-357.15000000003789
 30
0.0
 11
515.8000000000693
 21
-357.15000000003778
 31
0.0
  0
LINE
  8
OUTLINE
  6
CONTINUOUS
 62
     3
 10
515.8000000000693
 20
-357.15000000003778
 30
0.0
 11
515.8000000000693
 21
-358.18707326290411
 31
0.0
  0
LINE
  8
OUTLINE
  6
CONTINUOUS
 62
     3
 10
515.8000000000693
 20
-358.18707326290411
 30
0.0
 11
509.80000000006748
 21
-358.15000000003778
 31
0.0
  0
ARC
  8
OUTLINE
  6
CONTINUOUS
 62
     3
 10
509.80000000006669
 20
-356.15000000003857
 30
0.0
 40
1.9999999999991847
 50
180.0
 51
270.0
  0
LINE
  8
OUTLINE
  6
CONTINUOUS
 62
     3
 10
507.80000000006748
 20
-356.15000000003778
 30
0.0
 11
506.80000000006748
 21
-356.15000000003778
 31
0.0
  0
LINE
  8
OUTLINE
  6
CONTINUOUS
 62
     3
 10
506.80000000006748
 20
-356.15000000003778
 30
0.0
 11
506.80000000006748
 21
-361.35000000004948
 31
0.0
  0
ARC
  8
OUTLINE
  6
CONTINUOUS
 62
     3
 10
503.80000000005043
 20
-361.3500000000351
 30
0.0
 40
3.0000000000170739
 50
286.49856688778357
 51
0.0
  0
ARC
  8
OUTLINE
  6
CONTINUOUS
 62
     3
 10
450.11770424754275
 20
-356.50572833252761
 30
0.0
 40
55.078095474771786
 50
309.40466529306332
 51
351.94183786169367
  0
LINE
  8
OUTLINE
  6
CONTINUOUS
 62
     3
 10
485.08091743129989
 20
-399.06357514125642
 30
0.0
 11
484.70110091759312
 21
-398.59909756869632
 31
0.0
  0
LINE
  8
OUTLINE
  6
CONTINUOUS
 62
     3
 10
484.70110091759312
 20
-398.59909756869632
 30
0.0
 11
484.10000000006039
 21
-398.60000000004788
 31
0.0
  0
ARC
  8
OUTLINE
  6
CONTINUOUS
 62
     3
 10
484.10000000006039
 20
-399.20000000005075
 30
0.0
 40
0.6000000000028649
 50
270.0
 51
90.0
  0
LINE
  8
OUTLINE
  6
CONTINUOUS
 62
     3
 10
484.10000000006039
 20
-399.80000000005361
 30
0.0
 11
474.90110091759198
 21
-399.79909756870057
 31
0.0
  0
ARC
  8
OUTLINE
  6
CONTINUOUS
 62
     3
 10
474.90110091759857
 20
-398.5990975686932
 30
0.0
 40
1.2000000000073903
 50
180.0
 51
270.0
  0
LINE
  8
OUTLINE
  6
CONTINUOUS
 62
     3
 10
473.70110091759119
 20
-398.59909756869632
 30
0.0
 11
473.70000000006439
 21
-400.95000000005348
 31
0.0
  0
LINE
  8
OUTLINE
  6
CONTINUOUS
 62
     3
 10
473.70000000006439
 20
-400.95000000005348
 30
0.0
 11
470.70000000006439
 21
-400.95000000005348
 31
0.0
  0
LINE
  8
OUTLINE
  6
CONTINUOUS
 62
     3
 10
470.70000000006439
 20
-400.95000000005348
 30
0.0
 11
470.70000000007082
 21
-402.1500000000724
 31
0.0
  0
ARC
  8
OUTLINE
  6
CONTINUOUS
 62
     3
 10
471.20000000004529
 20
-402.15000000008331
 30
0.0
 40
0.4999999999744693
 50
180.0
 51
270.0
  0
LINE
  8
OUTLINE
  6
CONTINUOUS
 62
     3
 10
471.20000000007082
 20
-402.65000000005779
 30
0.0
 11
472.70000000006348
 21
-402.65000000006012
 31
0.0
  0
LINE
  8
OUTLINE
  6
CONTINUOUS
 62
     3
 10
472.70000000006348
 20
-402.65000000006012
 30
0.0
 11
472.70000000006348
 21
-401.85000000004771
 31
0.0
  0
LINE
  8
OUTLINE
  6
CONTINUOUS
 62
     3
 10
472.70000000006348
 20
-401.85000000004771
 30
0.0
 11
475.9250000000693
 21
-401.85000000004538
 31
0.0
  0
ARC
  8
OUTLINE
  6
CONTINUOUS
 62
     3
 10
475.924852941219
 20
-402.92514705887464
 30
0.0
 40
1.0751470688866556
 50
271.34023686932574
 51
89.99216307077188
  0
LINE
  8
OUTLINE
  6
CONTINUOUS
 62
     3
 10
475.95000000006439
 20
-404.00000000005639
 30
0.0
 11
470.93306494006077
 21
-404.00000000005639
 31
0.0
  0
ARC
  8
OUTLINE
  6
CONTINUOUS
 62
     3
 10
470.93306494005697
 20
-402.40000000006057
 30
0.0
 40
1.5999999999957919
 50
184.99999999988722
 51
270.0
  0
LINE
  8
OUTLINE
  6
CONTINUOUS
 62
     3
 10
469.33915342311411
 20
-402.53944918845332
 30
0.0
 11
469.21759237006432
 21
-401.15000000005779
 31
0.0
  0
LINE
  8
OUTLINE
  6
CONTINUOUS
 62
     3
 10
469.21759237006432
 20
-401.15000000005779
 30
0.0
 11
468.70000000006348
 21
-401.15000000005779
 31
0.0
  0
LINE
  8
OUTLINE
  6
CONTINUOUS
 62
     3
 10
468.70000000006348
 20
-401.15000000005779
 30
0.0
 11
468.70000000007082
 21
-403.15000000006512
 31
0.0
  0
LINE
  8
OUTLINE
  6
CONTINUOUS
 62
     3
 10
468.70000000007082
 20
-403.15000000006512
 30
0.0
 11
467.80000000006203
 21
-403.15000000005062
 31
0.0
  0
LINE
  8
OUTLINE
  6
CONTINUOUS
 62
     3
 10
467.80000000006203
 20
-403.15000000005062
 30
0.0
 11
467.80000000006203
 21
-404.00000000005639
 31
0.0
  0
LINE
  8
OUTLINE
  6
CONTINUOUS
 62
     3
 10
467.80000000006203
 20
-404.00000000005639
 30
0.0
 11
-467.80000000007573
 21
-404.00000000005639
 31
0.0
  0
LINE
  8
OUTLINE
  6
CONTINUOUS
 62
     3
 10
-467.80000000007573
 20
-404.00000000005639
 30
0.0
 11
-467.80000000007573
 21
-403.15000000005062
 31
0.0
  0
LINE
  8
OUTLINE
  6
CONTINUOUS
 62
     3
 10
-467.80000000007573
 20
-403.15000000005062
 30
0.0
 11
-468.70000000007622
 21
-403.15000000004511
 31
0.0
  0
LINE
  8
OUTLINE
  6
CONTINUOUS
 62
     3
 10
-468.70000000007622
 20
-403.15000000004511
 30
0.0
 11
-468.70000000007798
 21
-401.15000000004329
 31
0.0
  0
LINE
  8
OUTLINE
  6
CONTINUOUS
 62
     3
 10
-468.70000000007798
 20
-401.15000000004329
 30
0.0
 11
-469.21759237007251
 21
-401.15000000005779
 31
0.0
  0
LINE
  8
OUTLINE
  6
CONTINUOUS
 62
     3
 10
-469.21759237007251
 20
-401.15000000005779
 30
0.0
 11
-469.33915342112601
 21
-402.53944918845332
 31
0.0
  0
ARC
  8
OUTLINE
  6
CONTINUOUS
 62
     3
 10
-470.93306493806898
 20
-402.40000000006046
 30
0.0
 40
1.5999999999959096
 50
270.0
 51
355.00000000010914
  0
LINE
  8
OUTLINE
  6
CONTINUOUS
 62
     3
 10
-470.93306493807268
 20
-404.00000000005639
 30
0.0
 11
-475.95000000007258
 21
-404.00000000005639
 31
0.0
  0
ARC
  8
OUTLINE
  6
CONTINUOUS
 62
     3
 10
-475.92485294122588
 20
-402.92514705887584
 30
0.0
 40
1.075147068885506
 50
90.007836929203847
 51
268.6597631306031
  0
LINE
  8
OUTLINE
  6
CONTINUOUS
 62
     3
 10
-475.92500000007573
 20
-401.85000000004771
 30
0.0
 11
-472.70000000007622
 21
-401.85000000003311
 31
0.0
  0
LINE
  8
OUTLINE
  6
CONTINUOUS
 62
     3
 10
-472.70000000007622
 20
-401.85000000003311
 30
0.0
 11
-472.70000000007622
 21
-402.65000000005062
 31
0.0
  0
LINE
  8
OUTLINE
  6
CONTINUOUS
 62
     3
 10
-472.70000000007622
 20
-402.65000000005062
 30
0.0
 11
-471.20000000007991
 21
-402.65000000005062
 31
0.0
  0
ARC
  8
OUTLINE
  6
CONTINUOUS
 62
     3
 10
-471.20000000008162
 20
-402.1500000000525
 30
0.0
 40
0.4999999999981465
 50
270.0
 51
0.0
  0
LINE
  8
OUTLINE
  6
CONTINUOUS
 62
     3
 10
-470.70000000008349
 20
-402.15000000005062
 30
0.0
 11
-471.20000000007991
 21
-402.15000000005062
 31
0.0
  0
LINE
  8
OUTLINE
  6
CONTINUOUS
 62
     3
 10
-471.20000000007991
 20
-402.15000000005062
 30
0.0
 11
-471.20000000007173
 21
-120.0000000000073
 31
0.0
  0
LINE
  8
OUTLINE
  6
CONTINUOUS
 62
     3
 10
-471.20000000007173
 20
-120.0000000000073
 30
0.0
 11
-473.90000000006881
 21
-120.0000000000073
 31
0.0
  0
LINE
  8
OUTLINE
  6
CONTINUOUS
 62
     3
 10
-473.90000000006881
 20
-120.0000000000073
 30
0.0
 11
-473.90000000007421
 21
-76.400000000008731
 31
0.0
  0
ARC
  8
OUTLINE
  6
CONTINUOUS
 62
     3
 10
-477.10281766886146
 20
-76.401167116634738
 30
0.0
 40
3.202817881437706
 50
0.0208787576519285
 51
88.160360343732862
  0
LINE
  8
OUTLINE
  6
CONTINUOUS
 62
     3
 10
-477.00000000007373
 20
-73.19999999999709
 30
0.0
 11
-514.10000000007585
 21
-73.200000000012551
 31
0.0
  0
ARC
  8
OUTLINE
  6
CONTINUOUS
 62
     3
 10
-514.10000000007449
 20
-76.400000000010976
 30
0.0
 40
3.1999999999984237
 50
90.0
 51
180.0
  0
LINE
  8
OUTLINE
  6
CONTINUOUS
 62
     3
 10
-517.30000000007294
 20
-76.400000000012369
 30
0.0
 11
-517.30000000007294
 21
-80.000000000007276
 31
0.0
  0
LINE
  8
OUTLINE
  6
CONTINUOUS
 62
     3
 10
-517.30000000007294
 20
-80.000000000007276
 30
0.0
 11
-520.50000000007731
 21
-80.000000000007276
 31
0.0
  0
LINE
  8
OUTLINE
  6
CONTINUOUS
 62
     3
 10
-520.50000000007731
 20
-80.000000000007276
 30
0.0
 11
-520.50000000007367
 21
-76.400000000012369
 31
0.0
  0
ARC
  8
OUTLINE
  6
CONTINUOUS
 62
     3
 10
-514.10000000007449
 20
-76.40000000000974
 30
0.0
 40
6.3999999999992259
 50
131.40962210922203
 51
180.0
  0
ARC
  8
OUTLINE
  6
CONTINUOUS
 62
     3
 10
-514.10000000007562
 20
-66.799999999999415
 30
0.0
 40
6.4000000000016728
 50
180.0
 51
228.59037789081117
  0
LINE
  8
OUTLINE
  6
CONTINUOUS
 62
     3
 10
-520.50000000007731
 20
-66.80000000000291
 30
0.0
 11
-520.50000000007731
 21
-63.200000000004373
 31
0.0
  0
LINE
  8
OUTLINE
  6
CONTINUOUS
 62
     3
 10
-520.50000000007731
 20
-63.200000000004373
 30
0.0
 11
-517.30000000007294
 21
-63.200000000004373
 31
0.0
  0
LINE
  8
OUTLINE
  6
CONTINUOUS
 62
     3
 10
-517.30000000007294
 20
-63.200000000004373
 30
0.0
 11
-517.30000000007294
 21
-66.80000000000291
 31
0.0
  0
ARC
  8
OUTLINE
  6
CONTINUOUS
 62
     3
 10
-514.10000000007767
 20
-66.800000000007415
 30
0.0
 40
3.1999999999953181
 50
180.0
 51
270.0
  0
LINE
  8
OUTLINE
  6
CONTINUOUS
 62
     3
 10
-514.10000000007585
 20
-70.000000000002728
 30
0.0
 11
-477.10000000007489
 21
-70.000000000007844
 31
0.0
  0
ARC
  8
OUTLINE
  6
CONTINUOUS
 62
     3
 10
-477.09747140768121
 20
-76.393895437956857
 30
0.0
 40
6.3938959379399281
 50
22.726483337741115
 51
90.02265874788219
  0
TEXT
  8
ETC
  6
CONTINUOUS
 62
    61
 10
817.1764012918311
 20
828.52550689979307
 30
0.0
 40
64.065641025638456
  1
LGH-65RVX3-E_3
 41
0.9
  0
TEXT
  8
ETC
  6
CONTINUOUS
 62
    61
 10
812.98611396465185
 20
710.44921707982257
 30
0.0
 40
64.065641025638456
  1
LOSSNAY
 41
0.9
  0
TEXT
  8
ETC
  6
CONTINUOUS
 62
    61
 10
863.73951364730692
 20
602.18952237525639
 30
0.0
 40
40.041025641024042
  1
LGH-65RVX3-E
 50
0.0
 41
0.9
 51
0.0
  7
STANDARD
 71
     0
 11
0.0
 21
0.0
 31
0.0
210
0.0
220
0.0
230
1.0
  0
TEXT
  8
NOTE
  6
CONTINUOUS
 62
     4
 10
297.93450869153111
 20
-274.62150837951231
 30
0.0
 40
64.065641025638456
  1
OA
 41
0.9
  0
TEXT
  8
NOTE
  6
CONTINUOUS
 62
     4
 10
-399.84217045454159
 20
-274.62150837951231
 30
0.0
 40
64.065641025638456
  1
EA
 41
0.9
  0
TEXT
  8
NOTE
  6
CONTINUOUS
 62
     4
 10
717.05934663737753
 20
379.50920579361889
 30
0.0
 40
69.0
  1
Ceiling suspension fixture
 50
0.0
 41
0.9
 51
0.0
  7
STANDARD
 71
     0
 11
0.0
 21
0.0
 31
0.0
210
0.0
220
0.0
230
1.0
  0
TEXT
  8
NOTE
  6
CONTINUOUS
 62
     4
 10
717.05934663737753
 20
265.65920579361887
 30
0.0
 40
69.0
  1
(4-13X20 oval)
 50
0.0
 41
0.9
 51
0.0
  7
STANDARD
 71
     0
 11
0.0
 21
0.0
 31
0.0
210
0.0
220
0.0
230
1.0
  0
LINE
  8
NOTE
  6
CONTINUOUS
 62
     4
 10
707.05934663737753
 20
228.36634865076169
 30
0.0
 11
1923.573632351663
 21
228.36634865076169
 31
0.0
  0
LINE
  8
NOTE
  6
CONTINUOUS
 62
     4
 10
527.58628064298614
 20
-45.931658416272924
 30
0.0
 11
500.49999462434153
 21
-69.999992026614109
 31
0.0
  0
LINE
  8
NOTE
  6
CONTINUOUS
 62
     4
 10
500.49999462434153
 20
-69.999992026614109
 30
0.0
 11
511.92318778630465
 21
-35.613043469829087
 31
0.0
  0
LINE
  8
NOTE
  6
CONTINUOUS
 62
     4
 10
500.49999462434153
 20
-69.999992026614109
 30
0.0
 11
539.00947380494927
 21
-11.544709859487895
 31
0.0
  0
LINE
  8
NOTE
  6
CONTINUOUS
 62
     4
 10
539.00947380494927
 20
-11.544709859487909
 30
0.0
 11
697.05934663737753
 21
228.36634865076169
 31
0.0
  0
LINE
  8
NOTE
  6
CONTINUOUS
 62
     4
 10
697.05934663737753
 20
228.36634865076169
 30
0.0
 11
707.05934663737753
 21
228.36634865076169
 31
0.0
  0
ENDSEC
  0
EOF
