  0
SECTION
  2
HEADER
  9
$ACADVER
  1
AC1009
  9
$DWGCODEPAGE
  3
dos932
  9
$INSBASE
 10
0.0
 20
0.0
 30
0.0
  9
$EXTMIN
 10
-972.53721528981987
 20
-588.31785955503437
 30
-0.0015258207003583
  9
$EXTMAX
 10
1787.8189211453059
 20
852.99683449905933
 30
0.0000000349246037
  9
$LIMMIN
 10
-2970.0
 20
-2100.0
  9
$LIMMAX
 10
2970.0
 20
2100.0
  9
$ORTHOMODE
 70
     1
  9
$REGENMODE
 70
     1
  9
$FILLMODE
 70
     1
  9
$QTEXTMODE
 70
     0
  9
$MIRRTEXT
 70
     0
  9
$LTSCALE
 40
20.0
  9
$ATTMODE
 70
     1
  9
$TEXTSIZE
 40
64.0
  9
$TRACEWID
 40
0.05
  9
$TEXTSTYLE
  7
STANDARD
  9
$CLAYER
  8
SIZE
  9
$CELTYPE
  6
CONTINUOUS
  9
$CECOLOR
 62
     7
  9
$DIMSCALE
 40
1.0
  9
$DIMASZ
 40
12.0
  9
$DIMEXO
 40
20.0
  9
$DIMDLI
 40
200.0
  9
$DIMRND
 40
0.0
  9
$DIMDLE
 40
0.0
  9
$DIMEXE
 40
20.0
  9
$DIMTP
 40
0.0
  9
$DIMTM
 40
0.0
  9
$DIMTXT
 40
64.0
  9
$DIMCEN
 40
0.09
  9
$DIMTSZ
 40
0.0
  9
$DIMTOL
 70
     0
  9
$DIMLIM
 70
     0
  9
$DIMTIH
 70
     0
  9
$DIMTOH
 70
     0
  9
$DIMSE1
 70
     0
  9
$DIMSE2
 70
     0
  9
$DIMTAD
 70
     1
  9
$DIMZIN
 70
     8
  9
$DIMBLK
  1

  9
$DIMASO
 70
     1
  9
$DIMSHO
 70
     0
  9
$DIMPOST
  1

  9
$DIMAPOST
  1

  9
$DIMALT
 70
     0
  9
$DIMALTD
 70
     2
  9
$DIMALTF
 40
25.399999999999999
  9
$DIMLFAC
 40
1.0
  9
$DIMTOFL
 70
     1
  9
$DIMTVP
 40
0.0
  9
$DIMTIX
 70
     1
  9
$DIMSOXD
 70
     0
  9
$DIMSAH
 70
     0
  9
$DIMBLK1
  1

  9
$DIMBLK2
  1

  9
$DIMSTYLE
  2
STANDARD
  9
$DIMCLRD
 70
     7
  9
$DIMCLRE
 70
     7
  9
$DIMCLRT
 70
     7
  9
$DIMTFAC
 40
1.0
  9
$DIMGAP
 40
25.0
  9
$LUNITS
 70
     2
  9
$LUPREC
 70
     4
  9
$SKETCHINC
 40
0.1
  9
$FILLETRAD
 40
3.0
  9
$AUNITS
 70
     1
  9
$AUPREC
 70
     3
  9
$MENU
  1
ACAD
  9
$ELEVATION
 40
0.0
  9
$PELEVATION
 40
0.0
  9
$THICKNESS
 40
0.0
  9
$LIMCHECK
 70
     0
  9
$CHAMFERA
 40
0.0
  9
$CHAMFERB
 40
0.0
  9
$SKPOLY
 70
     0
  9
$TDCREATE
 40
2453019.62301037
  9
$TDUPDATE
 40
2460045.428645474
  9
$TDINDWG
 40
1.7191479282
  9
$TDUSRTIMER
 40
1.7191479282
  9
$USRTIMER
 70
     1
  9
$ANGBASE
 50
0.0
  9
$ANGDIR
 70
     0
  9
$PDMODE
 70
     3
  9
$PDSIZE
 40
-2.0
  9
$PLINEWID
 40
0.0
  9
$SPLFRAME
 70
     0
  9
$SPLINETYPE
 70
     6
  9
$SPLINESEGS
 70
     8
  9
$SURFTAB1
 70
     6
  9
$SURFTAB2
 70
     6
  9
$SURFTYPE
 70
     6
  9
$SURFU
 70
     6
  9
$SURFV
 70
     6
  9
$UCSNAME
  2

  9
$UCSORG
 10
0.0
 20
0.0
 30
0.0
  9
$UCSXDIR
 10
1.0
 20
0.0
 30
0.0
  9
$UCSYDIR
 10
0.0
 20
1.0
 30
0.0
  9
$PUCSNAME
  2

  9
$PUCSORG
 10
0.0
 20
0.0
 30
0.0
  9
$PUCSXDIR
 10
1.0
 20
0.0
 30
0.0
  9
$PUCSYDIR
 10
0.0
 20
1.0
 30
0.0
  9
$USERI1
 70
     0
  9
$USERI2
 70
     0
  9
$USERI3
 70
     0
  9
$USERI4
 70
     0
  9
$USERI5
 70
     0
  9
$USERR1
 40
20.0
  9
$USERR2
 40
0.0
  9
$USERR3
 40
0.0
  9
$USERR4
 40
0.0
  9
$USERR5
 40
0.0
  9
$WORLDVIEW
 70
     1
  9
$SHADEDGE
 70
     3
  9
$SHADEDIF
 70
    70
  9
$TILEMODE
 70
     1
  9
$MAXACTVP
 70
    48
  9
$PINSBASE
 10
0.0
 20
0.0
 30
0.0
  9
$PLIMCHECK
 70
     0
  9
$PEXTMIN
 10
-100000000000000000000.0
 20
-100000000000000000000.0
 30
-100000000000000000000.0
  9
$PEXTMAX
 10
100000000000000000000.0
 20
100000000000000000000.0
 30
100000000000000000000.0
  9
$PLIMMIN
 10
0.0
 20
0.0
  9
$PLIMMAX
 10
12.0
 20
9.0
  9
$UNITMODE
 70
     0
  9
$VISRETAIN
 70
     0
  9
$PLINEGEN
 70
     0
  9
$PSLTSCALE
 70
     0
  9
$TREEDEPTH
 70
  3020
  9
$ATTDIA
 70
     0
  9
$ATTREQ
 70
     1
  9
$BLIPMODE
 70
     1
  9
$COORDS
 70
     1
  9
$DRAGMODE
 70
     2
  9
$OSMODE
 70
     0
  9
$HANDLING
 70
     0
  9
$HANDSEED
  5
F80E
  0
ENDSEC
  0
SECTION
  2
TABLES
  0
TABLE
  2
LTYPE
 70
     3
  0
LTYPE
  2
CONTINUOUS
 70
     0
  3
実線
 72
    65
 73
     0
 40
0.0
  0
LTYPE
  2
DASHDOT
 70
     0
  3
____ _ ____ _ ____ _ ____ _ ____ _ ____ _ ____
 72
    65
 73
     4
 40
5.5
 49
4.0
 49
-0.6
 49
0.3
 49
-0.6
  0
LTYPE
  2
DASHED
 70
     0
  3
-- -- -- -- -- -- -- -- -- -- -- -- -- -- --
 72
    65
 73
     2
 40
0.75
 49
0.5
 49
-0.25
  0
ENDTAB
  0
TABLE
  2
LAYER
 70
    12
  0
LAYER
  2
0
 70
     0
 62
     7
  6
CONTINUOUS
  0
LAYER
  2
BASIS
 70
     0
 62
     6
  6
DASHDOT
  0
LAYER
  2
OUTLINE
 70
     0
 62
     3
  6
CONTINUOUS
  0
LAYER
  2
DETAIL
 70
     0
 62
     5
  6
CONTINUOUS
  0
LAYER
  2
SIZE
 70
     0
 62
    30
  6
CONTINUOUS
  0
LAYER
  2
ARRANGE
 70
     0
 62
     1
  6
CONTINUOUS
  0
LAYER
  2
DEFPOINTS
 70
     0
 62
     7
  6
CONTINUOUS
  0
LAYER
  2
ETC
 70
     0
 62
    61
  6
CONTINUOUS
  0
LAYER
  2
FIX
 70
     0
 62
    11
  6
CONTINUOUS
  0
LAYER
  2
NOTE
 70
     0
 62
     4
  6
CONTINUOUS
  0
LAYER
  2
SERVICESPACE
 70
    64
 62
     2
  6
DASHDOT
  0
LAYER
  2
SYMBOLLINE
 70
    64
 62
    15
  6
CONTINUOUS
  0
ENDTAB
  0
TABLE
  2
STYLE
 70
     1
  0
STYLE
  2
STANDARD
 70
     0
 40
64.0
 41
0.9
 50
0.0
 71
     0
 42
64.0
  3
SIMPLEX.shx
  4
BIGFONT.shx
  0
ENDTAB
  0
TABLE
  2
APPID
 70
    23
  0
APPID
  2
ACAD
 70
     0
  0
APPID
  2
AUTOCAD_POSTSCRIPT_FIGURE
 70
     0
  0
APPID
  2
ACAD_EXEMPT_FROM_CAD_STANDARDS
 70
     0
  0
APPID
  2
ACAD_PSEXT
 70
     0
  0
APPID
  2
ACAUTHENVIRON
 70
     0
  0
APPID
  2
GENIUS_GENOENT_13
 70
     0
  0
APPID
  2
GENIUS_GENCFG_13
 70
     0
  0
APPID
  2
GENIUS_GENCFG0_13
 70
     0
  0
APPID
  2
GENIUS_GENCFG1_13
 70
     0
  0
APPID
  2
GENIUS_GENCFG2_13
 70
     0
  0
APPID
  2
GENIUS_GENCFG3_13
 70
     0
  0
APPID
  2
GENIUS_GENCFG4_13
 70
     0
  0
APPID
  2
GENIUS_GEVCFG0_13
 70
     0
  0
APPID
  2
CONTENTBLOCKICON
 70
     0
  0
APPID
  2
CONTENTBLOCKDESCRIPTION
 70
     0
  0
APPID
  2
ACAD_NAV_VCDISPLAY
 70
     0
  0
APPID
  2
ACAD_MLEADERVER
 70
     0
  0
APPID
  2
ACDBDYNAMICBLOCKTRUENAME
 70
     0
  0
APPID
  2
ACDBDYNAMICBLOCKGUID
 70
     0
  0
APPID
  2
ACAD_DSTYLE_DIMRADIAL_EXTENSION
 70
     0
  0
APPID
  2
GENIUS_GENODEF_13
 70
     0
  0
APPID
  2
GENIUS_GENOBJ-N-CEN_13
 70
     0
  0
APPID
  2
GENIUS_GENCEN_19
 70
     0
  0
ENDTAB
  0
TABLE
  2
DIMSTYLE
 70
     1
  0
DIMSTYLE
  2
STANDARD
 70
     0
  3

  4

  5
_ORIGIN
  6

  7

 40
1.0
 41
12.0
 42
20.0
 43
200.0
 44
20.0
 45
0.0
 46
0.0
 47
0.0
 48
0.0
140
64.0
141
0.09
142
0.0
143
25.399999999999999
144
1.0
145
0.0
146
1.0
147
25.0
 71
     0
 72
     0
 73
     0
 74
     0
 75
     0
 76
     0
 77
     1
 78
     8
170
     0
171
     2
172
     1
173
     0
174
     1
175
     0
176
     7
177
     7
178
     7
  0
ENDTAB
  0
TABLE
  2
VIEW
 70
     1
  0
VIEW
  2
ALL
 70
     0
 40
4282.6198079999986
 10
0.0
 20
41.309904000000003
 41
5940.0
 11
0.0
 21
0.0
 31
1.0
 12
0.0
 22
0.0
 32
0.0
 42
50.0
 43
0.0
 44
0.0
 50
0.0
 71
     0
  0
ENDTAB
  0
TABLE
  2
UCS
 70
     0
  0
ENDTAB
  0
TABLE
  2
VPORT
 70
     1
  0
VPORT
  2
*ACTIVE
 70
     0
 10
0.0
 20
0.0
 11
1.0
 21
1.0
 12
407.64085292774331
 22
132.33948747201251
 13
0.0
 23
0.0
 14
1.0
 24
1.0
 15
0.0
 25
0.0
 16
0.0
 26
0.0
 36
1.0
 17
0.0
 27
0.0
 37
0.0
 40
1555.5210634676801
 41
1.781285231116122
 42
50.0
 43
0.0
 44
0.0
 50
0.0
 51
0.0
 71
     0
 72
  1000
 73
     1
 74
     3
 75
     0
 76
     0
 77
     0
 78
     0
  0
ENDTAB
  0
ENDSEC
  0
SECTION
  2
BLOCKS
  0
BLOCK
  8
0
  2
_ORIGIN
 70
     0
 10
0.0
 20
0.0
 30
0.0
  3
_ORIGIN
  1
_ORIGIN
  0
CIRCLE
  8
0
  6
CONTINUOUS
 62
     7
 10
0.0
 20
0.0
 30
0.0
 40
0.5
  0
LINE
  8
0
  6
CONTINUOUS
 62
     7
 10
0.0
 20
0.0
 30
0.0
 11
-1.0
 21
0.0
 31
0.0
  0
ENDBLK
  8
0
  0
ENDSEC
  0
SECTION
  2
ENTITIES
  0
LINE
  8
DETAIL
  6
CONTINUOUS
 62
     5
 10
533.00000000008185
 20
-147.1500000000228
 30
0.0
 11
533.00000000008185
 21
-336.95000000004569
 31
0.0
  0
LINE
  8
DETAIL
  6
CONTINUOUS
 62
     5
 10
524.40000000009059
 20
-146.0500000000238
 30
0.0
 11
524.40000000009059
 21
-338.05000000005163
 31
0.0
  0
LINE
  8
DETAIL
  6
CONTINUOUS
 62
     5
 10
466.0000000000764
 20
-115.0000000000164
 30
0.0
 11
466.0000000000764
 21
-70.000000000010459
 31
0.0
  0
LINE
  8
DETAIL
  6
CONTINUOUS
 62
     5
 10
455.70000000006888
 20
-138.0499999996064
 30
0.0
 11
455.70000000006888
 21
-346.05000000005248
 31
0.0
  0
LINE
  8
DETAIL
  6
CONTINUOUS
 62
     5
 10
454.00000000006912
 20
-77.000000000011369
 30
0.0
 11
454.00000000006912
 21
-70.000000000010459
 31
0.0
  0
LINE
  8
DETAIL
  6
CONTINUOUS
 62
     5
 10
452.70000000006888
 20
-403.1500000000583
 30
0.0
 11
452.70000000006888
 21
-402.6500000000583
 31
0.0
  0
LINE
  8
DETAIL
  6
CONTINUOUS
 62
     5
 10
452.70000000006888
 20
-1.349999999999
 30
0.0
 11
452.70000000006888
 21
-0.8499999999985448
 31
0.0
  0
LINE
  8
DETAIL
  6
CONTINUOUS
 62
     5
 10
448.30000000007482
 20
-135.05000000001519
 30
0.0
 11
448.30000000007482
 21
-349.05000000005339
 31
0.0
  0
LINE
  8
DETAIL
  6
CONTINUOUS
 62
     5
 10
447.70000000007622
 20
-402.15000000005779
 30
0.0
 11
447.70000000007622
 21
-93.000000000013642
 31
0.0
  0
LINE
  8
DETAIL
  6
CONTINUOUS
 62
     5
 10
447.70000000007622
 20
-70.000000000010459
 30
0.0
 11
447.70000000007622
 21
-1.850000000005821
 31
0.0
  0
LINE
  8
DETAIL
  6
CONTINUOUS
 62
     5
 10
447.20000000007622
 20
-1.850000000005821
 30
0.0
 11
447.20000000007622
 21
-2.849999999999
 31
0.0
  0
LINE
  8
DETAIL
  6
CONTINUOUS
 62
     5
 10
447.20000000007622
 20
-402.15000000005779
 30
0.0
 11
447.20000000007622
 21
-401.15000000005779
 31
0.0
  0
LINE
  8
DETAIL
  6
CONTINUOUS
 62
     5
 10
445.70000000007622
 20
-403.1500000000583
 30
0.0
 11
445.70000000007622
 21
-401.15000000005779
 31
0.0
  0
LINE
  8
DETAIL
  6
CONTINUOUS
 62
     5
 10
445.70000000007622
 20
-2.849999999999
 30
0.0
 11
445.70000000007622
 21
-0.8499999999985448
 31
0.0
  0
LINE
  8
DETAIL
  6
CONTINUOUS
 62
     5
 10
444.80000000007482
 20
-404.00000000005639
 30
0.0
 11
444.80000000007482
 21
-403.1500000000583
 31
0.0
  0
LINE
  8
DETAIL
  6
CONTINUOUS
 62
     5
 10
444.80000000007482
 20
-0.8499999999985448
 30
0.0
 11
444.80000000007482
 21
0.0
 31
0.0
  0
LINE
  8
DETAIL
  6
CONTINUOUS
 62
     5
 10
441.0000000000764
 20
-66.200000000013915
 30
0.0
 11
441.0000000000764
 21
-73.200000000007549
 31
0.0
  0
LINE
  8
DETAIL
  6
CONTINUOUS
 62
     5
 10
440.0000000000764
 20
-142.04999999722801
 30
0.0
 11
440.0000000000764
 21
-262.05000000004071
 31
0.0
  0
LINE
  8
DETAIL
  6
CONTINUOUS
 62
     5
 10
447.13610168807548
 20
-1.5302664400005599
 30
0.0
 11
447.02062500006917
 21
-2.849999999999
 31
0.0
  0
LINE
  8
DETAIL
  6
CONTINUOUS
 62
     5
 10
446.33914671407462
 20
-1.4605328799957531
 30
0.0
 11
446.21756834007738
 21
-2.849999999999
 31
0.0
  0
LINE
  8
DETAIL
  6
CONTINUOUS
 62
     5
 10
422.50000000006912
 20
-88.000000000012733
 30
0.0
 11
422.50000000006912
 21
-66.200000000013915
 31
0.0
  0
LINE
  8
DETAIL
  6
CONTINUOUS
 62
     5
 10
447.02064824007448
 20
-401.15000000005779
 30
0.0
 11
447.13610918207178
 21
-402.46972459406061
 31
0.0
  0
LINE
  8
DETAIL
  6
CONTINUOUS
 62
     5
 10
446.21759237006972
 20
-401.15000000005779
 30
0.0
 11
446.33915342407181
 21
-402.53944918806337
 31
0.0
  0
LINE
  8
DETAIL
  6
CONTINUOUS
 62
     5
 10
390.00000000006179
 20
-92.050000000016098
 30
0.0
 11
440.0000000000764
 21
-142.04999999722801
 31
0.0
  0
LINE
  8
DETAIL
  6
CONTINUOUS
 62
     5
 10
440.0000000000764
 20
-262.05000000004071
 30
0.0
 11
390.00000000006179
 21
-312.05000000004787
 31
0.0
  0
LINE
  8
DETAIL
  6
CONTINUOUS
 62
     5
 10
220.00000000004729
 20
-262.05000000004071
 30
0.0
 11
220.00000000004729
 21
-142.0500000000234
 31
0.0
  0
LINE
  8
DETAIL
  6
CONTINUOUS
 62
     5
 10
441.43000000005759
 20
-404.00000000005639
 30
0.0
 11
439.28000000007802
 21
-401.85000000006539
 31
0.0
  0
LINE
  8
DETAIL
  6
CONTINUOUS
 62
     5
 10
-452.95000000006172
 20
-404.00000000005639
 30
0.0
 11
-447.9330649380563
 21
-404.00000000005639
 31
0.0
  0
LINE
  8
DETAIL
  6
CONTINUOUS
 62
     5
 10
452.95000000007622
 20
-404.00000000005639
 30
0.0
 11
447.93306494007902
 21
-404.00000000005639
 31
0.0
  0
LINE
  8
DETAIL
  6
CONTINUOUS
 62
     5
 10
444.80000000007482
 20
-404.00000000005639
 30
0.0
 11
-444.80000000006021
 21
-404.00000000005639
 31
0.0
  0
LINE
  8
DETAIL
  6
CONTINUOUS
 62
     5
 10
-452.95000000006172
 20
-403.20000000006121
 30
0.0
 11
-447.9330649380563
 21
-403.20000000006121
 31
0.0
  0
LINE
  8
DETAIL
  6
CONTINUOUS
 62
     5
 10
452.95000000007622
 20
-403.20000000006121
 30
0.0
 11
447.93306494007902
 21
-403.20000000006121
 31
0.0
  0
LINE
  8
DETAIL
  6
CONTINUOUS
 62
     5
 10
440.58000000005899
 20
-403.1500000000583
 30
0.0
 11
445.70000000007622
 21
-403.1500000000583
 31
0.0
  0
LINE
  8
DETAIL
  6
CONTINUOUS
 62
     5
 10
448.20000000007622
 20
-403.1500000000583
 30
0.0
 11
452.70000000006888
 21
-403.1500000000583
 31
0.0
  0
LINE
  8
DETAIL
  6
CONTINUOUS
 62
     5
 10
-440.58000000003722
 20
-403.1500000000583
 30
0.0
 11
-445.70000000006172
 21
-403.1500000000583
 31
0.0
  0
LINE
  8
DETAIL
  6
CONTINUOUS
 62
     5
 10
-448.20000000006172
 20
-403.1500000000583
 30
0.0
 11
-452.70000000006172
 21
-403.1500000000583
 31
0.0
  0
LINE
  8
DETAIL
  6
CONTINUOUS
 62
     5
 10
-448.20000000006172
 20
-402.6500000000583
 30
0.0
 11
-452.92500000005288
 21
-402.65000000006512
 31
0.0
  0
LINE
  8
DETAIL
  6
CONTINUOUS
 62
     5
 10
524.40000000009059
 20
-338.05000000005163
 30
0.0
 11
455.70000000006888
 21
-346.05000000005248
 31
0.0
  0
LINE
  8
DETAIL
  6
CONTINUOUS
 62
     5
 10
441.26730092007261
 20
0.0
 30
0.0
 11
439.11730092007838
 21
-2.1499999999987272
 31
0.0
  0
LINE
  8
DETAIL
  6
CONTINUOUS
 62
     5
 10
-524.40000000006876
 20
-338.05000000005163
 30
0.0
 11
-455.70000000005439
 21
-346.05000000005248
 31
0.0
  0
LINE
  8
DETAIL
  6
CONTINUOUS
 62
     5
 10
-447.70000000006172
 20
-401.15000000005779
 30
0.0
 11
-445.70000000006172
 21
-401.15000000005779
 31
0.0
  0
LINE
  8
DETAIL
  6
CONTINUOUS
 62
     5
 10
447.70000000007622
 20
-401.15000000005779
 30
0.0
 11
445.70000000007622
 21
-401.15000000005779
 31
0.0
  0
LINE
  8
DETAIL
  6
CONTINUOUS
 62
     5
 10
270.00000000004729
 20
-312.05000000004787
 30
0.0
 11
220.00000000004729
 21
-262.05000000004071
 31
0.0
  0
LINE
  8
DETAIL
  6
CONTINUOUS
 62
     5
 10
-448.30000000006021
 20
-349.05000000005339
 30
0.0
 11
-447.70000000006172
 21
-349.05000000005339
 31
0.0
  0
LINE
  8
DETAIL
  6
CONTINUOUS
 62
     5
 10
448.30000000007482
 20
-349.05000000005339
 30
0.0
 11
447.70000000007622
 21
-349.05000000005339
 31
0.0
  0
LINE
  8
DETAIL
  6
CONTINUOUS
 62
     5
 10
-455.70000000005439
 20
-346.05000000005248
 30
0.0
 11
-448.30000000006021
 21
-346.05000000005248
 31
0.0
  0
LINE
  8
DETAIL
  6
CONTINUOUS
 62
     5
 10
455.70000000006888
 20
-346.05000000005248
 30
0.0
 11
448.90000000007331
 21
-346.05000000005248
 31
0.0
  0
LINE
  8
DETAIL
  6
CONTINUOUS
 62
     5
 10
-531.90000000006148
 20
-338.05000000005163
 30
0.0
 11
-524.40000000006876
 21
-338.05000000005163
 31
0.0
  0
LINE
  8
DETAIL
  6
CONTINUOUS
 62
     5
 10
531.90000000008331
 20
-338.05000000005163
 30
0.0
 11
524.40000000009059
 21
-338.05000000005163
 31
0.0
  0
LINE
  8
DETAIL
  6
CONTINUOUS
 62
     5
 10
220.00000000004729
 20
-142.0500000000234
 30
0.0
 11
270.00000000004729
 21
-92.050000000016098
 31
0.0
  0
LINE
  8
DETAIL
  6
CONTINUOUS
 62
     5
 10
390.00000000006179
 20
-312.05000000004787
 30
0.0
 11
270.00000000004729
 21
-312.05000000004787
 31
0.0
  0
LINE
  8
BASIS
  6
DASHDOT
 62
     6
 10
0.000000000003638
 20
39.33801894727776
 30
0.0
 11
0.000000000003638
 21
-443.43801894734088
 31
0.0
  0
LINE
  8
BASIS
  6
DASHDOT
 62
     6
 10
-586.47375908555478
 20
-202.05000000003159
 30
0.0
 11
586.47375908556251
 21
-202.05000000003159
 31
0.0
  0
LINE
  8
DETAIL
  6
CONTINUOUS
 62
     5
 10
-531.90000000006148
 20
-146.0500000000238
 30
0.0
 11
-524.40000000006876
 21
-146.0500000000238
 31
0.0
  0
LINE
  8
DETAIL
  6
CONTINUOUS
 62
     5
 10
531.90000000008331
 20
-146.0500000000238
 30
0.0
 11
524.40000000009059
 21
-146.0500000000238
 31
0.0
  0
LINE
  8
DETAIL
  6
CONTINUOUS
 62
     5
 10
447.70000000007622
 20
-120.0000000000168
 30
0.0
 11
461.0000000000764
 21
-120.0000000000168
 31
0.0
  0
LINE
  8
DETAIL
  6
CONTINUOUS
 62
     5
 10
-447.70000000006172
 20
-120.0000000000168
 30
0.0
 11
-461.00000000005463
 21
-120.0000000000168
 31
0.0
  0
LINE
  8
DETAIL
  6
CONTINUOUS
 62
     5
 10
524.40000000009059
 20
-146.0500000000238
 30
0.0
 11
455.70000000006888
 21
-138.0499999996064
 31
0.0
  0
LINE
  8
DETAIL
  6
CONTINUOUS
 62
     5
 10
447.72641511007441
 20
-99.000000000014097
 30
0.0
 11
450.90000000007058
 21
-99.000000000014097
 31
0.0
  0
LINE
  8
DETAIL
  6
CONTINUOUS
 62
     5
 10
-447.7264151080517
 20
-99.000000000014097
 30
0.0
 11
-450.90000000005602
 21
-99.000000000014097
 31
0.0
  0
LINE
  8
DETAIL
  6
CONTINUOUS
 62
     5
 10
427.50000000006912
 20
-93.000000000013642
 30
0.0
 11
450.90000000007058
 21
-93.000000000013642
 31
0.0
  0
LINE
  8
DETAIL
  6
CONTINUOUS
 62
     5
 10
-427.50000000005463
 20
-93.000000000013642
 30
0.0
 11
-450.90000000005602
 21
-93.000000000013642
 31
0.0
  0
LINE
  8
DETAIL
  6
CONTINUOUS
 62
     5
 10
270.00000000004729
 20
-92.050000000016098
 30
0.0
 11
390.00000000006179
 21
-92.050000000016098
 31
0.0
  0
LINE
  8
DETAIL
  6
CONTINUOUS
 62
     5
 10
-436.50000000005463
 20
-88.000000000012733
 30
0.0
 11
-434.50000000005463
 21
-88.000000000012733
 31
0.0
  0
LINE
  8
DETAIL
  6
CONTINUOUS
 62
     5
 10
436.5000000000764
 20
-88.000000000012733
 30
0.0
 11
434.50000000006912
 21
-88.000000000012733
 31
0.0
  0
LINE
  8
DETAIL
  6
CONTINUOUS
 62
     5
 10
434.50000000006912
 20
-82.000000000011369
 30
0.0
 11
436.5000000000764
 21
-82.000000000011369
 31
0.0
  0
LINE
  8
DETAIL
  6
CONTINUOUS
 62
     5
 10
-434.50000000005463
 20
-82.000000000011369
 30
0.0
 11
-436.50000000005463
 21
-82.000000000011369
 31
0.0
  0
LINE
  8
DETAIL
  6
CONTINUOUS
 62
     5
 10
-463.00000000005463
 20
-80.000000000011369
 30
0.0
 11
-457.00000000005463
 21
-80.000000000011369
 31
0.0
  0
LINE
  8
DETAIL
  6
CONTINUOUS
 62
     5
 10
463.0000000000764
 20
-80.000000000011369
 30
0.0
 11
457.0000000000764
 21
-80.000000000011369
 31
0.0
  0
LINE
  8
DETAIL
  6
CONTINUOUS
 62
     5
 10
-524.40000000006876
 20
-146.0500000000238
 30
0.0
 11
-455.70000000005439
 21
-138.0499999996064
 31
0.0
  0
LINE
  8
DETAIL
  6
CONTINUOUS
 62
     5
 10
-441.26730091807889
 20
0.0
 30
0.0
 11
-439.11730091805572
 21
-2.1499999999987272
 31
0.0
  0
LINE
  8
DETAIL
  6
CONTINUOUS
 62
     5
 10
454.00000000006912
 20
-73.200000000007549
 30
0.0
 11
422.50000000006912
 21
-73.200000000007549
 31
0.0
  0
LINE
  8
DETAIL
  6
CONTINUOUS
 62
     5
 10
-422.50000000004729
 20
-73.200000000007549
 30
0.0
 11
-454.00000000005463
 21
-73.200000000007549
 31
0.0
  0
LINE
  8
DETAIL
  6
CONTINUOUS
 62
     5
 10
441.0000000000764
 20
-70.000000000010459
 30
0.0
 11
466.0000000000764
 21
-70.000000000010459
 31
0.0
  0
LINE
  8
DETAIL
  6
CONTINUOUS
 62
     5
 10
-441.00000000005463
 20
-70.000000000010459
 30
0.0
 11
-466.00000000005463
 21
-70.000000000010459
 31
0.0
  0
LINE
  8
DETAIL
  6
CONTINUOUS
 62
     5
 10
425.50000000006912
 20
-63.200000000006177
 30
0.0
 11
438.0000000000764
 21
-63.200000000006177
 31
0.0
  0
LINE
  8
DETAIL
  6
CONTINUOUS
 62
     5
 10
-425.50000000005463
 20
-63.200000000006177
 30
0.0
 11
-438.00000000005463
 21
-63.200000000006177
 31
0.0
  0
LINE
  8
DETAIL
  6
CONTINUOUS
 62
     5
 10
-441.43000000005031
 20
-404.00000000005639
 30
0.0
 11
-439.28000000005608
 21
-401.85000000006539
 31
0.0
  0
LINE
  8
DETAIL
  6
CONTINUOUS
 62
     5
 10
-447.70000000006172
 20
-2.849999999999
 30
0.0
 11
-445.70000000006172
 21
-2.849999999999
 31
0.0
  0
LINE
  8
DETAIL
  6
CONTINUOUS
 62
     5
 10
447.70000000007622
 20
-2.849999999999
 30
0.0
 11
445.70000000007622
 21
-2.849999999999
 31
0.0
  0
LINE
  8
DETAIL
  6
CONTINUOUS
 62
     5
 10
-448.20000000006172
 20
-1.349999999999
 30
0.0
 11
-452.92500000005288
 21
-1.349999999999
 31
0.0
  0
LINE
  8
DETAIL
  6
CONTINUOUS
 62
     5
 10
-449.70000000006172
 20
-2.1499999999987272
 30
0.0
 11
-452.92500000005288
 21
-2.1499999999987272
 31
0.0
  0
LINE
  8
DETAIL
  6
CONTINUOUS
 62
     5
 10
452.70000000006888
 20
-0.8499999999985448
 30
0.0
 11
448.20000000007622
 21
-0.8499999999985448
 31
0.0
  0
LINE
  8
DETAIL
  6
CONTINUOUS
 62
     5
 10
445.70000000007622
 20
-0.8499999999985448
 30
0.0
 11
440.41730092008129
 21
-0.8499999999985448
 31
0.0
  0
LINE
  8
DETAIL
  6
CONTINUOUS
 62
     5
 10
-448.20000000006172
 20
-0.8499999999985448
 30
0.0
 11
-452.70000000006172
 21
-0.8499999999985448
 31
0.0
  0
LINE
  8
DETAIL
  6
CONTINUOUS
 62
     5
 10
-440.41730091806579
 20
-0.8499999999980901
 30
0.0
 11
-445.70000000006172
 21
-0.8499999999985448
 31
0.0
  0
LINE
  8
DETAIL
  6
CONTINUOUS
 62
     5
 10
-452.92500000005288
 20
-0.8000000000029104
 30
0.0
 11
-447.93305666005381
 21
-0.8000000000029104
 31
0.0
  0
LINE
  8
DETAIL
  6
CONTINUOUS
 62
     5
 10
452.95000000007622
 20
-0.8000000000029104
 30
0.0
 11
447.93305666207652
 21
-0.8000000000029104
 31
0.0
  0
LINE
  8
DETAIL
  6
CONTINUOUS
 62
     5
 10
-452.92500000005288
 20
0.0
 30
0.0
 11
-447.93305666005381
 21
0.0
 31
0.0
  0
LINE
  8
DETAIL
  6
CONTINUOUS
 62
     5
 10
452.95000000007622
 20
0.0
 30
0.0
 11
447.93305666207652
 21
0.0
 31
0.0
  0
LINE
  8
DETAIL
  6
CONTINUOUS
 62
     5
 10
444.80000000007482
 20
0.0
 30
0.0
 11
-444.80000000006021
 21
0.0
 31
0.0
  0
LINE
  8
DETAIL
  6
CONTINUOUS
 62
     5
 10
-446.33915342205643
 20
-402.53944918806337
 30
0.0
 11
-446.21759236805428
 21
-401.15000000005779
 31
0.0
  0
LINE
  8
DETAIL
  6
CONTINUOUS
 62
     5
 10
-447.13610918004912
 20
-402.46972459406061
 30
0.0
 11
-447.02064823805182
 21
-401.15000000005779
 31
0.0
  0
LINE
  8
DETAIL
  6
CONTINUOUS
 62
     5
 10
-422.50000000004729
 20
-88.000000000012733
 30
0.0
 11
-422.50000000004729
 21
-66.200000000013915
 31
0.0
  0
LINE
  8
DETAIL
  6
CONTINUOUS
 62
     5
 10
-441.00000000005463
 20
-66.200000000013915
 30
0.0
 11
-441.00000000005463
 21
-73.200000000007549
 31
0.0
  0
LINE
  8
DETAIL
  6
CONTINUOUS
 62
     5
 10
-444.80000000006021
 20
-404.00000000005639
 30
0.0
 11
-444.80000000006021
 21
-403.1500000000583
 31
0.0
  0
LINE
  8
DETAIL
  6
CONTINUOUS
 62
     5
 10
-444.80000000006021
 20
-0.8499999999985448
 30
0.0
 11
-444.80000000006021
 21
0.0
 31
0.0
  0
LINE
  8
DETAIL
  6
CONTINUOUS
 62
     5
 10
-445.70000000006172
 20
-0.8499999999985448
 30
0.0
 11
-445.70000000006172
 21
-2.849999999999
 31
0.0
  0
LINE
  8
DETAIL
  6
CONTINUOUS
 62
     5
 10
-445.70000000006172
 20
-403.1500000000583
 30
0.0
 11
-445.70000000006172
 21
-401.15000000005779
 31
0.0
  0
LINE
  8
DETAIL
  6
CONTINUOUS
 62
     5
 10
-447.20000000005439
 20
-1.850000000005821
 30
0.0
 11
-447.20000000005439
 21
-2.849999999999
 31
0.0
  0
LINE
  8
DETAIL
  6
CONTINUOUS
 62
     5
 10
-447.20000000005439
 20
-402.15000000005779
 30
0.0
 11
-447.20000000005439
 21
-401.15000000005779
 31
0.0
  0
LINE
  8
DETAIL
  6
CONTINUOUS
 62
     5
 10
-447.70000000006172
 20
-402.15000000005779
 30
0.0
 11
-447.70000000006172
 21
-93.000000000013642
 31
0.0
  0
LINE
  8
DETAIL
  6
CONTINUOUS
 62
     5
 10
-447.70000000006172
 20
-70.000000000010459
 30
0.0
 11
-447.70000000006172
 21
-1.850000000005821
 31
0.0
  0
LINE
  8
DETAIL
  6
CONTINUOUS
 62
     5
 10
-448.30000000006021
 20
-349.05000000005339
 30
0.0
 11
-448.30000000006021
 21
-135.05000000001519
 31
0.0
  0
LINE
  8
DETAIL
  6
CONTINUOUS
 62
     5
 10
-452.70000000006172
 20
-0.8499999999985448
 30
0.0
 11
-452.70000000006172
 21
-1.349999999999
 31
0.0
  0
LINE
  8
DETAIL
  6
CONTINUOUS
 62
     5
 10
-452.70000000006172
 20
-402.6500000000583
 30
0.0
 11
-452.70000000006172
 21
-403.1500000000583
 31
0.0
  0
LINE
  8
DETAIL
  6
CONTINUOUS
 62
     5
 10
-454.00000000005463
 20
-77.000000000011369
 30
0.0
 11
-454.00000000005463
 21
-70.000000000010459
 31
0.0
  0
LINE
  8
DETAIL
  6
CONTINUOUS
 62
     5
 10
-455.70000000005439
 20
-346.05000000005248
 30
0.0
 11
-455.70000000005439
 21
-138.0499999996064
 31
0.0
  0
LINE
  8
DETAIL
  6
CONTINUOUS
 62
     5
 10
-446.21756833805472
 20
-2.849999999999
 30
0.0
 11
-446.33914671205912
 21
-1.4605328799957531
 31
0.0
  0
LINE
  8
DETAIL
  6
CONTINUOUS
 62
     5
 10
-447.02062500005468
 20
-2.849999999999
 30
0.0
 11
-447.1361016860601
 21
-1.5302664400005599
 31
0.0
  0
LINE
  8
DETAIL
  6
CONTINUOUS
 62
     5
 10
-466.00000000005463
 20
-115.0000000000164
 30
0.0
 11
-466.00000000005463
 21
-70.000000000010459
 31
0.0
  0
LINE
  8
DETAIL
  6
CONTINUOUS
 62
     5
 10
-524.40000000006876
 20
-338.05000000005163
 30
0.0
 11
-524.40000000006876
 21
-146.0500000000238
 31
0.0
  0
LINE
  8
DETAIL
  6
CONTINUOUS
 62
     5
 10
-533.00000000007458
 20
-336.95000000004569
 30
0.0
 11
-533.00000000007458
 21
-147.1500000000228
 31
0.0
  0
ARC
  8
DETAIL
  6
CONTINUOUS
 62
     5
 10
447.93306494007902
 20
-402.40000000005779
 30
0.0
 40
1.6000000000002319
 50
185.00000000002601
 51
270.0
  0
ARC
  8
DETAIL
  6
CONTINUOUS
 62
     5
 10
531.90000000008331
 20
-336.95000000004569
 30
0.0
 40
1.10000000000016
 50
270.0
 51
0.000000000000007
  0
ARC
  8
DETAIL
  6
CONTINUOUS
 62
     5
 10
448.20000000007622
 20
-402.15000000005779
 30
0.0
 40
1.0000000000001441
 50
180.0
 51
270.0
  0
ARC
  8
DETAIL
  6
CONTINUOUS
 62
     5
 10
447.93306494007902
 20
-402.40000000005779
 30
0.0
 40
0.8000000000001152
 50
185.00000000002601
 51
270.0
  0
ARC
  8
DETAIL
  6
CONTINUOUS
 62
     5
 10
448.90000000007331
 20
-346.65000000005148
 30
0.0
 40
0.6000000000000859
 50
90.000000000000014
 51
180.0
  0
ARC
  8
DETAIL
  6
CONTINUOUS
 62
     5
 10
448.20000000007622
 20
-402.15000000005779
 30
0.0
 40
0.5000000000000722
 50
180.0
 51
270.0
  0
CIRCLE
  8
DETAIL
  6
CONTINUOUS
 62
     5
 10
409.19595949405988
 20
-281.24595949204007
 30
0.0
 40
4.700000000000677
  0
CIRCLE
  8
DETAIL
  6
CONTINUOUS
 62
     5
 10
250.80404050804279
 20
-281.24595949204007
 30
0.0
 40
4.700000000000677
  0
ARC
  8
DETAIL
  6
CONTINUOUS
 62
     5
 10
461.0000000000764
 20
-115.0000000000164
 30
0.0
 40
5.0000000000007221
 50
270.0
 51
0.000000000000007
  0
ARC
  8
DETAIL
  6
CONTINUOUS
 62
     5
 10
531.90000000008331
 20
-147.1500000000228
 30
0.0
 40
1.10000000000016
 50
0.000000000000007
 51
90.000000000000014
  0
CIRCLE
  8
DETAIL
  6
CONTINUOUS
 62
     5
 10
409.19595949405988
 20
-122.854040506023
 30
0.0
 40
4.700000000000677
  0
ARC
  8
DETAIL
  6
CONTINUOUS
 62
     5
 10
427.50000000006912
 20
-88.000000000012733
 30
0.0
 40
5.0000000000007221
 50
180.0
 51
270.0
  0
ARC
  8
DETAIL
  6
CONTINUOUS
 62
     5
 10
450.90000000007058
 20
-96.000000000013642
 30
0.0
 40
3.000000000000433
 50
270.00000000010431
 51
90.000000000000014
  0
ARC
  8
DETAIL
  6
CONTINUOUS
 62
     5
 10
434.50000000006912
 20
-85.000000000011823
 30
0.0
 40
3.000000000000433
 50
90.000000000000014
 51
270.0
  0
ARC
  8
DETAIL
  6
CONTINUOUS
 62
     5
 10
425.50000000006912
 20
-66.200000000013915
 30
0.0
 40
3.000000000000433
 50
90.000000000000014
 51
180.0
  0
ARC
  8
DETAIL
  6
CONTINUOUS
 62
     5
 10
438.0000000000764
 20
-66.200000000013915
 30
0.0
 40
3.000000000000433
 50
0.000000000000007
 51
90.000000000000014
  0
ARC
  8
DETAIL
  6
CONTINUOUS
 62
     5
 10
436.5000000000764
 20
-85.000000000011823
 30
0.0
 40
3.000000000000433
 50
270.0
 51
90.000000000000014
  0
ARC
  8
DETAIL
  6
CONTINUOUS
 62
     5
 10
457.0000000000764
 20
-77.000000000011369
 30
0.0
 40
3.000000000000433
 50
180.0
 51
270.0
  0
ARC
  8
DETAIL
  6
CONTINUOUS
 62
     5
 10
463.0000000000764
 20
-77.000000000011369
 30
0.0
 40
3.000000000000433
 50
270.0
 51
0.000000000000007
  0
CIRCLE
  8
DETAIL
  6
CONTINUOUS
 62
     5
 10
435.5000000000764
 20
-85.000000000011823
 30
0.0
 40
2.500000000000361
  0
ARC
  8
DETAIL
  6
CONTINUOUS
 62
     5
 10
447.93305666207652
 20
-1.599999999999
 30
0.0
 40
1.6000000000002319
 50
90.000000000000014
 51
174.99935540237001
  0
ARC
  8
DETAIL
  6
CONTINUOUS
 62
     5
 10
448.20000000007622
 20
-1.850000000005821
 30
0.0
 40
1.0000000000001441
 50
90.000000000000014
 51
180.0
  0
ARC
  8
DETAIL
  6
CONTINUOUS
 62
     5
 10
447.93305666207652
 20
-1.599999999999
 30
0.0
 40
0.8000000000001152
 50
90.000000000000014
 51
174.99935540237001
  0
ARC
  8
DETAIL
  6
CONTINUOUS
 62
     5
 10
448.20000000007622
 20
-1.850000000005821
 30
0.0
 40
0.5000000000000722
 50
90.000000000000014
 51
180.0
  0
CIRCLE
  8
DETAIL
  6
CONTINUOUS
 62
     5
 10
250.80404050804279
 20
-122.854040506023
 30
0.0
 40
4.700000000000677
  0
ARC
  8
DETAIL
  6
CONTINUOUS
 62
     5
 10
-447.9330649380563
 20
-402.40000000005779
 30
0.0
 40
1.6000000000002319
 50
270.0
 51
354.99999999997402
  0
ARC
  8
DETAIL
  6
CONTINUOUS
 62
     5
 10
-448.20000000006172
 20
-402.15000000005779
 30
0.0
 40
1.0000000000001441
 50
270.0
 51
0.000000000000007
  0
ARC
  8
DETAIL
  6
CONTINUOUS
 62
     5
 10
-447.9330649380563
 20
-402.40000000005779
 30
0.0
 40
0.8000000000001152
 50
270.0
 51
354.99999999997402
  0
ARC
  8
DETAIL
  6
CONTINUOUS
 62
     5
 10
-448.20000000006172
 20
-402.15000000005779
 30
0.0
 40
0.5000000000000722
 50
270.0
 51
0.000000000000007
  0
ARC
  8
DETAIL
  6
CONTINUOUS
 62
     5
 10
-531.90000000006148
 20
-336.95000000004569
 30
0.0
 40
1.10000000000016
 50
180.0
 51
270.0
  0
ARC
  8
DETAIL
  6
CONTINUOUS
 62
     5
 10
-531.90000000006148
 20
-147.1500000000228
 30
0.0
 40
1.10000000000016
 50
90.000000000000014
 51
180.0
  0
ARC
  8
DETAIL
  6
CONTINUOUS
 62
     5
 10
-461.00000000005463
 20
-115.0000000000164
 30
0.0
 40
5.0000000000007221
 50
180.0
 51
270.0
  0
ARC
  8
DETAIL
  6
CONTINUOUS
 62
     5
 10
-427.50000000005463
 20
-88.000000000012733
 30
0.0
 40
5.0000000000007221
 50
270.0
 51
0.000000000000007
  0
ARC
  8
DETAIL
  6
CONTINUOUS
 62
     5
 10
-450.90000000005602
 20
-96.000000000013642
 30
0.0
 40
3.000000000000433
 50
90.000000000000014
 51
269.99999999992178
  0
ARC
  8
DETAIL
  6
CONTINUOUS
 62
     5
 10
-434.50000000005463
 20
-85.000000000011823
 30
0.0
 40
3.000000000000433
 50
270.0
 51
90.000000000000014
  0
ARC
  8
DETAIL
  6
CONTINUOUS
 62
     5
 10
-425.50000000005463
 20
-66.200000000013915
 30
0.0
 40
3.000000000000433
 50
0.000000000000007
 51
90.000000000000014
  0
ARC
  8
DETAIL
  6
CONTINUOUS
 62
     5
 10
-438.00000000005463
 20
-66.200000000013915
 30
0.0
 40
3.000000000000433
 50
90.000000000000014
 51
180.0
  0
ARC
  8
DETAIL
  6
CONTINUOUS
 62
     5
 10
-436.50000000005463
 20
-85.000000000011823
 30
0.0
 40
3.000000000000433
 50
90.000000000000014
 51
270.0
  0
ARC
  8
DETAIL
  6
CONTINUOUS
 62
     5
 10
-457.00000000005463
 20
-77.000000000011369
 30
0.0
 40
3.000000000000433
 50
270.0
 51
0.000000000000007
  0
ARC
  8
DETAIL
  6
CONTINUOUS
 62
     5
 10
-463.00000000005463
 20
-77.000000000011369
 30
0.0
 40
3.000000000000433
 50
180.0
 51
270.0
  0
CIRCLE
  8
DETAIL
  6
CONTINUOUS
 62
     5
 10
-435.50000000005463
 20
-85.000000000011823
 30
0.0
 40
2.500000000000361
  0
ARC
  8
DETAIL
  6
CONTINUOUS
 62
     5
 10
-447.93305666005381
 20
-1.599999999999
 30
0.0
 40
1.6000000000002319
 50
5.000644597629968
 51
90.000000000000014
  0
ARC
  8
DETAIL
  6
CONTINUOUS
 62
     5
 10
-448.20000000006172
 20
-1.850000000005821
 30
0.0
 40
1.0000000000001441
 50
0.000000000000007
 51
90.000000000000014
  0
ARC
  8
DETAIL
  6
CONTINUOUS
 62
     5
 10
-447.93305666005381
 20
-1.599999999999
 30
0.0
 40
0.8000000000001152
 50
5.000644597629968
 51
90.000000000000014
  0
ARC
  8
DETAIL
  6
CONTINUOUS
 62
     5
 10
-448.20000000006172
 20
-1.850000000005821
 30
0.0
 40
0.5000000000000722
 50
0.000000000000007
 51
90.000000000000014
  0
LINE
  8
DETAIL
  6
CONTINUOUS
 62
     5
 10
-455.70000000005439
 20
-138.05000000001519
 30
0.0
 11
-448.30000000006021
 21
-138.05000000001519
 31
0.0
  0
LINE
  8
DETAIL
  6
CONTINUOUS
 62
     5
 10
-448.30000000006021
 20
-135.05000000001519
 30
0.0
 11
-447.70000000006172
 21
-135.05000000001519
 31
0.0
  0
LINE
  8
DETAIL
  6
CONTINUOUS
 62
     5
 10
448.30000000007482
 20
-135.05000000001519
 30
0.0
 11
447.70000000007622
 21
-135.05000000001519
 31
0.0
  0
LINE
  8
DETAIL
  6
CONTINUOUS
 62
     5
 10
455.70000000006888
 20
-138.05000000001519
 30
0.0
 11
448.90000000007331
 21
-138.05000000001519
 31
0.0
  0
ARC
  8
DETAIL
  6
CONTINUOUS
 62
     5
 10
448.90000000007331
 20
-137.4500000000171
 30
0.0
 40
0.6000000000000859
 50
180.0
 51
270.0
  0
CIRCLE
  8
DETAIL
  6
DASHED
 62
     5
 10
330.00000000005463
 20
-202.0485940936924
 30
0.0
 40
100.0
  0
LINE
  8
DETAIL
  6
CONTINUOUS
 62
     5
 10
-449.70000000006172
 20
-1.349999999999
 30
0.0
 11
-449.70000000006172
 21
-2.1499999999987272
 31
0.0
  0
ARC
  8
DETAIL
  6
CONTINUOUS
 62
     5
 10
-452.92500000005288
 20
-1.0750000000011819
 30
0.0
 40
0.2749999999978477
 50
90.000000000000014
 51
270.0
  0
ARC
  8
DETAIL
  6
CONTINUOUS
 62
     5
 10
-452.92500000005288
 20
-1.0749999999993629
 30
0.0
 40
1.07499999999942
 50
90.000000000000014
 51
270.0
  0
LINE
  8
DETAIL
  6
CONTINUOUS
 62
     5
 10
449.70000000006888
 20
-2.1499999999987272
 30
0.0
 11
452.92500000007482
 21
-2.1499999999987272
 31
0.0
  0
LINE
  8
DETAIL
  6
CONTINUOUS
 62
     5
 10
449.70000000006888
 20
-1.349999999999
 30
0.0
 11
449.70000000006888
 21
-2.1499999999987272
 31
0.0
  0
ARC
  8
DETAIL
  6
CONTINUOUS
 62
     5
 10
452.92500000007482
 20
-1.0750000000011819
 30
0.0
 40
0.2749999999978477
 50
270.0
 51
90.000000000000014
  0
ARC
  8
DETAIL
  6
CONTINUOUS
 62
     5
 10
452.92500000007482
 20
-1.0749999999993629
 30
0.0
 40
1.07499999999942
 50
270.0
 51
90.000000000000014
  0
LINE
  8
DETAIL
  6
CONTINUOUS
 62
     5
 10
448.20000000007622
 20
-1.349999999999
 30
0.0
 11
452.92500000007482
 21
-1.349999999999
 31
0.0
  0
LINE
  8
DETAIL
  6
CONTINUOUS
 62
     5
 10
439.11730092007838
 20
-2.1499999999987272
 30
0.0
 11
-439.11730091805572
 21
-2.1499999999987272
 31
0.0
  0
LINE
  8
DETAIL
  6
CONTINUOUS
 62
     5
 10
-449.70000000006172
 20
-401.85000000006539
 30
0.0
 11
-452.92500000005288
 21
-401.85000000006539
 31
0.0
  0
LINE
  8
DETAIL
  6
CONTINUOUS
 62
     5
 10
-449.70000000006172
 20
-402.65000000006512
 30
0.0
 11
-449.70000000006172
 21
-401.85000000006539
 31
0.0
  0
ARC
  8
DETAIL
  6
CONTINUOUS
 62
     5
 10
-452.92500000005288
 20
-402.92500000006339
 30
0.0
 40
0.2749999999978477
 50
90.000000000000014
 51
270.0
  0
ARC
  8
DETAIL
  6
CONTINUOUS
 62
     5
 10
-452.92500000005288
 20
-402.92500000006481
 30
0.0
 40
1.07499999999942
 50
90.000000000000014
 51
270.0
  0
LINE
  8
DETAIL
  6
CONTINUOUS
 62
     5
 10
449.70000000006888
 20
-401.85000000006539
 30
0.0
 11
452.92500000007482
 21
-401.85000000006539
 31
0.0
  0
LINE
  8
DETAIL
  6
CONTINUOUS
 62
     5
 10
449.70000000006888
 20
-402.65000000006512
 30
0.0
 11
449.70000000006888
 21
-401.85000000006539
 31
0.0
  0
ARC
  8
DETAIL
  6
CONTINUOUS
 62
     5
 10
452.92500000007482
 20
-402.92500000006339
 30
0.0
 40
0.2749999999978477
 50
270.0
 51
90.000000000000014
  0
ARC
  8
DETAIL
  6
CONTINUOUS
 62
     5
 10
452.92500000007482
 20
-402.92500000006481
 30
0.0
 40
1.07499999999942
 50
270.0
 51
90.000000000000014
  0
LINE
  8
DETAIL
  6
CONTINUOUS
 62
     5
 10
448.20000000007622
 20
-402.6500000000583
 30
0.0
 11
452.92500000007482
 21
-402.65000000006512
 31
0.0
  0
LINE
  8
DETAIL
  6
CONTINUOUS
 62
     5
 10
439.28000000007802
 20
-401.85000000006539
 30
0.0
 11
-439.28000000005608
 21
-401.85000000006539
 31
0.0
  0
LINE
  8
BASIS
  6
DASHDOT
 62
     6
 10
-568.0000000000673
 20
-242.05000000003429
 30
0.0
 11
-431.71596961738311
 21
-242.05000000003429
 31
0.0
1001
GENIUS_GENODEF_13
1002
{
1000
HIER
1070
     0
1002
}
1002
{
1000
MANEDIT
1070
     0
1002
}
1002
{
1000
NOSEL
1070
     0
1002
}
1002
{
1000
BEHIND
1070
     0
1002
}
1002
{
1000
OTHER
1070
     0
1002
}
1002
{
1000
REACTOR
1002
}
1001
GENIUS_GENOBJ-N-CEN_13
1002
{
1000
OWNER
1000
GEN
1002
}
1001
GENIUS_GENCEN_19
1002
{
1040
5.0
1002
}
  0
LINE
  8
BASIS
  6
DASHDOT
 62
     6
 10
568.00000000008913
 20
-242.05000000003429
 30
0.0
 11
431.7159696173976
 21
-242.05000000003429
 31
0.0
1001
GENIUS_GENODEF_13
1002
{
1000
HIER
1070
     0
1002
}
1002
{
1000
MANEDIT
1070
     0
1002
}
1002
{
1000
NOSEL
1070
     0
1002
}
1002
{
1000
BEHIND
1070
     0
1002
}
1002
{
1000
OTHER
1070
     0
1002
}
1002
{
1000
REACTOR
1002
}
1001
GENIUS_GENOBJ-N-CEN_13
1002
{
1000
OWNER
1000
GEN
1002
}
1001
GENIUS_GENCEN_19
1002
{
1040
5.0
1002
}
  0
LINE
  8
BASIS
  6
DASHDOT
 62
     6
 10
330.00000000005463
 20
-328.14696646343282
 30
0.0
 11
330.00000000005463
 21
-75.953033536630301
 31
0.0
1001
GENIUS_GENODEF_13
1002
{
1000
HIER
1070
     0
1002
}
1002
{
1000
MANEDIT
1070
     0
1002
}
1002
{
1000
NOSEL
1070
     0
1002
}
1002
{
1000
BEHIND
1070
     0
1002
}
1002
{
1000
OTHER
1070
     0
1002
}
1002
{
1000
REACTOR
1002
}
1001
GENIUS_GENOBJ-N-CEN_13
1002
{
1000
OWNER
1000
GEN
1002
}
1001
GENIUS_GENCEN_19
1002
{
1040
5.0
1002
}
  0
LINE
  8
SIZE
  6
CONTINUOUS
 62
    30
 10
454.00000000007412
 20
18.92500000000064
 30
0.0
 11
454.00000000007412
 21
229.23618554887659
 31
0.0
  0
LINE
  8
SIZE
  6
CONTINUOUS
 62
    30
 10
-454.00000000005281
 20
18.92500000000064
 30
0.0
 11
-454.00000000005281
 21
229.23618554887659
 31
0.0
  0
LINE
  8
SIZE
  6
CONTINUOUS
 62
    30
 10
442.00000000007412
 20
209.23618554887659
 30
0.0
 11
-442.00000000005281
 21
209.23618554887659
 31
0.0
  0
CIRCLE
  8
SIZE
  6
CONTINUOUS
 62
    30
 10
454.00000000007412
 20
209.23618554887659
 30
0.0
 40
6.0
  0
LINE
  8
SIZE
  6
CONTINUOUS
 62
    30
 10
454.00000000007412
 20
209.23618554887659
 30
0.0
 11
442.00000000007412
 21
209.23618554887659
 31
0.0
  0
CIRCLE
  8
SIZE
  6
CONTINUOUS
 62
    30
 10
-454.00000000005281
 20
209.23618554887659
 30
0.0
 40
6.0
  0
LINE
  8
SIZE
  6
CONTINUOUS
 62
    30
 10
-454.00000000005281
 20
209.23618554887659
 30
0.0
 11
-442.00000000005281
 21
209.23618554887659
 31
0.0
  0
TEXT
  8
SIZE
  6
CONTINUOUS
 62
    30
 10
-80.927999999989311
 20
234.23618554887662
 30
0.0
 40
64.0
  1
908
 50
0.0
 41
0.9
 51
0.0
  7
STANDARD
 71
     0
 72
     1
 11
0.0000000000106866
 21
234.23618554887662
 31
0.0
210
0.0
220
0.0
230
1.0
  0
POINT
  8
DEFPOINTS
  6
CONTINUOUS
 62
    30
 10
454.00000000007412
 20
-1.0749999999993629
 30
0.0
  0
POINT
  8
DEFPOINTS
  6
CONTINUOUS
 62
    30
 10
-454.00000000005281
 20
-1.0749999999993629
 30
0.0
  0
POINT
  8
DEFPOINTS
  6
CONTINUOUS
 62
    30
 10
-454.00000000005281
 20
209.23618554887659
 30
0.0
  0
LINE
  8
SIZE
  6
CONTINUOUS
 62
    30
 10
533.00000000008185
 20
-127.1500000000228
 30
0.0
 11
533.00000000008185
 21
229.23618554887659
 31
0.0
  0
LINE
  8
SIZE
  6
CONTINUOUS
 62
    30
 10
454.00000000007412
 20
18.92500000000064
 30
0.0
 11
454.00000000007412
 21
229.23618554887659
 31
0.0
  0
LINE
  8
SIZE
  6
CONTINUOUS
 62
    30
 10
545.00000000008185
 20
209.23618554887659
 30
0.0
 11
557.00000000008185
 21
209.23618554887659
 31
0.0
  0
LINE
  8
SIZE
  6
CONTINUOUS
 62
    30
 10
442.00000000007412
 20
209.23618554887659
 30
0.0
 11
430.00000000007412
 21
209.23618554887659
 31
0.0
  0
LINE
  8
SIZE
  6
CONTINUOUS
 62
    30
 10
533.00000000008185
 20
209.23618554887659
 30
0.0
 11
454.00000000007412
 21
209.23618554887659
 31
0.0
  0
CIRCLE
  8
SIZE
  6
CONTINUOUS
 62
    30
 10
533.00000000008185
 20
209.23618554887659
 30
0.0
 40
6.0
  0
LINE
  8
SIZE
  6
CONTINUOUS
 62
    30
 10
533.00000000008185
 20
209.23618554887659
 30
0.0
 11
545.00000000008185
 21
209.23618554887659
 31
0.0
  0
CIRCLE
  8
SIZE
  6
CONTINUOUS
 62
    30
 10
454.00000000007412
 20
209.23618554887659
 30
0.0
 40
6.0
  0
LINE
  8
SIZE
  6
CONTINUOUS
 62
    30
 10
454.00000000007412
 20
209.23618554887659
 30
0.0
 11
442.00000000007412
 21
209.23618554887659
 31
0.0
  0
TEXT
  8
SIZE
  6
CONTINUOUS
 62
    30
 10
439.93200000007801
 20
234.23618554887662
 30
0.0
 40
64.0
  1
79
 50
0.0
 41
0.9
 51
0.0
  7
STANDARD
 71
     0
 72
     1
 11
493.50000000007799
 21
234.23618554887662
 31
0.0
210
0.0
220
0.0
230
1.0
  0
POINT
  8
DEFPOINTS
  6
CONTINUOUS
 62
    30
 10
533.00000000008185
 20
-147.1500000000228
 30
0.0
  0
POINT
  8
DEFPOINTS
  6
CONTINUOUS
 62
    30
 10
454.00000000007412
 20
-1.0749999999993629
 30
0.0
  0
POINT
  8
DEFPOINTS
  6
CONTINUOUS
 62
    30
 10
454.00000000007412
 20
209.23618554887659
 30
0.0
  0
LINE
  8
SIZE
  6
CONTINUOUS
 62
    30
 10
-533.00000000007458
 20
-127.1500000000228
 30
0.0
 11
-533.00000000007458
 21
229.23618554887659
 31
0.0
  0
LINE
  8
SIZE
  6
CONTINUOUS
 62
    30
 10
-454.00000000005281
 20
18.92500000000064
 30
0.0
 11
-454.00000000005281
 21
229.23618554887659
 31
0.0
  0
LINE
  8
SIZE
  6
CONTINUOUS
 62
    30
 10
-545.00000000007458
 20
209.23618554887659
 30
0.0
 11
-557.00000000007458
 21
209.23618554887659
 31
0.0
  0
LINE
  8
SIZE
  6
CONTINUOUS
 62
    30
 10
-442.00000000005281
 20
209.23618554887659
 30
0.0
 11
-430.00000000005281
 21
209.23618554887659
 31
0.0
  0
LINE
  8
SIZE
  6
CONTINUOUS
 62
    30
 10
-533.00000000007458
 20
209.23618554887659
 30
0.0
 11
-454.00000000005281
 21
209.23618554887659
 31
0.0
  0
CIRCLE
  8
SIZE
  6
CONTINUOUS
 62
    30
 10
-533.00000000007458
 20
209.23618554887659
 30
0.0
 40
6.0
  0
LINE
  8
SIZE
  6
CONTINUOUS
 62
    30
 10
-533.00000000007458
 20
209.23618554887659
 30
0.0
 11
-545.00000000007458
 21
209.23618554887659
 31
0.0
  0
CIRCLE
  8
SIZE
  6
CONTINUOUS
 62
    30
 10
-454.00000000005281
 20
209.23618554887659
 30
0.0
 40
6.0
  0
LINE
  8
SIZE
  6
CONTINUOUS
 62
    30
 10
-454.00000000005281
 20
209.23618554887659
 30
0.0
 11
-442.00000000005281
 21
209.23618554887659
 31
0.0
  0
TEXT
  8
SIZE
  6
CONTINUOUS
 62
    30
 10
-547.06800000006376
 20
234.23618554887662
 30
0.0
 40
64.0
  1
79
 50
0.0
 41
0.9
 51
0.0
  7
STANDARD
 71
     0
 72
     1
 11
-493.50000000006378
 21
234.23618554887662
 31
0.0
210
0.0
220
0.0
230
1.0
  0
POINT
  8
DEFPOINTS
  6
CONTINUOUS
 62
    30
 10
-533.00000000007458
 20
-147.1500000000228
 30
0.0
  0
POINT
  8
DEFPOINTS
  6
CONTINUOUS
 62
    30
 10
-454.00000000005281
 20
-1.0749999999993629
 30
0.0
  0
POINT
  8
DEFPOINTS
  6
CONTINUOUS
 62
    30
 10
-454.00000000005281
 20
209.23618554887659
 30
0.0
  0
LINE
  8
SIZE
  6
CONTINUOUS
 62
    30
 10
454.00000000007412
 20
-422.92500000006481
 30
0.0
 11
454.00000000007412
 21
-588.01871528447327
 31
0.0
  0
LINE
  8
SIZE
  6
CONTINUOUS
 62
    30
 10
330.00000000005463
 20
-348.14696646343282
 30
0.0
 11
330.00000000005463
 21
-588.01871528447327
 31
0.0
  0
LINE
  8
SIZE
  6
CONTINUOUS
 62
    30
 10
342.00000000005463
 20
-568.01871528447327
 30
0.0
 11
442.00000000007412
 21
-568.01871528447327
 31
0.0
  0
LINE
  8
SIZE
  6
CONTINUOUS
 62
    30
 10
454.00000000007412
 20
-568.01871528447327
 30
0.0
 11
655.88571428578848
 21
-568.01871528447327
 31
0.0
  0
CIRCLE
  8
SIZE
  6
CONTINUOUS
 62
    30
 10
330.00000000005463
 20
-568.01871528447327
 30
0.0
 40
6.0
  0
LINE
  8
SIZE
  6
CONTINUOUS
 62
    30
 10
330.00000000005463
 20
-568.01871528447327
 30
0.0
 11
342.00000000005463
 21
-568.01871528447327
 31
0.0
  0
CIRCLE
  8
SIZE
  6
CONTINUOUS
 62
    30
 10
454.00000000007412
 20
-568.01871528447327
 30
0.0
 40
6.0
  0
LINE
  8
SIZE
  6
CONTINUOUS
 62
    30
 10
454.00000000007412
 20
-568.01871528447327
 30
0.0
 11
442.00000000007412
 21
-568.01871528447327
 31
0.0
  0
TEXT
  8
SIZE
  6
CONTINUOUS
 62
    30
 10
485.7748571429313
 20
-543.01871528447327
 30
0.0
 40
64.0
  1
124
 50
0.0
 41
0.9
 51
0.0
  7
STANDARD
 71
     0
 72
     1
 11
560.9428571429313
 21
-543.01871528447327
 31
0.0
210
0.0
220
0.0
230
1.0
  0
POINT
  8
DEFPOINTS
  6
CONTINUOUS
 62
    30
 10
454.00000000007412
 20
-402.92500000006481
 30
0.0
  0
POINT
  8
DEFPOINTS
  6
CONTINUOUS
 62
    30
 10
330.00000000005463
 20
-328.14696646343282
 30
0.0
  0
POINT
  8
DEFPOINTS
  6
CONTINUOUS
 62
    30
 10
330.00000000005463
 20
-568.01871528447327
 30
0.0
  0
LINE
  8
SIZE
  6
CONTINUOUS
 62
    30
 10
606.47375908556273
 20
-202.0500000000317
 30
0.0
 11
851.88538291731243
 21
-202.05000000003159
 31
0.0
  0
LINE
  8
SIZE
  6
CONTINUOUS
 62
    30
 10
588.00000000008936
 20
-242.0500000000344
 30
0.0
 11
851.88538291731243
 21
-242.05000000003429
 31
0.0
  0
LINE
  8
SIZE
  6
CONTINUOUS
 62
    30
 10
831.88538291731243
 20
-190.05000000003159
 30
0.0
 11
831.88538291731243
 21
-178.05000000003159
 31
0.0
  0
LINE
  8
SIZE
  6
CONTINUOUS
 62
    30
 10
831.88538291731243
 20
-254.0500000000344
 30
0.0
 11
831.88538291731254
 21
-546.89678265097598
 31
0.0
  0
LINE
  8
SIZE
  6
CONTINUOUS
 62
    30
 10
831.88538291731243
 20
-202.0500000000317
 30
0.0
 11
831.88538291731243
 21
-242.0500000000344
 31
0.0
  0
CIRCLE
  8
SIZE
  6
CONTINUOUS
 62
    30
 10
831.88538291731243
 20
-202.0500000000317
 30
0.0
 40
6.0
  0
LINE
  8
SIZE
  6
CONTINUOUS
 62
    30
 10
831.88538291731243
 20
-202.0500000000317
 30
0.0
 11
831.88538291731243
 21
-190.0500000000317
 31
0.0
  0
CIRCLE
  8
SIZE
  6
CONTINUOUS
 62
    30
 10
831.88538291731243
 20
-242.0500000000344
 30
0.0
 40
6.0
  0
LINE
  8
SIZE
  6
CONTINUOUS
 62
    30
 10
831.88538291731243
 20
-242.0500000000344
 30
0.0
 11
831.88538291731243
 21
-254.0500000000344
 31
0.0
  0
TEXT
  8
SIZE
  6
CONTINUOUS
 62
    30
 10
806.8853829173122
 20
-529.98821122240474
 30
0.0
 40
64.0
  1
40
 50
90.0
 41
0.9
 51
0.0
  7
STANDARD
 71
     0
 72
     1
 11
806.8853829173122
 21
-475.26821122240472
 31
0.0
210
0.0
220
0.0
230
1.0
  0
POINT
  8
DEFPOINTS
  6
CONTINUOUS
 62
    30
 10
586.47375908556273
 20
-202.0500000000317
 30
0.0
  0
POINT
  8
DEFPOINTS
  6
CONTINUOUS
 62
    30
 10
568.00000000008936
 20
-242.0500000000344
 30
0.0
  0
POINT
  8
DEFPOINTS
  6
CONTINUOUS
 62
    30
 10
831.88538291731243
 20
-242.0500000000344
 30
0.0
  0
LINE
  8
SIZE
  6
CONTINUOUS
 62
    30
 10
472.95000000007639
 20
0.0000000000000032
 30
0.0
 11
851.88538291731243
 21
0.0000000000000642
 31
0.0
  0
LINE
  8
SIZE
  6
CONTINUOUS
 62
    30
 10
518.43427874106169
 20
-70.000000000016399
 30
0.0
 11
851.88538291731243
 21
-70.000000000016357
 31
0.0
  0
LINE
  8
SIZE
  6
CONTINUOUS
 62
    30
 10
831.88538291731243
 20
-82.000000000016342
 30
0.0
 11
831.88538291731243
 21
-94.000000000016342
 31
0.0
  0
LINE
  8
SIZE
  6
CONTINUOUS
 62
    30
 10
831.88538291731243
 20
12.00000000000006
 30
0.0
 11
831.88538291731243
 21
167.25714285714329
 31
0.0
  0
LINE
  8
SIZE
  6
CONTINUOUS
 62
    30
 10
831.88538291731243
 20
-70.000000000016342
 30
0.0
 11
831.88538291731243
 21
0.0000000000000609
 31
0.0
  0
CIRCLE
  8
SIZE
  6
CONTINUOUS
 62
    30
 10
831.88538291731243
 20
-70.000000000016342
 30
0.0
 40
6.0
  0
LINE
  8
SIZE
  6
CONTINUOUS
 62
    30
 10
831.88538291731243
 20
-70.000000000016342
 30
0.0
 11
831.88538291731243
 21
-82.000000000016342
 31
0.0
  0
CIRCLE
  8
SIZE
  6
CONTINUOUS
 62
    30
 10
831.88538291731243
 20
0.0000000000000609
 30
0.0
 40
6.0
  0
LINE
  8
SIZE
  6
CONTINUOUS
 62
    30
 10
831.88538291731243
 20
0.0000000000000609
 30
0.0
 11
831.88538291731243
 21
12.00000000000006
 31
0.0
  0
TEXT
  8
SIZE
  6
CONTINUOUS
 62
    30
 10
806.8853829173122
 20
41.484571428571599
 30
0.0
 40
64.0
  1
70
 50
90.0
 41
0.9
 51
0.0
  7
STANDARD
 71
     0
 72
     1
 11
806.8853829173122
 21
95.628571428571604
 31
0.0
210
0.0
220
0.0
230
1.0
  0
POINT
  8
DEFPOINTS
  6
CONTINUOUS
 62
    30
 10
452.95000000007639
 20
0.0
 30
0.0
  0
POINT
  8
DEFPOINTS
  6
CONTINUOUS
 62
    30
 10
498.43427874106169
 20
-70.000000000016399
 30
0.0
  0
POINT
  8
DEFPOINTS
  6
CONTINUOUS
 62
    30
 10
831.88538291731243
 20
-70.000000000016342
 30
0.0
  0
LINE
  8
SIZE
  6
CONTINUOUS
 62
    30
 10
-518.43427874103804
 20
-70.000000000016399
 30
0.0
 11
-638.52421039438298
 21
-70.000000000016414
 31
0.0
  0
LINE
  8
SIZE
  6
CONTINUOUS
 62
    30
 10
-472.92500000005322
 20
-0.0000000000000032
 30
0.0
 11
-638.52421039438298
 21
-0.0000000000000298
 31
0.0
  0
LINE
  8
SIZE
  6
CONTINUOUS
 62
    30
 10
-618.52421039438298
 20
-82.000000000016414
 30
0.0
 11
-618.52421039438298
 21
-94.000000000016414
 31
0.0
  0
LINE
  8
SIZE
  6
CONTINUOUS
 62
    30
 10
-618.52421039438298
 20
11.99999999999998
 30
0.0
 11
-618.52421039438298
 21
167.2571428571429
 31
0.0
  0
LINE
  8
SIZE
  6
CONTINUOUS
 62
    30
 10
-618.52421039438298
 20
-70.000000000016414
 30
0.0
 11
-618.52421039438298
 21
-0.0000000000000266
 31
0.0
  0
CIRCLE
  8
SIZE
  6
CONTINUOUS
 62
    30
 10
-618.52421039438298
 20
-70.000000000016414
 30
0.0
 40
6.0
  0
LINE
  8
SIZE
  6
CONTINUOUS
 62
    30
 10
-618.52421039438298
 20
-70.000000000016414
 30
0.0
 11
-618.52421039438298
 21
-82.000000000016414
 31
0.0
  0
CIRCLE
  8
SIZE
  6
CONTINUOUS
 62
    30
 10
-618.52421039438298
 20
-0.0000000000000266
 30
0.0
 40
6.0
  0
LINE
  8
SIZE
  6
CONTINUOUS
 62
    30
 10
-618.52421039438298
 20
-0.0000000000000266
 30
0.0
 11
-618.52421039438298
 21
11.999999999999973
 31
0.0
  0
TEXT
  8
SIZE
  6
CONTINUOUS
 62
    30
 10
-643.52421039438286
 20
41.484571428571584
 30
0.0
 40
64.0
  1
70
 50
90.0
 41
0.9
 51
0.0
  7
STANDARD
 71
     0
 72
     1
 11
-643.52421039438286
 21
95.62857142857159
 31
0.0
210
0.0
220
0.0
230
1.0
  0
POINT
  8
DEFPOINTS
  6
CONTINUOUS
 62
    30
 10
-498.43427874103799
 20
-70.000000000016399
 30
0.0
  0
POINT
  8
DEFPOINTS
  6
CONTINUOUS
 62
    30
 10
-452.92500000005322
 20
0.0
 30
0.0
  0
POINT
  8
DEFPOINTS
  6
CONTINUOUS
 62
    30
 10
-618.52421039438298
 20
-0.0000000000000266
 30
0.0
  0
LINE
  8
SIZE
  6
CONTINUOUS
 62
    30
 10
472.95000000007639
 20
0.0000000000000032
 30
0.0
 11
983.68198162471788
 21
0.0000000000000853
 31
0.0
  0
LINE
  8
SIZE
  6
CONTINUOUS
 62
    30
 10
472.95000000007639
 20
-404.00000000005662
 30
0.0
 11
983.68198162471799
 21
-404.00000000005662
 31
0.0
  0
LINE
  8
SIZE
  6
CONTINUOUS
 62
    30
 10
963.68198162471788
 20
-11.99999999999992
 30
0.0
 11
963.68198162471799
 21
-392.00000000005662
 31
0.0
  0
CIRCLE
  8
SIZE
  6
CONTINUOUS
 62
    30
 10
963.68198162471788
 20
0.0000000000000821
 30
0.0
 40
6.0
  0
LINE
  8
SIZE
  6
CONTINUOUS
 62
    30
 10
963.68198162471788
 20
0.0000000000000821
 30
0.0
 11
963.68198162471788
 21
-11.999999999999918
 31
0.0
  0
CIRCLE
  8
SIZE
  6
CONTINUOUS
 62
    30
 10
963.68198162471799
 20
-404.00000000005662
 30
0.0
 40
6.0
  0
LINE
  8
SIZE
  6
CONTINUOUS
 62
    30
 10
963.68198162471799
 20
-404.00000000005662
 30
0.0
 11
963.68198162471799
 21
-392.00000000005662
 31
0.0
  0
TEXT
  8
SIZE
  6
CONTINUOUS
 62
    30
 10
938.68198162471765
 20
-284.08000000002858
 30
0.0
 40
64.0
  1
404
 50
90.0
 41
0.9
 51
0.0
  7
STANDARD
 71
     0
 72
     1
 11
938.68198162471765
 21
-202.00000000002851
 31
0.0
210
0.0
220
0.0
230
1.0
  0
POINT
  8
DEFPOINTS
  6
CONTINUOUS
 62
    30
 10
452.95000000007639
 20
0.0
 30
0.0
  0
POINT
  8
DEFPOINTS
  6
CONTINUOUS
 62
    30
 10
452.95000000007639
 20
-404.00000000005662
 30
0.0
  0
POINT
  8
DEFPOINTS
  6
CONTINUOUS
 62
    30
 10
963.68198162471799
 20
-404.00000000005662
 30
0.0
  0
LINE
  8
SIZE
  6
CONTINUOUS
 62
    30
 10
-551.90000000006171
 20
-338.05000000005168
 30
0.0
 11
-786.78744892471252
 21
-338.05000000005168
 31
0.0
  0
LINE
  8
SIZE
  6
CONTINUOUS
 62
    30
 10
-551.90000000006171
 20
-146.05000000002391
 30
0.0
 11
-786.78744892471263
 21
-146.05000000002391
 31
0.0
  0
LINE
  8
SIZE
  6
CONTINUOUS
 62
    30
 10
-766.78744892471241
 20
-326.05000000005168
 30
0.0
 11
-766.78744892471252
 21
-158.05000000002391
 31
0.0
  0
LINE
  8
SIZE
  6
CONTINUOUS
 62
    30
 10
-766.78744892471252
 20
-146.05000000002391
 30
0.0
 11
-766.78744892471252
 21
105.207142857119
 31
0.0
  0
CIRCLE
  8
SIZE
  6
CONTINUOUS
 62
    30
 10
-766.78744892471241
 20
-338.05000000005168
 30
0.0
 40
6.0
  0
LINE
  8
SIZE
  6
CONTINUOUS
 62
    30
 10
-766.78744892471241
 20
-338.05000000005168
 30
0.0
 11
-766.78744892471241
 21
-326.05000000005168
 31
0.0
  0
CIRCLE
  8
SIZE
  6
CONTINUOUS
 62
    30
 10
-766.78744892471252
 20
-146.05000000002391
 30
0.0
 40
6.0
  0
LINE
  8
SIZE
  6
CONTINUOUS
 62
    30
 10
-766.78744892471252
 20
-146.05000000002391
 30
0.0
 11
-766.78744892471252
 21
-158.05000000002391
 31
0.0
  0
TEXT
  8
SIZE
  6
CONTINUOUS
 62
    30
 10
-791.78744892471241
 20
-123.57342857145227
 30
0.0
 40
64.0
  1
φ192
 50
90.0
 41
0.9
 51
0.0
  7
STANDARD
 71
     0
 72
     1
 11
-791.78744892471241
 21
-14.421428571452221
 31
0.0
210
0.0
220
0.0
230
1.0
  0
POINT
  8
DEFPOINTS
  6
CONTINUOUS
 62
    30
 10
-531.90000000006171
 20
-338.05000000005168
 30
0.0
  0
POINT
  8
DEFPOINTS
  6
CONTINUOUS
 62
    30
 10
-531.90000000006171
 20
-146.05000000002391
 30
0.0
  0
POINT
  8
DEFPOINTS
  6
CONTINUOUS
 62
    30
 10
-766.78744892471252
 20
-146.05000000002391
 30
0.0
  0
LINE
  8
SIZE
  6
CONTINUOUS
 62
    30
 10
-475.70000000005462
 20
-346.05000000005259
 30
0.0
 11
-903.24605558592623
 21
-346.05000000005271
 31
0.0
  0
LINE
  8
SIZE
  6
CONTINUOUS
 62
    30
 10
-475.70000000005462
 20
-138.0499999996064
 30
0.0
 11
-903.24605558592634
 21
-138.04999999960651
 31
0.0
  0
LINE
  8
SIZE
  6
CONTINUOUS
 62
    30
 10
-883.24605558592623
 20
-334.05000000005259
 30
0.0
 11
-883.24605558592634
 21
-150.04999999960651
 31
0.0
  0
LINE
  8
SIZE
  6
CONTINUOUS
 62
    30
 10
-883.24605558592634
 20
-138.04999999960651
 30
0.0
 11
-883.24605558592634
 21
124.178571428965
 31
0.0
  0
CIRCLE
  8
SIZE
  6
CONTINUOUS
 62
    30
 10
-883.24605558592623
 20
-346.05000000005259
 30
0.0
 40
6.0
  0
LINE
  8
SIZE
  6
CONTINUOUS
 62
    30
 10
-883.24605558592623
 20
-346.05000000005259
 30
0.0
 11
-883.24605558592623
 21
-334.05000000005259
 31
0.0
  0
CIRCLE
  8
SIZE
  6
CONTINUOUS
 62
    30
 10
-883.24605558592634
 20
-138.04999999960651
 30
0.0
 40
6.0
  0
LINE
  8
SIZE
  6
CONTINUOUS
 62
    30
 10
-883.24605558592634
 20
-138.04999999960651
 30
0.0
 11
-883.24605558592634
 21
-150.04999999960651
 31
0.0
  0
TEXT
  8
SIZE
  6
CONTINUOUS
 62
    30
 10
-908.24605558592611
 20
-116.42371428532054
 30
0.0
 40
64.0
  1
φ208
 50
90.0
 41
0.9
 51
0.0
  7
STANDARD
 71
     0
 72
     1
 11
-908.24605558592611
 21
-0.9357142853204893
 31
0.0
210
0.0
220
0.0
230
1.0
  0
POINT
  8
DEFPOINTS
  6
CONTINUOUS
 62
    30
 10
-455.70000000005462
 20
-346.05000000005259
 30
0.0
  0
POINT
  8
DEFPOINTS
  6
CONTINUOUS
 62
    30
 10
-455.70000000005462
 20
-138.0499999996064
 30
0.0
  0
POINT
  8
DEFPOINTS
  6
CONTINUOUS
 62
    30
 10
-883.24605558592634
 20
-138.04999999960651
 30
0.0
  0
LINE
  8
BASIS
  6
DASHDOT
 62
     6
 10
396.56572125908588
 20
-70.000000000016371
 30
0.0
 11
498.43427874106152
 21
-70.000000000016371
 31
0.0
  0
LINE
  8
BASIS
  6
DASHDOT
 62
     6
 10
447.50000000007731
 20
-19.065721259028582
 30
0.0
 11
447.50000000007731
 21
-120.9342787409923
 31
0.0
  0
LINE
  8
BASIS
  6
DASHDOT
 62
     6
 10
-498.43427874103782
 20
-70.000000000016371
 30
0.0
 11
-396.56572125907678
 21
-70.000000000016371
 31
0.0
  0
LINE
  8
BASIS
  6
DASHDOT
 62
     6
 10
-447.50000000006088
 20
-19.065721259028582
 30
0.0
 11
-447.50000000006088
 21
-120.9342787409923
 31
0.0
  0
LINE
  8
SIZE
  6
CONTINUOUS
 62
    30
 10
447.50000000007731
 20
0.9342787409714219
 30
0.0
 11
447.50000000007731
 21
115.6734050425098
 31
0.0
  0
LINE
  8
SIZE
  6
CONTINUOUS
 62
    30
 10
-447.50000000006088
 20
0.9342787409714219
 30
0.0
 11
-447.50000000006088
 21
115.6734050425098
 31
0.0
  0
LINE
  8
SIZE
  6
CONTINUOUS
 62
    30
 10
435.50000000007731
 20
95.673405042509785
 30
0.0
 11
-435.50000000006088
 21
95.673405042509785
 31
0.0
  0
CIRCLE
  8
SIZE
  6
CONTINUOUS
 62
    30
 10
447.50000000007731
 20
95.673405042509785
 30
0.0
 40
6.0
  0
LINE
  8
SIZE
  6
CONTINUOUS
 62
    30
 10
447.50000000007731
 20
95.673405042509785
 30
0.0
 11
435.50000000007731
 21
95.673405042509785
 31
0.0
  0
CIRCLE
  8
SIZE
  6
CONTINUOUS
 62
    30
 10
-447.50000000006088
 20
95.673405042509785
 30
0.0
 40
6.0
  0
LINE
  8
SIZE
  6
CONTINUOUS
 62
    30
 10
-447.50000000006088
 20
95.673405042509785
 30
0.0
 11
-435.50000000006088
 21
95.673405042509785
 31
0.0
  0
TEXT
  8
SIZE
  6
CONTINUOUS
 62
    30
 10
-80.351999999991818
 20
120.67340504250981
 30
0.0
 40
64.0
  1
895
 50
0.0
 41
0.9
 51
0.0
  7
STANDARD
 71
     0
 72
     1
 11
0.0000000000081855
 21
120.67340504250981
 31
0.0
210
0.0
220
0.0
230
1.0
  0
POINT
  8
DEFPOINTS
  6
CONTINUOUS
 62
    30
 10
447.50000000007731
 20
-19.065721259028582
 30
0.0
  0
POINT
  8
DEFPOINTS
  6
CONTINUOUS
 62
    30
 10
-447.50000000006088
 20
-19.065721259028582
 30
0.0
  0
POINT
  8
DEFPOINTS
  6
CONTINUOUS
 62
    30
 10
-447.50000000006088
 20
95.673405042509785
 30
0.0
  0
CIRCLE
  8
FIX
  6
CONTINUOUS
 62
    11
 10
-447.5000000000573
 20
-70.000000000016371
 30
0.0
 40
6.5
  0
CIRCLE
  8
FIX
  6
CONTINUOUS
 62
    11
 10
447.50000000007731
 20
-70.000000000016371
 30
0.0
 40
6.5
  0
POINT
  8
ARRANGE
  6
CONTINUOUS
 62
     1
 10
0.000000000007276
 20
0.0
 30
0.0
 50
180.0
  0
CIRCLE
  8
ARRANGE
  6
CONTINUOUS
 62
     1
 10
0.000000000007276
 20
0.0
 30
0.0
 40
40.0
  0
ARC
  8
OUTLINE
  6
CONTINUOUS
 62
     3
 10
448.90000000007302
 20
-346.65000000005125
 30
0.0
 40
0.5999999999996196
 50
90.0
 51
180.0
  0
LINE
  8
OUTLINE
  6
CONTINUOUS
 62
     3
 10
448.90000000007331
 20
-346.05000000005163
 30
0.0
 11
455.70000000007622
 21
-346.05000000005248
 31
0.0
  0
LINE
  8
OUTLINE
  6
CONTINUOUS
 62
     3
 10
455.70000000007622
 20
-346.05000000005248
 30
0.0
 11
524.50000000007549
 21
-338.05000000005612
 31
0.0
  0
LINE
  8
OUTLINE
  6
CONTINUOUS
 62
     3
 10
524.50000000007549
 20
-338.05000000005612
 30
0.0
 11
531.90000000008331
 21
-338.05000000005163
 31
0.0
  0
ARC
  8
OUTLINE
  6
CONTINUOUS
 62
     3
 10
531.90000000007535
 20
-336.95000000004563
 30
0.0
 40
1.1000000000060146
 50
270.0
 51
0.0
  0
LINE
  8
OUTLINE
  6
CONTINUOUS
 62
     3
 10
533.0000000000814
 20
-336.95000000004569
 30
0.0
 11
533.00000000008185
 21
-147.1500000000228
 31
0.0
  0
ARC
  8
OUTLINE
  6
CONTINUOUS
 62
     3
 10
531.90000000009104
 20
-147.15000000001689
 30
0.0
 40
1.0999999999907795
 50
0.0
 51
90.0
  0
LINE
  8
OUTLINE
  6
CONTINUOUS
 62
     3
 10
531.90000000008331
 20
-146.0500000000261
 30
0.0
 11
524.50000000007549
 21
-146.05000000005609
 31
0.0
  0
LINE
  8
OUTLINE
  6
CONTINUOUS
 62
     3
 10
524.50000000007549
 20
-146.05000000005609
 30
0.0
 11
455.70000000006888
 21
-138.0499999996064
 31
0.0
  0
LINE
  8
OUTLINE
  6
CONTINUOUS
 62
     3
 10
455.70000000006888
 20
-138.0499999996064
 30
0.0
 11
448.90000000007331
 21
-138.05000000001519
 31
0.0
  0
ARC
  8
OUTLINE
  6
CONTINUOUS
 62
     3
 10
448.9000000000695
 20
-137.45000000001906
 30
0.0
 40
0.5999999999961263
 50
180.0
 51
270.0
  0
LINE
  8
OUTLINE
  6
CONTINUOUS
 62
     3
 10
448.3000000000734
 20
-137.4500000000171
 30
0.0
 11
448.30000000007482
 21
-135.05000000001519
 31
0.0
  0
LINE
  8
OUTLINE
  6
CONTINUOUS
 62
     3
 10
448.30000000007482
 20
-135.05000000001519
 30
0.0
 11
447.70000000007622
 21
-135.05000000001519
 31
0.0
  0
LINE
  8
OUTLINE
  6
CONTINUOUS
 62
     3
 10
447.70000000007622
 20
-135.05000000001519
 30
0.0
 11
447.70000000007622
 21
-120.0000000000168
 31
0.0
  0
LINE
  8
OUTLINE
  6
CONTINUOUS
 62
     3
 10
447.70000000007622
 20
-120.0000000000168
 30
0.0
 11
461.0000000000764
 21
-120.0000000000168
 31
0.0
  0
ARC
  8
OUTLINE
  6
CONTINUOUS
 62
     3
 10
461.00000000007782
 20
-115.0000000000182
 30
0.0
 40
4.9999999999985922
 50
270.0
 51
0.0
  0
LINE
  8
OUTLINE
  6
CONTINUOUS
 62
     3
 10
466.0000000000764
 20
-115.0000000000164
 30
0.0
 11
466.0000000000764
 21
-70.000000000010459
 31
0.0
  0
LINE
  8
OUTLINE
  6
CONTINUOUS
 62
     3
 10
466.0000000000764
 20
-70.000000000010459
 30
0.0
 11
447.70000000007622
 21
-70.000000000010459
 31
0.0
  0
LINE
  8
OUTLINE
  6
CONTINUOUS
 62
     3
 10
447.70000000007622
 20
-70.000000000010459
 30
0.0
 11
447.70000000007622
 21
-1.850000000005821
 31
0.0
  0
ARC
  8
OUTLINE
  6
CONTINUOUS
 62
     3
 10
448.20000000007485
 20
-1.8500000000058168
 30
0.0
 40
0.4999999999986317
 50
90.0
 51
180.0
  0
LINE
  8
OUTLINE
  6
CONTINUOUS
 62
     3
 10
448.20000000007991
 20
-1.350000000007185
 30
0.0
 11
449.70000000007622
 21
-1.35000000000764
 31
0.0
  0
LINE
  8
OUTLINE
  6
CONTINUOUS
 62
     3
 10
449.70000000007622
 20
-1.35000000000764
 30
0.0
 11
449.70000000006888
 21
-2.1499999999987272
 31
0.0
  0
LINE
  8
OUTLINE
  6
CONTINUOUS
 62
     3
 10
449.70000000006888
 20
-2.1499999999987272
 30
0.0
 11
452.92500000007482
 21
-2.1499999999987272
 31
0.0
  0
ARC
  8
OUTLINE
  6
CONTINUOUS
 62
     3
 10
452.92485294124788
 20
-1.0748529411757783
 30
0.0
 40
1.0751470688803164
 50
270.00783692798313
 51
88.659763131575289
  0
LINE
  8
OUTLINE
  6
CONTINUOUS
 62
     3
 10
452.95000000007622
 20
0.0
 30
0.0
 11
447.93305666207652
 21
0.0000000000013642
 31
0.0
  0
ARC
  8
OUTLINE
  6
CONTINUOUS
 62
     3
 10
448.05660002741587
 20
-1.7348254473894753
 30
0.0
 40
1.7392188752523905
 50
94.07336872739387
 51
170.92598669220979
  0
LINE
  8
OUTLINE
  6
CONTINUOUS
 62
     3
 10
446.33914671407462
 20
-1.4605328799957531
 30
0.0
 11
446.21756834007738
 21
-2.849999999999
 31
0.0
  0
LINE
  8
OUTLINE
  6
CONTINUOUS
 62
     3
 10
446.21756834007738
 20
-2.849999999999
 30
0.0
 11
445.70000000007622
 21
-2.8500000000085488
 31
0.0
  0
LINE
  8
OUTLINE
  6
CONTINUOUS
 62
     3
 10
445.70000000007622
 20
-2.8500000000085488
 30
0.0
 11
445.70000000007622
 21
-0.8500000000094587
 31
0.0
  0
LINE
  8
OUTLINE
  6
CONTINUOUS
 62
     3
 10
445.70000000007622
 20
-0.8500000000094587
 30
0.0
 11
444.80000000007482
 21
-0.8499999999985448
 31
0.0
  0
LINE
  8
OUTLINE
  6
CONTINUOUS
 62
     3
 10
444.80000000007482
 20
-0.8499999999985448
 30
0.0
 11
444.80000000007482
 21
0.0
 31
0.0
  0
LINE
  8
OUTLINE
  6
CONTINUOUS
 62
     3
 10
444.80000000007482
 20
0.0
 30
0.0
 11
-444.80000000006021
 21
0.0
 31
0.0
  0
LINE
  8
OUTLINE
  6
CONTINUOUS
 62
     3
 10
-444.80000000006021
 20
0.0
 30
0.0
 11
-444.80000000006021
 21
-0.8499999999985448
 31
0.0
  0
LINE
  8
OUTLINE
  6
CONTINUOUS
 62
     3
 10
-444.80000000006021
 20
-0.8499999999985448
 30
0.0
 11
-445.70000000006172
 21
-0.8499999999985448
 31
0.0
  0
LINE
  8
OUTLINE
  6
CONTINUOUS
 62
     3
 10
-445.70000000006172
 20
-0.8499999999985448
 30
0.0
 11
-445.70000000006172
 21
-2.849999999999
 31
0.0
  0
LINE
  8
OUTLINE
  6
CONTINUOUS
 62
     3
 10
-445.70000000006172
 20
-2.849999999999
 30
0.0
 11
-446.21756833805472
 21
-2.849999999999
 31
0.0
  0
LINE
  8
OUTLINE
  6
CONTINUOUS
 62
     3
 10
-446.21756833805472
 20
-2.849999999999
 30
0.0
 11
-446.33914671205912
 21
-1.4605328799957531
 31
0.0
  0
ARC
  8
OUTLINE
  6
CONTINUOUS
 62
     3
 10
-447.93305666002198
 20
-1.5999999999242069
 30
0.0
 40
1.5999999999237522
 50
5.0006445790689895
 51
90.0
  0
LINE
  8
OUTLINE
  6
CONTINUOUS
 62
     3
 10
-447.93305666005381
 20
-0.0000000000004547
 30
0.0
 11
-452.92500000005288
 21
0.0
 31
0.0
  0
ARC
  8
OUTLINE
  6
CONTINUOUS
 62
     3
 10
-452.92500000005288
 20
-1.0749999999993636
 30
0.0
 40
1.0749999999993636
 50
90.0
 51
270.0
  0
LINE
  8
OUTLINE
  6
CONTINUOUS
 62
     3
 10
-452.92500000005288
 20
-2.1499999999987272
 30
0.0
 11
-449.70000000006172
 21
-2.1499999999987272
 31
0.0
  0
LINE
  8
OUTLINE
  6
CONTINUOUS
 62
     3
 10
-449.70000000006172
 20
-2.1499999999987272
 30
0.0
 11
-449.70000000006172
 21
-1.349999999999
 31
0.0
  0
LINE
  8
OUTLINE
  6
CONTINUOUS
 62
     3
 10
-449.70000000006172
 20
-1.349999999999
 30
0.0
 11
-448.20000000005803
 21
-1.349999999999
 31
0.0
  0
ARC
  8
OUTLINE
  6
CONTINUOUS
 62
     3
 10
-448.20000000005479
 20
-1.8499999999957879
 30
0.0
 40
0.499999999996788
 50
0.0
 51
90.0
  0
LINE
  8
OUTLINE
  6
CONTINUOUS
 62
     3
 10
-447.70000000005803
 20
-1.849999999997181
 30
0.0
 11
-447.70000000006172
 21
-70.000000000010459
 31
0.0
  0
LINE
  8
OUTLINE
  6
CONTINUOUS
 62
     3
 10
-447.70000000006172
 20
-70.000000000010459
 30
0.0
 11
-466.00000000005463
 21
-70.000000000010459
 31
0.0
  0
LINE
  8
OUTLINE
  6
CONTINUOUS
 62
     3
 10
-466.00000000005463
 20
-70.000000000010459
 30
0.0
 11
-466.00000000005463
 21
-115.0000000000164
 31
0.0
  0
ARC
  8
OUTLINE
  6
CONTINUOUS
 62
     3
 10
-461.00000000005582
 20
-115.00000000001801
 30
0.0
 40
4.9999999999987859
 50
180.0
 51
270.0
  0
LINE
  8
OUTLINE
  6
CONTINUOUS
 62
     3
 10
-461.00000000005463
 20
-120.0000000000168
 30
0.0
 11
-447.70000000006172
 21
-120.0000000000168
 31
0.0
  0
LINE
  8
OUTLINE
  6
CONTINUOUS
 62
     3
 10
-447.70000000006172
 20
-120.0000000000168
 30
0.0
 11
-447.70000000006172
 21
-135.05000000001519
 31
0.0
  0
LINE
  8
OUTLINE
  6
CONTINUOUS
 62
     3
 10
-447.70000000006172
 20
-135.05000000001519
 30
0.0
 11
-448.30000000006021
 21
-135.05000000001519
 31
0.0
  0
LINE
  8
OUTLINE
  6
CONTINUOUS
 62
     3
 10
-448.30000000006021
 20
-135.05000000001519
 30
0.0
 11
-448.30000000006021
 21
-138.05000000001519
 31
0.0
  0
LINE
  8
OUTLINE
  6
CONTINUOUS
 62
     3
 10
-448.30000000006021
 20
-138.05000000001519
 30
0.0
 11
-455.70000000356498
 21
-138.05000000001519
 31
0.0
  0
LINE
  8
OUTLINE
  6
CONTINUOUS
 62
     3
 10
-455.70000000356498
 20
-138.05000000001519
 30
0.0
 11
-524.40000000006876
 21
-146.0500000000238
 31
0.0
  0
LINE
  8
OUTLINE
  6
CONTINUOUS
 62
     3
 10
-524.40000000006876
 20
-146.0500000000238
 30
0.0
 11
-531.90000000006876
 21
-146.0500000000238
 31
0.0
  0
ARC
  8
OUTLINE
  6
CONTINUOUS
 62
     3
 10
-531.90000000007672
 20
-147.15000000001444
 30
0.0
 40
1.0999999999906342
 50
90.0
 51
180.0
  0
LINE
  8
OUTLINE
  6
CONTINUOUS
 62
     3
 10
-533.0000000000673
 20
-147.15000000002061
 30
0.0
 11
-533.00000000006185
 21
-336.95000000004569
 31
0.0
  0
ARC
  8
OUTLINE
  6
CONTINUOUS
 62
     3
 10
-531.90000000009809
 20
-336.95000000005996
 30
0.0
 40
1.0999999999638028
 50
180.0
 51
270.0
  0
LINE
  8
OUTLINE
  6
CONTINUOUS
 62
     3
 10
-531.90000000006876
 20
-338.05000000002377
 30
0.0
 11
-524.40000000006876
 21
-338.05000000005163
 31
0.0
  0
LINE
  8
OUTLINE
  6
CONTINUOUS
 62
     3
 10
-524.40000000006876
 20
-338.05000000005163
 30
0.0
 11
-455.70000000005439
 21
-346.05000000005248
 31
0.0
  0
LINE
  8
OUTLINE
  6
CONTINUOUS
 62
     3
 10
-455.70000000005439
 20
-346.05000000005248
 30
0.0
 11
-448.30000000006021
 21
-346.05000000005248
 31
0.0
  0
LINE
  8
OUTLINE
  6
CONTINUOUS
 62
     3
 10
-448.30000000006021
 20
-346.05000000005248
 30
0.0
 11
-448.30000000006021
 21
-349.05000000005339
 31
0.0
  0
LINE
  8
OUTLINE
  6
CONTINUOUS
 62
     3
 10
-448.30000000006021
 20
-349.05000000005339
 30
0.0
 11
-447.70000000006172
 21
-349.05000000005339
 31
0.0
  0
LINE
  8
OUTLINE
  6
CONTINUOUS
 62
     3
 10
-447.70000000006172
 20
-349.05000000005339
 30
0.0
 11
-447.70000000006172
 21
-402.15000000006188
 31
0.0
  0
ARC
  8
OUTLINE
  6
CONTINUOUS
 62
     3
 10
-448.20000000006172
 20
-402.15000000006188
 30
0.0
 40
0.4999999999999902
 50
270.0
 51
0.0
  0
LINE
  8
OUTLINE
  6
CONTINUOUS
 62
     3
 10
-448.20000000006172
 20
-402.65000000006188
 30
0.0
 11
-449.70000000006172
 21
-402.65000000006057
 31
0.0
  0
LINE
  8
OUTLINE
  6
CONTINUOUS
 62
     3
 10
-449.70000000006172
 20
-402.65000000006057
 30
0.0
 11
-449.70000000006172
 21
-401.8500000000422
 31
0.0
  0
LINE
  8
OUTLINE
  6
CONTINUOUS
 62
     3
 10
-449.70000000006172
 20
-401.8500000000422
 30
0.0
 11
-452.92500000005288
 21
-401.85000000006539
 31
0.0
  0
ARC
  8
OUTLINE
  6
CONTINUOUS
 62
     3
 10
-452.92485294125271
 20
-402.92514705888425
 30
0.0
 40
1.0751470688762237
 50
90.007836926556365
 51
268.65976313260035
  0
LINE
  8
OUTLINE
  6
CONTINUOUS
 62
     3
 10
-452.95000000006172
 20
-404.00000000005639
 30
0.0
 11
-447.9330649380563
 21
-404.00000000005639
 31
0.0
  0
ARC
  8
OUTLINE
  6
CONTINUOUS
 62
     3
 10
-447.93306493805301
 20
-402.40000000005989
 30
0.0
 40
1.5999999999965253
 50
270.0
 51
355.00000000003342
  0
LINE
  8
OUTLINE
  6
CONTINUOUS
 62
     3
 10
-446.33915342110959
 20
-402.53944918845491
 30
0.0
 11
-446.21759236805428
 21
-401.15000000005779
 31
0.0
  0
LINE
  8
OUTLINE
  6
CONTINUOUS
 62
     3
 10
-446.21759236805428
 20
-401.15000000005779
 30
0.0
 11
-445.70000000006888
 21
-401.15000000005881
 31
0.0
  0
LINE
  8
OUTLINE
  6
CONTINUOUS
 62
     3
 10
-445.70000000006888
 20
-401.15000000005881
 30
0.0
 11
-445.70000000006888
 21
-403.15000000005779
 31
0.0
  0
LINE
  8
OUTLINE
  6
CONTINUOUS
 62
     3
 10
-445.70000000006888
 20
-403.15000000005779
 30
0.0
 11
-444.80000000006021
 21
-403.1500000000583
 31
0.0
  0
LINE
  8
OUTLINE
  6
CONTINUOUS
 62
     3
 10
-444.80000000006021
 20
-403.1500000000583
 30
0.0
 11
-444.80000000006021
 21
-404.00000000005639
 31
0.0
  0
LINE
  8
OUTLINE
  6
CONTINUOUS
 62
     3
 10
-444.80000000006021
 20
-404.00000000005639
 30
0.0
 11
444.80000000007482
 21
-404.00000000005639
 31
0.0
  0
LINE
  8
OUTLINE
  6
CONTINUOUS
 62
     3
 10
444.80000000007482
 20
-404.00000000005639
 30
0.0
 11
444.80000000007482
 21
-403.1500000000583
 31
0.0
  0
LINE
  8
OUTLINE
  6
CONTINUOUS
 62
     3
 10
444.80000000007482
 20
-403.1500000000583
 30
0.0
 11
445.70000000007622
 21
-403.1500000000583
 31
0.0
  0
LINE
  8
OUTLINE
  6
CONTINUOUS
 62
     3
 10
445.70000000007622
 20
-403.1500000000583
 30
0.0
 11
445.70000000007622
 21
-401.15000000006057
 31
0.0
  0
LINE
  8
OUTLINE
  6
CONTINUOUS
 62
     3
 10
445.70000000007622
 20
-401.15000000006057
 30
0.0
 11
446.21759237006972
 21
-401.15000000005779
 31
0.0
  0
LINE
  8
OUTLINE
  6
CONTINUOUS
 62
     3
 10
446.21759237006972
 20
-401.15000000005779
 30
0.0
 11
446.33915342313179
 21
-402.53944918845491
 31
0.0
  0
ARC
  8
OUTLINE
  6
CONTINUOUS
 62
     3
 10
447.93306494007908
 20
-402.40000000005762
 30
0.0
 40
1.6000000000005856
 50
185.00000000003558
 51
270.0
  0
LINE
  8
OUTLINE
  6
CONTINUOUS
 62
     3
 10
447.93306494007902
 20
-404.00000000005821
 30
0.0
 11
452.95000000007622
 21
-404.00000000005639
 31
0.0
  0
ARC
  8
OUTLINE
  6
CONTINUOUS
 62
     3
 10
452.92485294124236
 20
-402.92514705888453
 30
0.0
 40
1.0751470688765163
 50
271.34023686872342
 51
89.992163071723041
  0
LINE
  8
OUTLINE
  6
CONTINUOUS
 62
     3
 10
452.92500000007482
 20
-401.85000000006539
 30
0.0
 11
449.70000000006888
 21
-401.85000000004402
 31
0.0
  0
LINE
  8
OUTLINE
  6
CONTINUOUS
 62
     3
 10
449.70000000006888
 20
-401.85000000004402
 30
0.0
 11
449.70000000007258
 21
-402.65000000006103
 31
0.0
  0
LINE
  8
OUTLINE
  6
CONTINUOUS
 62
     3
 10
449.70000000007258
 20
-402.65000000006103
 30
0.0
 11
448.20000000007258
 21
-402.65000000006148
 31
0.0
  0
ARC
  8
OUTLINE
  6
CONTINUOUS
 62
     3
 10
448.20000000007235
 20
-402.15000000006171
 30
0.0
 40
0.4999999999997962
 50
180.0
 51
270.0
  0
LINE
  8
OUTLINE
  6
CONTINUOUS
 62
     3
 10
447.70000000007258
 20
-402.15000000006148
 30
0.0
 11
447.70000000007622
 21
-349.05000000005339
 31
0.0
  0
LINE
  8
OUTLINE
  6
CONTINUOUS
 62
     3
 10
447.70000000007622
 20
-349.05000000005339
 30
0.0
 11
448.30000000007482
 21
-349.04999999605161
 31
0.0
  0
LINE
  8
OUTLINE
  6
CONTINUOUS
 62
     3
 10
448.30000000007482
 20
-349.04999999605161
 30
0.0
 11
448.3000000000734
 21
-346.65000000005148
 31
0.0
  0
TEXT
  8
NOTE
  6
CONTINUOUS
 62
     4
 10
-691.80663710858869
 20
-277.09615046929463
 30
0.0
 40
64.065641025638456
  1
RA
 41
0.9
  0
TEXT
  8
NOTE
  6
CONTINUOUS
 62
     4
 10
587.47116458112771
 20
-277.09615046929463
 30
0.0
 40
64.065641025638456
  1
EA
 41
0.9
  0
TEXT
  8
ETC
  6
CONTINUOUS
 62
    61
 10
857.65479278279145
 20
788.79021878178492
 30
0.0
 40
64.065641025638456
  1
LGH-65RVX3-E_4
 41
0.9
  0
TEXT
  8
ETC
  6
CONTINUOUS
 62
    61
 10
853.4645054556122
 20
670.71392896181442
 30
0.0
 40
64.065641025638456
  1
LOSSNAY
 41
0.9
  0
TEXT
  8
ETC
  6
CONTINUOUS
 62
    61
 10
904.21790513826727
 20
562.45423425724823
 30
0.0
 40
40.041025641024042
  1
LGH-65RVX3-E
 50
0.0
 41
0.9
 51
0.0
  7
STANDARD
 71
     0
 11
0.0
 21
0.0
 31
0.0
210
0.0
220
0.0
230
1.0
  0
TEXT
  8
NOTE
  6
CONTINUOUS
 62
     4
 10
625.02552478934922
 20
379.50919782021668
 30
0.0
 40
69.0
  1
Ceiling suspension fixture
 50
0.0
 41
0.9
 51
0.0
  7
STANDARD
 71
     0
 11
0.0
 21
0.0
 31
0.0
210
0.0
220
0.0
230
1.0
  0
TEXT
  8
NOTE
  6
CONTINUOUS
 62
     4
 10
625.02552478934922
 20
265.65919782021672
 30
0.0
 40
69.0
  1
(4-13X20 oval)
 50
0.0
 41
0.9
 51
0.0
  7
STANDARD
 71
     0
 11
0.0
 21
0.0
 31
0.0
210
0.0
220
0.0
230
1.0
  0
LINE
  8
NOTE
  6
CONTINUOUS
 62
     4
 10
615.02552478934922
 20
228.3663406773594
 30
0.0
 11
1831.539810503635
 21
228.3663406773594
 31
0.0
  0
LINE
  8
NOTE
  6
CONTINUOUS
 62
     4
 10
472.1343223502513
 20
-43.427425126482007
 30
0.0
 11
447.50000000006457
 21
-70.000000000016371
 31
0.0
  0
LINE
  8
NOTE
  6
CONTINUOUS
 62
     4
 10
447.50000000006457
 20
-70.000000000016371
 30
0.0
 11
455.54760828371565
 21
-34.670301813145166
 31
0.0
  0
LINE
  8
NOTE
  6
CONTINUOUS
 62
     4
 10
447.50000000006457
 20
-70.000000000016371
 30
0.0
 11
480.18193063390243
 21
-8.0977269396108014
 31
0.0
  0
LINE
  8
NOTE
  6
CONTINUOUS
 62
     4
 10
480.18193063390231
 20
-8.0977269396107445
 30
0.0
 11
605.02552478934922
 21
228.3663406773594
 31
0.0
  0
LINE
  8
NOTE
  6
CONTINUOUS
 62
     4
 10
605.02552478934922
 20
228.3663406773594
 30
0.0
 11
615.02552478934922
 21
228.3663406773594
 31
0.0
  0
ENDSEC
  0
EOF
