  0
SECTION
  2
HEADER
  9
$ACADVER
  1
AC1009
  9
$DWGCODEPAGE
  3
dos932
  9
$INSBASE
 10
0.0
 20
0.0
 30
0.0
  9
$EXTMIN
 10
-1324.6627650161549
 20
-1164.1387830769399
 30
-0.0015258207003583
  9
$EXTMAX
 10
1829.965222463903
 20
1484.8938078909341
 30
0.0000000349246037
  9
$LIMMIN
 10
-2970.0
 20
-2100.0
  9
$LIMMAX
 10
2970.0
 20
2100.0
  9
$ORTHOMODE
 70
     1
  9
$REGENMODE
 70
     1
  9
$FILLMODE
 70
     1
  9
$QTEXTMODE
 70
     0
  9
$MIRRTEXT
 70
     0
  9
$LTSCALE
 40
20.0
  9
$ATTMODE
 70
     1
  9
$TEXTSIZE
 40
64.0
  9
$TRACEWID
 40
0.05
  9
$TEXTSTYLE
  7
STANDARD
  9
$CLAYER
  8
SIZE
  9
$CELTYPE
  6
CONTINUOUS
  9
$CECOLOR
 62
     7
  9
$DIMSCALE
 40
1.0
  9
$DIMASZ
 40
12.0
  9
$DIMEXO
 40
20.0
  9
$DIMDLI
 40
200.0
  9
$DIMRND
 40
0.0
  9
$DIMDLE
 40
0.0
  9
$DIMEXE
 40
20.0
  9
$DIMTP
 40
0.0
  9
$DIMTM
 40
0.0
  9
$DIMTXT
 40
64.0
  9
$DIMCEN
 40
0.09
  9
$DIMTSZ
 40
0.0
  9
$DIMTOL
 70
     0
  9
$DIMLIM
 70
     0
  9
$DIMTIH
 70
     0
  9
$DIMTOH
 70
     0
  9
$DIMSE1
 70
     0
  9
$DIMSE2
 70
     0
  9
$DIMTAD
 70
     1
  9
$DIMZIN
 70
     8
  9
$DIMBLK
  1

  9
$DIMASO
 70
     1
  9
$DIMSHO
 70
     0
  9
$DIMPOST
  1

  9
$DIMAPOST
  1

  9
$DIMALT
 70
     0
  9
$DIMALTD
 70
     2
  9
$DIMALTF
 40
25.399999999999999
  9
$DIMLFAC
 40
1.0
  9
$DIMTOFL
 70
     1
  9
$DIMTVP
 40
0.0
  9
$DIMTIX
 70
     1
  9
$DIMSOXD
 70
     0
  9
$DIMSAH
 70
     0
  9
$DIMBLK1
  1

  9
$DIMBLK2
  1

  9
$DIMSTYLE
  2
STANDARD
  9
$DIMCLRD
 70
     7
  9
$DIMCLRE
 70
     7
  9
$DIMCLRT
 70
     7
  9
$DIMTFAC
 40
1.0
  9
$DIMGAP
 40
25.0
  9
$LUNITS
 70
     2
  9
$LUPREC
 70
     4
  9
$SKETCHINC
 40
0.1
  9
$FILLETRAD
 40
3.0
  9
$AUNITS
 70
     1
  9
$AUPREC
 70
     3
  9
$MENU
  1
ACAD
  9
$ELEVATION
 40
0.0
  9
$PELEVATION
 40
0.0
  9
$THICKNESS
 40
0.0
  9
$LIMCHECK
 70
     0
  9
$CHAMFERA
 40
0.0
  9
$CHAMFERB
 40
0.0
  9
$SKPOLY
 70
     0
  9
$TDCREATE
 40
2453019.62301037
  9
$TDUPDATE
 40
2460045.428781817
  9
$TDINDWG
 40
1.7130831134
  9
$TDUSRTIMER
 40
1.7130831134
  9
$USRTIMER
 70
     1
  9
$ANGBASE
 50
0.0
  9
$ANGDIR
 70
     0
  9
$PDMODE
 70
     3
  9
$PDSIZE
 40
-2.0
  9
$PLINEWID
 40
0.0
  9
$SPLFRAME
 70
     0
  9
$SPLINETYPE
 70
     6
  9
$SPLINESEGS
 70
     8
  9
$SURFTAB1
 70
     6
  9
$SURFTAB2
 70
     6
  9
$SURFTYPE
 70
     6
  9
$SURFU
 70
     6
  9
$SURFV
 70
     6
  9
$UCSNAME
  2

  9
$UCSORG
 10
0.0
 20
0.0
 30
0.0
  9
$UCSXDIR
 10
1.0
 20
0.0
 30
0.0
  9
$UCSYDIR
 10
0.0
 20
1.0
 30
0.0
  9
$PUCSNAME
  2

  9
$PUCSORG
 10
0.0
 20
0.0
 30
0.0
  9
$PUCSXDIR
 10
1.0
 20
0.0
 30
0.0
  9
$PUCSYDIR
 10
0.0
 20
1.0
 30
0.0
  9
$USERI1
 70
     0
  9
$USERI2
 70
     0
  9
$USERI3
 70
     0
  9
$USERI4
 70
     0
  9
$USERI5
 70
     0
  9
$USERR1
 40
20.0
  9
$USERR2
 40
0.0
  9
$USERR3
 40
0.0
  9
$USERR4
 40
0.0
  9
$USERR5
 40
0.0
  9
$WORLDVIEW
 70
     1
  9
$SHADEDGE
 70
     3
  9
$SHADEDIF
 70
    70
  9
$TILEMODE
 70
     1
  9
$MAXACTVP
 70
    48
  9
$PINSBASE
 10
0.0
 20
0.0
 30
0.0
  9
$PLIMCHECK
 70
     0
  9
$PEXTMIN
 10
-100000000000000000000.0
 20
-100000000000000000000.0
 30
-100000000000000000000.0
  9
$PEXTMAX
 10
100000000000000000000.0
 20
100000000000000000000.0
 30
100000000000000000000.0
  9
$PLIMMIN
 10
0.0
 20
0.0
  9
$PLIMMAX
 10
12.0
 20
9.0
  9
$UNITMODE
 70
     0
  9
$VISRETAIN
 70
     0
  9
$PLINEGEN
 70
     0
  9
$PSLTSCALE
 70
     0
  9
$TREEDEPTH
 70
  3020
  9
$ATTDIA
 70
     0
  9
$ATTREQ
 70
     1
  9
$BLIPMODE
 70
     1
  9
$COORDS
 70
     1
  9
$DRAGMODE
 70
     2
  9
$OSMODE
 70
     0
  9
$HANDLING
 70
     0
  9
$HANDSEED
  5
F10F
  0
ENDSEC
  0
SECTION
  2
TABLES
  0
TABLE
  2
LTYPE
 70
     3
  0
LTYPE
  2
CONTINUOUS
 70
     0
  3
実線
 72
    65
 73
     0
 40
0.0
  0
LTYPE
  2
DASHDOT
 70
     0
  3
____ _ ____ _ ____ _ ____ _ ____ _ ____ _ ____
 72
    65
 73
     4
 40
5.5
 49
4.0
 49
-0.6
 49
0.3
 49
-0.6
  0
LTYPE
  2
DASHED
 70
     0
  3
-- -- -- -- -- -- -- -- -- -- -- -- -- -- --
 72
    65
 73
     2
 40
0.75
 49
0.5
 49
-0.25
  0
ENDTAB
  0
TABLE
  2
LAYER
 70
    12
  0
LAYER
  2
0
 70
     0
 62
     7
  6
CONTINUOUS
  0
LAYER
  2
BASIS
 70
     0
 62
     6
  6
DASHDOT
  0
LAYER
  2
OUTLINE
 70
     0
 62
     3
  6
CONTINUOUS
  0
LAYER
  2
DETAIL
 70
     0
 62
     5
  6
CONTINUOUS
  0
LAYER
  2
SIZE
 70
     0
 62
    30
  6
CONTINUOUS
  0
LAYER
  2
ARRANGE
 70
     0
 62
     1
  6
CONTINUOUS
  0
LAYER
  2
DEFPOINTS
 70
     0
 62
     7
  6
CONTINUOUS
  0
LAYER
  2
ETC
 70
     0
 62
    61
  6
CONTINUOUS
  0
LAYER
  2
FIX
 70
     0
 62
    11
  6
CONTINUOUS
  0
LAYER
  2
NOTE
 70
     0
 62
     4
  6
CONTINUOUS
  0
LAYER
  2
SERVICESPACE
 70
     0
 62
     2
  6
DASHDOT
  0
LAYER
  2
SYMBOLLINE
 70
    64
 62
    15
  6
CONTINUOUS
  0
ENDTAB
  0
TABLE
  2
STYLE
 70
     1
  0
STYLE
  2
STANDARD
 70
     0
 40
64.0
 41
0.9
 50
0.0
 71
     0
 42
64.0
  3
SIMPLEX.shx
  4
BIGFONT.shx
  0
ENDTAB
  0
TABLE
  2
APPID
 70
    22
  0
APPID
  2
ACAD
 70
     0
  0
APPID
  2
AUTOCAD_POSTSCRIPT_FIGURE
 70
     0
  0
APPID
  2
ACAD_EXEMPT_FROM_CAD_STANDARDS
 70
     0
  0
APPID
  2
ACAD_PSEXT
 70
     0
  0
APPID
  2
ACAUTHENVIRON
 70
     0
  0
APPID
  2
GENIUS_GENOENT_13
 70
     0
  0
APPID
  2
GENIUS_GENCFG_13
 70
     0
  0
APPID
  2
GENIUS_GENCFG0_13
 70
     0
  0
APPID
  2
GENIUS_GENCFG1_13
 70
     0
  0
APPID
  2
GENIUS_GENCFG2_13
 70
     0
  0
APPID
  2
GENIUS_GENCFG3_13
 70
     0
  0
APPID
  2
GENIUS_GENCFG4_13
 70
     0
  0
APPID
  2
GENIUS_GEVCFG0_13
 70
     0
  0
APPID
  2
CONTENTBLOCKICON
 70
     0
  0
APPID
  2
CONTENTBLOCKDESCRIPTION
 70
     0
  0
APPID
  2
ACAD_NAV_VCDISPLAY
 70
     0
  0
APPID
  2
ACAD_MLEADERVER
 70
     0
  0
APPID
  2
ACDBDYNAMICBLOCKTRUENAME
 70
     0
  0
APPID
  2
ACDBDYNAMICBLOCKGUID
 70
     0
  0
APPID
  2
GENIUS_GENODEF_13
 70
     0
  0
APPID
  2
GENIUS_GENOBJ-N-CEN_13
 70
     0
  0
APPID
  2
GENIUS_GENCEN_19
 70
     0
  0
ENDTAB
  0
TABLE
  2
DIMSTYLE
 70
     1
  0
DIMSTYLE
  2
STANDARD
 70
     0
  3

  4

  5
_ORIGIN
  6

  7

 40
1.0
 41
12.0
 42
20.0
 43
200.0
 44
20.0
 45
0.0
 46
0.0
 47
0.0
 48
0.0
140
64.0
141
0.09
142
0.0
143
25.399999999999999
144
1.0
145
0.0
146
1.0
147
25.0
 71
     0
 72
     0
 73
     0
 74
     0
 75
     0
 76
     0
 77
     1
 78
     8
170
     0
171
     2
172
     1
173
     0
174
     1
175
     0
176
     7
177
     7
178
     7
  0
ENDTAB
  0
TABLE
  2
VIEW
 70
     1
  0
VIEW
  2
ALL
 70
     0
 40
4282.6198079999986
 10
0.0
 20
41.309904000000003
 41
5940.0
 11
0.0
 21
0.0
 31
1.0
 12
0.0
 22
0.0
 32
0.0
 42
50.0
 43
0.0
 44
0.0
 50
0.0
 71
     0
  0
ENDTAB
  0
TABLE
  2
UCS
 70
     0
  0
ENDTAB
  0
TABLE
  2
VPORT
 70
     1
  0
VPORT
  2
*ACTIVE
 70
     0
 10
0.0
 20
0.0
 11
1.0
 21
1.0
 12
252.65122872387391
 22
160.37751240699711
 13
0.0
 23
0.0
 14
1.0
 24
1.0
 15
0.0
 25
0.0
 16
0.0
 26
0.0
 36
1.0
 17
0.0
 27
0.0
 37
0.0
 40
2666.9314598257652
 41
1.781285231116122
 42
50.0
 43
0.0
 44
0.0
 50
0.0
 51
0.0
 71
     0
 72
  1000
 73
     1
 74
     3
 75
     0
 76
     0
 77
     0
 78
     0
  0
ENDTAB
  0
ENDSEC
  0
SECTION
  2
BLOCKS
  0
BLOCK
  8
0
  2
_ORIGIN
 70
     0
 10
0.0
 20
0.0
 30
0.0
  3
_ORIGIN
  1
_ORIGIN
  0
CIRCLE
  8
0
  6
CONTINUOUS
 62
     7
 10
0.0
 20
0.0
 30
0.0
 40
0.5
  0
LINE
  8
0
  6
CONTINUOUS
 62
     7
 10
0.0
 20
0.0
 30
0.0
 11
-1.0
 21
0.0
 31
0.0
  0
ENDBLK
  8
0
  0
ENDSEC
  0
SECTION
  2
ENTITIES
  0
LINE
  8
DETAIL
  6
CONTINUOUS
 62
     5
 10
502.0
 20
558.04708539199464
 30
0.0
 11
497.20000000000618
 21
562.84708539198891
 31
0.0
  0
LINE
  8
DETAIL
  6
CONTINUOUS
 62
     5
 10
488.04708539201238
 20
571.99999999998863
 30
0.0
 11
492.84708539200068
 21
567.19999999999982
 31
0.0
  0
LINE
  8
DETAIL
  6
CONTINUOUS
 62
     5
 10
-491.19999999999709
 20
570.69999999999982
 30
0.0
 11
-494.199999999998
 21
567.69999999999982
 31
0.0
  0
LINE
  8
DETAIL
  6
CONTINUOUS
 62
     5
 10
-497.70000000000528
 20
564.19999999999982
 30
0.0
 11
-500.699999999998
 21
561.19999999998527
 31
0.0
  0
LINE
  8
DETAIL
  6
CONTINUOUS
 62
     5
 10
-502.0
 20
558.047085391986
 30
0.0
 11
-497.19999999999709
 21
562.84708539198891
 31
0.0
  0
LINE
  8
DETAIL
  6
CONTINUOUS
 62
     5
 10
-488.04708539201368
 20
571.99999999998818
 30
0.0
 11
-492.84708539200068
 21
567.19999999999982
 31
0.0
  0
LINE
  8
DETAIL
  6
CONTINUOUS
 62
     5
 10
-465.99983178000321
 20
650.99999999998545
 30
0.0
 11
-224.00016821999819
 21
650.99999999998545
 31
0.0
  0
LINE
  8
DETAIL
  6
CONTINUOUS
 62
     5
 10
224.00016821999819
 20
650.99999999998545
 30
0.0
 11
465.99983178000178
 21
650.99999999998545
 31
0.0
  0
LINE
  8
DETAIL
  6
CONTINUOUS
 62
     5
 10
-465.99999999999682
 20
642.99999999998545
 30
0.0
 11
-223.9999999999973
 21
642.99999999998545
 31
0.0
  0
LINE
  8
DETAIL
  6
CONTINUOUS
 62
     5
 10
224.00000000000361
 20
642.99999999998545
 30
0.0
 11
466.00000000000449
 21
642.99999999998545
 31
0.0
  0
LINE
  8
DETAIL
  6
CONTINUOUS
 62
     5
 10
495.70000000000442
 20
584.0
 30
0.0
 11
545.50000000000364
 21
584.0
 31
0.0
  0
LINE
  8
DETAIL
  6
DASHED
 62
     5
 10
503.70000000000442
 20
535.99999999999727
 30
0.0
 11
572.69999999999709
 21
527.99999999999727
 31
0.0
  0
LINE
  8
DETAIL
  6
CONTINUOUS
 62
     5
 10
-611.89999999999964
 20
-289.10000000000849
 30
0.0
 11
-611.89999999999964
 21
-300.50000000000267
 31
0.0
  0
LINE
  8
DETAIL
  6
CONTINUOUS
 62
     5
 10
-611.30000000000109
 20
-300.50000000000267
 30
0.0
 11
-611.30000000000109
 21
-458.29999999999109
 31
0.0
  0
LINE
  8
DETAIL
  6
CONTINUOUS
 62
     5
 10
-610.70000000000164
 20
-460.69999999999982
 30
0.0
 11
-610.70000000000164
 21
-458.29999999999109
 31
0.0
  0
LINE
  8
DETAIL
  6
DASHED
 62
     5
 10
-503.69999999999709
 20
535.99999999999682
 30
0.0
 11
-572.70000000000528
 21
527.99999999999682
 31
0.0
  0
LINE
  8
DETAIL
  6
CONTINUOUS
 62
     5
 10
-474.00000000046879
 20
573.69999999999982
 30
0.0
 11
-215.9999999999973
 21
573.69999999999982
 31
0.0
  0
LINE
  8
DETAIL
  6
CONTINUOUS
 62
     5
 10
216.00000000000449
 20
573.69999999999982
 30
0.0
 11
474.00000000117421
 21
573.69999999999982
 31
0.0
  0
LINE
  8
DETAIL
  6
CONTINUOUS
 62
     5
 10
525.50000000000455
 20
572.0
 30
0.0
 11
545.50000000000364
 21
572.0
 31
0.0
  0
LINE
  8
DETAIL
  6
CONTINUOUS
 62
     5
 10
488.04708539201329
 20
571.99999999998818
 30
0.0
 11
-488.04708539201329
 21
571.99999999998818
 31
0.0
  0
LINE
  8
DETAIL
  6
CONTINUOUS
 62
     5
 10
-489.34708539199443
 20
570.69999999999982
 30
0.0
 11
-491.19999999999709
 21
570.69999999999982
 31
0.0
  0
LINE
  8
DETAIL
  6
CONTINUOUS
 62
     5
 10
491.14708539200359
 20
568.89999999999691
 30
0.0
 11
492.5
 21
568.89999999999691
 31
0.0
  0
LINE
  8
DETAIL
  6
CONTINUOUS
 62
     5
 10
-494.69999999999709
 20
566.19999999998527
 30
0.0
 11
-494.199999999998
 21
566.19999999998527
 31
0.0
  0
LINE
  8
DETAIL
  6
CONTINUOUS
 62
     5
 10
-494.69999999999709
 20
565.69999999998527
 30
0.0
 11
-494.199999999998
 21
565.69999999998527
 31
0.0
  0
LINE
  8
DETAIL
  6
CONTINUOUS
 62
     5
 10
-494.199999999998
 20
565.19999999999982
 30
0.0
 11
-492.84708539200068
 21
565.19999999999982
 31
0.0
  0
LINE
  8
DETAIL
  6
CONTINUOUS
 62
     5
 10
492.84708539200068
 20
565.19999999999982
 30
0.0
 11
494.59999999999849
 21
565.19999999999982
 31
0.0
  0
LINE
  8
DETAIL
  6
CONTINUOUS
 62
     5
 10
-497.70000000000528
 20
564.19999999999982
 30
0.0
 11
-495.20000000000528
 21
564.19999999999982
 31
0.0
  0
LINE
  8
DETAIL
  6
CONTINUOUS
 62
     5
 10
-497.19999999999709
 20
562.84708539198891
 30
0.0
 11
-492.84708539200068
 21
562.84708539198891
 31
0.0
  0
LINE
  8
DETAIL
  6
CONTINUOUS
 62
     5
 10
492.84708539200068
 20
562.84708539198891
 30
0.0
 11
497.20000000000618
 21
562.84708539198891
 31
0.0
  0
LINE
  8
DETAIL
  6
CONTINUOUS
 62
     5
 10
525.50000000000455
 20
559.0
 30
0.0
 11
545.50000000000364
 21
559.0
 31
0.0
  0
LINE
  8
DETAIL
  6
CONTINUOUS
 62
     5
 10
502.0
 20
540.5
 30
0.0
 11
545.50000000000364
 21
540.5
 31
0.0
  0
LINE
  8
DETAIL
  6
DASHED
 62
     5
 10
-502.0
 20
535.99999999999682
 30
0.0
 11
-503.69999999999709
 21
535.99999999999682
 31
0.0
  0
LINE
  8
DETAIL
  6
DASHED
 62
     5
 10
502.0
 20
535.99999999999727
 30
0.0
 11
503.70000000000442
 21
535.99999999999727
 31
0.0
  0
LINE
  8
DETAIL
  6
DASHED
 62
     5
 10
-572.70000000000528
 20
527.99999999999682
 30
0.0
 11
-580.699999999998
 21
527.99999999999682
 31
0.0
  0
LINE
  8
DETAIL
  6
DASHED
 62
     5
 10
572.69999999999709
 20
527.99999999999727
 30
0.0
 11
580.70000000000437
 21
527.99999999999727
 31
0.0
  0
LINE
  8
DETAIL
  6
DASHED
 62
     5
 10
-580.699999999998
 20
527.99999999999682
 30
0.0
 11
-580.699999999998
 21
285.99999999999642
 31
0.0
  0
LINE
  8
DETAIL
  6
DASHED
 62
     5
 10
-572.70000000000528
 20
527.99999999999682
 30
0.0
 11
-572.70000000000528
 21
285.99999999999642
 31
0.0
  0
LINE
  8
DETAIL
  6
CONTINUOUS
 62
     5
 10
-565.699999999998
 20
-462.92449980000953
 30
0.0
 11
-565.699999999998
 21
-462.80000000000558
 31
0.0
  0
LINE
  8
DETAIL
  6
CONTINUOUS
 62
     5
 10
-561.40000000000236
 20
-469.69999999999982
 30
0.0
 11
-561.40000000000236
 21
-473.30000000000558
 31
0.0
  0
LINE
  8
DETAIL
  6
CONTINUOUS
 62
     5
 10
-560.20000000000437
 20
-472.35000000000849
 30
0.0
 11
-560.20000000000437
 21
-470.65000000001152
 31
0.0
  0
LINE
  8
DETAIL
  6
CONTINUOUS
 62
     5
 10
-559.699999999998
 20
-490.8994310020089
 30
0.0
 11
-559.699999999998
 21
-470.90000000001152
 31
0.0
  0
LINE
  8
DETAIL
  6
CONTINUOUS
 62
     5
 10
-559.40000000000236
 20
-465.39999999999691
 30
0.0
 11
-559.40000000000236
 21
-469.69999999999982
 31
0.0
  0
LINE
  8
DETAIL
  6
CONTINUOUS
 62
     5
 10
-558.19999999999709
 20
-470.65000000001152
 30
0.0
 11
-558.19999999999709
 21
-466.64999999999691
 31
0.0
  0
LINE
  8
DETAIL
  6
CONTINUOUS
 62
     5
 10
-553.199999999998
 20
-466.64999999999691
 30
0.0
 11
-553.199999999998
 21
-470.65000000001152
 31
0.0
  0
LINE
  8
DETAIL
  6
CONTINUOUS
 62
     5
 10
-552.00000000000091
 20
-469.45000000001443
 30
0.0
 11
-552.00000000000091
 21
-465.85000000000849
 31
0.0
  0
LINE
  8
DETAIL
  6
CONTINUOUS
 62
     5
 10
-551.699999999998
 20
-490.8994310020089
 30
0.0
 11
-551.699999999998
 21
-470.90000000001152
 31
0.0
  0
LINE
  8
DETAIL
  6
CONTINUOUS
 62
     5
 10
-551.199999999998
 20
-470.65000000001152
 30
0.0
 11
-551.199999999998
 21
-472.35000000000849
 31
0.0
  0
LINE
  8
DETAIL
  6
CONTINUOUS
 62
     5
 10
-550.0
 20
-473.30000000000558
 30
0.0
 11
-550.0
 21
-469.45000000001443
 31
0.0
  0
LINE
  8
DETAIL
  6
CONTINUOUS
 62
     5
 10
-545.699999999998
 20
-462.80000000000558
 30
0.0
 11
-545.699999999998
 21
-462.92449980000953
 31
0.0
  0
LINE
  8
DETAIL
  6
CONTINUOUS
 62
     5
 10
-541.29999999999654
 20
211.0000000000027
 30
0.0
 11
-541.29999999999654
 21
218.0000000000027
 31
0.0
  0
LINE
  8
DETAIL
  6
CONTINUOUS
 62
     5
 10
-523.79999999999654
 20
225.0000000000027
 30
0.0
 11
-523.71460486599972
 21
225.97607083599999
 31
0.0
  0
LINE
  8
DETAIL
  6
CONTINUOUS
 62
     5
 10
-524.12078172199926
 20
207.9496420660025
 30
0.0
 11
-533.29416298800061
 21
188.27726245600479
 31
0.0
  0
LINE
  8
DETAIL
  6
CONTINUOUS
 62
     5
 10
-522.12690459000532
 20
207.019881889998
 30
0.0
 11
-531.3002858560003
 21
187.34750228199391
 31
0.0
  0
LINE
  8
DETAIL
  6
CONTINUOUS
 62
     5
 10
-515.80000000000382
 20
225.0000000000027
 30
0.0
 11
-515.94486677600162
 21
226.65583483598579
 31
0.0
  0
LINE
  8
DETAIL
  6
CONTINUOUS
 62
     5
 10
-534.29999999999654
 20
220.9999999999882
 30
0.0
 11
-534.29999999999654
 21
208.0000000000027
 31
0.0
  0
LINE
  8
DETAIL
  6
CONTINUOUS
 62
     5
 10
-533.30000000000382
 20
220.9999999999882
 30
0.0
 11
-533.30000000000382
 21
208.0000000000027
 31
0.0
  0
LINE
  8
DETAIL
  6
CONTINUOUS
 62
     5
 10
-531.79999999999654
 20
211.89999999999691
 30
0.0
 11
-531.79999999999654
 21
217.099999999994
 31
0.0
  0
LINE
  8
DETAIL
  6
CONTINUOUS
 62
     5
 10
-528.30000000000291
 20
222.0000000000027
 30
0.0
 11
-528.30000000000291
 21
223.0000000000027
 31
0.0
  0
LINE
  8
DETAIL
  6
CONTINUOUS
 62
     5
 10
-522.40000000000236
 20
220.9999999999882
 30
0.0
 11
-522.40000000000236
 21
220.5000000000027
 31
0.0
  0
LINE
  8
DETAIL
  6
CONTINUOUS
 62
     5
 10
-522.30000000000382
 20
224.19999999999979
 30
0.0
 11
-522.30000000000382
 21
225.0000000000027
 31
0.0
  0
LINE
  8
DETAIL
  6
CONTINUOUS
 62
     5
 10
-521.29999999999654
 20
220.5000000000027
 30
0.0
 11
-521.29999999999654
 21
216.9999999999882
 31
0.0
  0
LINE
  8
DETAIL
  6
CONTINUOUS
 62
     5
 10
-518.30000000000382
 20
220.5000000000027
 30
0.0
 11
-518.30000000000382
 21
216.9999999999882
 31
0.0
  0
LINE
  8
DETAIL
  6
CONTINUOUS
 62
     5
 10
-517.30000000000291
 20
224.19999999999979
 30
0.0
 11
-517.30000000000291
 21
225.0000000000027
 31
0.0
  0
LINE
  8
DETAIL
  6
CONTINUOUS
 62
     5
 10
-517.19999999999709
 20
220.9999999999882
 30
0.0
 11
-517.19999999999709
 21
220.5000000000027
 31
0.0
  0
LINE
  8
DETAIL
  6
CONTINUOUS
 62
     5
 10
-510.20000000000442
 20
-224.19999999999979
 30
0.0
 11
-510.20000000000442
 21
-223.60000000000849
 31
0.0
  0
LINE
  8
DETAIL
  6
CONTINUOUS
 62
     5
 10
-510.20000000000442
 20
224.19999999999979
 30
0.0
 11
-510.20000000000442
 21
223.59999999997939
 31
0.0
  0
LINE
  8
DETAIL
  6
CONTINUOUS
 62
     5
 10
-510.20000000000442
 20
223.0000000000027
 30
0.0
 11
-510.20000000000442
 21
-223.00000000001731
 31
0.0
  0
LINE
  8
DETAIL
  6
CONTINUOUS
 62
     5
 10
-508.79999999999558
 20
224.19999999999979
 30
0.0
 11
-508.79999999999558
 21
225.0000000000027
 31
0.0
  0
LINE
  8
DETAIL
  6
CONTINUOUS
 62
     5
 10
-508.51163546799938
 20
-223.60000000000849
 30
0.0
 11
-508.51163546799938
 21
-223.00000000001731
 31
0.0
  0
LINE
  8
DETAIL
  6
CONTINUOUS
 62
     5
 10
-508.51163546799938
 20
223.59999999997939
 30
0.0
 11
-508.51163546799938
 21
223.0000000000027
 31
0.0
  0
LINE
  8
DETAIL
  6
DASHED
 62
     5
 10
-503.69999999999709
 20
535.99999999999682
 30
0.0
 11
-503.69999999999709
 21
277.99999999999642
 31
0.0
  0
LINE
  8
DETAIL
  6
CONTINUOUS
 62
     5
 10
-502.0
 20
558.04708539198555
 30
0.0
 11
-502.0
 21
-558.04708539199601
 31
0.0
  0
LINE
  8
DETAIL
  6
CONTINUOUS
 62
     5
 10
-500.699999999998
 20
561.19999999998527
 30
0.0
 11
-500.699999999998
 21
559.34708539200346
 31
0.0
  0
LINE
  8
DETAIL
  6
CONTINUOUS
 62
     5
 10
-500.699999999998
 20
-559.34708539200346
 30
0.0
 11
-500.699999999998
 21
-561.19999999999982
 31
0.0
  0
LINE
  8
DETAIL
  6
CONTINUOUS
 62
     5
 10
-495.70000000000442
 20
584.0
 30
0.0
 11
-495.69999999999709
 21
564.19999999999982
 31
0.0
  0
LINE
  8
DETAIL
  6
CONTINUOUS
 62
     5
 10
-495.20000000000528
 20
565.19999999999982
 30
0.0
 11
-495.20000000000528
 21
-565.19999999999982
 31
0.0
  0
LINE
  8
DETAIL
  6
CONTINUOUS
 62
     5
 10
-494.69999999999709
 20
562.84708539198891
 30
0.0
 11
-494.69999999999709
 21
564.69999999999982
 31
0.0
  0
LINE
  8
DETAIL
  6
CONTINUOUS
 62
     5
 10
-494.69999999999709
 20
-562.84708539201802
 30
0.0
 11
-494.69999999999709
 21
-564.69999999999982
 31
0.0
  0
LINE
  8
DETAIL
  6
CONTINUOUS
 62
     5
 10
-494.199999999998
 20
-567.69999999999982
 30
0.0
 11
-494.199999999998
 21
-565.19999999999982
 31
0.0
  0
LINE
  8
DETAIL
  6
CONTINUOUS
 62
     5
 10
-494.199999999998
 20
567.69999999999982
 30
0.0
 11
-494.199999999998
 21
565.19999999999982
 31
0.0
  0
LINE
  8
DETAIL
  6
CONTINUOUS
 62
     5
 10
-492.84708539200068
 20
567.19999999999982
 30
0.0
 11
-492.84708539200068
 21
562.84708539198891
 31
0.0
  0
LINE
  8
DETAIL
  6
CONTINUOUS
 62
     5
 10
-492.84708539200068
 20
-562.84708539201802
 30
0.0
 11
-492.84708539200068
 21
-567.19999999999982
 31
0.0
  0
LINE
  8
DETAIL
  6
CONTINUOUS
 62
     5
 10
-474.00000000046879
 20
573.69999999999982
 30
0.0
 11
-465.99999999999682
 21
642.99999999998545
 31
0.0
  0
LINE
  8
DETAIL
  6
CONTINUOUS
 62
     5
 10
-465.99999999999682
 20
642.99999999998545
 30
0.0
 11
-465.99999999999682
 21
650.99999999998545
 31
0.0
  0
LINE
  8
DETAIL
  6
CONTINUOUS
 62
     5
 10
-502.0
 20
230.08425623599311
 30
0.0
 11
-529.9710574139981
 21
227.6371058059913
 31
0.0
  0
LINE
  8
DETAIL
  6
CONTINUOUS
 62
     5
 10
-502.0
 20
227.87585259399481
 30
0.0
 11
-529.77931477999755
 21
225.44547747000161
 31
0.0
  0
LINE
  8
DETAIL
  6
DASHED
 62
     5
 10
-572.70000000000528
 20
285.99999999999642
 30
0.0
 11
-580.699999999998
 21
285.99999999999642
 31
0.0
  0
LINE
  8
DETAIL
  6
DASHED
 62
     5
 10
572.69999999999618
 20
285.99999999999733
 30
0.0
 11
580.70000000000346
 21
285.99999999999733
 31
0.0
  0
LINE
  8
DETAIL
  6
DASHED
 62
     5
 10
-502.0
 20
277.99999999999642
 30
0.0
 11
-503.69999999999709
 21
277.99999999999642
 31
0.0
  0
LINE
  8
DETAIL
  6
DASHED
 62
     5
 10
502.0
 20
277.99999999999733
 30
0.0
 11
503.70000000000351
 21
277.99999999999733
 31
0.0
  0
LINE
  8
DETAIL
  6
CONTINUOUS
 62
     5
 10
-523.79862218599737
 20
225.0000000000027
 30
0.0
 11
-515.80137781400208
 21
225.0000000000027
 31
0.0
  0
LINE
  8
DETAIL
  6
CONTINUOUS
 62
     5
 10
-502.0
 20
224.19999999999979
 30
0.0
 11
-530.09999999999854
 21
224.19999999999979
 31
0.0
  0
LINE
  8
DETAIL
  6
CONTINUOUS
 62
     5
 10
-502.0
 20
223.59999999997939
 30
0.0
 11
-510.20000000000442
 21
223.59999999997939
 31
0.0
  0
LINE
  8
DETAIL
  6
CONTINUOUS
 62
     5
 10
-508.51163546799938
 20
223.099999999994
 30
0.0
 11
-506.29999999999649
 21
223.099999999994
 31
0.0
  0
LINE
  8
DETAIL
  6
CONTINUOUS
 62
     5
 10
-530.99065351799891
 20
223.0000000000027
 30
0.0
 11
-502.0
 21
223.0000000000027
 31
0.0
  0
LINE
  8
DETAIL
  6
CONTINUOUS
 62
     5
 10
-530.29662449600437
 20
222.0000000000027
 30
0.0
 11
-510.20000000000442
 21
222.0000000000027
 31
0.0
  0
LINE
  8
DETAIL
  6
CONTINUOUS
 62
     5
 10
-538.30000000000382
 20
220.9999999999882
 30
0.0
 11
-533.30000000000382
 21
220.9999999999882
 31
0.0
  0
LINE
  8
DETAIL
  6
CONTINUOUS
 62
     5
 10
-522.40000000000236
 20
220.5000000000027
 30
0.0
 11
-517.19999999999709
 21
220.5000000000027
 31
0.0
  0
LINE
  8
DETAIL
  6
CONTINUOUS
 62
     5
 10
-532.30000000000382
 20
217.099999999994
 30
0.0
 11
-531.79999999999654
 21
217.099999999994
 31
0.0
  0
LINE
  8
DETAIL
  6
CONTINUOUS
 62
     5
 10
-518.30000000000382
 20
216.9999999999882
 30
0.0
 11
-521.29999999999654
 21
216.9999999999882
 31
0.0
  0
LINE
  8
DETAIL
  6
CONTINUOUS
 62
     5
 10
-531.79999999999654
 20
215.9999999999882
 30
0.0
 11
-528.78108336199512
 21
215.9999999999882
 31
0.0
  0
LINE
  8
DETAIL
  6
CONTINUOUS
 62
     5
 10
-531.79999999999654
 20
212.9999999999882
 30
0.0
 11
-526.68046074800077
 21
212.9999999999882
 31
0.0
  0
LINE
  8
DETAIL
  6
CONTINUOUS
 62
     5
 10
-532.30000000000382
 20
211.89999999999691
 30
0.0
 11
-531.79999999999654
 21
211.89999999999691
 31
0.0
  0
LINE
  8
DETAIL
  6
CONTINUOUS
 62
     5
 10
-538.30000000000382
 20
208.0000000000027
 30
0.0
 11
-533.30000000000382
 21
208.0000000000027
 31
0.0
  0
LINE
  8
DETAIL
  6
DASHED
 62
     5
 10
-503.69999999999709
 20
277.99999999999642
 30
0.0
 11
-572.70000000000528
 21
285.99999999999642
 31
0.0
  0
LINE
  8
DETAIL
  6
CONTINUOUS
 62
     5
 10
-223.9999999999973
 20
642.99999999998545
 30
0.0
 11
-223.9999999999973
 21
650.99999999998545
 31
0.0
  0
LINE
  8
DETAIL
  6
CONTINUOUS
 62
     5
 10
-215.9999999999973
 20
571.99999999998818
 30
0.0
 11
-215.9999999999973
 21
573.69999999999982
 31
0.0
  0
LINE
  8
DETAIL
  6
CONTINUOUS
 62
     5
 10
-514.98032203599814
 20
-223.00000000001731
 30
0.0
 11
-510.97920730600163
 21
-219.1361684200119
 31
0.0
  0
LINE
  8
DETAIL
  6
CONTINUOUS
 62
     5
 10
-514.53359004399681
 20
-224.2367922400035
 30
0.0
 11
-514.49549056399701
 21
-224.19999999999979
 31
0.0
  0
LINE
  8
DETAIL
  6
CONTINUOUS
 62
     5
 10
-510.20000000000442
 20
-220.05189297801101
 30
0.0
 11
-513.25285418800195
 21
-223.00000000001731
 31
0.0
  0
LINE
  8
DETAIL
  6
DASHED
 62
     5
 10
503.70000000000351
 20
277.99999999999733
 30
0.0
 11
572.69999999999618
 21
285.99999999999733
 31
0.0
  0
LINE
  8
DETAIL
  6
CONTINUOUS
 62
     5
 10
-215.9999999999973
 20
573.69999999999982
 30
0.0
 11
-223.9999999999973
 21
642.99999999998545
 31
0.0
  0
LINE
  8
BASIS
  6
DASHDOT
 62
     6
 10
-568.77754512835418
 20
0.0
 30
0.0
 11
568.77754512835418
 21
0.0
 31
0.0
  0
LINE
  8
DETAIL
  6
CONTINUOUS
 62
     5
 10
216.00000000000449
 20
573.69999999999982
 30
0.0
 11
224.00000000000361
 21
642.99999999998545
 31
0.0
  0
LINE
  8
DETAIL
  6
CONTINUOUS
 62
     5
 10
-552.00000000000091
 20
-465.85000000000849
 30
0.0
 11
-546.83256777199858
 21
-462.93819294999679
 31
0.0
  0
LINE
  8
DETAIL
  6
CONTINUOUS
 62
     5
 10
-530.09999999999854
 20
-223.00000000001731
 30
0.0
 11
-502.0
 21
-223.00000000001731
 31
0.0
  0
LINE
  8
DETAIL
  6
CONTINUOUS
 62
     5
 10
-510.20000000000442
 20
-223.60000000000849
 30
0.0
 11
-502.0
 21
-223.60000000000849
 31
0.0
  0
LINE
  8
DETAIL
  6
CONTINUOUS
 62
     5
 10
-530.09999999999854
 20
-224.19999999999979
 30
0.0
 11
-502.0
 21
-224.19999999999979
 31
0.0
  0
LINE
  8
DETAIL
  6
CONTINUOUS
 62
     5
 10
-502.0
 20
-226.30000000000561
 30
0.0
 11
-513.699999999998
 21
-226.30000000000561
 31
0.0
  0
LINE
  8
DETAIL
  6
CONTINUOUS
 62
     5
 10
-502.0
 20
-227.5000000000027
 30
0.0
 11
-513.699999999998
 21
-227.5000000000027
 31
0.0
  0
LINE
  8
DETAIL
  6
CONTINUOUS
 62
     5
 10
216.00000000000449
 20
571.99999999998818
 30
0.0
 11
216.00000000000449
 21
573.69999999999982
 31
0.0
  0
LINE
  8
DETAIL
  6
CONTINUOUS
 62
     5
 10
224.00000000000361
 20
642.99999999998545
 30
0.0
 11
224.00000000000361
 21
650.99999999998545
 31
0.0
  0
LINE
  8
DETAIL
  6
CONTINUOUS
 62
     5
 10
-610.70000000000164
 20
-287.89999999999691
 30
0.0
 11
-502.0
 21
-287.89999999999691
 31
0.0
  0
LINE
  8
DETAIL
  6
CONTINUOUS
 62
     5
 10
-611.30000000000109
 20
-300.50000000000267
 30
0.0
 11
-611.89999999999964
 21
-300.50000000000267
 31
0.0
  0
LINE
  8
DETAIL
  6
CONTINUOUS
 62
     5
 10
-530.95050886199897
 20
222.93384365599471
 30
0.0
 11
-522.45809641199685
 21
210.8054217419876
 31
0.0
  0
LINE
  8
DETAIL
  6
CONTINUOUS
 62
     5
 10
-532.75264336000055
 20
221.67197549599501
 30
0.0
 11
-524.26023090999843
 21
209.54355358200249
 31
0.0
  0
LINE
  8
DETAIL
  6
CONTINUOUS
 62
     5
 10
-611.30000000000109
 20
-458.29999999999109
 30
0.0
 11
-610.70000000000164
 21
-458.29999999999109
 31
0.0
  0
LINE
  8
DETAIL
  6
CONTINUOUS
 62
     5
 10
-609.09999999999673
 20
-462.30000000000558
 30
0.0
 11
-502.0
 21
-462.30000000000558
 31
0.0
  0
LINE
  8
DETAIL
  6
CONTINUOUS
 62
     5
 10
-601.90000000000236
 20
-465.30000000000558
 30
0.0
 11
-575.90000000000236
 21
-465.30000000000558
 31
0.0
  0
LINE
  8
DETAIL
  6
CONTINUOUS
 62
     5
 10
-558.19999999999709
 20
-466.64999999999691
 30
0.0
 11
-553.199999999998
 21
-466.64999999999691
 31
0.0
  0
LINE
  8
DETAIL
  6
CONTINUOUS
 62
     5
 10
-550.0
 20
-469.45000000001443
 30
0.0
 11
-552.00000000000091
 21
-469.45000000001443
 31
0.0
  0
LINE
  8
DETAIL
  6
CONTINUOUS
 62
     5
 10
-559.40000000000236
 20
-469.69999999999982
 30
0.0
 11
-561.40000000000236
 21
-469.69999999999982
 31
0.0
  0
LINE
  8
DETAIL
  6
CONTINUOUS
 62
     5
 10
-560.20000000000437
 20
-470.65000000001152
 30
0.0
 11
-558.19999999999709
 21
-470.65000000001152
 31
0.0
  0
LINE
  8
DETAIL
  6
CONTINUOUS
 62
     5
 10
-553.199999999998
 20
-470.65000000001152
 30
0.0
 11
-551.199999999998
 21
-470.65000000001152
 31
0.0
  0
LINE
  8
DETAIL
  6
CONTINUOUS
 62
     5
 10
-551.699999999998
 20
-470.90000000001152
 30
0.0
 11
-559.699999999998
 21
-470.90000000001152
 31
0.0
  0
LINE
  8
DETAIL
  6
CONTINUOUS
 62
     5
 10
-551.199999999998
 20
-472.35000000000849
 30
0.0
 11
-551.699999999998
 21
-472.35000000000849
 31
0.0
  0
LINE
  8
DETAIL
  6
CONTINUOUS
 62
     5
 10
-559.699999999998
 20
-472.35000000000849
 30
0.0
 11
-560.20000000000437
 21
-472.35000000000849
 31
0.0
  0
LINE
  8
DETAIL
  6
CONTINUOUS
 62
     5
 10
-550.0
 20
-473.30000000000558
 30
0.0
 11
-551.699999999998
 21
-473.30000000000558
 31
0.0
  0
LINE
  8
DETAIL
  6
CONTINUOUS
 62
     5
 10
-559.699999999998
 20
-473.30000000000558
 30
0.0
 11
-561.40000000000236
 21
-473.30000000000558
 31
0.0
  0
LINE
  8
DETAIL
  6
CONTINUOUS
 62
     5
 10
-551.699999999998
 20
-490.90000000001152
 30
0.0
 11
-559.699999999998
 21
-490.90000000001152
 31
0.0
  0
LINE
  8
DETAIL
  6
CONTINUOUS
 62
     5
 10
-510.97920730600163
 20
-219.1361684200119
 30
0.0
 11
-510.20000000000442
 21
-219.94306120601229
 31
0.0
  0
LINE
  8
DETAIL
  6
CONTINUOUS
 62
     5
 10
-512.66330656399805
 20
-222.4306804760154
 30
0.0
 11
-513.49689660799868
 21
-221.56747271601029
 31
0.0
  0
LINE
  8
DETAIL
  6
CONTINUOUS
 62
     5
 10
466.00000000000449
 20
642.99999999998545
 30
0.0
 11
466.00000000000449
 21
650.99999999998545
 31
0.0
  0
LINE
  8
DETAIL
  6
CONTINUOUS
 62
     5
 10
492.84708539200068
 20
567.19999999999982
 30
0.0
 11
492.84708539200068
 21
562.84708539198891
 31
0.0
  0
LINE
  8
DETAIL
  6
CONTINUOUS
 62
     5
 10
492.84708539200068
 20
-562.84708539201802
 30
0.0
 11
492.84708539200068
 21
-567.19999999999982
 31
0.0
  0
LINE
  8
DETAIL
  6
CONTINUOUS
 62
     5
 10
495.19999999999618
 20
-564.69999999999982
 30
0.0
 11
495.19999999999709
 21
564.60000000000855
 31
0.0
  0
LINE
  8
DETAIL
  6
CONTINUOUS
 62
     5
 10
495.70000000000442
 20
584.0
 30
0.0
 11
495.70000000000442
 21
562.84708539198891
 31
0.0
  0
LINE
  8
DETAIL
  6
CONTINUOUS
 62
     5
 10
502.0
 20
-558.04708539200419
 30
0.0
 11
502.0
 21
558.0470853919951
 31
0.0
  0
LINE
  8
DETAIL
  6
DASHED
 62
     5
 10
503.70000000000442
 20
535.99999999999727
 30
0.0
 11
503.70000000000351
 21
277.99999999999733
 31
0.0
  0
LINE
  8
DETAIL
  6
CONTINUOUS
 62
     5
 10
-497.19999999999709
 20
-562.84708539201802
 30
0.0
 11
-492.84708539200068
 21
-562.84708539201802
 31
0.0
  0
LINE
  8
DETAIL
  6
CONTINUOUS
 62
     5
 10
492.84708539200068
 20
-562.84708539201802
 30
0.0
 11
497.20000000000528
 21
-562.84708539201802
 31
0.0
  0
LINE
  8
DETAIL
  6
CONTINUOUS
 62
     5
 10
-497.70000000000528
 20
-564.19999999999982
 30
0.0
 11
-495.20000000000528
 21
-564.19999999999982
 31
0.0
  0
LINE
  8
DETAIL
  6
CONTINUOUS
 62
     5
 10
-494.199999999998
 20
-565.19999999999982
 30
0.0
 11
-492.84708539200068
 21
-565.19999999999982
 31
0.0
  0
LINE
  8
DETAIL
  6
CONTINUOUS
 62
     5
 10
492.84708539200068
 20
-565.19999999999982
 30
0.0
 11
494.70000000000351
 21
-565.19999999999982
 31
0.0
  0
LINE
  8
DETAIL
  6
CONTINUOUS
 62
     5
 10
-494.69999999999709
 20
-565.70000000001437
 30
0.0
 11
-494.199999999998
 21
-565.70000000001437
 31
0.0
  0
LINE
  8
DETAIL
  6
CONTINUOUS
 62
     5
 10
-494.69999999999709
 20
-566.20000000001437
 30
0.0
 11
-494.199999999998
 21
-566.20000000001437
 31
0.0
  0
LINE
  8
DETAIL
  6
CONTINUOUS
 62
     5
 10
491.14708539200268
 20
-568.89999999999691
 30
0.0
 11
492.49999999999909
 21
-568.89999999999691
 31
0.0
  0
LINE
  8
DETAIL
  6
CONTINUOUS
 62
     5
 10
-491.19999999999709
 20
-570.69999999999982
 30
0.0
 11
-489.34708539199443
 21
-570.69999999999982
 31
0.0
  0
LINE
  8
DETAIL
  6
CONTINUOUS
 62
     5
 10
-488.04708539200192
 20
-572.00000000001819
 30
0.0
 11
488.04708539200328
 21
-572.00000000001728
 31
0.0
  0
LINE
  8
DETAIL
  6
CONTINUOUS
 62
     5
 10
474.00000000117421
 20
573.69999999999982
 30
0.0
 11
466.00000000000449
 21
642.99999999998545
 31
0.0
  0
LINE
  8
DETAIL
  6
CONTINUOUS
 62
     5
 10
542.30000000000018
 20
540.5
 30
0.0
 11
542.30000000000018
 21
559.0
 31
0.0
  0
LINE
  8
DETAIL
  6
CONTINUOUS
 62
     5
 10
545.50000000000364
 20
572.0
 30
0.0
 11
545.50000000000364
 21
584.0
 31
0.0
  0
LINE
  8
DETAIL
  6
CONTINUOUS
 62
     5
 10
545.50000000000364
 20
559.0
 30
0.0
 11
545.50000000000364
 21
540.5
 31
0.0
  0
LINE
  8
DETAIL
  6
DASHED
 62
     5
 10
572.69999999999709
 20
527.99999999999727
 30
0.0
 11
572.69999999999618
 21
285.99999999999733
 31
0.0
  0
LINE
  8
DETAIL
  6
DASHED
 62
     5
 10
580.70000000000346
 20
527.99999999999727
 30
0.0
 11
580.70000000000346
 21
285.99999999999733
 31
0.0
  0
LINE
  8
DETAIL
  6
CONTINUOUS
 62
     5
 10
-564.53356527000233
 20
-462.87395994599768
 30
0.0
 11
-559.40000000000236
 21
-465.39999999999691
 31
0.0
  0
LINE
  8
DETAIL
  6
CONTINUOUS
 62
     5
 10
-488.04708539200283
 20
-572.00000000001637
 30
0.0
 11
-492.84708539200068
 21
-567.19999999999982
 31
0.0
  0
LINE
  8
DETAIL
  6
CONTINUOUS
 62
     5
 10
-502.0
 20
-558.04708539199601
 30
0.0
 11
-497.19999999999709
 21
-562.84708539201802
 31
0.0
  0
LINE
  8
DETAIL
  6
CONTINUOUS
 62
     5
 10
-500.699999999998
 20
-561.19999999999982
 30
0.0
 11
-497.70000000000528
 21
-564.19999999999982
 31
0.0
  0
LINE
  8
DETAIL
  6
CONTINUOUS
 62
     5
 10
-494.199999999998
 20
-567.69999999999982
 30
0.0
 11
-491.19999999999709
 21
-570.69999999999982
 31
0.0
  0
LINE
  8
DETAIL
  6
CONTINUOUS
 62
     5
 10
488.04708539200237
 20
-572.00000000001728
 30
0.0
 11
492.84708539200068
 21
-567.19999999999982
 31
0.0
  0
LINE
  8
DETAIL
  6
CONTINUOUS
 62
     5
 10
502.0
 20
-558.04708539200419
 30
0.0
 11
497.20000000000528
 21
-562.84708539201802
 31
0.0
  0
ARC
  8
DETAIL
  6
CONTINUOUS
 62
     5
 10
-492.5
 20
572.099999999994
 30
0.0
 40
6.4000000000000146
 50
239.9927485905917
 51
247.82273461371139
  0
ARC
  8
DETAIL
  6
CONTINUOUS
 62
     5
 10
-492.5
 20
572.099999999994
 30
0.0
 40
3.2000000000000082
 50
180.44621106442511
 51
261.63579480901342
  0
ARC
  8
DETAIL
  6
CONTINUOUS
 62
     5
 10
-494.69999999999709
 20
565.19999999999982
 30
0.0
 40
1.000000000000002
 50
90.0
 51
180.0
  0
ARC
  8
DETAIL
  6
CONTINUOUS
 62
     5
 10
-494.69999999999709
 20
565.19999999999982
 30
0.0
 40
0.500000000000002
 50
90.0
 51
180.0
  0
ARC
  8
DETAIL
  6
CONTINUOUS
 62
     5
 10
-494.199999999998
 20
564.69999999999982
 30
0.0
 40
0.500000000000002
 50
90.0
 51
180.0
  0
ARC
  8
DETAIL
  6
CONTINUOUS
 62
     5
 10
-525.57087417999719
 20
208.62583128398089
 30
0.0
 40
3.8000000000000091
 50
335.00000000002308
 51
34.999999999977888
  0
ARC
  8
DETAIL
  6
CONTINUOUS
 62
     5
 10
-529.63986559199839
 20
223.8515659540017
 30
0.0
 40
3.8000000000000091
 50
94.999999999973639
 51
214.99999999997789
  0
ARC
  8
DETAIL
  6
CONTINUOUS
 62
     5
 10
-538.30000000000382
 20
211.0000000000027
 30
0.0
 40
3.0000000000000071
 50
180.0
 51
270.0
  0
ARC
  8
DETAIL
  6
CONTINUOUS
 62
     5
 10
-538.30000000000382
 20
218.0000000000027
 30
0.0
 40
3.0000000000000071
 50
90.0
 51
180.0
  0
ARC
  8
DETAIL
  6
CONTINUOUS
 62
     5
 10
-508.79999999999558
 20
222.40526315800071
 30
0.0
 40
2.5947368420000059
 50
15.530332036905101
 51
27.475020287715299
  0
ARC
  8
DETAIL
  6
CONTINUOUS
 62
     5
 10
-508.79999999999558
 20
222.40526315800071
 30
0.0
 40
2.5947368420000059
 50
43.835513774705191
 51
90.0
  0
ARC
  8
DETAIL
  6
CONTINUOUS
 62
     5
 10
-532.30000000000382
 20
220.9999999999882
 30
0.0
 40
2.0000000000000049
 50
119.2024115139273
 51
180.0
  0
ARC
  8
DETAIL
  6
CONTINUOUS
 62
     5
 10
-525.57087417999719
 20
208.62583128398089
 30
0.0
 40
1.600000000000005
 50
335.00000000002308
 51
34.999999999977888
  0
ARC
  8
DETAIL
  6
CONTINUOUS
 62
     5
 10
-529.63986559199839
 20
223.8515659540017
 30
0.0
 40
1.600000000000005
 50
94.999999999973639
 51
214.99999999997789
  0
ARC
  8
DETAIL
  6
CONTINUOUS
 62
     5
 10
-532.29722442199363
 20
187.81238236998891
 30
0.0
 40
1.100000000000003
 50
155.00000000002311
 51
335.00000000002308
  0
ARC
  8
DETAIL
  6
CONTINUOUS
 62
     5
 10
-516.199999999998
 20
220.9999999999882
 30
0.0
 40
1.000000000000002
 50
90.0
 51
180.0
  0
ARC
  8
DETAIL
  6
CONTINUOUS
 62
     5
 10
-523.40000000000236
 20
220.9999999999882
 30
0.0
 40
1.000000000000002
 50
0.0
 51
90.0
  0
ARC
  8
DETAIL
  6
CONTINUOUS
 62
     5
 10
-532.30000000000382
 20
220.9999999999882
 30
0.0
 40
1.000000000000002
 50
123.9170700953928
 51
180.0
  0
ARC
  8
DETAIL
  6
CONTINUOUS
 62
     5
 10
-532.30000000000382
 20
210.89999999999691
 30
0.0
 40
1.000000000000002
 50
90.0
 51
180.0
  0
ARC
  8
DETAIL
  6
CONTINUOUS
 62
     5
 10
-532.30000000000382
 20
218.10000000000849
 30
0.0
 40
1.000000000000002
 50
189.00000000001859
 51
270.0
  0
ARC
  8
DETAIL
  6
CONTINUOUS
 62
     5
 10
-530.09999999999854
 20
223.59999999997939
 30
0.0
 40
0.6000000000000024
 50
90.0
 51
270.0
  0
ARC
  8
DETAIL
  6
CONTINUOUS
 62
     5
 10
-506.199999999998
 20
223.099999999994
 30
0.0
 40
0.1000000000000004
 50
180.0
 51
270.0
  0
ARC
  8
DETAIL
  6
CONTINUOUS
 62
     5
 10
525.50000000000455
 20
565.49999999998545
 30
0.0
 40
6.500000000000016
 50
90.0
 51
270.0
  0
ARC
  8
DETAIL
  6
CONTINUOUS
 62
     5
 10
492.5
 20
572.099999999994
 30
0.0
 40
6.4000000000000146
 50
273.10889927329362
 51
300.0072514094083
  0
ARC
  8
DETAIL
  6
CONTINUOUS
 62
     5
 10
492.5
 20
572.099999999994
 30
0.0
 40
3.2000000000000082
 50
270.00000000052108
 51
359.55378893500182
  0
ARC
  8
DETAIL
  6
CONTINUOUS
 62
     5
 10
494.59999999999849
 20
564.60000000000855
 30
0.0
 40
1.100000000000003
 50
0.0
 51
90.0
  0
ARC
  8
DETAIL
  6
CONTINUOUS
 62
     5
 10
494.59999999999849
 20
564.60000000000855
 30
0.0
 40
0.6000000000000024
 50
0.0
 51
90.0
  0
ARC
  8
DETAIL
  6
CONTINUOUS
 62
     5
 10
-513.699999999998
 20
-225.10000000000849
 30
0.0
 40
2.4000000000000061
 50
157.96421970719899
 51
270.0
  0
ARC
  8
DETAIL
  6
CONTINUOUS
 62
     5
 10
-513.699999999998
 20
-225.10000000000849
 30
0.0
 40
1.2000000000000031
 50
134.00000000002959
 51
270.0
  0
ARC
  8
DETAIL
  6
CONTINUOUS
 62
     5
 10
-610.70000000000164
 20
-289.10000000000849
 30
0.0
 40
1.2000000000000031
 50
90.0
 51
180.0
  0
ARC
  8
DETAIL
  6
CONTINUOUS
 62
     5
 10
-530.09999999999854
 20
-223.60000000000849
 30
0.0
 40
0.6000000000000024
 50
90.0
 51
270.0
  0
ARC
  8
DETAIL
  6
CONTINUOUS
 62
     5
 10
-575.90000000000236
 20
-462.30000000000558
 30
0.0
 40
3.0000000000000071
 50
270.0
 51
0.0
  0
ARC
  8
DETAIL
  6
CONTINUOUS
 62
     5
 10
-581.90000000000236
 20
-462.30000000000558
 30
0.0
 40
3.0000000000000071
 50
270.0
 51
0.0
  0
ARC
  8
DETAIL
  6
CONTINUOUS
 62
     5
 10
-601.90000000000236
 20
-462.30000000000558
 30
0.0
 40
3.0000000000000071
 50
180.0
 51
270.0
  0
ARC
  8
DETAIL
  6
CONTINUOUS
 62
     5
 10
-609.09999999999673
 20
-460.69999999999982
 30
0.0
 40
1.600000000000005
 50
180.0
 51
270.0
  0
ARC
  8
DETAIL
  6
CONTINUOUS
 62
     5
 10
-545.699999999998
 20
-462.30000000000558
 30
0.0
 40
1.300000000000004
 50
209.4009141970879
 51
231.31781254652449
  0
ARC
  8
DETAIL
  6
CONTINUOUS
 62
     5
 10
-565.699999999998
 20
-462.30000000000558
 30
0.0
 40
1.300000000000004
 50
308.68218745347548
 51
333.79988515869547
  0
ARC
  8
DETAIL
  6
CONTINUOUS
 62
     5
 10
-565.20000000000618
 20
-462.80000000000558
 30
0.0
 40
0.500000000000002
 50
90.0
 51
180.0
  0
ARC
  8
DETAIL
  6
CONTINUOUS
 62
     5
 10
-546.199999999998
 20
-462.80000000000558
 30
0.0
 40
0.500000000000002
 50
0.0
 51
90.0
  0
ARC
  8
DETAIL
  6
CONTINUOUS
 62
     5
 10
-546.199999999998
 20
-462.92449980000953
 30
0.0
 40
0.500000000000002
 50
231.31781254652449
 51
0.0
  0
ARC
  8
DETAIL
  6
CONTINUOUS
 62
     5
 10
-565.20000000000618
 20
-462.92449980000953
 30
0.0
 40
0.500000000000002
 50
180.0
 51
308.68218745347548
  0
ARC
  8
DETAIL
  6
CONTINUOUS
 62
     5
 10
-492.5
 20
-572.60000000000855
 30
0.0
 40
6.4000000000000146
 50
105.41127786688619
 51
120.0072514094083
  0
ARC
  8
DETAIL
  6
CONTINUOUS
 62
     5
 10
-492.5
 20
-572.60000000000855
 30
0.0
 40
3.2000000000000082
 50
90.0
 51
179.55378893567919
  0
ARC
  8
DETAIL
  6
CONTINUOUS
 62
     5
 10
-495.03615921599697
 20
-569.93372480001108
 30
0.0
 40
2.6662992320000081
 50
255.59748802923221
 51
256.1146224859952
  0
ARC
  8
DETAIL
  6
CONTINUOUS
 62
     5
 10
-495.03688016000609
 20
-569.9366312719967
 30
0.0
 40
2.6633046820000068
 50
256.11467369886128
 51
256.35653575888011
  0
ARC
  8
DETAIL
  6
CONTINUOUS
 62
     5
 10
-494.69999999999709
 20
-565.19999999999982
 30
0.0
 40
1.000000000000002
 50
180.0
 51
270.0
  0
ARC
  8
DETAIL
  6
CONTINUOUS
 62
     5
 10
-494.199999999998
 20
-564.69999999999982
 30
0.0
 40
0.500000000000002
 50
180.0
 51
270.0
  0
ARC
  8
DETAIL
  6
CONTINUOUS
 62
     5
 10
-494.69999999999709
 20
-565.19999999999982
 30
0.0
 40
0.500000000000002
 50
180.0
 51
270.0
  0
ARC
  8
DETAIL
  6
CONTINUOUS
 62
     5
 10
492.49999999999909
 20
-572.10000000000855
 30
0.0
 40
6.4000000000000146
 50
59.992748590591738
 51
86.89110072701952
  0
ARC
  8
DETAIL
  6
CONTINUOUS
 62
     5
 10
492.49999999999909
 20
-572.10000000000855
 30
0.0
 40
3.2000000000000082
 50
0.4462110643729675
 51
90.0
  0
ARC
  8
DETAIL
  6
CONTINUOUS
 62
     5
 10
494.70000000000351
 20
-564.69999999999982
 30
0.0
 40
1.000000000000002
 50
270.0
 51
0.0
  0
ARC
  8
DETAIL
  6
CONTINUOUS
 62
     5
 10
494.70000000000351
 20
-564.69999999999982
 30
0.0
 40
0.500000000000002
 50
270.0
 51
0.0
  0
LINE
  8
DETAIL
  6
CONTINUOUS
 62
     5
 10
-510.20000000000442
 20
224.19999999999979
 30
0.0
 11
-510.35945305897371
 21
224.14843749999818
 31
0.0
  0
LINE
  8
DETAIL
  6
CONTINUOUS
 62
     5
 10
-510.35945305897371
 20
224.14843749999818
 30
0.0
 11
-510.47927735675415
 21
224.01249999999479
 31
0.0
  0
LINE
  8
DETAIL
  6
CONTINUOUS
 62
     5
 10
-510.47927735675415
 20
224.01249999999479
 30
0.0
 11
-510.55468387915914
 21
223.82031249999147
 31
0.0
  0
LINE
  8
DETAIL
  6
CONTINUOUS
 62
     5
 10
-510.55468387915914
 20
223.82031249999147
 30
0.0
 11
-510.58088361200225
 21
223.59999999999033
 31
0.0
  0
LINE
  8
DETAIL
  6
CONTINUOUS
 62
     5
 10
-510.58088361200225
 20
223.59999999999033
 30
0.0
 11
-510.55468387915914
 21
223.37968749999254
 31
0.0
  0
LINE
  8
DETAIL
  6
CONTINUOUS
 62
     5
 10
-510.55468387915914
 20
223.37968749999254
 30
0.0
 11
-510.4792773567541
 21
223.18749999999676
 31
0.0
  0
LINE
  8
DETAIL
  6
CONTINUOUS
 62
     5
 10
-510.4792773567541
 20
223.18749999999676
 30
0.0
 11
-510.35945305897371
 21
223.05156250000087
 31
0.0
  0
LINE
  8
DETAIL
  6
CONTINUOUS
 62
     5
 10
-510.35945305897371
 20
223.05156250000087
 30
0.0
 11
-510.20000000000442
 21
223.0000000000027
 31
0.0
  0
LINE
  8
DETAIL
  6
CONTINUOUS
 62
     5
 10
-510.20000000000442
 20
-224.19999999999979
 30
0.0
 11
-510.35945305897371
 21
-224.14843750000051
 31
0.0
  0
LINE
  8
DETAIL
  6
CONTINUOUS
 62
     5
 10
-510.35945305897371
 20
-224.14843750000051
 30
0.0
 11
-510.47927735675415
 21
-224.01250000000252
 31
0.0
  0
LINE
  8
DETAIL
  6
CONTINUOUS
 62
     5
 10
-510.47927735675415
 20
-224.01250000000252
 30
0.0
 11
-510.55468387915914
 21
-223.82031250000529
 31
0.0
  0
LINE
  8
DETAIL
  6
CONTINUOUS
 62
     5
 10
-510.55468387915914
 20
-223.82031250000529
 30
0.0
 11
-510.58088361200225
 21
-223.60000000000852
 31
0.0
  0
LINE
  8
DETAIL
  6
CONTINUOUS
 62
     5
 10
-510.58088361200225
 20
-223.60000000000852
 30
0.0
 11
-510.55468387915914
 21
-223.37968750001176
 31
0.0
  0
LINE
  8
DETAIL
  6
CONTINUOUS
 62
     5
 10
-510.55468387915914
 20
-223.37968750001176
 30
0.0
 11
-510.4792773567541
 21
-223.18750000001455
 31
0.0
  0
LINE
  8
DETAIL
  6
CONTINUOUS
 62
     5
 10
-510.4792773567541
 20
-223.18750000001455
 30
0.0
 11
-510.35945305897371
 21
-223.05156250001656
 31
0.0
  0
LINE
  8
DETAIL
  6
CONTINUOUS
 62
     5
 10
-510.35945305897371
 20
-223.05156250001656
 30
0.0
 11
-510.20000000000442
 21
-223.00000000001731
 31
0.0
  0
LINE
  8
DETAIL
  6
CONTINUOUS
 62
     5
 10
474.00000000117421
 20
573.69999999999982
 30
0.0
 11
474.00000000117421
 21
571.99999999998818
 31
0.0
  0
LINE
  8
BASIS
  6
DASHDOT
 62
     6
 10
0.0
 20
-651.99047982734919
 30
0.0
 11
0.0
 21
651.99047982734919
 31
0.0
  0
LINE
  8
DETAIL
  6
CONTINUOUS
 62
     5
 10
-474.000000000005
 20
571.99999999998818
 30
0.0
 11
-474.000000000005
 21
573.69999999999982
 31
0.0
  0
LINE
  8
DETAIL
  6
CONTINUOUS
 62
     5
 10
-492.84708539200068
 20
565.69999999998527
 30
0.0
 11
494.59999999999849
 21
565.69999999998527
 31
0.0
  0
LINE
  8
DETAIL
  6
CONTINUOUS
 62
     5
 10
-492.84708539200068
 20
-565.70000000001437
 30
0.0
 11
494.70000000000351
 21
-565.70000000001437
 31
0.0
  0
LINE
  8
BASIS
  6
DASHDOT
 62
     6
 10
525.5
 20
514.56572125901585
 30
0.0
 11
525.5
 21
616.43427874095505
 31
0.0
  0
LINE
  8
BASIS
  6
DASHDOT
 62
     6
 10
576.43427874098052
 20
565.49999999998545
 30
0.0
 11
474.56572125902858
 21
565.49999999998545
 31
0.0
  0
LINE
  8
BASIS
  6
DASHDOT
 62
     6
 10
344.99999999999909
 20
542.40117836727859
 30
0.0
 11
344.99999999999909
 21
671.8117105387646
 31
0.0
  0
LINE
  8
BASIS
  6
DASHDOT
 62
     6
 10
-345.00000000000267
 20
542.40117836727859
 30
0.0
 11
-345.00000000000267
 21
671.8117105387646
 31
0.0
  0
LINE
  8
BASIS
  6
DASHDOT
 62
     6
 10
-599.71152448529756
 20
406.99999999998232
 30
0.0
 11
-483.1463897037147
 21
406.99999999998232
 31
0.0
1001
GENIUS_GENODEF_13
1002
{
1000
HIER
1070
     0
1002
}
1002
{
1000
MANEDIT
1070
     0
1002
}
1002
{
1000
NOSEL
1070
     0
1002
}
1002
{
1000
BEHIND
1070
     0
1002
}
1002
{
1000
OTHER
1070
     0
1002
}
1002
{
1000
REACTOR
1002
}
1001
GENIUS_GENOBJ-N-CEN_13
1002
{
1000
OWNER
1000
GEN
1002
}
1001
GENIUS_GENCEN_19
1002
{
1040
5.0
1002
}
  0
LINE
  8
BASIS
  6
DASHDOT
 62
     6
 10
593.75273722293787
 20
406.99999999998272
 30
0.0
 11
474.32118770837951
 21
406.99999999998272
 31
0.0
  0
LINE
  8
SERVICESPACE
  6
DASHDOT
 62
     2
 10
-502.61730091906071
 20
-572.40000008484913
 30
0.0
 11
-1202.000000965782
 21
-572.40000008484913
 31
0.0
  0
LINE
  8
SERVICESPACE
  6
DASHDOT
 62
     2
 10
-502.61730091906071
 20
571.99999999998818
 30
0.0
 11
-1202.000000965782
 21
571.99999999998818
 31
0.0
  0
LINE
  8
SERVICESPACE
  6
DASHDOT
 62
     2
 10
-1202.000000965782
 20
-572.40000008484913
 30
0.0
 11
-1202.000000965782
 21
571.99999999998818
 31
0.0
  0
LINE
  8
SIZE
  6
CONTINUOUS
 62
    30
 10
508.04708539201351
 20
571.9999999999884
 30
0.0
 11
1062.28613761
 21
571.99999999998852
 31
0.0
  0
LINE
  8
SIZE
  6
CONTINUOUS
 62
    30
 10
508.04708539200351
 20
-572.00000000001751
 30
0.0
 11
1062.28613761
 21
-572.00000000001739
 31
0.0
  0
LINE
  8
SIZE
  6
CONTINUOUS
 62
    30
 10
1042.28613761
 20
559.99999999998852
 30
0.0
 11
1042.28613761
 21
-560.00000000001739
 31
0.0
  0
CIRCLE
  8
SIZE
  6
CONTINUOUS
 62
    30
 10
1042.28613761
 20
571.99999999998852
 30
0.0
 40
6.0
  0
LINE
  8
SIZE
  6
CONTINUOUS
 62
    30
 10
1042.28613761
 20
571.99999999998852
 30
0.0
 11
1042.28613761
 21
559.99999999998852
 31
0.0
  0
CIRCLE
  8
SIZE
  6
CONTINUOUS
 62
    30
 10
1042.28613761
 20
-572.00000000001739
 30
0.0
 40
6.0
  0
LINE
  8
SIZE
  6
CONTINUOUS
 62
    30
 10
1042.28613761
 20
-572.00000000001739
 30
0.0
 11
1042.28613761
 21
-560.00000000001739
 31
0.0
  0
TEXT
  8
SIZE
  6
CONTINUOUS
 62
    30
 10
1017.28613761
 20
-96.768000000014752
 30
0.0
 40
64.0
  1
1144
 50
90.0
 41
0.9
 51
0.0
  7
STANDARD
 71
     0
 72
     1
 11
1017.28613761
 21
-0.0000000000147244
 31
0.0
210
0.0
220
0.0
230
1.0
  0
POINT
  8
DEFPOINTS
  6
CONTINUOUS
 62
    30
 10
488.04708539201351
 20
571.9999999999884
 30
0.0
  0
POINT
  8
DEFPOINTS
  6
CONTINUOUS
 62
    30
 10
488.04708539200351
 20
-572.00000000001751
 30
0.0
  0
POINT
  8
DEFPOINTS
  6
CONTINUOUS
 62
    30
 10
1042.28613761
 20
-572.00000000001739
 30
0.0
  0
LINE
  8
SIZE
  6
CONTINUOUS
 62
    30
 10
485.99983178000213
 20
650.99999999998568
 30
0.0
 11
1062.2861376099941
 21
650.99999999998579
 31
0.0
  0
LINE
  8
SIZE
  6
CONTINUOUS
 62
    30
 10
508.04708539201351
 20
571.9999999999884
 30
0.0
 11
1062.2861376099941
 21
571.99999999998852
 31
0.0
  0
LINE
  8
SIZE
  6
CONTINUOUS
 62
    30
 10
1042.2861376099941
 20
583.99999999998852
 30
0.0
 11
1042.2861376099941
 21
638.99999999998579
 31
0.0
  0
LINE
  8
SIZE
  6
CONTINUOUS
 62
    30
 10
1042.2861376099941
 20
650.99999999998579
 30
0.0
 11
1042.2861376099941
 21
803.51428571427164
 31
0.0
  0
CIRCLE
  8
SIZE
  6
CONTINUOUS
 62
    30
 10
1042.2861376099941
 20
571.99999999998852
 30
0.0
 40
6.0
  0
LINE
  8
SIZE
  6
CONTINUOUS
 62
    30
 10
1042.2861376099941
 20
571.99999999998852
 30
0.0
 11
1042.2861376099941
 21
583.99999999998852
 31
0.0
  0
CIRCLE
  8
SIZE
  6
CONTINUOUS
 62
    30
 10
1042.2861376099941
 20
650.99999999998579
 30
0.0
 40
6.0
  0
LINE
  8
SIZE
  6
CONTINUOUS
 62
    30
 10
1042.2861376099941
 20
650.99999999998579
 30
0.0
 11
1042.2861376099941
 21
638.99999999998579
 31
0.0
  0
TEXT
  8
SIZE
  6
CONTINUOUS
 62
    30
 10
1017.2861376099936
 20
679.68914285712822
 30
0.0
 40
64.0
  1
79
 50
90.0
 41
0.9
 51
0.0
  7
STANDARD
 71
     0
 72
     1
 11
1017.2861376099936
 21
733.2571428571282
 31
0.0
210
0.0
220
0.0
230
1.0
  0
POINT
  8
DEFPOINTS
  6
CONTINUOUS
 62
    30
 10
465.99983178000213
 20
650.99999999998568
 30
0.0
  0
POINT
  8
DEFPOINTS
  6
CONTINUOUS
 62
    30
 10
488.04708539201351
 20
571.9999999999884
 30
0.0
  0
POINT
  8
DEFPOINTS
  6
CONTINUOUS
 62
    30
 10
1042.2861376099941
 20
571.99999999998852
 30
0.0
  0
LINE
  8
DETAIL
  6
CONTINUOUS
 62
     5
 10
-495.70000000000442
 20
584.0
 30
0.0
 11
-545.50000000000318
 21
584.0
 31
0.0
  0
LINE
  8
DETAIL
  6
CONTINUOUS
 62
     5
 10
-525.50000000000409
 20
572.0
 30
0.0
 11
-545.50000000000318
 21
572.0
 31
0.0
  0
LINE
  8
DETAIL
  6
CONTINUOUS
 62
     5
 10
-525.50000000000409
 20
559.0
 30
0.0
 11
-545.50000000000318
 21
559.0
 31
0.0
  0
LINE
  8
DETAIL
  6
CONTINUOUS
 62
     5
 10
-502.0
 20
540.5
 30
0.0
 11
-545.50000000000318
 21
540.5
 31
0.0
  0
LINE
  8
DETAIL
  6
CONTINUOUS
 62
     5
 10
-542.29999999999973
 20
540.5
 30
0.0
 11
-542.29999999999973
 21
559.0
 31
0.0
  0
LINE
  8
DETAIL
  6
CONTINUOUS
 62
     5
 10
-545.50000000000318
 20
572.0
 30
0.0
 11
-545.50000000000318
 21
584.0
 31
0.0
  0
LINE
  8
DETAIL
  6
CONTINUOUS
 62
     5
 10
-545.50000000000318
 20
559.0
 30
0.0
 11
-545.50000000000318
 21
540.5
 31
0.0
  0
ARC
  8
DETAIL
  6
CONTINUOUS
 62
     5
 10
-525.50000000000409
 20
565.49999999998545
 30
0.0
 40
6.500000000000016
 50
270.0
 51
90.0
  0
LINE
  8
BASIS
  6
DASHDOT
 62
     6
 10
-525.49999999999955
 20
514.56572125901585
 30
0.0
 11
-525.49999999999955
 21
616.43427874095505
 31
0.0
  0
LINE
  8
BASIS
  6
DASHDOT
 62
     6
 10
-576.43427874098006
 20
565.49999999998545
 30
0.0
 11
-474.56572125902812
 21
565.49999999998545
 31
0.0
  0
LINE
  8
DETAIL
  6
CONTINUOUS
 62
     5
 10
495.70000000000442
 20
-584.0
 30
0.0
 11
545.50000000000364
 21
-584.0
 31
0.0
  0
LINE
  8
DETAIL
  6
CONTINUOUS
 62
     5
 10
525.50000000000455
 20
-572.0
 30
0.0
 11
545.50000000000364
 21
-572.0
 31
0.0
  0
LINE
  8
DETAIL
  6
CONTINUOUS
 62
     5
 10
525.50000000000455
 20
-559.0
 30
0.0
 11
545.50000000000364
 21
-559.0
 31
0.0
  0
LINE
  8
DETAIL
  6
CONTINUOUS
 62
     5
 10
502.0
 20
-540.5
 30
0.0
 11
545.50000000000364
 21
-540.5
 31
0.0
  0
LINE
  8
DETAIL
  6
CONTINUOUS
 62
     5
 10
495.70000000000442
 20
-584.0
 30
0.0
 11
495.70000000000442
 21
-562.84708539201802
 31
0.0
  0
LINE
  8
DETAIL
  6
CONTINUOUS
 62
     5
 10
542.30000000000018
 20
-540.5
 30
0.0
 11
542.30000000000018
 21
-559.0
 31
0.0
  0
LINE
  8
DETAIL
  6
CONTINUOUS
 62
     5
 10
545.50000000000364
 20
-572.0
 30
0.0
 11
545.50000000000364
 21
-584.0
 31
0.0
  0
LINE
  8
DETAIL
  6
CONTINUOUS
 62
     5
 10
545.50000000000364
 20
-559.0
 30
0.0
 11
545.50000000000364
 21
-540.5
 31
0.0
  0
ARC
  8
DETAIL
  6
CONTINUOUS
 62
     5
 10
525.50000000000455
 20
-565.49999999998545
 30
0.0
 40
6.500000000000016
 50
90.0
 51
270.0
  0
LINE
  8
BASIS
  6
DASHDOT
 62
     6
 10
525.5
 20
-514.56572125901585
 30
0.0
 11
525.5
 21
-616.43427874095505
 31
0.0
  0
LINE
  8
BASIS
  6
DASHDOT
 62
     6
 10
576.43427874098052
 20
-565.49999999998545
 30
0.0
 11
474.56572125902858
 21
-565.49999999998545
 31
0.0
  0
LINE
  8
DETAIL
  6
CONTINUOUS
 62
     5
 10
-495.70000000000442
 20
-584.0
 30
0.0
 11
-545.50000000000364
 21
-584.0
 31
0.0
  0
LINE
  8
DETAIL
  6
CONTINUOUS
 62
     5
 10
-525.50000000000455
 20
-572.0
 30
0.0
 11
-545.50000000000364
 21
-572.0
 31
0.0
  0
LINE
  8
DETAIL
  6
CONTINUOUS
 62
     5
 10
-525.50000000000455
 20
-559.0
 30
0.0
 11
-545.50000000000364
 21
-559.0
 31
0.0
  0
LINE
  8
DETAIL
  6
CONTINUOUS
 62
     5
 10
-502.0
 20
-540.5
 30
0.0
 11
-545.50000000000364
 21
-540.5
 31
0.0
  0
LINE
  8
DETAIL
  6
CONTINUOUS
 62
     5
 10
-495.70000000000442
 20
-584.0
 30
0.0
 11
-495.69999999999709
 21
-564.19999999999982
 31
0.0
  0
LINE
  8
DETAIL
  6
CONTINUOUS
 62
     5
 10
-542.30000000000018
 20
-540.5
 30
0.0
 11
-542.30000000000018
 21
-559.0
 31
0.0
  0
LINE
  8
DETAIL
  6
CONTINUOUS
 62
     5
 10
-545.50000000000364
 20
-572.0
 30
0.0
 11
-545.50000000000364
 21
-584.0
 31
0.0
  0
LINE
  8
DETAIL
  6
CONTINUOUS
 62
     5
 10
-545.50000000000364
 20
-559.0
 30
0.0
 11
-545.50000000000364
 21
-540.5
 31
0.0
  0
ARC
  8
DETAIL
  6
CONTINUOUS
 62
     5
 10
-525.50000000000455
 20
-565.49999999998545
 30
0.0
 40
6.500000000000016
 50
270.0
 51
90.0
  0
LINE
  8
BASIS
  6
DASHDOT
 62
     6
 10
-525.5
 20
-514.56572125901585
 30
0.0
 11
-525.5
 21
-616.43427874095505
 31
0.0
  0
LINE
  8
BASIS
  6
DASHDOT
 62
     6
 10
-576.43427874098052
 20
-565.49999999998545
 30
0.0
 11
-474.56572125902858
 21
-565.49999999998545
 31
0.0
  0
LINE
  8
SIZE
  6
CONTINUOUS
 62
    30
 10
596.63427874098147
 20
565.49999999998568
 30
0.0
 11
931.47177374288299
 21
565.49999999998579
 31
0.0
  0
LINE
  8
SIZE
  6
CONTINUOUS
 62
    30
 10
596.63427874098056
 20
-565.49999999998568
 30
0.0
 11
931.47177374288322
 21
-565.49999999998556
 31
0.0
  0
LINE
  8
SIZE
  6
CONTINUOUS
 62
    30
 10
911.47177374288299
 20
553.49999999998579
 30
0.0
 11
911.47177374288322
 21
-553.49999999998556
 31
0.0
  0
CIRCLE
  8
SIZE
  6
CONTINUOUS
 62
    30
 10
911.47177374288299
 20
565.49999999998579
 30
0.0
 40
6.0
  0
LINE
  8
SIZE
  6
CONTINUOUS
 62
    30
 10
911.47177374288299
 20
565.49999999998579
 30
0.0
 11
911.47177374288299
 21
553.49999999998579
 31
0.0
  0
CIRCLE
  8
SIZE
  6
CONTINUOUS
 62
    30
 10
911.47177374288322
 20
-565.49999999998556
 30
0.0
 40
6.0
  0
LINE
  8
SIZE
  6
CONTINUOUS
 62
    30
 10
911.47177374288322
 20
-565.49999999998556
 30
0.0
 11
911.47177374288322
 21
-553.49999999998556
 31
0.0
  0
TEXT
  8
SIZE
  6
CONTINUOUS
 62
    30
 10
886.47177374288287
 20
-89.856000000000151
 30
0.0
 40
64.0
  1
1131
 50
90.0
 41
0.9
 51
0.0
  7
STANDARD
 71
     0
 72
     1
 11
886.47177374288287
 21
-0.0000000000001645
 31
0.0
210
0.0
220
0.0
230
1.0
  0
POINT
  8
DEFPOINTS
  6
CONTINUOUS
 62
    30
 10
576.63427874098147
 20
565.49999999998568
 30
0.0
  0
POINT
  8
DEFPOINTS
  6
CONTINUOUS
 62
    30
 10
576.63427874098056
 20
-565.49999999998568
 30
0.0
  0
POINT
  8
DEFPOINTS
  6
CONTINUOUS
 62
    30
 10
911.47177374288322
 20
-565.49999999998556
 30
0.0
  0
LINE
  8
SIZE
  6
CONTINUOUS
 62
    30
 10
344.99999999999909
 20
691.8117105387646
 30
0.0
 11
344.99999999999909
 21
853.10920376003742
 31
0.0
  0
LINE
  8
SIZE
  6
CONTINUOUS
 62
    30
 10
-345.00000000000267
 20
691.8117105387646
 30
0.0
 11
-345.00000000000267
 21
853.10920376003742
 31
0.0
  0
LINE
  8
SIZE
  6
CONTINUOUS
 62
    30
 10
332.99999999999909
 20
833.10920376003742
 30
0.0
 11
-333.00000000000267
 21
833.10920376003742
 31
0.0
  0
CIRCLE
  8
SIZE
  6
CONTINUOUS
 62
    30
 10
344.99999999999909
 20
833.10920376003742
 30
0.0
 40
6.0
  0
LINE
  8
SIZE
  6
CONTINUOUS
 62
    30
 10
344.99999999999909
 20
833.10920376003742
 30
0.0
 11
332.99999999999909
 21
833.10920376003742
 31
0.0
  0
CIRCLE
  8
SIZE
  6
CONTINUOUS
 62
    30
 10
-345.00000000000267
 20
833.10920376003742
 30
0.0
 40
6.0
  0
LINE
  8
SIZE
  6
CONTINUOUS
 62
    30
 10
-345.00000000000267
 20
833.10920376003742
 30
0.0
 11
-333.00000000000267
 21
833.10920376003742
 31
0.0
  0
TEXT
  8
SIZE
  6
CONTINUOUS
 62
    30
 10
-80.928000000001816
 20
858.10920376003742
 30
0.0
 40
64.0
  1
690
 50
0.0
 41
0.9
 51
0.0
  7
STANDARD
 71
     0
 72
     1
 11
-0.000000000001819
 21
858.10920376003742
 31
0.0
210
0.0
220
0.0
230
1.0
  0
POINT
  8
DEFPOINTS
  6
CONTINUOUS
 62
    30
 10
344.99999999999909
 20
671.8117105387646
 30
0.0
  0
POINT
  8
DEFPOINTS
  6
CONTINUOUS
 62
    30
 10
-345.00000000000267
 20
671.8117105387646
 30
0.0
  0
POINT
  8
DEFPOINTS
  6
CONTINUOUS
 62
    30
 10
-345.00000000000267
 20
833.10920376003742
 30
0.0
  0
LINE
  8
SIZE
  6
CONTINUOUS
 62
    30
 10
502.0
 20
578.0470853919951
 30
0.0
 11
502.0
 21
983.89629114482705
 31
0.0
  0
LINE
  8
SIZE
  6
CONTINUOUS
 62
    30
 10
-502.0
 20
578.04708539198555
 30
0.0
 11
-502.0
 21
983.89629114482705
 31
0.0
  0
LINE
  8
SIZE
  6
CONTINUOUS
 62
    30
 10
490.0
 20
963.89629114482705
 30
0.0
 11
-490.0
 21
963.89629114482705
 31
0.0
  0
CIRCLE
  8
SIZE
  6
CONTINUOUS
 62
    30
 10
502.0
 20
963.89629114482705
 30
0.0
 40
6.0
  0
LINE
  8
SIZE
  6
CONTINUOUS
 62
    30
 10
502.0
 20
963.89629114482705
 30
0.0
 11
490.0
 21
963.89629114482705
 31
0.0
  0
CIRCLE
  8
SIZE
  6
CONTINUOUS
 62
    30
 10
-502.0
 20
963.89629114482705
 30
0.0
 40
6.0
  0
LINE
  8
SIZE
  6
CONTINUOUS
 62
    30
 10
-502.0
 20
963.89629114482705
 30
0.0
 11
-490.0
 21
963.89629114482705
 31
0.0
  0
TEXT
  8
SIZE
  6
CONTINUOUS
 62
    30
 10
-103.104
 20
988.89629114482705
 30
0.0
 40
64.0
  1
1004
 50
0.0
 41
0.9
 51
0.0
  7
STANDARD
 71
     0
 72
     1
 11
0.0
 21
988.89629114482705
 31
0.0
210
0.0
220
0.0
230
1.0
  0
POINT
  8
DEFPOINTS
  6
CONTINUOUS
 62
    30
 10
502.0
 20
558.0470853919951
 30
0.0
  0
POINT
  8
DEFPOINTS
  6
CONTINUOUS
 62
    30
 10
-502.0
 20
558.04708539198555
 30
0.0
  0
POINT
  8
DEFPOINTS
  6
CONTINUOUS
 62
    30
 10
-502.0
 20
963.89629114482705
 30
0.0
  0
LINE
  8
DETAIL
  6
CONTINUOUS
 62
     5
 10
-465.99983178000372
 20
-650.99999999998545
 30
0.0
 11
-224.00016821999819
 21
-650.99999999998545
 31
0.0
  0
LINE
  8
DETAIL
  6
CONTINUOUS
 62
     5
 10
224.00016821999819
 20
-650.99999999998545
 30
0.0
 11
465.99983178000178
 21
-650.99999999998545
 31
0.0
  0
LINE
  8
DETAIL
  6
CONTINUOUS
 62
     5
 10
-465.99999999999733
 20
-642.99999999998545
 30
0.0
 11
-223.9999999999973
 21
-642.99999999998545
 31
0.0
  0
LINE
  8
DETAIL
  6
CONTINUOUS
 62
     5
 10
224.00000000000361
 20
-642.99999999998545
 30
0.0
 11
466.00000000000449
 21
-642.99999999998545
 31
0.0
  0
LINE
  8
DETAIL
  6
CONTINUOUS
 62
     5
 10
-474.0000000004693
 20
-573.69999999999982
 30
0.0
 11
-215.9999999999973
 21
-573.69999999999982
 31
0.0
  0
LINE
  8
DETAIL
  6
CONTINUOUS
 62
     5
 10
216.00000000000449
 20
-573.69999999999982
 30
0.0
 11
474.00000000117421
 21
-573.69999999999982
 31
0.0
  0
LINE
  8
DETAIL
  6
CONTINUOUS
 62
     5
 10
-474.0000000004693
 20
-573.69999999999982
 30
0.0
 11
-465.99999999999733
 21
-642.99999999998545
 31
0.0
  0
LINE
  8
DETAIL
  6
CONTINUOUS
 62
     5
 10
-465.99999999999733
 20
-642.99999999998545
 30
0.0
 11
-465.99999999999733
 21
-650.99999999998545
 31
0.0
  0
LINE
  8
DETAIL
  6
CONTINUOUS
 62
     5
 10
-223.9999999999973
 20
-642.99999999998545
 30
0.0
 11
-223.9999999999973
 21
-650.99999999998545
 31
0.0
  0
LINE
  8
DETAIL
  6
CONTINUOUS
 62
     5
 10
-215.9999999999973
 20
-571.99999999998818
 30
0.0
 11
-215.9999999999973
 21
-573.69999999999982
 31
0.0
  0
LINE
  8
DETAIL
  6
CONTINUOUS
 62
     5
 10
-215.9999999999973
 20
-573.69999999999982
 30
0.0
 11
-223.9999999999973
 21
-642.99999999998545
 31
0.0
  0
LINE
  8
DETAIL
  6
CONTINUOUS
 62
     5
 10
216.00000000000449
 20
-573.69999999999982
 30
0.0
 11
224.00000000000361
 21
-642.99999999998545
 31
0.0
  0
LINE
  8
DETAIL
  6
CONTINUOUS
 62
     5
 10
216.00000000000449
 20
-571.99999999998818
 30
0.0
 11
216.00000000000449
 21
-573.69999999999982
 31
0.0
  0
LINE
  8
DETAIL
  6
CONTINUOUS
 62
     5
 10
224.00000000000361
 20
-642.99999999998545
 30
0.0
 11
224.00000000000361
 21
-650.99999999998545
 31
0.0
  0
LINE
  8
DETAIL
  6
CONTINUOUS
 62
     5
 10
466.00000000000449
 20
-642.99999999998545
 30
0.0
 11
466.00000000000449
 21
-650.99999999998545
 31
0.0
  0
LINE
  8
DETAIL
  6
CONTINUOUS
 62
     5
 10
474.00000000117421
 20
-573.69999999999982
 30
0.0
 11
466.00000000000449
 21
-642.99999999998545
 31
0.0
  0
LINE
  8
DETAIL
  6
CONTINUOUS
 62
     5
 10
474.00000000117421
 20
-573.69999999999982
 30
0.0
 11
474.00000000117421
 21
-571.99999999998818
 31
0.0
  0
LINE
  8
DETAIL
  6
CONTINUOUS
 62
     5
 10
-474.00000000000551
 20
-571.99999999998818
 30
0.0
 11
-474.00000000000551
 21
-573.69999999999982
 31
0.0
  0
LINE
  8
BASIS
  6
DASHDOT
 62
     6
 10
344.99999999999909
 20
-542.40117836727859
 30
0.0
 11
344.99999999999909
 21
-671.8117105387646
 31
0.0
  0
LINE
  8
BASIS
  6
DASHDOT
 62
     6
 10
-345.00000000000267
 20
-542.40117836727859
 30
0.0
 11
-345.00000000000267
 21
-671.8117105387646
 31
0.0
  0
LINE
  8
SIZE
  6
CONTINUOUS
 62
    30
 10
485.99983178000213
 20
-650.99999999998568
 30
0.0
 11
1062.2861376099979
 21
-650.99999999998556
 31
0.0
  0
LINE
  8
SIZE
  6
CONTINUOUS
 62
    30
 10
508.0470853920126
 20
-571.9999999999884
 30
0.0
 11
1062.2861376099979
 21
-571.99999999998829
 31
0.0
  0
LINE
  8
SIZE
  6
CONTINUOUS
 62
    30
 10
1042.2861376099979
 20
-583.99999999998829
 30
0.0
 11
1042.2861376099979
 21
-638.99999999998556
 31
0.0
  0
LINE
  8
SIZE
  6
CONTINUOUS
 62
    30
 10
1042.2861376099979
 20
-650.99999999998556
 30
0.0
 11
1042.2861376099979
 21
-803.51428571430165
 31
0.0
  0
CIRCLE
  8
SIZE
  6
CONTINUOUS
 62
    30
 10
1042.2861376099979
 20
-571.99999999998829
 30
0.0
 40
6.0
  0
LINE
  8
SIZE
  6
CONTINUOUS
 62
    30
 10
1042.2861376099979
 20
-571.99999999998829
 30
0.0
 11
1042.2861376099979
 21
-583.99999999998829
 31
0.0
  0
CIRCLE
  8
SIZE
  6
CONTINUOUS
 62
    30
 10
1042.2861376099979
 20
-650.99999999998556
 30
0.0
 40
6.0
  0
LINE
  8
SIZE
  6
CONTINUOUS
 62
    30
 10
1042.2861376099979
 20
-650.99999999998556
 30
0.0
 11
1042.2861376099979
 21
-638.99999999998556
 31
0.0
  0
TEXT
  8
SIZE
  6
CONTINUOUS
 62
    30
 10
1017.2861376099972
 20
-786.82514285715888
 30
0.0
 40
64.0
  1
79
 50
90.0
 41
0.9
 51
0.0
  7
STANDARD
 71
     0
 72
     1
 11
1017.2861376099972
 21
-733.2571428571589
 31
0.0
210
0.0
220
0.0
230
1.0
  0
POINT
  8
DEFPOINTS
  6
CONTINUOUS
 62
    30
 10
465.99983178000213
 20
-650.99999999998568
 30
0.0
  0
POINT
  8
DEFPOINTS
  6
CONTINUOUS
 62
    30
 10
488.0470853920126
 20
-571.9999999999884
 30
0.0
  0
POINT
  8
DEFPOINTS
  6
CONTINUOUS
 62
    30
 10
1042.2861376099979
 20
-571.99999999998829
 30
0.0
  0
LINE
  8
SIZE
  6
CONTINUOUS
 62
    30
 10
-525.5
 20
-636.43427874095505
 30
0.0
 11
-525.5
 21
-1163.862700183565
 31
0.0
  0
LINE
  8
SIZE
  6
CONTINUOUS
 62
    30
 10
525.5
 20
-636.43427874095505
 30
0.0
 11
525.5
 21
-1163.862700183565
 31
0.0
  0
LINE
  8
SIZE
  6
CONTINUOUS
 62
    30
 10
-513.5
 20
-1143.862700183565
 30
0.0
 11
513.5
 21
-1143.862700183565
 31
0.0
  0
CIRCLE
  8
SIZE
  6
CONTINUOUS
 62
    30
 10
-525.5
 20
-1143.862700183565
 30
0.0
 40
6.0
  0
LINE
  8
SIZE
  6
CONTINUOUS
 62
    30
 10
-525.5
 20
-1143.862700183565
 30
0.0
 11
-513.5
 21
-1143.862700183565
 31
0.0
  0
CIRCLE
  8
SIZE
  6
CONTINUOUS
 62
    30
 10
525.5
 20
-1143.862700183565
 30
0.0
 40
6.0
  0
LINE
  8
SIZE
  6
CONTINUOUS
 62
    30
 10
525.5
 20
-1143.862700183565
 30
0.0
 11
513.5
 21
-1143.862700183565
 31
0.0
  0
TEXT
  8
SIZE
  6
CONTINUOUS
 62
    30
 10
-96.191999999999993
 20
-1118.862700183565
 30
0.0
 40
64.0
  1
1051
 50
0.0
 41
0.9
 51
0.0
  7
STANDARD
 71
     0
 72
     1
 11
0.0
 21
-1118.862700183565
 31
0.0
210
0.0
220
0.0
230
1.0
  0
POINT
  8
DEFPOINTS
  6
CONTINUOUS
 62
    30
 10
-525.5
 20
-616.43427874095505
 30
0.0
  0
POINT
  8
DEFPOINTS
  6
CONTINUOUS
 62
    30
 10
525.5
 20
-616.43427874095505
 30
0.0
  0
POINT
  8
DEFPOINTS
  6
CONTINUOUS
 62
    30
 10
525.5
 20
-1143.862700183565
 30
0.0
  0
LINE
  8
SIZE
  6
CONTINUOUS
 62
    30
 10
-545.50000000000364
 20
-604.0
 30
0.0
 11
-545.50000000000364
 21
-1163.8627001835621
 31
0.0
  0
LINE
  8
SIZE
  6
CONTINUOUS
 62
    30
 10
-525.5
 20
-636.43427874095505
 30
0.0
 11
-525.5
 21
-1163.8627001835621
 31
0.0
  0
LINE
  8
SIZE
  6
CONTINUOUS
 62
    30
 10
-513.5
 20
-1143.8627001835621
 30
0.0
 11
-501.5
 21
-1143.8627001835621
 31
0.0
  0
LINE
  8
SIZE
  6
CONTINUOUS
 62
    30
 10
-557.50000000000364
 20
-1143.8627001835621
 30
0.0
 11
-712.75714285714787
 21
-1143.8627001835621
 31
0.0
  0
LINE
  8
SIZE
  6
CONTINUOUS
 62
    30
 10
-525.5
 20
-1143.8627001835621
 30
0.0
 11
-545.50000000000364
 21
-1143.8627001835621
 31
0.0
  0
CIRCLE
  8
SIZE
  6
CONTINUOUS
 62
    30
 10
-525.5
 20
-1143.8627001835621
 30
0.0
 40
6.0
  0
LINE
  8
SIZE
  6
CONTINUOUS
 62
    30
 10
-525.5
 20
-1143.8627001835621
 30
0.0
 11
-513.5
 21
-1143.8627001835621
 31
0.0
  0
CIRCLE
  8
SIZE
  6
CONTINUOUS
 62
    30
 10
-545.50000000000364
 20
-1143.8627001835621
 30
0.0
 40
6.0
  0
LINE
  8
SIZE
  6
CONTINUOUS
 62
    30
 10
-545.50000000000364
 20
-1143.8627001835621
 30
0.0
 11
-557.50000000000364
 21
-1143.8627001835621
 31
0.0
  0
TEXT
  8
SIZE
  6
CONTINUOUS
 62
    30
 10
-695.27257142857638
 20
-1118.8627001835621
 30
0.0
 40
64.0
  1
20
 50
0.0
 41
0.9
 51
0.0
  7
STANDARD
 71
     0
 72
     1
 11
-641.12857142857638
 21
-1118.8627001835621
 31
0.0
210
0.0
220
0.0
230
1.0
  0
POINT
  8
DEFPOINTS
  6
CONTINUOUS
 62
    30
 10
-545.50000000000364
 20
-584.0
 30
0.0
  0
POINT
  8
DEFPOINTS
  6
CONTINUOUS
 62
    30
 10
-525.5
 20
-616.43427874095505
 30
0.0
  0
POINT
  8
DEFPOINTS
  6
CONTINUOUS
 62
    30
 10
-525.5
 20
-1143.8627001835621
 30
0.0
  0
LINE
  8
SIZE
  6
CONTINUOUS
 62
    30
 10
224.00016821999819
 20
-670.99999999998545
 30
0.0
 11
224.0001682199981
 21
-884.78243210218898
 31
0.0
  0
LINE
  8
SIZE
  6
CONTINUOUS
 62
    30
 10
465.99983178000178
 20
-670.99999999998545
 30
0.0
 11
465.99983178000178
 21
-884.78243210218898
 31
0.0
  0
LINE
  8
SIZE
  6
CONTINUOUS
 62
    30
 10
212.00016821999819
 20
-864.78243210218898
 30
0.0
 11
200.00016821999819
 21
-864.78243210218898
 31
0.0
  0
LINE
  8
SIZE
  6
CONTINUOUS
 62
    30
 10
477.99983178000178
 20
-864.78243210218898
 30
0.0
 11
489.99983178000178
 21
-864.78243210218898
 31
0.0
  0
LINE
  8
SIZE
  6
CONTINUOUS
 62
    30
 10
224.00016821999819
 20
-864.78243210218898
 30
0.0
 11
465.99983178000178
 21
-864.78243210218898
 31
0.0
  0
CIRCLE
  8
SIZE
  6
CONTINUOUS
 62
    30
 10
224.00016821999819
 20
-864.78243210218898
 30
0.0
 40
6.0
  0
LINE
  8
SIZE
  6
CONTINUOUS
 62
    30
 10
224.00016821999819
 20
-864.78243210218898
 30
0.0
 11
212.00016821999819
 21
-864.78243210218898
 31
0.0
  0
CIRCLE
  8
SIZE
  6
CONTINUOUS
 62
    30
 10
465.99983178000178
 20
-864.78243210218898
 30
0.0
 40
6.0
  0
LINE
  8
SIZE
  6
CONTINUOUS
 62
    30
 10
465.99983178000178
 20
-864.78243210218898
 30
0.0
 11
477.99983178000178
 21
-864.78243210218898
 31
0.0
  0
TEXT
  8
SIZE
  6
CONTINUOUS
 62
    30
 10
229.512
 20
-839.78243210218898
 30
0.0
 40
64.0
  1
φ242
 50
0.0
 41
0.9
 51
0.0
  7
STANDARD
 71
     0
 72
     1
 11
345.0
 21
-839.78243210218898
 31
0.0
210
0.0
220
0.0
230
1.0
  0
POINT
  8
DEFPOINTS
  6
CONTINUOUS
 62
    30
 10
224.00016821999819
 20
-650.99999999998545
 30
0.0
  0
POINT
  8
DEFPOINTS
  6
CONTINUOUS
 62
    30
 10
465.99983178000178
 20
-650.99999999998545
 30
0.0
  0
POINT
  8
DEFPOINTS
  6
CONTINUOUS
 62
    30
 10
465.99983178000178
 20
-864.78243210218898
 30
0.0
  0
LINE
  8
SIZE
  6
CONTINUOUS
 62
    30
 10
216.00000000000449
 20
-593.69999999999982
 30
0.0
 11
216.00000000000449
 21
-1024.6011865260571
 31
0.0
  0
LINE
  8
SIZE
  6
CONTINUOUS
 62
    30
 10
474.00000000117421
 20
-593.69999999999982
 30
0.0
 11
474.00000000117421
 21
-1024.6011865260571
 31
0.0
  0
LINE
  8
SIZE
  6
CONTINUOUS
 62
    30
 10
228.00000000000449
 20
-1004.6011865260569
 30
0.0
 11
462.00000000117421
 21
-1004.6011865260569
 31
0.0
  0
CIRCLE
  8
SIZE
  6
CONTINUOUS
 62
    30
 10
216.00000000000449
 20
-1004.6011865260569
 30
0.0
 40
6.0
  0
LINE
  8
SIZE
  6
CONTINUOUS
 62
    30
 10
216.00000000000449
 20
-1004.6011865260569
 30
0.0
 11
228.00000000000449
 21
-1004.6011865260569
 31
0.0
  0
CIRCLE
  8
SIZE
  6
CONTINUOUS
 62
    30
 10
474.00000000117421
 20
-1004.6011865260569
 30
0.0
 40
6.0
  0
LINE
  8
SIZE
  6
CONTINUOUS
 62
    30
 10
474.00000000117421
 20
-1004.6011865260569
 30
0.0
 11
462.00000000117421
 21
-1004.6011865260569
 31
0.0
  0
TEXT
  8
SIZE
  6
CONTINUOUS
 62
    30
 10
230.0880000005894
 20
-979.60118652605706
 30
0.0
 40
64.0
  1
φ258
 50
0.0
 41
0.9
 51
0.0
  7
STANDARD
 71
     0
 72
     1
 11
345.00000000058941
 21
-979.60118652605706
 31
0.0
210
0.0
220
0.0
230
1.0
  0
POINT
  8
DEFPOINTS
  6
CONTINUOUS
 62
    30
 10
216.00000000000449
 20
-573.69999999999982
 30
0.0
  0
POINT
  8
DEFPOINTS
  6
CONTINUOUS
 62
    30
 10
474.00000000117421
 20
-573.69999999999982
 30
0.0
  0
POINT
  8
DEFPOINTS
  6
CONTINUOUS
 62
    30
 10
474.00000000117421
 20
-1004.6011865260569
 30
0.0
  0
LINE
  8
SIZE
  6
CONTINUOUS
 62
    30
 10
-610.69999999999663
 20
-480.69999999999982
 30
0.0
 11
-610.69999999999663
 21
-1024.601186526055
 31
0.0
  0
LINE
  8
SIZE
  6
CONTINUOUS
 62
    30
 10
-495.70000000000442
 20
-604.0
 30
0.0
 11
-495.70000000000442
 21
-1024.601186526055
 31
0.0
  0
LINE
  8
SIZE
  6
CONTINUOUS
 62
    30
 10
-507.70000000000442
 20
-1004.601186526055
 30
0.0
 11
-598.69999999999663
 21
-1004.601186526055
 31
0.0
  0
LINE
  8
SIZE
  6
CONTINUOUS
 62
    30
 10
-610.69999999999663
 20
-1004.601186526055
 30
0.0
 11
-799.07142857142696
 21
-1004.601186526055
 31
0.0
  0
CIRCLE
  8
SIZE
  6
CONTINUOUS
 62
    30
 10
-495.70000000000442
 20
-1004.601186526055
 30
0.0
 40
6.0
  0
LINE
  8
SIZE
  6
CONTINUOUS
 62
    30
 10
-495.70000000000442
 20
-1004.601186526055
 30
0.0
 11
-507.70000000000442
 21
-1004.601186526055
 31
0.0
  0
CIRCLE
  8
SIZE
  6
CONTINUOUS
 62
    30
 10
-610.69999999999663
 20
-1004.601186526055
 30
0.0
 40
6.0
  0
LINE
  8
SIZE
  6
CONTINUOUS
 62
    30
 10
-610.69999999999663
 20
-1004.601186526055
 30
0.0
 11
-598.69999999999663
 21
-1004.601186526055
 31
0.0
  0
TEXT
  8
SIZE
  6
CONTINUOUS
 62
    30
 10
-779.81771428571267
 20
-979.60118652605524
 30
0.0
 40
64.0
  1
115
 50
0.0
 41
0.9
 51
0.0
  7
STANDARD
 71
     0
 72
     1
 11
-710.98571428571267
 21
-979.60118652605524
 31
0.0
210
0.0
220
0.0
230
1.0
  0
POINT
  8
DEFPOINTS
  6
CONTINUOUS
 62
    30
 10
-610.69999999999663
 20
-460.69999999999982
 30
0.0
  0
POINT
  8
DEFPOINTS
  6
CONTINUOUS
 62
    30
 10
-495.70000000000442
 20
-584.0
 30
0.0
  0
POINT
  8
DEFPOINTS
  6
CONTINUOUS
 62
    30
 10
-495.70000000000442
 20
-1004.601186526055
 30
0.0
  0
LINE
  8
SIZE
  6
CONTINUOUS
 62
    30
 10
-652.000000930022
 20
245.29999997240071
 30
0.0
 11
-652.000000930022
 21
853.10920376003833
 31
0.0
  0
LINE
  8
SIZE
  6
CONTINUOUS
 62
    30
 10
-502.0
 20
578.04708539198555
 30
0.0
 11
-502.0
 21
853.10920376003833
 31
0.0
  0
LINE
  8
SIZE
  6
CONTINUOUS
 62
    30
 10
-514.0
 20
833.10920376003833
 30
0.0
 11
-640.000000930022
 21
833.10920376003833
 31
0.0
  0
LINE
  8
SIZE
  6
CONTINUOUS
 62
    30
 10
-652.000000930022
 20
833.10920376003833
 30
0.0
 11
-1175.348572358595
 21
833.10920376003833
 31
0.0
  0
CIRCLE
  8
SIZE
  6
CONTINUOUS
 62
    30
 10
-502.0
 20
833.10920376003833
 30
0.0
 40
6.0
  0
LINE
  8
SIZE
  6
CONTINUOUS
 62
    30
 10
-502.0
 20
833.10920376003833
 30
0.0
 11
-514.0
 21
833.10920376003833
 31
0.0
  0
CIRCLE
  8
SIZE
  6
CONTINUOUS
 62
    30
 10
-652.000000930022
 20
833.10920376003833
 30
0.0
 40
6.0
  0
LINE
  8
SIZE
  6
CONTINUOUS
 62
    30
 10
-652.000000930022
 20
833.10920376003833
 30
0.0
 11
-640.000000930022
 21
833.10920376003833
 31
0.0
  0
TEXT
  8
SIZE
  6
CONTINUOUS
 62
    30
 10
-1155.5462866443088
 20
858.10920376003833
 30
0.0
 40
64.0
  1
150 to 250
 50
0.0
 41
0.9
 51
0.0
  7
STANDARD
 71
     0
 72
     1
 11
-919.67428664430884
 21
858.10920376003833
 31
0.0
210
0.0
220
0.0
230
1.0
  0
POINT
  8
DEFPOINTS
  6
CONTINUOUS
 62
    30
 10
-652.000000930022
 20
225.29999997240071
 30
0.0
  0
POINT
  8
DEFPOINTS
  6
CONTINUOUS
 62
    30
 10
-502.0
 20
558.04708539198555
 30
0.0
  0
POINT
  8
DEFPOINTS
  6
CONTINUOUS
 62
    30
 10
-502.0
 20
833.10920376003833
 30
0.0
  0
LINE
  8
SIZE
  6
CONTINUOUS
 62
    30
 10
-1202.000000965782
 20
591.99999999998818
 30
0.0
 11
-1202.000000965782
 21
983.89629114481977
 31
0.0
  0
LINE
  8
SIZE
  6
CONTINUOUS
 62
    30
 10
-502.0
 20
578.04708539198555
 30
0.0
 11
-502.0
 21
983.89629114481977
 31
0.0
  0
LINE
  8
SIZE
  6
CONTINUOUS
 62
    30
 10
-1190.000000965782
 20
963.89629114481977
 30
0.0
 11
-514.0
 21
963.89629114481977
 31
0.0
  0
CIRCLE
  8
SIZE
  6
CONTINUOUS
 62
    30
 10
-1202.000000965782
 20
963.89629114481977
 30
0.0
 40
6.0
  0
LINE
  8
SIZE
  6
CONTINUOUS
 62
    30
 10
-1202.000000965782
 20
963.89629114481977
 30
0.0
 11
-1190.000000965782
 21
963.89629114481977
 31
0.0
  0
CIRCLE
  8
SIZE
  6
CONTINUOUS
 62
    30
 10
-502.0
 20
963.89629114481977
 30
0.0
 40
6.0
  0
LINE
  8
SIZE
  6
CONTINUOUS
 62
    30
 10
-502.0
 20
963.89629114481977
 30
0.0
 11
-514.0
 21
963.89629114481977
 31
0.0
  0
TEXT
  8
SIZE
  6
CONTINUOUS
 62
    30
 10
-1173.4080004828907
 20
988.89629114482
 30
0.0
 40
64.0
  1
more than 600
 50
0.0
 41
0.9
 51
0.0
  7
STANDARD
 71
     0
 72
     1
 11
-852.00000048289075
 21
988.89629114482
 31
0.0
210
0.0
220
0.0
230
1.0
  0
POINT
  8
DEFPOINTS
  6
CONTINUOUS
 62
    30
 10
-1202.000000965782
 20
571.99999999998818
 30
0.0
  0
POINT
  8
DEFPOINTS
  6
CONTINUOUS
 62
    30
 10
-502.0
 20
558.04708539198555
 30
0.0
  0
POINT
  8
DEFPOINTS
  6
CONTINUOUS
 62
    30
 10
-502.0
 20
963.89629114481977
 30
0.0
  0
LINE
  8
SERVICESPACE
  6
DASHDOT
 62
     2
 10
-1102.000000930022
 20
-224.70000002759929
 30
0.0
 11
-1102.000000930022
 21
225.29999997240071
 31
0.0
  0
LINE
  8
SERVICESPACE
  6
DASHDOT
 62
     2
 10
-1102.000000930022
 20
225.29999997240071
 30
0.0
 11
-652.000000930022
 21
225.29999997240071
 31
0.0
  0
LINE
  8
SERVICESPACE
  6
DASHDOT
 62
     2
 10
-652.000000930022
 20
225.29999997240071
 30
0.0
 11
-652.000000930022
 21
-224.70000002759929
 31
0.0
  0
LINE
  8
SERVICESPACE
  6
DASHDOT
 62
     2
 10
-652.000000930022
 20
-224.70000002759929
 30
0.0
 11
-1102.000000930022
 21
-224.70000002759929
 31
0.0
  0
LINE
  8
SIZE
  6
CONTINUOUS
 62
    30
 10
-508.04708539201351
 20
571.9999999999884
 30
0.0
 11
-798.90141909191186
 21
571.99999999998829
 31
0.0
  0
LINE
  8
SIZE
  6
CONTINUOUS
 62
    30
 10
-619.71152448529779
 20
406.99999999998249
 30
0.0
 11
-798.90141909191186
 21
406.99999999998238
 31
0.0
  0
LINE
  8
SIZE
  6
CONTINUOUS
 62
    30
 10
-778.90141909191186
 20
418.99999999998238
 30
0.0
 11
-778.90141909191186
 21
559.99999999998829
 31
0.0
  0
LINE
  8
SIZE
  6
CONTINUOUS
 62
    30
 10
-778.90141909191186
 20
571.99999999998829
 30
0.0
 11
-778.90141909191198
 21
771.14285714284563
 31
0.0
  0
CIRCLE
  8
SIZE
  6
CONTINUOUS
 62
    30
 10
-778.90141909191186
 20
406.99999999998238
 30
0.0
 40
6.0
  0
LINE
  8
SIZE
  6
CONTINUOUS
 62
    30
 10
-778.90141909191186
 20
406.99999999998238
 30
0.0
 11
-778.90141909191186
 21
418.99999999998238
 31
0.0
  0
CIRCLE
  8
SIZE
  6
CONTINUOUS
 62
    30
 10
-778.90141909191186
 20
571.99999999998829
 30
0.0
 40
6.0
  0
LINE
  8
SIZE
  6
CONTINUOUS
 62
    30
 10
-778.90141909191186
 20
571.99999999998829
 30
0.0
 11
-778.90141909191186
 21
559.99999999998829
 31
0.0
  0
TEXT
  8
SIZE
  6
CONTINUOUS
 62
    30
 10
-803.90141909191152
 20
602.97942857141709
 30
0.0
 40
64.0
  1
165
 50
90.0
 41
0.9
 51
0.0
  7
STANDARD
 71
     0
 72
     1
 11
-803.90141909191152
 21
677.57142857141707
 31
0.0
210
0.0
220
0.0
230
1.0
  0
POINT
  8
DEFPOINTS
  6
CONTINUOUS
 62
    30
 10
-488.04708539201351
 20
571.9999999999884
 30
0.0
  0
POINT
  8
DEFPOINTS
  6
CONTINUOUS
 62
    30
 10
-599.71152448529779
 20
406.99999999998249
 30
0.0
  0
POINT
  8
DEFPOINTS
  6
CONTINUOUS
 62
    30
 10
-778.90141909191186
 20
406.99999999998238
 30
0.0
  0
LINE
  8
SIZE
  6
CONTINUOUS
 62
    30
 10
613.75273722293809
 20
406.99999999998289
 30
0.0
 11
788.95216258530138
 21
406.999999999983
 31
0.0
  0
LINE
  8
SIZE
  6
CONTINUOUS
 62
    30
 10
508.04708539201351
 20
571.9999999999884
 30
0.0
 11
788.95216258530138
 21
571.99999999998852
 31
0.0
  0
LINE
  8
SIZE
  6
CONTINUOUS
 62
    30
 10
768.95216258530138
 20
418.999999999983
 30
0.0
 11
768.95216258530138
 21
559.99999999998852
 31
0.0
  0
LINE
  8
SIZE
  6
CONTINUOUS
 62
    30
 10
768.95216258530138
 20
571.99999999998852
 30
0.0
 11
768.95216258530127
 21
834.23486163785276
 31
0.0
  0
CIRCLE
  8
SIZE
  6
CONTINUOUS
 62
    30
 10
768.95216258530138
 20
406.999999999983
 30
0.0
 40
6.0
  0
LINE
  8
SIZE
  6
CONTINUOUS
 62
    30
 10
768.95216258530138
 20
406.999999999983
 30
0.0
 11
768.95216258530138
 21
418.999999999983
 31
0.0
  0
CIRCLE
  8
SIZE
  6
CONTINUOUS
 62
    30
 10
768.95216258530138
 20
571.99999999998852
 30
0.0
 40
6.0
  0
LINE
  8
SIZE
  6
CONTINUOUS
 62
    30
 10
768.95216258530138
 20
571.99999999998852
 30
0.0
 11
768.95216258530138
 21
559.99999999998852
 31
0.0
  0
TEXT
  8
SIZE
  6
CONTINUOUS
 62
    30
 10
743.95216258530127
 20
666.07143306642377
 30
0.0
 40
64.0
  1
165
 50
90.0
 41
0.9
 51
0.0
  7
STANDARD
 71
     0
 72
     1
 11
743.95216258530127
 21
740.66343306642375
 31
0.0
210
0.0
220
0.0
230
1.0
  0
POINT
  8
DEFPOINTS
  6
CONTINUOUS
 62
    30
 10
593.75273722293809
 20
406.99999999998289
 30
0.0
  0
POINT
  8
DEFPOINTS
  6
CONTINUOUS
 62
    30
 10
488.04708539201351
 20
571.9999999999884
 30
0.0
  0
POINT
  8
DEFPOINTS
  6
CONTINUOUS
 62
    30
 10
768.95216258530138
 20
571.99999999998852
 30
0.0
  0
POINT
  8
ARRANGE
  6
CONTINUOUS
 62
     1
 10
0.0
 20
0.0
 30
0.0
 50
270.0
  0
CIRCLE
  8
ARRANGE
  6
CONTINUOUS
 62
     1
 10
0.0
 20
0.0
 30
0.0
 40
40.0
  0
CIRCLE
  8
FIX
  6
CONTINUOUS
 62
    11
 10
-525.5
 20
-565.49999999998545
 30
0.0
 40
6.5
  0
CIRCLE
  8
FIX
  6
CONTINUOUS
 62
    11
 10
525.50000000000455
 20
-565.49999999998545
 30
0.0
 40
6.5
  0
CIRCLE
  8
FIX
  6
CONTINUOUS
 62
    11
 10
525.50000000000455
 20
565.49999999998545
 30
0.0
 40
6.5
  0
CIRCLE
  8
FIX
  6
CONTINUOUS
 62
    11
 10
-525.49999999999955
 20
565.49999999998545
 30
0.0
 40
6.5
  0
LINE
  8
OUTLINE
  6
CONTINUOUS
 62
     3
 10
502.00000000000182
 20
-540.50000000000728
 30
0.0
 11
545.50000000000364
 21
-540.49999999999727
 31
0.0
  0
LINE
  8
OUTLINE
  6
CONTINUOUS
 62
     3
 10
545.50000000000364
 20
-540.49999999999727
 30
0.0
 11
545.50000000000364
 21
-559.0
 31
0.0
  0
LINE
  8
OUTLINE
  6
CONTINUOUS
 62
     3
 10
545.50000000000364
 20
-559.0
 30
0.0
 11
525.49999999999454
 21
-559.00000000000728
 31
0.0
  0
ARC
  8
OUTLINE
  6
CONTINUOUS
 62
     3
 10
525.49999999999454
 20
-565.50000000000728
 30
0.0
 40
6.5
 50
90.0
 51
270.0
  0
LINE
  8
OUTLINE
  6
CONTINUOUS
 62
     3
 10
525.49999999999454
 20
-572.00000000000728
 30
0.0
 11
545.50000000000364
 21
-572.00000000000728
 31
0.0
  0
LINE
  8
OUTLINE
  6
CONTINUOUS
 62
     3
 10
545.50000000000364
 20
-572.00000000000728
 30
0.0
 11
545.50000000000364
 21
-584.0
 31
0.0
  0
LINE
  8
OUTLINE
  6
CONTINUOUS
 62
     3
 10
545.50000000000364
 20
-584.0
 30
0.0
 11
495.69999999999709
 21
-584.00000000000455
 31
0.0
  0
LINE
  8
OUTLINE
  6
CONTINUOUS
 62
     3
 10
495.69999999999709
 20
-584.00000000000455
 30
0.0
 11
495.69990295946172
 21
-572.07507912477865
 31
0.0
  0
ARC
  8
OUTLINE
  6
CONTINUOUS
 62
     3
 10
492.49955554955153
 20
-572.10044792530721
 30
0.0
 40
3.2004479561709935
 50
0.4541678049941424
 51
89.992043259169179
  0
LINE
  8
OUTLINE
  6
CONTINUOUS
 62
     3
 10
492.49999999999909
 20
-568.89999999999691
 30
0.0
 11
491.14708539200268
 21
-568.89999999999691
 31
0.0
  0
LINE
  8
OUTLINE
  6
CONTINUOUS
 62
     3
 10
491.14708539200268
 20
-568.89999999999691
 30
0.0
 11
488.04708539200237
 21
-572.00000000001728
 31
0.0
  0
LINE
  8
OUTLINE
  6
CONTINUOUS
 62
     3
 10
488.04708539200237
 20
-572.00000000001728
 30
0.0
 11
474.00000000117421
 21
-571.99999999998818
 31
0.0
  0
LINE
  8
OUTLINE
  6
CONTINUOUS
 62
     3
 10
474.00000000117421
 20
-571.99999999998818
 30
0.0
 11
473.99999999978633
 21
-573.69999999999459
 31
0.0
  0
LINE
  8
OUTLINE
  6
CONTINUOUS
 62
     3
 10
473.99999999978633
 20
-573.69999999999459
 30
0.0
 11
466.00000000000449
 21
-642.99999999998545
 31
0.0
  0
LINE
  8
OUTLINE
  6
CONTINUOUS
 62
     3
 10
466.00000000000449
 20
-642.99999999998545
 30
0.0
 11
465.99983178000178
 21
-650.99999999998545
 31
0.0
  0
LINE
  8
OUTLINE
  6
CONTINUOUS
 62
     3
 10
465.99983178000178
 20
-650.99999999998545
 30
0.0
 11
224.00016821999819
 21
-650.99999999998545
 31
0.0
  0
LINE
  8
OUTLINE
  6
CONTINUOUS
 62
     3
 10
224.00016821999819
 20
-650.99999999998545
 30
0.0
 11
224.00000000000361
 21
-642.99999999998545
 31
0.0
  0
LINE
  8
OUTLINE
  6
CONTINUOUS
 62
     3
 10
224.00000000000361
 20
-642.99999999998545
 30
0.0
 11
216.00000000000821
 21
-573.69999999999277
 31
0.0
  0
LINE
  8
OUTLINE
  6
CONTINUOUS
 62
     3
 10
216.00000000000821
 20
-573.69999999999277
 30
0.0
 11
216.00000000000449
 21
-571.99999999998818
 31
0.0
  0
LINE
  8
OUTLINE
  6
CONTINUOUS
 62
     3
 10
216.00000000000449
 20
-571.99999999998818
 30
0.0
 11
-215.9999999999973
 21
-572.00000000001796
 31
0.0
  0
LINE
  8
OUTLINE
  6
CONTINUOUS
 62
     3
 10
-215.9999999999973
 20
-572.00000000001796
 30
0.0
 11
-215.9999999990587
 21
-573.70000000001812
 31
0.0
  0
LINE
  8
OUTLINE
  6
CONTINUOUS
 62
     3
 10
-215.9999999990587
 20
-573.70000000001812
 30
0.0
 11
-223.9999999999973
 21
-642.99999999998545
 31
0.0
  0
LINE
  8
OUTLINE
  6
CONTINUOUS
 62
     3
 10
-223.9999999999973
 20
-642.99999999998545
 30
0.0
 11
-223.9999999999973
 21
-650.99999999998545
 31
0.0
  0
LINE
  8
OUTLINE
  6
CONTINUOUS
 62
     3
 10
-223.9999999999973
 20
-650.99999999998545
 30
0.0
 11
-465.99999999999733
 21
-650.99999999998545
 31
0.0
  0
LINE
  8
OUTLINE
  6
CONTINUOUS
 62
     3
 10
-465.99999999999733
 20
-650.99999999998545
 30
0.0
 11
-465.99999999999733
 21
-642.99999999998545
 31
0.0
  0
LINE
  8
OUTLINE
  6
CONTINUOUS
 62
     3
 10
-465.99999999999733
 20
-642.99999999998545
 30
0.0
 11
-474.00000000000551
 21
-573.69999999999391
 31
0.0
  0
LINE
  8
OUTLINE
  6
CONTINUOUS
 62
     3
 10
-474.00000000000551
 20
-573.69999999999391
 30
0.0
 11
-474.00000000000551
 21
-571.99999999998818
 31
0.0
  0
LINE
  8
OUTLINE
  6
CONTINUOUS
 62
     3
 10
-474.00000000000551
 20
-571.99999999998818
 30
0.0
 11
-488.04708539200101
 21
-572.00000000001819
 31
0.0
  0
LINE
  8
OUTLINE
  6
CONTINUOUS
 62
     3
 10
-488.04708539200101
 20
-572.00000000001819
 30
0.0
 11
-489.34708539199443
 21
-570.69999999999982
 31
0.0
  0
LINE
  8
OUTLINE
  6
CONTINUOUS
 62
     3
 10
-489.34708539199443
 20
-570.69999999999982
 30
0.0
 11
-491.19999999999709
 21
-570.69999999999982
 31
0.0
  0
LINE
  8
OUTLINE
  6
CONTINUOUS
 62
     3
 10
-491.19999999999709
 20
-570.69999999999982
 30
0.0
 11
-492.5
 21
-569.4000000000085
 31
0.0
  0
ARC
  8
OUTLINE
  6
CONTINUOUS
 62
     3
 10
-492.50000000000023
 20
-572.60000000000821
 30
0.0
 40
3.1999999999997009
 50
90.0
 51
179.55378893568559
  0
LINE
  8
OUTLINE
  6
CONTINUOUS
 62
     3
 10
-495.69990295946258
 20
-572.57507912478161
 30
0.0
 11
-495.69999999999709
 21
-584.0
 31
0.0
  0
LINE
  8
OUTLINE
  6
CONTINUOUS
 62
     3
 10
-495.69999999999709
 20
-584.0
 30
0.0
 11
-545.50000000000364
 21
-584.0
 31
0.0
  0
LINE
  8
OUTLINE
  6
CONTINUOUS
 62
     3
 10
-545.50000000000364
 20
-584.0
 30
0.0
 11
-545.50000000000364
 21
-572.00000000000091
 31
0.0
  0
LINE
  8
OUTLINE
  6
CONTINUOUS
 62
     3
 10
-545.50000000000364
 20
-572.00000000000091
 30
0.0
 11
-525.50000000000364
 21
-572.0
 31
0.0
  0
ARC
  8
OUTLINE
  6
CONTINUOUS
 62
     3
 10
-525.50000000000364
 20
-565.5
 30
0.0
 40
6.5
 50
270.0
 51
90.0
  0
LINE
  8
OUTLINE
  6
CONTINUOUS
 62
     3
 10
-525.50000000000364
 20
-559.0
 30
0.0
 11
-545.50000000000364
 21
-558.99999999999909
 31
0.0
  0
LINE
  8
OUTLINE
  6
CONTINUOUS
 62
     3
 10
-545.50000000000364
 20
-558.99999999999909
 30
0.0
 11
-545.50000000000364
 21
-540.50000000000728
 31
0.0
  0
LINE
  8
OUTLINE
  6
CONTINUOUS
 62
     3
 10
-545.50000000000364
 20
-540.50000000000728
 30
0.0
 11
-502.00000000000358
 21
-540.50000000000728
 31
0.0
  0
LINE
  8
OUTLINE
  6
CONTINUOUS
 62
     3
 10
-502.00000000000358
 20
-540.50000000000728
 30
0.0
 11
-502.0
 21
-462.30000000000558
 31
0.0
  0
LINE
  8
OUTLINE
  6
CONTINUOUS
 62
     3
 10
-502.0
 20
-462.30000000000558
 30
0.0
 11
-546.19000000000233
 21
-462.30010001002978
 31
0.0
  0
ARC
  8
OUTLINE
  6
CONTINUOUS
 62
     3
 10
-546.19000000000233
 20
-462.80010001002978
 30
0.0
 40
0.4999999999999902
 50
0.0
 51
90.0
  0
LINE
  8
OUTLINE
  6
CONTINUOUS
 62
     3
 10
-545.69000000000233
 20
-462.80010001002978
 30
0.0
 11
-545.69000000000233
 21
-462.92459981003913
 31
0.0
  0
ARC
  8
OUTLINE
  6
CONTINUOUS
 62
     3
 10
-546.19000000000267
 20
-462.92459980987928
 30
0.0
 40
0.5000000000003345
 50
231.3178125642138
 51
0.0
  0
ARC
  8
OUTLINE
  6
CONTINUOUS
 62
     3
 10
-545.69000000000335
 20
-462.30010001004149
 30
0.0
 40
1.2999999999982821
 50
209.40091418819623
 51
231.31781255328656
  0
LINE
  8
OUTLINE
  6
CONTINUOUS
 62
     3
 10
-546.82256777185466
 20
-462.93829296061313
 30
0.0
 11
-552.00000000000091
 21
-465.84943100200923
 31
0.0
  0
LINE
  8
OUTLINE
  6
CONTINUOUS
 62
     3
 10
-552.00000000000091
 20
-465.84943100200923
 30
0.0
 11
-552.00000000000091
 21
-469.44943100200408
 31
0.0
  0
LINE
  8
OUTLINE
  6
CONTINUOUS
 62
     3
 10
-552.00000000000091
 20
-469.44943100200408
 30
0.0
 11
-549.99999999999727
 21
-469.44943100200408
 31
0.0
  0
LINE
  8
OUTLINE
  6
CONTINUOUS
 62
     3
 10
-549.99999999999727
 20
-469.44943100200408
 30
0.0
 11
-549.99999999999727
 21
-473.29943100200632
 31
0.0
  0
LINE
  8
OUTLINE
  6
CONTINUOUS
 62
     3
 10
-549.99999999999727
 20
-473.29943100200632
 30
0.0
 11
-551.699999999998
 21
-473.29943100200632
 31
0.0
  0
LINE
  8
OUTLINE
  6
CONTINUOUS
 62
     3
 10
-551.699999999998
 20
-473.29943100200632
 30
0.0
 11
-551.699999999998
 21
-490.8994310020089
 31
0.0
  0
LINE
  8
OUTLINE
  6
CONTINUOUS
 62
     3
 10
-551.699999999998
 20
-490.8994310020089
 30
0.0
 11
-559.699999999998
 21
-490.8994310020089
 31
0.0
  0
LINE
  8
OUTLINE
  6
CONTINUOUS
 62
     3
 10
-559.699999999998
 20
-490.8994310020089
 30
0.0
 11
-559.699999999998
 21
-473.29943100200632
 31
0.0
  0
LINE
  8
OUTLINE
  6
CONTINUOUS
 62
     3
 10
-559.699999999998
 20
-473.29943100200632
 30
0.0
 11
-561.39999999999509
 21
-473.29943100200632
 31
0.0
  0
LINE
  8
OUTLINE
  6
CONTINUOUS
 62
     3
 10
-561.39999999999509
 20
-473.29943100200632
 30
0.0
 11
-561.39999999999509
 21
-469.69943100200408
 31
0.0
  0
LINE
  8
OUTLINE
  6
CONTINUOUS
 62
     3
 10
-561.39999999999509
 20
-469.69943100200408
 30
0.0
 11
-559.40000000000236
 21
-469.69943100200408
 31
0.0
  0
LINE
  8
OUTLINE
  6
CONTINUOUS
 62
     3
 10
-559.40000000000236
 20
-469.69943100200408
 30
0.0
 11
-559.40000000000236
 21
-465.39943100200531
 31
0.0
  0
LINE
  8
OUTLINE
  6
CONTINUOUS
 62
     3
 10
-559.40000000000236
 20
-465.39943100200531
 30
0.0
 11
-564.53356526977404
 21
-462.87339094910072
 31
0.0
  0
ARC
  8
OUTLINE
  6
CONTINUOUS
 62
     3
 10
-565.70000000001937
 20
-462.29943100269276
 30
0.0
 40
1.3000000000012115
 50
308.68274796755736
 51
333.79988516737978
  0
ARC
  8
OUTLINE
  6
CONTINUOUS
 62
     3
 10
-565.20000000000198
 20
-462.92393080264696
 30
0.0
 40
0.5000000000005866
 50
180.0
 51
308.68364479670117
  0
LINE
  8
OUTLINE
  6
CONTINUOUS
 62
     3
 10
-565.70000000000255
 20
-462.92393080264719
 30
0.0
 11
-565.70000000000255
 21
-462.799431002647
 31
0.0
  0
ARC
  8
OUTLINE
  6
CONTINUOUS
 62
     3
 10
-565.20000000000277
 20
-462.79943100264677
 30
0.0
 40
0.4999999999997962
 50
90.0
 51
180.0
  0
LINE
  8
OUTLINE
  6
CONTINUOUS
 62
     3
 10
-565.20000000000255
 20
-462.299431002647
 30
0.0
 11
-572.90000000001783
 21
-462.29999999999433
 31
0.0
  0
ARC
  8
OUTLINE
  6
CONTINUOUS
 62
     3
 10
-575.90000000001771
 20
-462.29999999999438
 30
0.0
 40
2.9999999999999418
 50
270.0
 51
0.0
  0
LINE
  8
OUTLINE
  6
CONTINUOUS
 62
     3
 10
-575.90000000001783
 20
-465.29999999999433
 30
0.0
 11
-601.90000000001783
 21
-465.29999999999433
 31
0.0
  0
ARC
  8
OUTLINE
  6
CONTINUOUS
 62
     3
 10
-601.90000000001749
 20
-462.29999999999399
 30
0.0
 40
3.00000000000033
 50
180.0
 51
270.0
  0
LINE
  8
OUTLINE
  6
CONTINUOUS
 62
     3
 10
-604.90000000001783
 20
-462.29999999999433
 30
0.0
 11
-609.100000000004
 21
-462.29999999998972
 31
0.0
  0
ARC
  8
OUTLINE
  6
CONTINUOUS
 62
     3
 10
-609.10000000000321
 20
-460.69999999999044
 30
0.0
 40
1.5999999999993086
 50
180.0
 51
270.0
  0
LINE
  8
OUTLINE
  6
CONTINUOUS
 62
     3
 10
-610.70000000000255
 20
-460.69999999998981
 30
0.0
 11
-610.70000000000618
 21
-458.29999999999109
 31
0.0
  0
LINE
  8
OUTLINE
  6
CONTINUOUS
 62
     3
 10
-610.70000000000618
 20
-458.29999999999109
 30
0.0
 11
-611.30000000000109
 21
-458.29999999999109
 31
0.0
  0
LINE
  8
OUTLINE
  6
CONTINUOUS
 62
     3
 10
-611.30000000000109
 20
-458.29999999999109
 30
0.0
 11
-611.29999999999654
 21
-300.49999999999409
 31
0.0
  0
LINE
  8
OUTLINE
  6
CONTINUOUS
 62
     3
 10
-611.29999999999654
 20
-300.49999999999409
 30
0.0
 11
-611.89999999999873
 21
-300.49999999999409
 31
0.0
  0
LINE
  8
OUTLINE
  6
CONTINUOUS
 62
     3
 10
-611.89999999999873
 20
-300.49999999999409
 30
0.0
 11
-611.90000000000236
 21
-289.09999999999673
 31
0.0
  0
ARC
  8
OUTLINE
  6
CONTINUOUS
 62
     3
 10
-610.70000000000221
 20
-289.09999999999712
 30
0.0
 40
1.20000000000021
 50
90.0
 51
180.0
  0
LINE
  8
OUTLINE
  6
CONTINUOUS
 62
     3
 10
-610.70000000000164
 20
-287.89999999999691
 30
0.0
 11
-501.99999999998641
 21
-287.89999999999691
 31
0.0
  0
LINE
  8
OUTLINE
  6
CONTINUOUS
 62
     3
 10
-501.99999999998641
 20
-287.89999999999691
 30
0.0
 11
-502.0
 21
-227.5000000000027
 31
0.0
  0
LINE
  8
OUTLINE
  6
CONTINUOUS
 62
     3
 10
-502.0
 20
-227.5000000000027
 30
0.0
 11
-513.699999999998
 21
-227.5000000000085
 31
0.0
  0
ARC
  8
OUTLINE
  6
CONTINUOUS
 62
     3
 10
-513.69999999999823
 20
-225.10000000000872
 30
0.0
 40
2.3999999999997885
 50
157.96421970718893
 51
270.0
  0
LINE
  8
OUTLINE
  6
CONTINUOUS
 62
     3
 10
-515.92467937119227
 20
-224.19955472383549
 30
0.0
 11
-530.09999999999854
 21
-224.19999999999979
 31
0.0
  0
ARC
  8
OUTLINE
  6
CONTINUOUS
 62
     3
 10
-530.09999999999854
 20
-223.60000000000124
 30
0.0
 40
0.5999999999985448
 50
90.0
 51
270.0
  0
LINE
  8
OUTLINE
  6
CONTINUOUS
 62
     3
 10
-530.09999999999854
 20
-223.0000000000027
 30
0.0
 11
-514.98032203599814
 21
-223.00000000001731
 31
0.0
  0
LINE
  8
OUTLINE
  6
CONTINUOUS
 62
     3
 10
-514.98032203599814
 20
-223.00000000001731
 30
0.0
 11
-510.97920730600163
 21
-219.1361684200119
 31
0.0
  0
LINE
  8
OUTLINE
  6
CONTINUOUS
 62
     3
 10
-510.97920730600163
 20
-219.1361684200119
 30
0.0
 11
-510.20000000000442
 21
-219.94306120601229
 31
0.0
  0
LINE
  8
OUTLINE
  6
CONTINUOUS
 62
     3
 10
-510.20000000000442
 20
-219.94306120601229
 30
0.0
 11
-510.20000000000442
 21
222.0000000000027
 31
0.0
  0
LINE
  8
OUTLINE
  6
CONTINUOUS
 62
     3
 10
-510.20000000000442
 20
222.0000000000027
 30
0.0
 11
-516.20000000000073
 21
222.00000000000051
 31
0.0
  0
ARC
  8
OUTLINE
  6
CONTINUOUS
 62
     3
 10
-516.20000000000755
 20
221.00000000001097
 30
0.0
 40
0.9999999999895487
 50
90.0
 51
180.0
  0
LINE
  8
OUTLINE
  6
CONTINUOUS
 62
     3
 10
-517.19999999999709
 20
221.00000000000091
 30
0.0
 11
-517.19999999999709
 21
220.5000000000027
 31
0.0
  0
LINE
  8
OUTLINE
  6
CONTINUOUS
 62
     3
 10
-517.19999999999709
 20
220.5000000000027
 30
0.0
 11
-518.30000000000291
 21
220.50000000000091
 31
0.0
  0
LINE
  8
OUTLINE
  6
CONTINUOUS
 62
     3
 10
-518.30000000000291
 20
220.50000000000091
 30
0.0
 11
-518.30000000000291
 21
217.00000000000449
 31
0.0
  0
LINE
  8
OUTLINE
  6
CONTINUOUS
 62
     3
 10
-518.30000000000291
 20
217.00000000000449
 30
0.0
 11
-521.29999999999927
 21
217.00000000000449
 31
0.0
  0
LINE
  8
OUTLINE
  6
CONTINUOUS
 62
     3
 10
-521.29999999999927
 20
217.00000000000449
 30
0.0
 11
-521.29999999999927
 21
220.50000000000091
 31
0.0
  0
LINE
  8
OUTLINE
  6
CONTINUOUS
 62
     3
 10
-521.29999999999927
 20
220.50000000000091
 30
0.0
 11
-522.39999999999964
 21
220.5000000000027
 31
0.0
  0
LINE
  8
OUTLINE
  6
CONTINUOUS
 62
     3
 10
-522.39999999999964
 20
220.5000000000027
 30
0.0
 11
-522.39999999999964
 21
221.0000000000027
 31
0.0
  0
ARC
  8
OUTLINE
  6
CONTINUOUS
 62
     3
 10
-523.39999999999452
 20
221.00000000000568
 30
0.0
 40
0.9999999999948377
 50
0.0
 51
90.0
  0
LINE
  8
OUTLINE
  6
CONTINUOUS
 62
     3
 10
-523.40000000000146
 20
222.00000000000051
 30
0.0
 11
-530.29662449600437
 21
222.0000000000027
 31
0.0
  0
LINE
  8
OUTLINE
  6
CONTINUOUS
 62
     3
 10
-530.29662449600437
 20
222.0000000000027
 30
0.0
 11
-522.45809641398864
 21
210.80542174200949
 31
0.0
  0
ARC
  8
OUTLINE
  6
CONTINUOUS
 62
     3
 10
-525.56526340750088
 20
208.62632216197451
 30
0.0
 40
3.7951234110738219
 50
334.95748472171886
 51
35.042515326805017
  0
LINE
  8
OUTLINE
  6
CONTINUOUS
 62
     3
 10
-522.12690458999805
 20
207.01988189001261
 30
0.0
 11
-531.30028585625769
 21
187.34750228008761
 31
0.0
  0
ARC
  8
OUTLINE
  6
CONTINUOUS
 62
     3
 10
-532.29722435946974
 20
187.81238250241964
 30
0.0
 40
1.1000000001373875
 50
155.00000772349256
 51
334.99999227814396
  0
LINE
  8
OUTLINE
  6
CONTINUOUS
 62
     3
 10
-533.29416298800061
 20
188.27726245600479
 30
0.0
 11
-524.12078172199926
 21
207.9496420660025
 31
0.0
  0
ARC
  8
OUTLINE
  6
CONTINUOUS
 62
     3
 10
-525.57087418324193
 20
208.62583128355752
 30
0.0
 40
1.6000000012782736
 50
335.00000006994856
 51
34.999999987748083
  0
LINE
  8
OUTLINE
  6
CONTINUOUS
 62
     3
 10
-524.2602309111362
 20
209.54355358217211
 30
0.0
 11
-526.68046074800077
 21
212.9999999999882
 31
0.0
  0
LINE
  8
OUTLINE
  6
CONTINUOUS
 62
     3
 10
-526.68046074800077
 20
212.9999999999882
 30
0.0
 11
-531.80000000000291
 21
213.00000000000139
 31
0.0
  0
LINE
  8
OUTLINE
  6
CONTINUOUS
 62
     3
 10
-531.80000000000291
 20
213.00000000000139
 30
0.0
 11
-531.79999999999927
 21
211.90000000000421
 31
0.0
  0
LINE
  8
OUTLINE
  6
CONTINUOUS
 62
     3
 10
-531.79999999999927
 20
211.90000000000421
 30
0.0
 11
-532.29999999999563
 21
211.90000000000421
 31
0.0
  0
ARC
  8
OUTLINE
  6
CONTINUOUS
 62
     3
 10
-532.29999999999461
 20
210.89999999999958
 30
0.0
 40
1.0000000000046383
 50
90.0
 51
180.0
  0
LINE
  8
OUTLINE
  6
CONTINUOUS
 62
     3
 10
-533.29999999999927
 20
210.89999999999739
 30
0.0
 11
-533.30000000000473
 21
208.0000000000027
 31
0.0
  0
LINE
  8
OUTLINE
  6
CONTINUOUS
 62
     3
 10
-533.30000000000473
 20
208.0000000000027
 30
0.0
 11
-538.29999999999927
 21
208.00000000000321
 31
0.0
  0
ARC
  8
OUTLINE
  6
CONTINUOUS
 62
     3
 10
-538.29999999999939
 20
211.00000000000315
 30
0.0
 40
2.9999999999999418
 50
180.0
 51
270.0
  0
LINE
  8
OUTLINE
  6
CONTINUOUS
 62
     3
 10
-541.29999999999927
 20
211.00000000000321
 30
0.0
 11
-541.29999999999927
 21
218.00000000000409
 31
0.0
  0
ARC
  8
OUTLINE
  6
CONTINUOUS
 62
     3
 10
-538.29999999999916
 20
218.00000000000352
 30
0.0
 40
3.0000000000000875
 50
90.0
 51
180.0
  0
LINE
  8
OUTLINE
  6
CONTINUOUS
 62
     3
 10
-538.29999999999927
 20
221.00000000000361
 30
0.0
 11
-534.29999999999927
 21
221.00000000000091
 31
0.0
  0
ARC
  8
OUTLINE
  6
CONTINUOUS
 62
     3
 10
-532.30000000004929
 20
221.00000000002024
 30
0.0
 40
1.9999999999499922
 50
119.20241151323643
 51
180.0
  0
ARC
  8
OUTLINE
  6
CONTINUOUS
 62
     3
 10
-529.63950178757796
 20
223.85104638605841
 30
0.0
 40
3.8005493109119497
 50
95.004781038698184
 51
196.90654328498249
  0
LINE
  8
OUTLINE
  6
CONTINUOUS
 62
     3
 10
-529.9710574139981
 20
227.6371058059913
 30
0.0
 11
-502.0
 21
230.08425623599311
 31
0.0
  0
LINE
  8
OUTLINE
  6
CONTINUOUS
 62
     3
 10
-502.0
 20
230.08425623599311
 30
0.0
 11
-502.00000000000318
 21
540.5
 31
0.0
  0
LINE
  8
OUTLINE
  6
CONTINUOUS
 62
     3
 10
-502.00000000000318
 20
540.5
 30
0.0
 11
-545.50000000000318
 21
540.50000000001046
 31
0.0
  0
LINE
  8
OUTLINE
  6
CONTINUOUS
 62
     3
 10
-545.50000000000318
 20
540.50000000001046
 30
0.0
 11
-545.50000000000318
 21
558.99999999999955
 31
0.0
  0
LINE
  8
OUTLINE
  6
CONTINUOUS
 62
     3
 10
-545.50000000000318
 20
558.99999999999955
 30
0.0
 11
-525.50000000000318
 21
559.00000000000136
 31
0.0
  0
ARC
  8
OUTLINE
  6
CONTINUOUS
 62
     3
 10
-525.50000000000318
 20
565.50000000000136
 30
0.0
 40
6.5
 50
270.0
 51
90.0
  0
LINE
  8
OUTLINE
  6
CONTINUOUS
 62
     3
 10
-525.50000000000318
 20
572.00000000000136
 30
0.0
 11
-545.50000000000318
 21
572.0
 31
0.0
  0
LINE
  8
OUTLINE
  6
CONTINUOUS
 62
     3
 10
-545.50000000000318
 20
572.0
 30
0.0
 11
-545.50000000000318
 21
584.0
 31
0.0
  0
LINE
  8
OUTLINE
  6
CONTINUOUS
 62
     3
 10
-545.50000000000318
 20
584.0
 30
0.0
 11
-495.70000000000567
 21
584.00000000000728
 31
0.0
  0
LINE
  8
OUTLINE
  6
CONTINUOUS
 62
     3
 10
-495.70000000000567
 20
584.00000000000728
 30
0.0
 11
-495.69990295946258
 21
572.07507912476126
 31
0.0
  0
ARC
  8
OUTLINE
  6
CONTINUOUS
 62
     3
 10
-492.49999999999955
 20
572.09999999999434
 30
0.0
 40
3.2000000000004163
 50
180.44621106443037
 51
261.63579480900466
  0
LINE
  8
OUTLINE
  6
CONTINUOUS
 62
     3
 10
-492.96548788734663
 20
568.93403710906591
 30
0.0
 11
-491.19999999999709
 21
570.69999999999982
 31
0.0
  0
LINE
  8
OUTLINE
  6
CONTINUOUS
 62
     3
 10
-491.19999999999709
 20
570.69999999999982
 30
0.0
 11
-489.34708539200159
 21
570.69999999999982
 31
0.0
  0
LINE
  8
OUTLINE
  6
CONTINUOUS
 62
     3
 10
-489.34708539200159
 20
570.69999999999982
 30
0.0
 11
-488.04708539201329
 21
571.99999999998818
 31
0.0
  0
LINE
  8
OUTLINE
  6
CONTINUOUS
 62
     3
 10
-488.04708539201329
 20
571.99999999998818
 30
0.0
 11
-474.000000000005
 21
571.99999999998818
 31
0.0
  0
LINE
  8
OUTLINE
  6
CONTINUOUS
 62
     3
 10
-474.000000000005
 20
571.99999999998818
 30
0.0
 11
-474.000000000005
 21
573.69999999998527
 31
0.0
  0
LINE
  8
OUTLINE
  6
CONTINUOUS
 62
     3
 10
-474.000000000005
 20
573.69999999998527
 30
0.0
 11
-465.99999999999682
 21
642.99999999998545
 31
0.0
  0
LINE
  8
OUTLINE
  6
CONTINUOUS
 62
     3
 10
-465.99999999999682
 20
642.99999999998545
 30
0.0
 11
-465.99999999999682
 21
650.99999999998545
 31
0.0
  0
LINE
  8
OUTLINE
  6
CONTINUOUS
 62
     3
 10
-465.99999999999682
 20
650.99999999998545
 30
0.0
 11
-224.00016821999819
 21
650.99999999998545
 31
0.0
  0
LINE
  8
OUTLINE
  6
CONTINUOUS
 62
     3
 10
-224.00016821999819
 20
650.99999999998545
 30
0.0
 11
-223.9999999999973
 21
642.99999999998545
 31
0.0
  0
LINE
  8
OUTLINE
  6
CONTINUOUS
 62
     3
 10
-223.9999999999973
 20
642.99999999998545
 30
0.0
 11
-215.99999999906689
 21
573.69999999998163
 31
0.0
  0
LINE
  8
OUTLINE
  6
CONTINUOUS
 62
     3
 10
-215.99999999906689
 20
573.69999999998163
 30
0.0
 11
-215.99999999999639
 21
571.99999999997726
 31
0.0
  0
LINE
  8
OUTLINE
  6
CONTINUOUS
 62
     3
 10
-215.99999999999639
 20
571.99999999997726
 30
0.0
 11
216.0
 21
571.99999999999636
 31
0.0
  0
LINE
  8
OUTLINE
  6
CONTINUOUS
 62
     3
 10
216.0
 20
571.99999999999636
 30
0.0
 11
216.0
 21
573.70000000000687
 31
0.0
  0
LINE
  8
OUTLINE
  6
CONTINUOUS
 62
     3
 10
216.0
 20
573.70000000000687
 30
0.0
 11
224.00000000000361
 21
642.99999999998545
 31
0.0
  0
LINE
  8
OUTLINE
  6
CONTINUOUS
 62
     3
 10
224.00000000000361
 20
642.99999999998545
 30
0.0
 11
224.00016821999819
 21
650.99999999998545
 31
0.0
  0
LINE
  8
OUTLINE
  6
CONTINUOUS
 62
     3
 10
224.00016821999819
 20
650.99999999998545
 30
0.0
 11
466.00000000000449
 21
650.99999999998545
 31
0.0
  0
LINE
  8
OUTLINE
  6
CONTINUOUS
 62
     3
 10
466.00000000000449
 20
650.99999999998545
 30
0.0
 11
466.00000000000449
 21
642.99999999998545
 31
0.0
  0
LINE
  8
OUTLINE
  6
CONTINUOUS
 62
     3
 10
466.00000000000449
 20
642.99999999998545
 30
0.0
 11
474.00000000117421
 21
573.69999999999982
 31
0.0
  0
LINE
  8
OUTLINE
  6
CONTINUOUS
 62
     3
 10
474.00000000117421
 20
573.69999999999982
 30
0.0
 11
474.00000000117421
 21
571.99999999998818
 31
0.0
  0
LINE
  8
OUTLINE
  6
CONTINUOUS
 62
     3
 10
474.00000000117421
 20
571.99999999998818
 30
0.0
 11
488.04708539201238
 21
571.99999999998863
 31
0.0
  0
LINE
  8
OUTLINE
  6
CONTINUOUS
 62
     3
 10
488.04708539201238
 20
571.99999999998863
 30
0.0
 11
491.14708539200359
 21
568.89999999999691
 31
0.0
  0
LINE
  8
OUTLINE
  6
CONTINUOUS
 62
     3
 10
491.14708539200359
 20
568.89999999999691
 30
0.0
 11
492.5
 21
568.89999999999691
 31
0.0
  0
ARC
  8
OUTLINE
  6
CONTINUOUS
 62
     3
 10
492.50000000000409
 20
572.09999999999297
 30
0.0
 40
3.1999999999961224
 50
270.0
 51
359.55378893501938
  0
LINE
  8
OUTLINE
  6
CONTINUOUS
 62
     3
 10
495.69990295946258
 20
572.0750791247292
 30
0.0
 11
495.69999999998799
 21
584.00000000000273
 31
0.0
  0
LINE
  8
OUTLINE
  6
CONTINUOUS
 62
     3
 10
495.69999999998799
 20
584.00000000000273
 30
0.0
 11
545.49999999999454
 21
584.00000000000273
 31
0.0
  0
LINE
  8
OUTLINE
  6
CONTINUOUS
 62
     3
 10
545.49999999999454
 20
584.00000000000273
 30
0.0
 11
545.49999999999454
 21
572.0
 31
0.0
  0
LINE
  8
OUTLINE
  6
CONTINUOUS
 62
     3
 10
545.49999999999454
 20
572.0
 30
0.0
 11
525.49999999999636
 21
572.00000000000136
 31
0.0
  0
ARC
  8
OUTLINE
  6
CONTINUOUS
 62
     3
 10
525.49999999999636
 20
565.50000000000136
 30
0.0
 40
6.5
 50
90.0
 51
270.0
  0
LINE
  8
OUTLINE
  6
CONTINUOUS
 62
     3
 10
525.49999999999636
 20
559.00000000000136
 30
0.0
 11
545.49999999999454
 21
558.99999999999955
 31
0.0
  0
LINE
  8
OUTLINE
  6
CONTINUOUS
 62
     3
 10
545.49999999999454
 20
558.99999999999955
 30
0.0
 11
545.49999999999454
 21
540.50000000001046
 31
0.0
  0
LINE
  8
OUTLINE
  6
CONTINUOUS
 62
     3
 10
545.49999999999454
 20
540.50000000001046
 30
0.0
 11
501.99999999998909
 21
540.50000000001364
 31
0.0
  0
LINE
  8
OUTLINE
  6
CONTINUOUS
 62
     3
 10
501.99999999998909
 20
540.50000000001364
 30
0.0
 11
502.00000000000182
 21
-540.50000000000728
 31
0.0
  0
TEXT
  8
NOTE
  6
CONTINUOUS
 62
     4
 10
-398.66483443206198
 20
-736.46170204015289
 30
0.0
 40
64.065641025638456
  1
SA
 41
0.9
  0
TEXT
  8
NOTE
  6
CONTINUOUS
 62
     4
 10
296.36617438434041
 20
-736.46170204015289
 30
0.0
 40
64.065641025638456
  1
RA
 41
0.9
  0
TEXT
  8
NOTE
  6
CONTINUOUS
 62
     4
 10
-1095.0160009300275
 20
126.69999997240063
 30
0.0
 40
64.0
  1
Inspection
 50
0.0
 41
0.9
 51
0.0
  7
STANDARD
 71
     0
 72
     1
 11
-877.00000093002745
 21
126.69999997240063
 31
0.0
210
0.0
220
0.0
230
1.0
  0
TEXT
  8
NOTE
  6
CONTINUOUS
 62
     4
 10
-1042.6000009300274
 20
21.099999972400639
 30
0.0
 40
64.0
  1
opening
 50
0.0
 41
0.9
 51
0.0
  7
STANDARD
 71
     0
 72
     1
 11
-877.00000093002734
 21
21.099999972400639
 31
0.0
210
0.0
220
0.0
230
1.0
  0
TEXT
  8
NOTE
  6
CONTINUOUS
 62
     4
 10
-1067.3680009300274
 20
-84.500000027599356
 30
0.0
 40
64.0
  1
450X450
 50
0.0
 41
0.9
 51
0.0
  7
STANDARD
 71
     0
 72
     1
 11
-877.00000093002734
 21
-84.500000027599356
 31
0.0
210
0.0
220
0.0
230
1.0
  0
TEXT
  8
NOTE
  6
CONTINUOUS
 62
     4
 10
-1046.3440009300275
 20
-190.10000002759935
 30
0.0
 40
64.0
  1
or more
 50
0.0
 41
0.9
 51
0.0
  7
STANDARD
 71
     0
 72
     1
 11
-877.00000093002745
 21
-190.10000002759935
 31
0.0
210
0.0
220
0.0
230
1.0
  0
TEXT
  8
ETC
  6
CONTINUOUS
 62
    61
 10
996.58463569237574
 20
1420.759395086269
 30
0.0
 40
64.065641025638456
  1
LGH-80RVX3-E_1
 41
0.9
  0
TEXT
  8
ETC
  6
CONTINUOUS
 62
    61
 10
992.39434836519649
 20
1302.683105266299
 30
0.0
 40
64.065641025638456
  1
LOSSNAY
 41
0.9
  0
TEXT
  8
ETC
  6
CONTINUOUS
 62
    61
 10
1043.14774804785
 20
1194.4234105617329
 30
0.0
 40
40.041025641024042
  1
LGH-80RVX3-E
 50
0.0
 41
0.9
 51
0.0
  7
STANDARD
 71
     0
 11
0.0
 21
0.0
 31
0.0
210
0.0
220
0.0
230
1.0
  0
TEXT
  8
NOTE
  6
CONTINUOUS
 62
     4
 10
-398.66483443206198
 20
672.39606101451454
 30
0.0
 40
64.065641025638456
  1
OA
 41
0.9
  0
TEXT
  8
NOTE
  6
CONTINUOUS
 62
     4
 10
296.36617438434041
 20
672.39606101451454
 30
0.0
 40
64.065641025638456
  1
EA
 41
0.9
  0
TEXT
  8
NOTE
  6
CONTINUOUS
 62
     4
 10
-1311.6541472795916
 20
-697.88941534897094
 30
0.0
 40
69.0
  1
Power supply
 50
0.0
 41
0.9
 51
0.0
  7
STANDARD
 71
     0
 72
     2
 11
-707.42114727959142
 21
-697.88941534897094
 31
0.0
210
0.0
220
0.0
230
1.0
  0
TEXT
  8
NOTE
  6
CONTINUOUS
 62
     4
 10
-1339.5991472795915
 20
-811.73941534897097
 30
0.0
 40
69.0
  1
cable opening
 50
0.0
 41
0.9
 51
0.0
  7
STANDARD
 71
     0
 72
     2
 11
-707.42114727959142
 21
-811.73941534897097
 31
0.0
210
0.0
220
0.0
230
1.0
  0
LINE
  8
NOTE
  6
CONTINUOUS
 62
     4
 10
-697.42114727959142
 20
-835.88941534897094
 30
0.0
 11
-1349.121147279591
 21
-835.88941534897094
 31
0.0
  0
LINE
  8
NOTE
  6
CONTINUOUS
 62
     4
 10
-606.95582936728078
 20
-496.71557892069751
 30
0.0
 11
-588.90000000000236
 21
-465.30000000000558
 31
0.0
  0
LINE
  8
NOTE
  6
CONTINUOUS
 62
     4
 10
-588.90000000000236
 20
-465.30000000000558
 30
0.0
 11
-588.82896285460708
 21
-501.53460399655114
 31
0.0
  0
LINE
  8
NOTE
  6
CONTINUOUS
 62
     4
 10
-588.90000000000236
 20
-465.30000000000558
 30
0.0
 11
-606.8847922218855
 21
-532.95018291724307
 31
0.0
  0
LINE
  8
NOTE
  6
CONTINUOUS
 62
     4
 10
-606.8847922218855
 20
-532.95018291724318
 30
0.0
 11
-687.42114727959142
 21
-835.88941534897094
 31
0.0
  0
LINE
  8
NOTE
  6
CONTINUOUS
 62
     4
 10
-687.42114727959142
 20
-835.88941534897094
 30
0.0
 11
-697.42114727959142
 21
-835.88941534897094
 31
0.0
  0
TEXT
  8
NOTE
  6
CONTINUOUS
 62
     4
 10
667.00887594879259
 20
1015.0091997955419
 30
0.0
 40
69.0
  1
Ceiling suspension fixture
 50
0.0
 41
0.9
 51
0.0
  7
STANDARD
 71
     0
 11
0.0
 21
0.0
 31
0.0
210
0.0
220
0.0
230
1.0
  0
TEXT
  8
NOTE
  6
CONTINUOUS
 62
     4
 10
667.00887594879259
 20
901.15919979554189
 30
0.0
 40
69.0
  1
(4-13X20 oval)
 50
0.0
 41
0.9
 51
0.0
  7
STANDARD
 71
     0
 11
0.0
 21
0.0
 31
0.0
210
0.0
220
0.0
230
1.0
  0
LINE
  8
NOTE
  6
CONTINUOUS
 62
     4
 10
657.00887594879259
 20
863.86634265268412
 30
0.0
 11
1873.5231616630781
 21
863.86634265268412
 31
0.0
  0
LINE
  8
NOTE
  6
CONTINUOUS
 62
     4
 10
547.38655315539847
 20
594.37785669963012
 30
0.0
 11
525.50000295708105
 21
565.50000197530835
 31
0.0
  0
LINE
  8
NOTE
  6
CONTINUOUS
 62
     4
 10
525.50000295708105
 20
565.50000197530835
 30
0.0
 11
530.01532988987219
 21
601.45223967691061
 31
0.0
  0
LINE
  8
NOTE
  6
CONTINUOUS
 62
     4
 10
525.50000295708105
 20
565.50000197530835
 30
0.0
 11
551.90188008818961
 21
630.33009440123237
 31
0.0
  0
LINE
  8
NOTE
  6
CONTINUOUS
 62
     4
 10
551.9018800881895
 20
630.33009440123237
 30
0.0
 11
647.00887594879259
 21
863.86634265268412
 31
0.0
  0
LINE
  8
NOTE
  6
CONTINUOUS
 62
     4
 10
647.00887594879259
 20
863.86634265268412
 30
0.0
 11
657.00887594879259
 21
863.86634265268412
 31
0.0
  0
ENDSEC
  0
EOF
