  0
SECTION
  2
HEADER
  9
$ACADVER
  1
AC1009
  9
$DWGCODEPAGE
  3
dos932
  9
$INSBASE
 10
0.0
 20
0.0
 30
0.0
  9
$EXTMIN
 10
-1090.8187706033
 20
-584.47264470680784
 30
-0.0000000349181948
  9
$EXTMAX
 10
1920.6024296006649
 20
834.09119482861206
 30
0.0000000814935746
  9
$LIMMIN
 10
-2970.0
 20
-2100.0
  9
$LIMMAX
 10
2970.0
 20
2100.0
  9
$ORTHOMODE
 70
     1
  9
$REGENMODE
 70
     1
  9
$FILLMODE
 70
     1
  9
$QTEXTMODE
 70
     0
  9
$MIRRTEXT
 70
     0
  9
$LTSCALE
 40
20.0
  9
$ATTMODE
 70
     1
  9
$TEXTSIZE
 40
64.0
  9
$TRACEWID
 40
0.05
  9
$TEXTSTYLE
  7
STANDARD
  9
$CLAYER
  8
SIZE
  9
$CELTYPE
  6
CONTINUOUS
  9
$CECOLOR
 62
     7
  9
$DIMSCALE
 40
1.0
  9
$DIMASZ
 40
12.0
  9
$DIMEXO
 40
20.0
  9
$DIMDLI
 40
200.0
  9
$DIMRND
 40
0.0
  9
$DIMDLE
 40
0.0
  9
$DIMEXE
 40
20.0
  9
$DIMTP
 40
0.0
  9
$DIMTM
 40
0.0
  9
$DIMTXT
 40
64.0
  9
$DIMCEN
 40
0.09
  9
$DIMTSZ
 40
0.0
  9
$DIMTOL
 70
     0
  9
$DIMLIM
 70
     0
  9
$DIMTIH
 70
     0
  9
$DIMTOH
 70
     0
  9
$DIMSE1
 70
     0
  9
$DIMSE2
 70
     0
  9
$DIMTAD
 70
     1
  9
$DIMZIN
 70
     8
  9
$DIMBLK
  1

  9
$DIMASO
 70
     1
  9
$DIMSHO
 70
     0
  9
$DIMPOST
  1

  9
$DIMAPOST
  1

  9
$DIMALT
 70
     0
  9
$DIMALTD
 70
     2
  9
$DIMALTF
 40
25.399999999999999
  9
$DIMLFAC
 40
1.0
  9
$DIMTOFL
 70
     1
  9
$DIMTVP
 40
0.0
  9
$DIMTIX
 70
     1
  9
$DIMSOXD
 70
     0
  9
$DIMSAH
 70
     0
  9
$DIMBLK1
  1

  9
$DIMBLK2
  1

  9
$DIMSTYLE
  2
STANDARD
  9
$DIMCLRD
 70
     7
  9
$DIMCLRE
 70
     7
  9
$DIMCLRT
 70
     7
  9
$DIMTFAC
 40
1.0
  9
$DIMGAP
 40
25.0
  9
$LUNITS
 70
     2
  9
$LUPREC
 70
     4
  9
$SKETCHINC
 40
0.1
  9
$FILLETRAD
 40
3.0
  9
$AUNITS
 70
     1
  9
$AUPREC
 70
     3
  9
$MENU
  1
ACAD
  9
$ELEVATION
 40
0.0
  9
$PELEVATION
 40
0.0
  9
$THICKNESS
 40
0.0
  9
$LIMCHECK
 70
     0
  9
$CHAMFERA
 40
0.0
  9
$CHAMFERB
 40
0.0
  9
$SKPOLY
 70
     0
  9
$TDCREATE
 40
2453019.62301037
  9
$TDUPDATE
 40
2460045.428928114
  9
$TDINDWG
 40
1.7163585764
  9
$TDUSRTIMER
 40
1.7163585764
  9
$USRTIMER
 70
     1
  9
$ANGBASE
 50
0.0
  9
$ANGDIR
 70
     0
  9
$PDMODE
 70
     3
  9
$PDSIZE
 40
-2.0
  9
$PLINEWID
 40
0.0
  9
$SPLFRAME
 70
     0
  9
$SPLINETYPE
 70
     6
  9
$SPLINESEGS
 70
     8
  9
$SURFTAB1
 70
     6
  9
$SURFTAB2
 70
     6
  9
$SURFTYPE
 70
     6
  9
$SURFU
 70
     6
  9
$SURFV
 70
     6
  9
$UCSNAME
  2

  9
$UCSORG
 10
0.0
 20
0.0
 30
0.0
  9
$UCSXDIR
 10
1.0
 20
0.0
 30
0.0
  9
$UCSYDIR
 10
0.0
 20
1.0
 30
0.0
  9
$PUCSNAME
  2

  9
$PUCSORG
 10
0.0
 20
0.0
 30
0.0
  9
$PUCSXDIR
 10
1.0
 20
0.0
 30
0.0
  9
$PUCSYDIR
 10
0.0
 20
1.0
 30
0.0
  9
$USERI1
 70
     0
  9
$USERI2
 70
     0
  9
$USERI3
 70
     0
  9
$USERI4
 70
     0
  9
$USERI5
 70
     0
  9
$USERR1
 40
20.0
  9
$USERR2
 40
0.0
  9
$USERR3
 40
0.0
  9
$USERR4
 40
0.0
  9
$USERR5
 40
0.0
  9
$WORLDVIEW
 70
     1
  9
$SHADEDGE
 70
     3
  9
$SHADEDIF
 70
    70
  9
$TILEMODE
 70
     1
  9
$MAXACTVP
 70
    48
  9
$PINSBASE
 10
0.0
 20
0.0
 30
0.0
  9
$PLIMCHECK
 70
     0
  9
$PEXTMIN
 10
-100000000000000000000.0
 20
-100000000000000000000.0
 30
-100000000000000000000.0
  9
$PEXTMAX
 10
100000000000000000000.0
 20
100000000000000000000.0
 30
100000000000000000000.0
  9
$PLIMMIN
 10
0.0
 20
0.0
  9
$PLIMMAX
 10
12.0
 20
9.0
  9
$UNITMODE
 70
     0
  9
$VISRETAIN
 70
     0
  9
$PLINEGEN
 70
     0
  9
$PSLTSCALE
 70
     0
  9
$TREEDEPTH
 70
  3020
  9
$ATTDIA
 70
     0
  9
$ATTREQ
 70
     1
  9
$BLIPMODE
 70
     1
  9
$COORDS
 70
     1
  9
$DRAGMODE
 70
     2
  9
$OSMODE
 70
     0
  9
$HANDLING
 70
     0
  9
$HANDSEED
  5
102B2
  0
ENDSEC
  0
SECTION
  2
TABLES
  0
TABLE
  2
LTYPE
 70
     3
  0
LTYPE
  2
CONTINUOUS
 70
     0
  3
実線
 72
    65
 73
     0
 40
0.0
  0
LTYPE
  2
DASHDOT
 70
     0
  3
____ _ ____ _ ____ _ ____ _ ____ _ ____ _ ____
 72
    65
 73
     4
 40
5.5
 49
4.0
 49
-0.6
 49
0.3
 49
-0.6
  0
LTYPE
  2
DASHED
 70
     0
  3
-- -- -- -- -- -- -- -- -- -- -- -- -- -- --
 72
    65
 73
     2
 40
0.75
 49
0.5
 49
-0.25
  0
ENDTAB
  0
TABLE
  2
LAYER
 70
    12
  0
LAYER
  2
0
 70
     0
 62
     7
  6
CONTINUOUS
  0
LAYER
  2
BASIS
 70
     0
 62
     6
  6
DASHDOT
  0
LAYER
  2
OUTLINE
 70
     0
 62
     3
  6
CONTINUOUS
  0
LAYER
  2
DETAIL
 70
     0
 62
     5
  6
CONTINUOUS
  0
LAYER
  2
SIZE
 70
     0
 62
    30
  6
CONTINUOUS
  0
LAYER
  2
ARRANGE
 70
     0
 62
     1
  6
CONTINUOUS
  0
LAYER
  2
DEFPOINTS
 70
     0
 62
     7
  6
CONTINUOUS
  0
LAYER
  2
ETC
 70
     0
 62
    61
  6
CONTINUOUS
  0
LAYER
  2
FIX
 70
     0
 62
    11
  6
CONTINUOUS
  0
LAYER
  2
NOTE
 70
     0
 62
     4
  6
CONTINUOUS
  0
LAYER
  2
SERVICESPACE
 70
    64
 62
     2
  6
DASHDOT
  0
LAYER
  2
SYMBOLLINE
 70
    64
 62
    15
  6
CONTINUOUS
  0
ENDTAB
  0
TABLE
  2
STYLE
 70
     1
  0
STYLE
  2
STANDARD
 70
     0
 40
64.0
 41
0.9
 50
0.0
 71
     0
 42
64.0
  3
SIMPLEX.shx
  4
BIGFONT.shx
  0
ENDTAB
  0
TABLE
  2
APPID
 70
    23
  0
APPID
  2
ACAD
 70
     0
  0
APPID
  2
AUTOCAD_POSTSCRIPT_FIGURE
 70
     0
  0
APPID
  2
ACAD_EXEMPT_FROM_CAD_STANDARDS
 70
     0
  0
APPID
  2
ACAD_PSEXT
 70
     0
  0
APPID
  2
ACAUTHENVIRON
 70
     0
  0
APPID
  2
GENIUS_GENOENT_13
 70
     0
  0
APPID
  2
GENIUS_GENCFG_13
 70
     0
  0
APPID
  2
GENIUS_GENCFG0_13
 70
     0
  0
APPID
  2
GENIUS_GENCFG1_13
 70
     0
  0
APPID
  2
GENIUS_GENCFG2_13
 70
     0
  0
APPID
  2
GENIUS_GENCFG3_13
 70
     0
  0
APPID
  2
GENIUS_GENCFG4_13
 70
     0
  0
APPID
  2
GENIUS_GEVCFG0_13
 70
     0
  0
APPID
  2
CONTENTBLOCKICON
 70
     0
  0
APPID
  2
CONTENTBLOCKDESCRIPTION
 70
     0
  0
APPID
  2
ACAD_NAV_VCDISPLAY
 70
     0
  0
APPID
  2
ACAD_MLEADERVER
 70
     0
  0
APPID
  2
ACDBDYNAMICBLOCKTRUENAME
 70
     0
  0
APPID
  2
ACDBDYNAMICBLOCKGUID
 70
     0
  0
APPID
  2
GENIUS_GENODEF_13
 70
     0
  0
APPID
  2
GENIUS_GENOBJ-N-CEN_13
 70
     0
  0
APPID
  2
GENIUS_GENCEN_19
 70
     0
  0
APPID
  2
ACAD_DSTYLE_DIMRADIAL_EXTENSION
 70
     0
  0
ENDTAB
  0
TABLE
  2
DIMSTYLE
 70
     1
  0
DIMSTYLE
  2
STANDARD
 70
     0
  3

  4

  5
_ORIGIN
  6

  7

 40
1.0
 41
12.0
 42
20.0
 43
200.0
 44
20.0
 45
0.0
 46
0.0
 47
0.0
 48
0.0
140
64.0
141
0.09
142
0.0
143
25.399999999999999
144
1.0
145
0.0
146
1.0
147
25.0
 71
     0
 72
     0
 73
     0
 74
     0
 75
     0
 76
     0
 77
     1
 78
     8
170
     0
171
     2
172
     1
173
     0
174
     1
175
     0
176
     7
177
     7
178
     7
  0
ENDTAB
  0
TABLE
  2
VIEW
 70
     1
  0
VIEW
  2
ALL
 70
     0
 40
4282.6198079999986
 10
0.0
 20
41.309904000000003
 41
5940.0
 11
0.0
 21
0.0
 31
1.0
 12
0.0
 22
0.0
 32
0.0
 42
50.0
 43
0.0
 44
0.0
 50
0.0
 71
     0
  0
ENDTAB
  0
TABLE
  2
UCS
 70
     0
  0
ENDTAB
  0
TABLE
  2
VPORT
 70
     1
  0
VPORT
  2
*ACTIVE
 70
     0
 10
0.0
 20
0.0
 11
1.0
 21
1.0
 12
414.89182949868251
 22
124.8092750609021
 13
0.0
 23
0.0
 14
1.0
 24
1.0
 15
0.0
 25
0.0
 16
0.0
 26
0.0
 36
1.0
 17
0.0
 27
0.0
 37
0.0
 40
1697.001718749229
 41
1.781285231116122
 42
50.0
 43
0.0
 44
0.0
 50
0.0
 51
0.0
 71
     0
 72
  1000
 73
     1
 74
     3
 75
     0
 76
     0
 77
     0
 78
     0
  0
ENDTAB
  0
ENDSEC
  0
SECTION
  2
BLOCKS
  0
BLOCK
  8
0
  2
_ORIGIN
 70
     0
 10
0.0
 20
0.0
 30
0.0
  3
_ORIGIN
  1
_ORIGIN
  0
CIRCLE
  8
0
  6
CONTINUOUS
 62
     7
 10
0.0
 20
0.0
 30
0.0
 40
0.5
  0
LINE
  8
0
  6
CONTINUOUS
 62
     7
 10
0.0
 20
0.0
 30
0.0
 11
-1.0
 21
0.0
 31
0.0
  0
ENDBLK
  8
0
  0
ENDSEC
  0
SECTION
  2
ENTITIES
  0
LINE
  8
DETAIL
  6
CONTINUOUS
 62
     5
 10
584.19999999999254
 20
-122.0000000000032
 30
0.0
 11
584.19999999999254
 21
-77.000000000003183
 31
0.0
  0
LINE
  8
DETAIL
  6
CONTINUOUS
 62
     5
 10
572.19999999996344
 20
-84.000000000003183
 30
0.0
 11
572.19999999996344
 21
-77.000000000003183
 31
0.0
  0
LINE
  8
DETAIL
  6
CONTINUOUS
 62
     5
 10
570.69999999999254
 20
-403.20000000000391
 30
0.0
 11
570.69999999999254
 21
-402.70000000000391
 31
0.0
  0
LINE
  8
DETAIL
  6
CONTINUOUS
 62
     5
 10
570.69999999999254
 20
-1.3000000000029099
 30
0.0
 11
570.69999999999254
 21
-0.8000000000020009
 31
0.0
  0
LINE
  8
DETAIL
  6
CONTINUOUS
 62
     5
 10
567.69999999999254
 20
-403.20000000000391
 30
0.0
 11
567.69999999999254
 21
-401.90000000001561
 31
0.0
  0
LINE
  8
DETAIL
  6
CONTINUOUS
 62
     5
 10
566.4999999999809
 20
-378.2700023440093
 30
0.0
 11
566.4999999999809
 21
-127.0000000000032
 31
0.0
  0
LINE
  8
DETAIL
  6
CONTINUOUS
 62
     5
 10
566.19999999997799
 20
-401.20000000000482
 30
0.0
 11
566.19999999997799
 21
-100.0000000000032
 31
0.0
  0
LINE
  8
DETAIL
  6
CONTINUOUS
 62
     5
 10
566.19999999997799
 20
-77.000000000003183
 30
0.0
 11
566.19999999997799
 21
-2.8000000000029099
 31
0.0
  0
LINE
  8
DETAIL
  6
CONTINUOUS
 62
     5
 10
565.69999999999254
 20
-402.200000000003
 30
0.0
 11
565.69999999999254
 21
-401.20000000000482
 31
0.0
  0
LINE
  8
DETAIL
  6
CONTINUOUS
 62
     5
 10
565.69999999999254
 20
-2.8000000000029099
 30
0.0
 11
565.69999999999254
 21
-1.8000000000029099
 31
0.0
  0
LINE
  8
DETAIL
  6
CONTINUOUS
 62
     5
 10
565.19999999999254
 20
-1.8000000000029099
 30
0.0
 11
565.19999999999254
 21
-2.8000000000029099
 31
0.0
  0
LINE
  8
DETAIL
  6
CONTINUOUS
 62
     5
 10
565.19999999999254
 20
-401.20000000000482
 30
0.0
 11
565.19999999999254
 21
-402.200000000003
 31
0.0
  0
LINE
  8
DETAIL
  6
CONTINUOUS
 62
     5
 10
564.19999999999254
 20
-0.8000000000020009
 30
0.0
 11
564.19999999999254
 21
-2.8000000000029099
 31
0.0
  0
LINE
  8
DETAIL
  6
CONTINUOUS
 62
     5
 10
564.19999999999254
 20
-403.20000000000391
 30
0.0
 11
564.19999999999254
 21
-401.20000000000482
 31
0.0
  0
LINE
  8
DETAIL
  6
CONTINUOUS
 62
     5
 10
562.84708539199619
 20
0.0
 30
0.0
 11
562.84708539199619
 21
-0.8000000000020009
 31
0.0
  0
LINE
  8
DETAIL
  6
CONTINUOUS
 62
     5
 10
562.79999999998381
 20
-403.99999999999142
 30
0.0
 11
562.79999999998381
 21
-403.20000000000391
 31
0.0
  0
LINE
  8
DETAIL
  6
CONTINUOUS
 62
     5
 10
559.19999999999254
 20
-73.200000000000273
 30
0.0
 11
559.19999999999254
 21
-80.200000000000273
 31
0.0
  0
LINE
  8
DETAIL
  6
CONTINUOUS
 62
     5
 10
541.99999999998954
 20
-172.10000000000309
 30
0.0
 11
541.99999999998954
 21
-312.100000000004
 31
0.0
  0
LINE
  8
DETAIL
  6
CONTINUOUS
 62
     5
 10
540.69999999999254
 20
-95.000000000003183
 30
0.0
 11
540.69999999999254
 21
-73.200000000000273
 31
0.0
  0
LINE
  8
DETAIL
  6
CONTINUOUS
 62
     5
 10
564.84734603999368
 20
-401.20000000000482
 30
0.0
 11
565.08343350399355
 21
-402.53891854199861
 31
0.0
  0
LINE
  8
DETAIL
  6
CONTINUOUS
 62
     5
 10
564.19999999999254
 20
-402.13573456874292
 30
0.0
 11
564.29558729998371
 21
-402.67783708399611
 31
0.0
  0
LINE
  8
DETAIL
  6
CONTINUOUS
 62
     5
 10
565.08343350399355
 20
-1.4610814580082661
 30
0.0
 11
564.84734603999368
 21
-2.8000000000029099
 31
0.0
  0
LINE
  8
DETAIL
  6
CONTINUOUS
 62
     5
 10
564.29558729998371
 20
-1.322162915996159
 30
0.0
 11
564.19999999999254
 21
-1.864265431277317
 31
0.0
  0
LINE
  8
DETAIL
  6
CONTINUOUS
 62
     5
 10
541.99999999998954
 20
-312.100000000004
 30
0.0
 11
476.99999999998948
 21
-377.100000000004
 31
0.0
  0
LINE
  8
DETAIL
  6
CONTINUOUS
 62
     5
 10
476.99999999998948
 20
-107.10000000000311
 30
0.0
 11
541.99999999998954
 21
-172.10000000000309
 31
0.0
  0
LINE
  8
DETAIL
  6
CONTINUOUS
 62
     5
 10
271.99999999998909
 20
-312.100000000004
 30
0.0
 11
271.99999999998909
 21
-172.10000000000309
 31
0.0
  0
LINE
  8
DETAIL
  6
CONTINUOUS
 62
     5
 10
559.26730091797981
 20
-403.99999999999181
 30
0.0
 11
557.167300918004
 21
-401.90000000001561
 31
0.0
  0
LINE
  8
DETAIL
  6
CONTINUOUS
 62
     5
 10
559.31438630999355
 20
0.0000000000002274
 30
0.0
 11
557.21438630998728
 21
-2.1000000000058212
 31
0.0
  0
LINE
  8
DETAIL
  6
CONTINUOUS
 62
     5
 10
-570.95000000000709
 20
-403.99999999999142
 30
0.0
 11
-565.87127970400161
 21
-403.99999999999142
 31
0.0
  0
LINE
  8
DETAIL
  6
CONTINUOUS
 62
     5
 10
570.94999999996344
 20
-403.99999999999142
 30
0.0
 11
565.87127970598067
 21
-403.99999999999142
 31
0.0
  0
LINE
  8
DETAIL
  6
CONTINUOUS
 62
     5
 10
562.79999999998381
 20
-403.99999999999142
 30
0.0
 11
-562.80000000002747
 21
-403.99999999999142
 31
0.0
  0
LINE
  8
DETAIL
  6
CONTINUOUS
 62
     5
 10
-570.95000000000709
 20
-403.20000000000391
 30
0.0
 11
-565.87127970400161
 21
-403.20000000000391
 31
0.0
  0
LINE
  8
DETAIL
  6
CONTINUOUS
 62
     5
 10
558.46730091799236
 20
-403.20000000000391
 30
0.0
 11
564.19999999999254
 21
-403.20000000000391
 31
0.0
  0
LINE
  8
DETAIL
  6
CONTINUOUS
 62
     5
 10
570.94999999996344
 20
-403.20000000000391
 30
0.0
 11
565.87127970598067
 21
-403.20000000000391
 31
0.0
  0
LINE
  8
DETAIL
  6
CONTINUOUS
 62
     5
 10
-558.4673009180251
 20
-403.20000000000391
 30
0.0
 11
-564.20000000000709
 21
-403.20000000000391
 31
0.0
  0
LINE
  8
DETAIL
  6
CONTINUOUS
 62
     5
 10
-566.20000000002165
 20
-402.70000000000391
 30
0.0
 11
-570.95000000000709
 21
-402.70000000000391
 31
0.0
  0
LINE
  8
DETAIL
  6
CONTINUOUS
 62
     5
 10
566.19999999997799
 20
-401.20000000000482
 30
0.0
 11
564.19999999999254
 21
-401.20000000000482
 31
0.0
  0
LINE
  8
DETAIL
  6
CONTINUOUS
 62
     5
 10
-564.20000000000709
 20
-401.20000000000482
 30
0.0
 11
-566.20000000002165
 21
-401.20000000000482
 31
0.0
  0
LINE
  8
DETAIL
  6
CONTINUOUS
 62
     5
 10
-566.50000000003911
 20
-384.60020000000401
 30
0.0
 11
-566.20000000002165
 21
-384.60020000000401
 31
0.0
  0
LINE
  8
DETAIL
  6
CONTINUOUS
 62
     5
 10
566.19999999997799
 20
-378.2700023440093
 30
0.0
 11
566.4999999999809
 21
-378.2700023440093
 31
0.0
  0
LINE
  8
DETAIL
  6
CONTINUOUS
 62
     5
 10
476.99999999998948
 20
-377.100000000004
 30
0.0
 11
336.99999999998909
 21
-377.100000000004
 31
0.0
  0
LINE
  8
DETAIL
  6
CONTINUOUS
 62
     5
 10
271.99999999998909
 20
-172.10000000000309
 30
0.0
 11
336.99999999998909
 21
-107.10000000000311
 31
0.0
  0
LINE
  8
DETAIL
  6
CONTINUOUS
 62
     5
 10
336.99999999998909
 20
-377.100000000004
 30
0.0
 11
271.99999999998909
 21
-312.100000000004
 31
0.0
  0
LINE
  8
BASIS
  6
DASHDOT
 62
     6
 10
-0.000000000007276
 20
32.760738174227299
 30
0.0
 11
-0.000000000007276
 21
-437.01073817423998
 31
0.0
  0
LINE
  8
BASIS
  6
DASHDOT
 62
     6
 10
-695.69367645165039
 20
-202.150000000006
 30
0.0
 11
695.69367645162129
 21
-202.150000000006
 31
0.0
  0
LINE
  8
DETAIL
  6
CONTINUOUS
 62
     5
 10
566.19999999997799
 20
-127.0000000000032
 30
0.0
 11
579.19999999999254
 21
-127.0000000000032
 31
0.0
  0
LINE
  8
DETAIL
  6
CONTINUOUS
 62
     5
 10
-566.20000000002165
 20
-127.0000000000032
 30
0.0
 11
-579.70000000002165
 21
-127.0000000000032
 31
0.0
  0
LINE
  8
DETAIL
  6
CONTINUOUS
 62
     5
 10
336.99999999998909
 20
-107.10000000000311
 30
0.0
 11
476.99999999998948
 21
-107.10000000000311
 31
0.0
  0
LINE
  8
DETAIL
  6
CONTINUOUS
 62
     5
 10
566.19999999997799
 20
-106.0000000000032
 30
0.0
 11
569.09999999998672
 21
-106.0000000000032
 31
0.0
  0
LINE
  8
DETAIL
  6
CONTINUOUS
 62
     5
 10
-566.22641510801168
 20
-106.0000000000032
 30
0.0
 11
-569.60000000001583
 21
-106.0000000000032
 31
0.0
  0
LINE
  8
DETAIL
  6
CONTINUOUS
 62
     5
 10
545.69999999999254
 20
-100.0000000000032
 30
0.0
 11
569.09999999998672
 21
-100.0000000000032
 31
0.0
  0
LINE
  8
DETAIL
  6
CONTINUOUS
 62
     5
 10
-546.20000000002165
 20
-100.0000000000032
 30
0.0
 11
-569.60000000001583
 21
-100.0000000000032
 31
0.0
  0
LINE
  8
DETAIL
  6
CONTINUOUS
 62
     5
 10
-555.20000000002165
 20
-95.000000000003183
 30
0.0
 11
-553.20000000002165
 21
-95.000000000003183
 31
0.0
  0
LINE
  8
DETAIL
  6
CONTINUOUS
 62
     5
 10
554.69999999997799
 20
-95.000000000003183
 30
0.0
 11
552.69999999997799
 21
-95.000000000003183
 31
0.0
  0
LINE
  8
DETAIL
  6
CONTINUOUS
 62
     5
 10
552.69999999997799
 20
-89.000000000003183
 30
0.0
 11
554.69999999997799
 21
-89.000000000003183
 31
0.0
  0
LINE
  8
DETAIL
  6
CONTINUOUS
 62
     5
 10
-553.20000000002165
 20
-89.000000000003183
 30
0.0
 11
-555.20000000002165
 21
-89.000000000003183
 31
0.0
  0
LINE
  8
DETAIL
  6
CONTINUOUS
 62
     5
 10
-581.70000000002165
 20
-87.000000000004093
 30
0.0
 11
-575.70000000002165
 21
-87.000000000004093
 31
0.0
  0
LINE
  8
DETAIL
  6
CONTINUOUS
 62
     5
 10
581.19999999999254
 20
-87.000000000004093
 30
0.0
 11
575.19999999999254
 21
-87.000000000004093
 31
0.0
  0
LINE
  8
DETAIL
  6
CONTINUOUS
 62
     5
 10
572.19999999996344
 20
-80.200000000000273
 30
0.0
 11
540.69999999999254
 21
-80.200000000000273
 31
0.0
  0
LINE
  8
DETAIL
  6
CONTINUOUS
 62
     5
 10
-541.20000000002165
 20
-80.200000000000273
 30
0.0
 11
-572.70000000000709
 21
-80.200000000000273
 31
0.0
  0
LINE
  8
DETAIL
  6
CONTINUOUS
 62
     5
 10
559.19999999999254
 20
-77.000000000003183
 30
0.0
 11
584.19999999999254
 21
-77.000000000003183
 31
0.0
  0
LINE
  8
DETAIL
  6
CONTINUOUS
 62
     5
 10
-559.70000000000709
 20
-77.000000000003183
 30
0.0
 11
-584.70000000002165
 21
-77.000000000003183
 31
0.0
  0
LINE
  8
DETAIL
  6
CONTINUOUS
 62
     5
 10
543.69999999999254
 20
-70.200000000000273
 30
0.0
 11
556.19999999999254
 21
-70.200000000000273
 31
0.0
  0
LINE
  8
DETAIL
  6
CONTINUOUS
 62
     5
 10
-544.20000000002165
 20
-70.200000000000273
 30
0.0
 11
-556.70000000000709
 21
-70.200000000000273
 31
0.0
  0
LINE
  8
DETAIL
  6
CONTINUOUS
 62
     5
 10
566.19999999997799
 20
-2.8000000000029099
 30
0.0
 11
564.19999999999254
 21
-2.8000000000029099
 31
0.0
  0
LINE
  8
DETAIL
  6
CONTINUOUS
 62
     5
 10
-564.20000000000709
 20
-2.8000000000029099
 30
0.0
 11
-566.20000000002165
 21
-2.8000000000029099
 31
0.0
  0
LINE
  8
DETAIL
  6
CONTINUOUS
 62
     5
 10
-566.20000000002165
 20
-1.3000000000029099
 30
0.0
 11
-570.95000000000709
 21
-1.3000000000029099
 31
0.0
  0
LINE
  8
DETAIL
  6
CONTINUOUS
 62
     5
 10
570.94999999996344
 20
-0.8000000000020009
 30
0.0
 11
565.87127970598067
 21
-0.8000000000020009
 31
0.0
  0
LINE
  8
DETAIL
  6
CONTINUOUS
 62
     5
 10
564.19999999999254
 20
-0.8000000000020009
 30
0.0
 11
558.51438630999064
 21
-0.8000000000020009
 31
0.0
  0
LINE
  8
DETAIL
  6
CONTINUOUS
 62
     5
 10
-558.51438631002475
 20
-0.8000000000020009
 30
0.0
 11
-564.20000000000709
 21
-0.8000000000020009
 31
0.0
  0
LINE
  8
DETAIL
  6
CONTINUOUS
 62
     5
 10
-565.87127970400161
 20
-0.8000000000020009
 30
0.0
 11
-570.95000000000709
 21
-0.8000000000020009
 31
0.0
  0
LINE
  8
DETAIL
  6
CONTINUOUS
 62
     5
 10
570.94999999996344
 20
0.0
 30
0.0
 11
565.87127970598067
 21
0.0
 31
0.0
  0
LINE
  8
DETAIL
  6
CONTINUOUS
 62
     5
 10
562.84708539199619
 20
0.0
 30
0.0
 11
-562.84708539202529
 21
0.0
 31
0.0
  0
LINE
  8
DETAIL
  6
CONTINUOUS
 62
     5
 10
-565.87127970400161
 20
0.0
 30
0.0
 11
-570.95000000000709
 21
0.0
 31
0.0
  0
LINE
  8
DETAIL
  6
CONTINUOUS
 62
     5
 10
-559.31438631003675
 20
0.0000000000002274
 30
0.0
 11
-557.21438631000183
 21
-2.1000000000058212
 31
0.0
  0
LINE
  8
DETAIL
  6
CONTINUOUS
 62
     5
 10
-559.26730091802438
 20
-403.99999999999181
 30
0.0
 11
-557.16730091801855
 21
-401.90000000001561
 31
0.0
  0
LINE
  8
DETAIL
  6
CONTINUOUS
 62
     5
 10
-541.20000000002165
 20
-95.000000000003183
 30
0.0
 11
-541.20000000002165
 21
-73.200000000000273
 31
0.0
  0
LINE
  8
DETAIL
  6
CONTINUOUS
 62
     5
 10
-564.20000000000709
 20
-1.8642654312616289
 30
0.0
 11
-564.29558730001281
 21
-1.322162915996159
 31
0.0
  0
LINE
  8
DETAIL
  6
CONTINUOUS
 62
     5
 10
-564.84734603800007
 20
-2.8000000000029099
 30
0.0
 11
-565.08343350199993
 21
-1.4610814580082661
 31
0.0
  0
LINE
  8
DETAIL
  6
CONTINUOUS
 62
     5
 10
-564.29558730001281
 20
-402.67783708399611
 30
0.0
 11
-564.20000000000709
 21
-402.13573456875611
 31
0.0
  0
LINE
  8
DETAIL
  6
CONTINUOUS
 62
     5
 10
-565.08343350199993
 20
-402.53891854199861
 30
0.0
 11
-564.84734603800007
 21
-401.20000000000482
 31
0.0
  0
LINE
  8
DETAIL
  6
CONTINUOUS
 62
     5
 10
-559.70000000000709
 20
-73.200000000000273
 30
0.0
 11
-559.70000000000709
 21
-80.200000000000273
 31
0.0
  0
LINE
  8
DETAIL
  6
CONTINUOUS
 62
     5
 10
-562.80000000002747
 20
-403.99999999999142
 30
0.0
 11
-562.80000000002747
 21
-403.20000000000391
 31
0.0
  0
LINE
  8
DETAIL
  6
CONTINUOUS
 62
     5
 10
-562.84708539202529
 20
0.0
 30
0.0
 11
-562.84708539202529
 21
-0.8000000000020009
 31
0.0
  0
LINE
  8
DETAIL
  6
CONTINUOUS
 62
     5
 10
-564.20000000000709
 20
-403.20000000000391
 30
0.0
 11
-564.20000000000709
 21
-401.20000000000482
 31
0.0
  0
LINE
  8
DETAIL
  6
CONTINUOUS
 62
     5
 10
-564.20000000000709
 20
-2.8000000000029099
 30
0.0
 11
-564.20000000000709
 21
-0.8000000000020009
 31
0.0
  0
LINE
  8
DETAIL
  6
CONTINUOUS
 62
     5
 10
-565.20000000000709
 20
-402.200000000003
 30
0.0
 11
-565.20000000000709
 21
-401.20000000000482
 31
0.0
  0
LINE
  8
DETAIL
  6
CONTINUOUS
 62
     5
 10
-565.20000000000709
 20
-2.8000000000029099
 30
0.0
 11
-565.20000000000709
 21
-1.8000000000029099
 31
0.0
  0
LINE
  8
DETAIL
  6
CONTINUOUS
 62
     5
 10
-565.7000000000362
 20
-1.8000000000029099
 30
0.0
 11
-565.7000000000362
 21
-2.8000000000029099
 31
0.0
  0
LINE
  8
DETAIL
  6
CONTINUOUS
 62
     5
 10
-565.7000000000362
 20
-401.20000000000482
 30
0.0
 11
-565.7000000000362
 21
-402.200000000003
 31
0.0
  0
LINE
  8
DETAIL
  6
CONTINUOUS
 62
     5
 10
-566.20000000002165
 20
-401.20000000000482
 30
0.0
 11
-566.20000000002165
 21
-100.0000000000032
 31
0.0
  0
LINE
  8
DETAIL
  6
CONTINUOUS
 62
     5
 10
-566.20000000002165
 20
-77.000000000003183
 30
0.0
 11
-566.20000000002165
 21
-2.8000000000029099
 31
0.0
  0
LINE
  8
DETAIL
  6
CONTINUOUS
 62
     5
 10
-566.50000000003911
 20
-127.0000000000032
 30
0.0
 11
-566.50000000003911
 21
-384.59909544400813
 31
0.0
  0
LINE
  8
DETAIL
  6
CONTINUOUS
 62
     5
 10
-570.7000000000362
 20
-0.8000000000020009
 30
0.0
 11
-570.7000000000362
 21
-1.3000000000029099
 31
0.0
  0
LINE
  8
DETAIL
  6
CONTINUOUS
 62
     5
 10
-570.7000000000362
 20
-402.70000000000391
 30
0.0
 11
-570.7000000000362
 21
-403.20000000000391
 31
0.0
  0
LINE
  8
DETAIL
  6
CONTINUOUS
 62
     5
 10
-572.70000000000709
 20
-84.000000000003183
 30
0.0
 11
-572.70000000000709
 21
-77.000000000003183
 31
0.0
  0
LINE
  8
DETAIL
  6
CONTINUOUS
 62
     5
 10
-584.70000000002165
 20
-122.0000000000032
 30
0.0
 11
-584.70000000002165
 21
-77.000000000003183
 31
0.0
  0
CIRCLE
  8
DETAIL
  6
CONTINUOUS
 62
     5
 10
503.8736290239799
 20
-338.9736290220153
 30
0.0
 40
4.7000000000000099
  0
CIRCLE
  8
DETAIL
  6
CONTINUOUS
 62
     5
 10
310.12637097799228
 20
-338.9736290220153
 30
0.0
 40
4.7000000000000099
  0
ARC
  8
DETAIL
  6
CONTINUOUS
 62
     5
 10
565.87127970598067
 20
-402.400000000001
 30
0.0
 40
1.600000000000005
 50
190.00000000000179
 51
270.0
  0
ARC
  8
DETAIL
  6
CONTINUOUS
 62
     5
 10
566.19999999997799
 20
-402.200000000003
 30
0.0
 40
1.000000000000002
 50
180.0
 51
269.99999999994787
  0
ARC
  8
DETAIL
  6
CONTINUOUS
 62
     5
 10
565.87127970598067
 20
-402.400000000001
 30
0.0
 40
0.8000000000000015
 50
190.00000000000179
 51
270.0
  0
ARC
  8
DETAIL
  6
CONTINUOUS
 62
     5
 10
566.19999999997799
 20
-402.200000000003
 30
0.0
 40
0.500000000000002
 50
180.0
 51
270.0
  0
ARC
  8
DETAIL
  6
CONTINUOUS
 62
     5
 10
545.69999999999254
 20
-95.000000000003183
 30
0.0
 40
5.0000000000000124
 50
180.0
 51
270.0
  0
ARC
  8
DETAIL
  6
CONTINUOUS
 62
     5
 10
579.19999999999254
 20
-122.0000000000032
 30
0.0
 40
5.0000000000000124
 50
270.0
 51
0.000000000000007
  0
CIRCLE
  8
DETAIL
  6
CONTINUOUS
 62
     5
 10
310.12637097799228
 20
-145.22637097800731
 30
0.0
 40
4.7000000000000099
  0
CIRCLE
  8
DETAIL
  6
CONTINUOUS
 62
     5
 10
503.8736290239799
 20
-145.22637097800731
 30
0.0
 40
4.7000000000000099
  0
ARC
  8
DETAIL
  6
CONTINUOUS
 62
     5
 10
569.09999999998672
 20
-103.0000000000032
 30
0.0
 40
3.0000000000000071
 50
270.0
 51
90.000000000000014
  0
ARC
  8
DETAIL
  6
CONTINUOUS
 62
     5
 10
552.69999999997799
 20
-92.000000000003183
 30
0.0
 40
3.0000000000000071
 50
90.000000000000014
 51
270.0
  0
ARC
  8
DETAIL
  6
CONTINUOUS
 62
     5
 10
543.69999999999254
 20
-73.200000000000273
 30
0.0
 40
3.0000000000000071
 50
90.000000000000014
 51
180.0
  0
ARC
  8
DETAIL
  6
CONTINUOUS
 62
     5
 10
556.19999999999254
 20
-73.200000000000273
 30
0.0
 40
3.0000000000000071
 50
0.000000000000007
 51
90.000000000000014
  0
ARC
  8
DETAIL
  6
CONTINUOUS
 62
     5
 10
554.69999999997799
 20
-92.000000000003183
 30
0.0
 40
3.0000000000000071
 50
270.0
 51
90.000000000000014
  0
ARC
  8
DETAIL
  6
CONTINUOUS
 62
     5
 10
575.19999999999254
 20
-84.000000000003183
 30
0.0
 40
3.0000000000000071
 50
180.0
 51
270.0
  0
ARC
  8
DETAIL
  6
CONTINUOUS
 62
     5
 10
581.19999999999254
 20
-84.000000000003183
 30
0.0
 40
3.0000000000000071
 50
270.0
 51
0.000000000000007
  0
CIRCLE
  8
DETAIL
  6
CONTINUOUS
 62
     5
 10
553.69999999999254
 20
-92.000000000003183
 30
0.0
 40
2.5000000000000071
  0
ARC
  8
DETAIL
  6
CONTINUOUS
 62
     5
 10
565.87127970598067
 20
-1.5999999999903589
 30
0.0
 40
1.600000000000005
 50
90.000000000000014
 51
169.99999999999821
  0
ARC
  8
DETAIL
  6
CONTINUOUS
 62
     5
 10
570.94999999996344
 20
-1.0500000000029099
 30
0.0
 40
1.0500000000000029
 50
269.99999887613922
 51
90.000000000000014
  0
ARC
  8
DETAIL
  6
CONTINUOUS
 62
     5
 10
566.19999999997799
 20
-1.8000000000029099
 30
0.0
 40
1.000000000000002
 50
90.000000000130299
 51
180.0
  0
ARC
  8
DETAIL
  6
CONTINUOUS
 62
     5
 10
565.87127970598067
 20
-1.5999999999903589
 30
0.0
 40
0.8000000000000015
 50
90.000000000000014
 51
169.99999999999821
  0
ARC
  8
DETAIL
  6
CONTINUOUS
 62
     5
 10
566.19999999997799
 20
-1.8000000000029099
 30
0.0
 40
0.500000000000002
 50
90.000000000000014
 51
180.0
  0
ARC
  8
DETAIL
  6
CONTINUOUS
 62
     5
 10
570.94999999996344
 20
-1.0500000000029099
 30
0.0
 40
0.2500000000000001
 50
269.99999887613922
 51
90.000000000000014
  0
ARC
  8
DETAIL
  6
CONTINUOUS
 62
     5
 10
-565.87127970400161
 20
-402.400000000001
 30
0.0
 40
1.600000000000005
 50
270.0
 51
349.99999999999818
  0
ARC
  8
DETAIL
  6
CONTINUOUS
 62
     5
 10
-570.95000000000709
 20
-402.95000000000391
 30
0.0
 40
1.0500000000000029
 50
90.000036324071814
 51
270.0
  0
ARC
  8
DETAIL
  6
CONTINUOUS
 62
     5
 10
-566.20000000002165
 20
-402.200000000003
 30
0.0
 40
1.000000000000002
 50
270.00000000013023
 51
0.000000000000007
  0
ARC
  8
DETAIL
  6
CONTINUOUS
 62
     5
 10
-565.87127970400161
 20
-402.400000000001
 30
0.0
 40
0.8000000000000015
 50
270.0
 51
349.99999999999818
  0
ARC
  8
DETAIL
  6
CONTINUOUS
 62
     5
 10
-566.20000000002165
 20
-402.200000000003
 30
0.0
 40
0.500000000000002
 50
270.0
 51
0.000000000000007
  0
ARC
  8
DETAIL
  6
CONTINUOUS
 62
     5
 10
-570.95000000000709
 20
-402.95000000000391
 30
0.0
 40
0.2500000000000001
 50
90.000036324071814
 51
270.0
  0
ARC
  8
DETAIL
  6
CONTINUOUS
 62
     5
 10
-579.70000000002165
 20
-122.0000000000032
 30
0.0
 40
5.0000000000000124
 50
180.0
 51
270.0
  0
ARC
  8
DETAIL
  6
CONTINUOUS
 62
     5
 10
-569.60000000001583
 20
-103.0000000000032
 30
0.0
 40
3.0000000000000071
 50
90.000000000000014
 51
270.0
  0
ARC
  8
DETAIL
  6
CONTINUOUS
 62
     5
 10
-546.20000000002165
 20
-95.000000000003183
 30
0.0
 40
5.0000000000000124
 50
270.0
 51
0.000000000000007
  0
ARC
  8
DETAIL
  6
CONTINUOUS
 62
     5
 10
-553.20000000002165
 20
-92.000000000003183
 30
0.0
 40
3.0000000000000071
 50
270.0
 51
90.000000000000014
  0
ARC
  8
DETAIL
  6
CONTINUOUS
 62
     5
 10
-544.20000000002165
 20
-73.200000000000273
 30
0.0
 40
3.0000000000000071
 50
0.000000000000007
 51
90.000000000000014
  0
ARC
  8
DETAIL
  6
CONTINUOUS
 62
     5
 10
-556.70000000000709
 20
-73.200000000000273
 30
0.0
 40
3.0000000000000071
 50
90.000000000000014
 51
180.0
  0
ARC
  8
DETAIL
  6
CONTINUOUS
 62
     5
 10
-555.20000000002165
 20
-92.000000000003183
 30
0.0
 40
3.0000000000000071
 50
90.000000000000014
 51
270.0
  0
ARC
  8
DETAIL
  6
CONTINUOUS
 62
     5
 10
-575.70000000002165
 20
-84.000000000003183
 30
0.0
 40
3.0000000000000071
 50
270.0
 51
0.000000000000007
  0
ARC
  8
DETAIL
  6
CONTINUOUS
 62
     5
 10
-581.70000000002165
 20
-84.000000000003183
 30
0.0
 40
3.0000000000000071
 50
180.0
 51
270.0
  0
CIRCLE
  8
DETAIL
  6
CONTINUOUS
 62
     5
 10
-553.70000000000709
 20
-92.000000000003183
 30
0.0
 40
2.5000000000000071
  0
ARC
  8
DETAIL
  6
CONTINUOUS
 62
     5
 10
-565.87127970400161
 20
-1.5999999999903589
 30
0.0
 40
1.600000000000005
 50
10.00000000000183
 51
90.000000000000014
  0
ARC
  8
DETAIL
  6
CONTINUOUS
 62
     5
 10
-566.20000000002165
 20
-1.8000000000029099
 30
0.0
 40
1.000000000000002
 50
0.000000000000007
 51
89.999999999947889
  0
ARC
  8
DETAIL
  6
CONTINUOUS
 62
     5
 10
-565.87127970400161
 20
-1.5999999999903589
 30
0.0
 40
0.8000000000000015
 50
10.00000000000183
 51
90.000000000000014
  0
ARC
  8
DETAIL
  6
CONTINUOUS
 62
     5
 10
-566.20000000002165
 20
-1.8000000000029099
 30
0.0
 40
0.500000000000002
 50
0.000000000000007
 51
90.000000000000014
  0
ARC
  8
DETAIL
  6
CONTINUOUS
 62
     5
 10
-570.95000000000709
 20
-1.0500000000029099
 30
0.0
 40
1.0500000000000029
 50
90.000036324071814
 51
270.0
  0
ARC
  8
DETAIL
  6
CONTINUOUS
 62
     5
 10
-570.95000000000709
 20
-1.0500000000029099
 30
0.0
 40
0.2500000000000001
 50
90.000036324071814
 51
270.0
  0
LINE
  8
DETAIL
  6
CONTINUOUS
 62
     5
 10
-567.70000000000709
 20
-1.3000000000029099
 30
0.0
 11
-567.70000000000709
 21
-2.1000000000058212
 31
0.0
  0
LINE
  8
DETAIL
  6
CONTINUOUS
 62
     5
 10
-567.70000000000709
 20
-2.1000000000058212
 30
0.0
 11
-570.95000000000709
 21
-2.1000000000058212
 31
0.0
  0
LINE
  8
DETAIL
  6
CONTINUOUS
 62
     5
 10
-557.21438631000183
 20
-2.1000000000058212
 30
0.0
 11
557.21438630998728
 21
-2.1000000000058212
 31
0.0
  0
LINE
  8
DETAIL
  6
CONTINUOUS
 62
     5
 10
570.94999999996344
 20
-1.3000000000029099
 30
0.0
 11
566.19999999997799
 21
-1.3000000000029099
 31
0.0
  0
LINE
  8
DETAIL
  6
CONTINUOUS
 62
     5
 10
570.94999999996344
 20
-2.1000000000058212
 30
0.0
 11
567.69999999999254
 21
-2.1000000000058212
 31
0.0
  0
LINE
  8
DETAIL
  6
CONTINUOUS
 62
     5
 10
567.69999999999254
 20
-1.3000000000029099
 30
0.0
 11
567.69999999999254
 21
-2.1000000000058212
 31
0.0
  0
LINE
  8
DETAIL
  6
CONTINUOUS
 62
     5
 10
570.94999999996344
 20
-402.70000000000391
 30
0.0
 11
566.19999999997799
 21
-402.70000000000391
 31
0.0
  0
ARC
  8
DETAIL
  6
CONTINUOUS
 62
     5
 10
570.94999999996344
 20
-402.95000000000391
 30
0.0
 40
1.0500000000000029
 50
269.99999887613922
 51
90.000000000000014
  0
ARC
  8
DETAIL
  6
CONTINUOUS
 62
     5
 10
570.94999999996344
 20
-402.95000000000391
 30
0.0
 40
0.2500000000000001
 50
269.99999887613922
 51
90.000000000000014
  0
LINE
  8
DETAIL
  6
CONTINUOUS
 62
     5
 10
570.94999999996344
 20
-401.90000000001561
 30
0.0
 11
567.69999999999254
 21
-401.90000000001561
 31
0.0
  0
LINE
  8
DETAIL
  6
CONTINUOUS
 62
     5
 10
557.167300918004
 20
-401.90000000001561
 30
0.0
 11
-557.16730091801855
 21
-401.90000000001561
 31
0.0
  0
LINE
  8
DETAIL
  6
CONTINUOUS
 62
     5
 10
-570.95000000000709
 20
-401.90000000001561
 30
0.0
 11
-567.70000000000709
 21
-401.90000000001561
 31
0.0
  0
LINE
  8
DETAIL
  6
CONTINUOUS
 62
     5
 10
-567.70000000000709
 20
-401.90000000001561
 30
0.0
 11
-567.70000000000709
 21
-402.70000000000391
 31
0.0
  0
CIRCLE
  8
DETAIL
  6
DASHED
 62
     5
 10
406.99999999997499
 20
-242.100000000004
 30
0.0
 40
130.0000000095113
  0
LINE
  8
BASIS
  6
DASHDOT
 62
     6
 10
260.57719159755288
 20
-242.15000000000401
 30
0.0
 11
692.21222329392185
 21
-242.15000000000401
 31
0.0
1001
GENIUS_GENODEF_13
1002
{
1000
HIER
1070
     0
1002
}
1002
{
1000
MANEDIT
1070
     0
1002
}
1002
{
1000
NOSEL
1070
     0
1002
}
1002
{
1000
BEHIND
1070
     0
1002
}
1002
{
1000
OTHER
1070
     0
1002
}
1002
{
1000
REACTOR
1002
}
1001
GENIUS_GENOBJ-N-CEN_13
1002
{
1000
OWNER
1000
GEN
1002
}
1001
GENIUS_GENCEN_19
1002
{
1040
5.0
1002
}
  0
LINE
  8
BASIS
  6
DASHDOT
 62
     6
 10
406.99999999997499
 20
-88.874642958598542
 30
0.0
 11
406.99999999997499
 21
-395.32535704140952
 31
0.0
1001
GENIUS_GENODEF_13
1002
{
1000
HIER
1070
     0
1002
}
1002
{
1000
MANEDIT
1070
     0
1002
}
1002
{
1000
NOSEL
1070
     0
1002
}
1002
{
1000
BEHIND
1070
     0
1002
}
1002
{
1000
OTHER
1070
     0
1002
}
1002
{
1000
REACTOR
1002
}
1001
GENIUS_GENOBJ-N-CEN_13
1002
{
1000
OWNER
1000
GEN
1002
}
1001
GENIUS_GENCEN_19
1002
{
1040
5.0
1002
}
  0
LINE
  8
BASIS
  6
DASHDOT
 62
     6
 10
-682.27954395192046
 20
-242.100000000004
 30
0.0
 11
-545.29328263856405
 21
-242.100000000004
 31
0.0
1001
GENIUS_GENODEF_13
1002
{
1000
HIER
1070
     0
1002
}
1002
{
1000
MANEDIT
1070
     0
1002
}
1002
{
1000
NOSEL
1070
     0
1002
}
1002
{
1000
BEHIND
1070
     0
1002
}
1002
{
1000
OTHER
1070
     0
1002
}
1002
{
1000
REACTOR
1002
}
1001
GENIUS_GENOBJ-N-CEN_13
1002
{
1000
OWNER
1000
GEN
1002
}
1001
GENIUS_GENCEN_19
1002
{
1040
5.0
1002
}
  0
LINE
  8
SIZE
  6
CONTINUOUS
 62
    30
 10
571.99999999996362
 20
18.949999989699108
 30
0.0
 11
571.99999999996362
 21
294.93907252417472
 31
0.0
  0
LINE
  8
SIZE
  6
CONTINUOUS
 62
    30
 10
-572.00000000000728
 20
18.949999667160451
 30
0.0
 11
-572.00000000000728
 21
294.93907252417472
 31
0.0
  0
LINE
  8
SIZE
  6
CONTINUOUS
 62
    30
 10
559.99999999996362
 20
274.93907252417472
 30
0.0
 11
-560.00000000000728
 21
274.93907252417472
 31
0.0
  0
CIRCLE
  8
SIZE
  6
CONTINUOUS
 62
    30
 10
571.99999999996362
 20
274.93907252417472
 30
0.0
 40
6.0
  0
LINE
  8
SIZE
  6
CONTINUOUS
 62
    30
 10
571.99999999996362
 20
274.93907252417472
 30
0.0
 11
559.99999999996362
 21
274.93907252417472
 31
0.0
  0
CIRCLE
  8
SIZE
  6
CONTINUOUS
 62
    30
 10
-572.00000000000728
 20
274.93907252417472
 30
0.0
 40
6.0
  0
LINE
  8
SIZE
  6
CONTINUOUS
 62
    30
 10
-572.00000000000728
 20
274.93907252417472
 30
0.0
 11
-560.00000000000728
 21
274.93907252417472
 31
0.0
  0
TEXT
  8
SIZE
  6
CONTINUOUS
 62
    30
 10
-96.768000000021843
 20
299.93907252417472
 30
0.0
 40
64.0
  1
1144
 50
0.0
 41
0.9
 51
0.0
  7
STANDARD
 71
     0
 72
     1
 11
-0.0000000000218279
 21
299.93907252417472
 31
0.0
210
0.0
220
0.0
230
1.0
  0
POINT
  8
DEFPOINTS
  6
CONTINUOUS
 62
    30
 10
571.99999999996362
 20
-1.050000010300892
 30
0.0
  0
POINT
  8
DEFPOINTS
  6
CONTINUOUS
 62
    30
 10
-572.00000000000728
 20
-1.0500003328395451
 30
0.0
  0
POINT
  8
DEFPOINTS
  6
CONTINUOUS
 62
    30
 10
-572.00000000000728
 20
274.93907252417472
 30
0.0
  0
LINE
  8
SIZE
  6
CONTINUOUS
 62
    30
 10
-651.00000000003638
 20
-101.0999682200122
 30
0.0
 11
-651.00000000003638
 21
294.93907252417472
 31
0.0
  0
LINE
  8
SIZE
  6
CONTINUOUS
 62
    30
 10
-572.00000000000728
 20
18.949999667160451
 30
0.0
 11
-572.00000000000728
 21
294.93907252417472
 31
0.0
  0
LINE
  8
SIZE
  6
CONTINUOUS
 62
    30
 10
-663.00000000003638
 20
274.93907252417472
 30
0.0
 11
-675.00000000003638
 21
274.93907252417472
 31
0.0
  0
LINE
  8
SIZE
  6
CONTINUOUS
 62
    30
 10
-560.00000000000728
 20
274.93907252417472
 30
0.0
 11
-548.00000000000728
 21
274.93907252417472
 31
0.0
  0
LINE
  8
SIZE
  6
CONTINUOUS
 62
    30
 10
-651.00000000003638
 20
274.93907252417472
 30
0.0
 11
-572.00000000000728
 21
274.93907252417472
 31
0.0
  0
CIRCLE
  8
SIZE
  6
CONTINUOUS
 62
    30
 10
-651.00000000003638
 20
274.93907252417472
 30
0.0
 40
6.0
  0
LINE
  8
SIZE
  6
CONTINUOUS
 62
    30
 10
-651.00000000003638
 20
274.93907252417472
 30
0.0
 11
-663.00000000003638
 21
274.93907252417472
 31
0.0
  0
CIRCLE
  8
SIZE
  6
CONTINUOUS
 62
    30
 10
-572.00000000000728
 20
274.93907252417472
 30
0.0
 40
6.0
  0
LINE
  8
SIZE
  6
CONTINUOUS
 62
    30
 10
-572.00000000000728
 20
274.93907252417472
 30
0.0
 11
-560.00000000000728
 21
274.93907252417472
 31
0.0
  0
TEXT
  8
SIZE
  6
CONTINUOUS
 62
    30
 10
-665.06800000002181
 20
299.93907252417472
 30
0.0
 40
64.0
  1
79
 50
0.0
 41
0.9
 51
0.0
  7
STANDARD
 71
     0
 72
     1
 11
-611.50000000002183
 21
299.93907252417472
 31
0.0
210
0.0
220
0.0
230
1.0
  0
POINT
  8
DEFPOINTS
  6
CONTINUOUS
 62
    30
 10
-651.00000000003638
 20
-121.0999682200122
 30
0.0
  0
POINT
  8
DEFPOINTS
  6
CONTINUOUS
 62
    30
 10
-572.00000000000728
 20
-1.0500003328395451
 30
0.0
  0
POINT
  8
DEFPOINTS
  6
CONTINUOUS
 62
    30
 10
-572.00000000000728
 20
274.93907252417472
 30
0.0
  0
LINE
  8
SIZE
  6
CONTINUOUS
 62
    30
 10
571.99999999996362
 20
18.949999989699108
 30
0.0
 11
571.99999999996362
 21
294.93907252417472
 31
0.0
  0
LINE
  8
SIZE
  6
CONTINUOUS
 62
    30
 10
650.99999999997817
 20
-101.10016822001219
 30
0.0
 11
650.99999999997817
 21
294.93907252417472
 31
0.0
  0
LINE
  8
SIZE
  6
CONTINUOUS
 62
    30
 10
559.99999999996362
 20
274.93907252417472
 30
0.0
 11
547.99999999996362
 21
274.93907252417472
 31
0.0
  0
LINE
  8
SIZE
  6
CONTINUOUS
 62
    30
 10
662.99999999997817
 20
274.93907252417472
 30
0.0
 11
674.99999999997817
 21
274.93907252417472
 31
0.0
  0
LINE
  8
SIZE
  6
CONTINUOUS
 62
    30
 10
571.99999999996362
 20
274.93907252417472
 30
0.0
 11
650.99999999997817
 21
274.93907252417472
 31
0.0
  0
CIRCLE
  8
SIZE
  6
CONTINUOUS
 62
    30
 10
571.99999999996362
 20
274.93907252417472
 30
0.0
 40
6.0
  0
LINE
  8
SIZE
  6
CONTINUOUS
 62
    30
 10
571.99999999996362
 20
274.93907252417472
 30
0.0
 11
559.99999999996362
 21
274.93907252417472
 31
0.0
  0
CIRCLE
  8
SIZE
  6
CONTINUOUS
 62
    30
 10
650.99999999997817
 20
274.93907252417472
 30
0.0
 40
6.0
  0
LINE
  8
SIZE
  6
CONTINUOUS
 62
    30
 10
650.99999999997817
 20
274.93907252417472
 30
0.0
 11
662.99999999997817
 21
274.93907252417472
 31
0.0
  0
TEXT
  8
SIZE
  6
CONTINUOUS
 62
    30
 10
557.93199999997091
 20
299.93907252417472
 30
0.0
 40
64.0
  1
79
 50
0.0
 41
0.9
 51
0.0
  7
STANDARD
 71
     0
 72
     1
 11
611.4999999999709
 21
299.93907252417472
 31
0.0
210
0.0
220
0.0
230
1.0
  0
POINT
  8
DEFPOINTS
  6
CONTINUOUS
 62
    30
 10
571.99999999996362
 20
-1.050000010300892
 30
0.0
  0
POINT
  8
DEFPOINTS
  6
CONTINUOUS
 62
    30
 10
650.99999999997817
 20
-121.10016822001219
 30
0.0
  0
POINT
  8
DEFPOINTS
  6
CONTINUOUS
 62
    30
 10
650.99999999997817
 20
274.93907252417472
 30
0.0
  0
LINE
  8
SIZE
  6
CONTINUOUS
 62
    30
 10
712.21222329392208
 20
-242.15000000000401
 30
0.0
 11
947.01786756791455
 21
-242.15000000000401
 31
0.0
  0
LINE
  8
SIZE
  6
CONTINUOUS
 62
    30
 10
715.69367645162151
 20
-202.15000000000609
 30
0.0
 11
947.01786756791455
 21
-202.15000000000609
 31
0.0
  0
LINE
  8
SIZE
  6
CONTINUOUS
 62
    30
 10
927.01786756791455
 20
-190.150000000006
 30
0.0
 11
927.01786756791455
 21
-178.150000000006
 31
0.0
  0
LINE
  8
SIZE
  6
CONTINUOUS
 62
    30
 10
927.01786756791455
 20
-254.15000000000401
 30
0.0
 11
927.01786756791466
 21
-545.25745017968256
 31
0.0
  0
LINE
  8
SIZE
  6
CONTINUOUS
 62
    30
 10
927.01786756791455
 20
-202.15000000000609
 30
0.0
 11
927.01786756791455
 21
-242.15000000000401
 31
0.0
  0
CIRCLE
  8
SIZE
  6
CONTINUOUS
 62
    30
 10
927.01786756791455
 20
-202.15000000000609
 30
0.0
 40
6.0
  0
LINE
  8
SIZE
  6
CONTINUOUS
 62
    30
 10
927.01786756791455
 20
-202.15000000000609
 30
0.0
 11
927.01786756791455
 21
-190.15000000000609
 31
0.0
  0
CIRCLE
  8
SIZE
  6
CONTINUOUS
 62
    30
 10
927.01786756791455
 20
-242.15000000000401
 30
0.0
 40
6.0
  0
LINE
  8
SIZE
  6
CONTINUOUS
 62
    30
 10
927.01786756791455
 20
-242.15000000000401
 30
0.0
 11
927.01786756791455
 21
-254.15000000000401
 31
0.0
  0
TEXT
  8
SIZE
  6
CONTINUOUS
 62
    30
 10
902.01786756791432
 20
-528.34887875111133
 30
0.0
 40
64.0
  1
40
 50
90.0
 41
0.9
 51
0.0
  7
STANDARD
 71
     0
 72
     1
 11
902.01786756791432
 21
-473.6288787511113
 31
0.0
210
0.0
220
0.0
230
1.0
  0
POINT
  8
DEFPOINTS
  6
CONTINUOUS
 62
    30
 10
692.21222329392208
 20
-242.1500000000041
 30
0.0
  0
POINT
  8
DEFPOINTS
  6
CONTINUOUS
 62
    30
 10
695.69367645162151
 20
-202.15000000000609
 30
0.0
  0
POINT
  8
DEFPOINTS
  6
CONTINUOUS
 62
    30
 10
927.01786756791455
 20
-202.15000000000609
 30
0.0
  0
LINE
  8
SIZE
  6
CONTINUOUS
 62
    30
 10
590.94999999996367
 20
0.0000000000000032
 30
0.0
 11
1062.765649936011
 21
0.0000000000000791
 31
0.0
  0
LINE
  8
SIZE
  6
CONTINUOUS
 62
    30
 10
590.94999999996367
 20
-403.99999999999159
 30
0.0
 11
1062.765649936011
 21
-403.99999999999147
 31
0.0
  0
LINE
  8
SIZE
  6
CONTINUOUS
 62
    30
 10
1042.765649936011
 20
-11.999999999999931
 30
0.0
 11
1042.765649936011
 21
-391.99999999999147
 31
0.0
  0
CIRCLE
  8
SIZE
  6
CONTINUOUS
 62
    30
 10
1042.765649936011
 20
0.0000000000000759
 30
0.0
 40
6.0
  0
LINE
  8
SIZE
  6
CONTINUOUS
 62
    30
 10
1042.765649936011
 20
0.0000000000000759
 30
0.0
 11
1042.765649936011
 21
-11.999999999999924
 31
0.0
  0
CIRCLE
  8
SIZE
  6
CONTINUOUS
 62
    30
 10
1042.765649936011
 20
-403.99999999999147
 30
0.0
 40
6.0
  0
LINE
  8
SIZE
  6
CONTINUOUS
 62
    30
 10
1042.765649936011
 20
-403.99999999999147
 30
0.0
 11
1042.765649936011
 21
-391.99999999999147
 31
0.0
  0
TEXT
  8
SIZE
  6
CONTINUOUS
 62
    30
 10
1017.7656499360103
 20
-284.07999999999606
 30
0.0
 40
64.0
  1
404
 50
90.0
 41
0.9
 51
0.0
  7
STANDARD
 71
     0
 72
     1
 11
1017.7656499360103
 21
-201.99999999999599
 31
0.0
210
0.0
220
0.0
230
1.0
  0
POINT
  8
DEFPOINTS
  6
CONTINUOUS
 62
    30
 10
570.94999999996367
 20
0.0
 30
0.0
  0
POINT
  8
DEFPOINTS
  6
CONTINUOUS
 62
    30
 10
570.94999999996367
 20
-403.99999999999159
 30
0.0
  0
POINT
  8
DEFPOINTS
  6
CONTINUOUS
 62
    30
 10
1042.765649936011
 20
-403.99999999999147
 30
0.0
  0
LINE
  8
SIZE
  6
CONTINUOUS
 62
    30
 10
636.43427874094255
 20
-77.000000000003212
 30
0.0
 11
947.01786756791466
 21
-77.000000000003155
 31
0.0
  0
LINE
  8
SIZE
  6
CONTINUOUS
 62
    30
 10
590.94999999996367
 20
0.0000000000000032
 30
0.0
 11
947.01786756791466
 21
0.0000000000000605
 31
0.0
  0
LINE
  8
SIZE
  6
CONTINUOUS
 62
    30
 10
927.01786756791466
 20
-65.000000000003169
 30
0.0
 11
927.01786756791466
 21
-11.99999999999995
 31
0.0
  0
LINE
  8
SIZE
  6
CONTINUOUS
 62
    30
 10
927.01786756791466
 20
0.0000000000000573
 30
0.0
 11
927.01786756791466
 21
155.25714285714511
 31
0.0
  0
CIRCLE
  8
SIZE
  6
CONTINUOUS
 62
    30
 10
927.01786756791466
 20
-77.000000000003169
 30
0.0
 40
6.0
  0
LINE
  8
SIZE
  6
CONTINUOUS
 62
    30
 10
927.01786756791466
 20
-77.000000000003169
 30
0.0
 11
927.01786756791466
 21
-65.000000000003169
 31
0.0
  0
CIRCLE
  8
SIZE
  6
CONTINUOUS
 62
    30
 10
927.01786756791466
 20
0.0000000000000573
 30
0.0
 40
6.0
  0
LINE
  8
SIZE
  6
CONTINUOUS
 62
    30
 10
927.01786756791466
 20
0.0000000000000573
 30
0.0
 11
927.01786756791466
 21
-11.999999999999943
 31
0.0
  0
TEXT
  8
SIZE
  6
CONTINUOUS
 62
    30
 10
902.01786756791444
 20
30.060571428573439
 30
0.0
 40
64.0
  1
77
 50
90.0
 41
0.9
 51
0.0
  7
STANDARD
 71
     0
 72
     1
 11
902.01786756791444
 21
83.628571428573423
 31
0.0
210
0.0
220
0.0
230
1.0
  0
POINT
  8
DEFPOINTS
  6
CONTINUOUS
 62
    30
 10
616.43427874094255
 20
-77.000000000003212
 30
0.0
  0
POINT
  8
DEFPOINTS
  6
CONTINUOUS
 62
    30
 10
570.94999999996367
 20
0.0
 30
0.0
  0
POINT
  8
DEFPOINTS
  6
CONTINUOUS
 62
    30
 10
927.01786756791466
 20
0.0000000000000573
 30
0.0
  0
LINE
  8
SIZE
  6
CONTINUOUS
 62
    30
 10
-636.43427874096801
 20
-77.000000000003212
 30
0.0
 11
-884.08269430247606
 21
-77.000000000003254
 31
0.0
  0
LINE
  8
SIZE
  6
CONTINUOUS
 62
    30
 10
-590.95000000000732
 20
-0.0000000000000032
 30
0.0
 11
-884.08269430247606
 21
-0.0000000000000504
 31
0.0
  0
LINE
  8
SIZE
  6
CONTINUOUS
 62
    30
 10
-864.08269430247606
 20
-65.000000000003254
 30
0.0
 11
-864.08269430247606
 21
-12.00000000000005
 31
0.0
  0
LINE
  8
SIZE
  6
CONTINUOUS
 62
    30
 10
-864.08269430247606
 20
-0.0000000000000471
 30
0.0
 11
-864.08269430247606
 21
155.25714285714281
 31
0.0
  0
CIRCLE
  8
SIZE
  6
CONTINUOUS
 62
    30
 10
-864.08269430247606
 20
-77.000000000003254
 30
0.0
 40
6.0
  0
LINE
  8
SIZE
  6
CONTINUOUS
 62
    30
 10
-864.08269430247606
 20
-77.000000000003254
 30
0.0
 11
-864.08269430247606
 21
-65.000000000003254
 31
0.0
  0
CIRCLE
  8
SIZE
  6
CONTINUOUS
 62
    30
 10
-864.08269430247606
 20
-0.0000000000000471
 30
0.0
 40
6.0
  0
LINE
  8
SIZE
  6
CONTINUOUS
 62
    30
 10
-864.08269430247606
 20
-0.0000000000000471
 30
0.0
 11
-864.08269430247606
 21
-12.000000000000048
 31
0.0
  0
TEXT
  8
SIZE
  6
CONTINUOUS
 62
    30
 10
-889.08269430247583
 20
30.060571428571649
 30
0.0
 40
64.0
  1
77
 50
90.0
 41
0.9
 51
0.0
  7
STANDARD
 71
     0
 72
     1
 11
-889.08269430247583
 21
83.628571428571632
 31
0.0
210
0.0
220
0.0
230
1.0
  0
POINT
  8
DEFPOINTS
  6
CONTINUOUS
 62
    30
 10
-616.43427874096801
 20
-77.000000000003212
 30
0.0
  0
POINT
  8
DEFPOINTS
  6
CONTINUOUS
 62
    30
 10
-570.95000000000732
 20
0.0
 30
0.0
  0
POINT
  8
DEFPOINTS
  6
CONTINUOUS
 62
    30
 10
-864.08269430247606
 20
-0.0000000000000471
 30
0.0
  0
LINE
  8
DETAIL
  6
CONTINUOUS
 62
     5
 10
-650.99999999999
 20
-363.09999999999849
 30
0.0
 11
-650.99999999998909
 21
-121.0999999999983
 31
0.0
  0
LINE
  8
DETAIL
  6
CONTINUOUS
 62
     5
 10
-642.99999999999
 20
-363.09999999999849
 30
0.0
 11
-642.99999999999
 21
-121.0999999999983
 31
0.0
  0
LINE
  8
DETAIL
  6
CONTINUOUS
 62
     5
 10
-573.70000000000437
 20
-371.10000000047057
 30
0.0
 11
-573.70000000000437
 21
-127.0000000000032
 31
0.0
  0
LINE
  8
DETAIL
  6
CONTINUOUS
 62
     5
 10
-573.70000000000437
 20
-371.10000000047057
 30
0.0
 11
-642.99999999999
 21
-363.09999999999849
 31
0.0
  0
LINE
  8
DETAIL
  6
CONTINUOUS
 62
     5
 10
-642.99999999999
 20
-363.09999999999849
 30
0.0
 11
-650.99999999999
 21
-363.09999999999849
 31
0.0
  0
LINE
  8
DETAIL
  6
CONTINUOUS
 62
     5
 10
-642.99999999999
 20
-121.0999999999983
 30
0.0
 11
-650.99999999999
 21
-121.0999999999983
 31
0.0
  0
LINE
  8
DETAIL
  6
CONTINUOUS
 62
     5
 10
-584.70000000002165
 20
-114.3698412698418
 30
0.0
 11
-642.99999999999
 21
-121.0999999999983
 31
0.0
  0
LINE
  8
DETAIL
  6
CONTINUOUS
 62
     5
 10
-566.50000000003911
 20
-371.10000000000667
 30
0.0
 11
-573.70000000000437
 21
-371.10000000000667
 31
0.0
  0
LINE
  8
SIZE
  6
CONTINUOUS
 62
    30
 10
-670.99999999999022
 20
-121.0999999999984
 30
0.0
 11
-884.08269430247663
 21
-121.0999999999984
 31
0.0
  0
LINE
  8
SIZE
  6
CONTINUOUS
 62
    30
 10
-670.99999999999022
 20
-363.09999999999872
 30
0.0
 11
-884.08269430247651
 21
-363.09999999999872
 31
0.0
  0
LINE
  8
SIZE
  6
CONTINUOUS
 62
    30
 10
-864.08269430247663
 20
-109.0999999999984
 30
0.0
 11
-864.08269430247663
 21
-97.099999999998417
 31
0.0
  0
LINE
  8
SIZE
  6
CONTINUOUS
 62
    30
 10
-864.08269430247651
 20
-375.09999999999872
 30
0.0
 11
-864.08269430247651
 21
-387.09999999999872
 31
0.0
  0
LINE
  8
SIZE
  6
CONTINUOUS
 62
    30
 10
-864.08269430247663
 20
-121.0999999999984
 30
0.0
 11
-864.08269430247651
 21
-363.09999999999872
 31
0.0
  0
CIRCLE
  8
SIZE
  6
CONTINUOUS
 62
    30
 10
-864.08269430247663
 20
-121.0999999999984
 30
0.0
 40
6.0
  0
LINE
  8
SIZE
  6
CONTINUOUS
 62
    30
 10
-864.08269430247663
 20
-121.0999999999984
 30
0.0
 11
-864.08269430247663
 21
-109.0999999999984
 31
0.0
  0
CIRCLE
  8
SIZE
  6
CONTINUOUS
 62
    30
 10
-864.08269430247651
 20
-363.09999999999872
 30
0.0
 40
6.0
  0
LINE
  8
SIZE
  6
CONTINUOUS
 62
    30
 10
-864.08269430247651
 20
-363.09999999999872
 30
0.0
 11
-864.08269430247651
 21
-375.09999999999872
 31
0.0
  0
TEXT
  8
SIZE
  6
CONTINUOUS
 62
    30
 10
-889.0826943024764
 20
-357.58799999999826
 30
0.0
 40
64.0
  1
φ242
 50
90.0
 41
0.9
 51
0.0
  7
STANDARD
 71
     0
 72
     1
 11
-889.0826943024764
 21
-242.09999999999818
 31
0.0
210
0.0
220
0.0
230
1.0
  0
POINT
  8
DEFPOINTS
  6
CONTINUOUS
 62
    30
 10
-650.99999999999022
 20
-121.0999999999984
 30
0.0
  0
POINT
  8
DEFPOINTS
  6
CONTINUOUS
 62
    30
 10
-650.99999999999022
 20
-363.09999999999872
 30
0.0
  0
POINT
  8
DEFPOINTS
  6
CONTINUOUS
 62
    30
 10
-864.08269430247651
 20
-363.09999999999872
 30
0.0
  0
LINE
  8
SIZE
  6
CONTINUOUS
 62
    30
 10
-593.70000000000459
 20
-371.10000000047069
 30
0.0
 11
-1021.597459121371
 21
-371.1000000004708
 31
0.0
  0
LINE
  8
SIZE
  6
CONTINUOUS
 62
    30
 10
-593.70000000000459
 20
-113.1000000004706
 30
0.0
 11
-1021.597459121371
 21
-113.1000000004707
 31
0.0
  0
LINE
  8
SIZE
  6
CONTINUOUS
 62
    30
 10
-1001.597459121371
 20
-359.1000000004708
 30
0.0
 11
-1001.597459121371
 21
-125.1000000004707
 31
0.0
  0
CIRCLE
  8
SIZE
  6
CONTINUOUS
 62
    30
 10
-1001.597459121371
 20
-371.1000000004708
 30
0.0
 40
6.0
  0
LINE
  8
SIZE
  6
CONTINUOUS
 62
    30
 10
-1001.597459121371
 20
-371.1000000004708
 30
0.0
 11
-1001.597459121371
 21
-359.1000000004708
 31
0.0
  0
CIRCLE
  8
SIZE
  6
CONTINUOUS
 62
    30
 10
-1001.597459121371
 20
-113.1000000004707
 30
0.0
 40
6.0
  0
LINE
  8
SIZE
  6
CONTINUOUS
 62
    30
 10
-1001.597459121371
 20
-113.1000000004707
 30
0.0
 11
-1001.597459121371
 21
-125.1000000004707
 31
0.0
  0
TEXT
  8
SIZE
  6
CONTINUOUS
 62
    30
 10
-1026.597459121371
 20
-357.01200000047044
 30
0.0
 40
64.0
  1
φ258
 50
90.0
 41
0.9
 51
0.0
  7
STANDARD
 71
     0
 72
     1
 11
-1026.597459121371
 21
-242.1000000004704
 31
0.0
210
0.0
220
0.0
230
1.0
  0
POINT
  8
DEFPOINTS
  6
CONTINUOUS
 62
    30
 10
-573.70000000000459
 20
-371.10000000047069
 30
0.0
  0
POINT
  8
DEFPOINTS
  6
CONTINUOUS
 62
    30
 10
-573.70000000000459
 20
-113.1000000004706
 30
0.0
  0
POINT
  8
DEFPOINTS
  6
CONTINUOUS
 62
    30
 10
-1001.597459121371
 20
-113.1000000004707
 30
0.0
  0
LINE
  8
DETAIL
  6
CONTINUOUS
 62
     5
 10
650.99999999997544
 20
-363.09999999999849
 30
0.0
 11
650.99999999997453
 21
-121.0999999999983
 31
0.0
  0
LINE
  8
DETAIL
  6
CONTINUOUS
 62
     5
 10
642.99999999997544
 20
-363.09999999999849
 30
0.0
 11
642.99999999997544
 21
-121.0999999999983
 31
0.0
  0
LINE
  8
DETAIL
  6
CONTINUOUS
 62
     5
 10
573.69999999998981
 20
-371.10000000047057
 30
0.0
 11
573.69999999998981
 21
-127.0000000000032
 31
0.0
  0
LINE
  8
DETAIL
  6
CONTINUOUS
 62
     5
 10
573.69999999998981
 20
-371.10000000047057
 30
0.0
 11
642.99999999997544
 21
-363.09999999999849
 31
0.0
  0
LINE
  8
DETAIL
  6
CONTINUOUS
 62
     5
 10
642.99999999997544
 20
-363.09999999999849
 30
0.0
 11
650.99999999997544
 21
-363.09999999999849
 31
0.0
  0
LINE
  8
DETAIL
  6
CONTINUOUS
 62
     5
 10
642.99999999997544
 20
-121.0999999999983
 30
0.0
 11
650.99999999997544
 21
-121.0999999999983
 31
0.0
  0
LINE
  8
DETAIL
  6
CONTINUOUS
 62
     5
 10
584.19999999999254
 20
-114.3121212121205
 30
0.0
 11
642.99999999997544
 21
-121.0999999999983
 31
0.0
  0
LINE
  8
DETAIL
  6
CONTINUOUS
 62
     5
 10
566.50000000002456
 20
-371.10000000000667
 30
0.0
 11
573.69999999998981
 21
-371.10000000000667
 31
0.0
  0
LINE
  8
SIZE
  6
CONTINUOUS
 62
    30
 10
571.99999999996362
 20
-422.95000001030172
 30
0.0
 11
571.99999999996362
 21
-584.16488068077251
 31
0.0
  0
LINE
  8
SIZE
  6
CONTINUOUS
 62
    30
 10
406.99999999997499
 20
-415.32535704140952
 30
0.0
 11
406.99999999997499
 21
-584.16488068077251
 31
0.0
  0
LINE
  8
SIZE
  6
CONTINUOUS
 62
    30
 10
418.99999999997499
 20
-564.16488068077251
 30
0.0
 11
559.99999999996362
 21
-564.16488068077251
 31
0.0
  0
LINE
  8
SIZE
  6
CONTINUOUS
 62
    30
 10
571.99999999996362
 20
-564.16488068077251
 30
0.0
 11
771.14285714282073
 21
-564.16488068077251
 31
0.0
  0
CIRCLE
  8
SIZE
  6
CONTINUOUS
 62
    30
 10
406.99999999997499
 20
-564.16488068077251
 30
0.0
 40
6.0
  0
LINE
  8
SIZE
  6
CONTINUOUS
 62
    30
 10
406.99999999997499
 20
-564.16488068077251
 30
0.0
 11
418.99999999997499
 21
-564.16488068077251
 31
0.0
  0
CIRCLE
  8
SIZE
  6
CONTINUOUS
 62
    30
 10
571.99999999996362
 20
-564.16488068077251
 30
0.0
 40
6.0
  0
LINE
  8
SIZE
  6
CONTINUOUS
 62
    30
 10
571.99999999996362
 20
-564.16488068077251
 30
0.0
 11
559.99999999996362
 21
-564.16488068077251
 31
0.0
  0
TEXT
  8
SIZE
  6
CONTINUOUS
 62
    30
 10
602.97942857139219
 20
-539.16488068077251
 30
0.0
 40
64.0
  1
165
 50
0.0
 41
0.9
 51
0.0
  7
STANDARD
 71
     0
 72
     1
 11
677.57142857139218
 21
-539.16488068077251
 31
0.0
210
0.0
220
0.0
230
1.0
  0
POINT
  8
DEFPOINTS
  6
CONTINUOUS
 62
    30
 10
571.99999999996362
 20
-402.95000001030172
 30
0.0
  0
POINT
  8
DEFPOINTS
  6
CONTINUOUS
 62
    30
 10
406.99999999997499
 20
-395.32535704140952
 30
0.0
  0
POINT
  8
DEFPOINTS
  6
CONTINUOUS
 62
    30
 10
406.99999999997499
 20
-564.16488068077251
 30
0.0
  0
POINT
  8
ARRANGE
  6
CONTINUOUS
 62
     1
 10
-0.0000000000145519
 20
0.0
 30
0.0
 50
180.0
  0
CIRCLE
  8
ARRANGE
  6
CONTINUOUS
 62
     1
 10
-0.0000000000145519
 20
0.0
 30
0.0
 40
40.0
  0
LINE
  8
BASIS
  6
DASHDOT
 62
     6
 10
514.56572125900311
 20
-77.000000000003183
 30
0.0
 11
616.43427874094232
 21
-77.000000000003183
 31
0.0
  0
LINE
  8
BASIS
  6
DASHDOT
 62
     6
 10
565.49999999997272
 20
-26.06572125902267
 30
0.0
 11
565.49999999997272
 21
-127.93427874097461
 31
0.0
  0
LINE
  8
BASIS
  6
DASHDOT
 62
     6
 10
-514.56572125902858
 20
-77.000000000003183
 30
0.0
 11
-616.43427874096778
 21
-77.000000000003183
 31
0.0
  0
LINE
  8
BASIS
  6
DASHDOT
 62
     6
 10
-565.49999999999818
 20
-26.06572125902267
 30
0.0
 11
-565.49999999999818
 21
-127.93427874097461
 31
0.0
  0
LINE
  8
SIZE
  6
CONTINUOUS
 62
    30
 10
565.49999999997272
 20
-5.8657212590226209
 30
0.0
 11
565.49999999997272
 21
170.4945070246392
 31
0.0
  0
LINE
  8
SIZE
  6
CONTINUOUS
 62
    30
 10
-565.49999999999818
 20
-5.8657212590226209
 30
0.0
 11
-565.49999999999818
 21
170.4945070246392
 31
0.0
  0
LINE
  8
SIZE
  6
CONTINUOUS
 62
    30
 10
553.49999999997272
 20
150.4945070246392
 30
0.0
 11
-553.49999999999818
 21
150.4945070246392
 31
0.0
  0
CIRCLE
  8
SIZE
  6
CONTINUOUS
 62
    30
 10
565.49999999997272
 20
150.4945070246392
 30
0.0
 40
6.0
  0
LINE
  8
SIZE
  6
CONTINUOUS
 62
    30
 10
565.49999999997272
 20
150.4945070246392
 30
0.0
 11
553.49999999997272
 21
150.4945070246392
 31
0.0
  0
CIRCLE
  8
SIZE
  6
CONTINUOUS
 62
    30
 10
-565.49999999999818
 20
150.4945070246392
 30
0.0
 40
6.0
  0
LINE
  8
SIZE
  6
CONTINUOUS
 62
    30
 10
-565.49999999999818
 20
150.4945070246392
 30
0.0
 11
-553.49999999999818
 21
150.4945070246392
 31
0.0
  0
TEXT
  8
SIZE
  6
CONTINUOUS
 62
    30
 10
-89.856000000012742
 20
175.4945070246392
 30
0.0
 40
64.0
  1
1131
 50
0.0
 41
0.9
 51
0.0
  7
STANDARD
 71
     0
 72
     1
 11
-0.0000000000127329
 21
175.4945070246392
 31
0.0
210
0.0
220
0.0
230
1.0
  0
POINT
  8
DEFPOINTS
  6
CONTINUOUS
 62
    30
 10
565.49999999997272
 20
-25.865721259022621
 30
0.0
  0
POINT
  8
DEFPOINTS
  6
CONTINUOUS
 62
    30
 10
-565.49999999999818
 20
-25.865721259022621
 30
0.0
  0
POINT
  8
DEFPOINTS
  6
CONTINUOUS
 62
    30
 10
-565.49999999999818
 20
150.4945070246392
 30
0.0
  0
CIRCLE
  8
FIX
  6
CONTINUOUS
 62
    11
 10
-565.49999999999818
 20
-76.999999999998636
 30
0.0
 40
6.5
  0
CIRCLE
  8
FIX
  6
CONTINUOUS
 62
    11
 10
565.49999999997272
 20
-76.999999999998636
 30
0.0
 40
6.5
  0
LINE
  8
OUTLINE
  6
CONTINUOUS
 62
     3
 10
566.4999999999809
 20
-378.2700023440093
 30
0.0
 11
566.50000000002456
 21
-371.10000000000667
 31
0.0
  0
LINE
  8
OUTLINE
  6
CONTINUOUS
 62
     3
 10
566.50000000002456
 20
-371.10000000000667
 30
0.0
 11
573.69999999998981
 21
-371.10000000000667
 31
0.0
  0
LINE
  8
OUTLINE
  6
CONTINUOUS
 62
     3
 10
573.69999999998981
 20
-371.10000000000667
 30
0.0
 11
642.99999999997544
 21
-363.09999999999849
 31
0.0
  0
LINE
  8
OUTLINE
  6
CONTINUOUS
 62
     3
 10
642.99999999997544
 20
-363.09999999999849
 30
0.0
 11
650.99999999997544
 21
-363.09999999999849
 31
0.0
  0
LINE
  8
OUTLINE
  6
CONTINUOUS
 62
     3
 10
650.99999999997544
 20
-363.09999999999849
 30
0.0
 11
650.99999999997544
 21
-121.0999999999983
 31
0.0
  0
LINE
  8
OUTLINE
  6
CONTINUOUS
 62
     3
 10
650.99999999997544
 20
-121.0999999999983
 30
0.0
 11
642.99999999997544
 21
-121.0999999999983
 31
0.0
  0
LINE
  8
OUTLINE
  6
CONTINUOUS
 62
     3
 10
642.99999999997544
 20
-121.0999999999983
 30
0.0
 11
584.19999999999254
 21
-114.3121212121205
 31
0.0
  0
LINE
  8
OUTLINE
  6
CONTINUOUS
 62
     3
 10
584.19999999999254
 20
-114.3121212121205
 30
0.0
 11
584.19999999999254
 21
-77.000000000003183
 31
0.0
  0
LINE
  8
OUTLINE
  6
CONTINUOUS
 62
     3
 10
584.19999999999254
 20
-77.000000000003183
 30
0.0
 11
566.19999999997799
 21
-77.000000000003183
 31
0.0
  0
LINE
  8
OUTLINE
  6
CONTINUOUS
 62
     3
 10
566.19999999997799
 20
-77.000000000003183
 30
0.0
 11
566.19999999997799
 21
-2.8000000000029099
 31
0.0
  0
LINE
  8
OUTLINE
  6
CONTINUOUS
 62
     3
 10
566.19999999997799
 20
-2.8000000000029099
 30
0.0
 11
565.69999999999254
 21
-2.8000000000029099
 31
0.0
  0
LINE
  8
OUTLINE
  6
CONTINUOUS
 62
     3
 10
565.69999999999254
 20
-2.8000000000029099
 30
0.0
 11
565.69999999999254
 21
-1.8000000000029099
 31
0.0
  0
ARC
  8
OUTLINE
  6
CONTINUOUS
 62
     3
 10
566.19999999996753
 20
-1.7999999999778644
 30
0.0
 40
0.4999999999749545
 50
90.0
 51
180.0
  0
LINE
  8
OUTLINE
  6
CONTINUOUS
 62
     3
 10
566.19999999997799
 20
-1.3000000000029099
 30
0.0
 11
567.69999999999982
 21
-1.300000000014734
 31
0.0
  0
LINE
  8
OUTLINE
  6
CONTINUOUS
 62
     3
 10
567.69999999999982
 20
-1.300000000014734
 30
0.0
 11
567.69999999999254
 21
-2.1000000000058212
 31
0.0
  0
LINE
  8
OUTLINE
  6
CONTINUOUS
 62
     3
 10
567.69999999999254
 20
-2.1000000000058212
 30
0.0
 11
570.92499999999836
 21
-2.1000000000058212
 31
0.0
  0
ARC
  8
OUTLINE
  6
CONTINUOUS
 62
     3
 10
570.94985294113121
 20
-1.0501470588259221
 30
0.0
 40
1.0501470691227188
 50
268.64390271122659
 51
89.991976504337345
  0
LINE
  8
OUTLINE
  6
CONTINUOUS
 62
     3
 10
570.94999999996344
 20
0.0
 30
0.0
 11
565.87127970598067
 21
0.0
 31
0.0
  0
ARC
  8
OUTLINE
  6
CONTINUOUS
 62
     3
 10
565.87127970596191
 20
-1.5999999999798564
 30
0.0
 40
1.5999999999798564
 50
90.0
 51
170.00000000024772
  0
LINE
  8
OUTLINE
  6
CONTINUOUS
 62
     3
 10
564.29558730116105
 20
-1.3221629157230841
 30
0.0
 11
564.19999999999254
 21
-1.864265431277317
 31
0.0
  0
LINE
  8
OUTLINE
  6
CONTINUOUS
 62
     3
 10
564.19999999999254
 20
-1.864265431277317
 30
0.0
 11
564.19999999999254
 21
-0.8000000000020009
 31
0.0
  0
LINE
  8
OUTLINE
  6
CONTINUOUS
 62
     3
 10
564.19999999999254
 20
-0.8000000000020009
 30
0.0
 11
562.84708539199619
 21
-0.8000000000020009
 31
0.0
  0
LINE
  8
OUTLINE
  6
CONTINUOUS
 62
     3
 10
562.84708539199619
 20
-0.8000000000020009
 30
0.0
 11
562.84708539199619
 21
0.0
 31
0.0
  0
LINE
  8
OUTLINE
  6
CONTINUOUS
 62
     3
 10
562.84708539199619
 20
0.0
 30
0.0
 11
-562.84708539202529
 21
0.0
 31
0.0
  0
LINE
  8
OUTLINE
  6
CONTINUOUS
 62
     3
 10
-562.84708539202529
 20
0.0
 30
0.0
 11
-562.84708539202529
 21
-0.8000000000020009
 31
0.0
  0
LINE
  8
OUTLINE
  6
CONTINUOUS
 62
     3
 10
-562.84708539202529
 20
-0.8000000000020009
 30
0.0
 11
-564.20000000000709
 21
-0.8000000000020009
 31
0.0
  0
LINE
  8
OUTLINE
  6
CONTINUOUS
 62
     3
 10
-564.20000000000709
 20
-0.8000000000020009
 30
0.0
 11
-564.20000000000709
 21
-1.8642654312616289
 31
0.0
  0
LINE
  8
OUTLINE
  6
CONTINUOUS
 62
     3
 10
-564.20000000000709
 20
-1.8642654312616289
 30
0.0
 11
-564.29558730001281
 21
-1.322162915996159
 31
0.0
  0
ARC
  8
OUTLINE
  6
CONTINUOUS
 62
     3
 10
-565.87127970330971
 20
-1.5999999981300883
 30
0.0
 40
1.5999999981300885
 50
9.9999999342405772
 51
90.0
  0
LINE
  8
OUTLINE
  6
CONTINUOUS
 62
     3
 10
-565.87127970400161
 20
0.0
 30
0.0
 11
-570.95000000000709
 21
0.0
 31
0.0
  0
ARC
  8
OUTLINE
  6
CONTINUOUS
 62
     3
 10
-570.95000000000709
 20
-1.0500000000029106
 30
0.0
 40
1.0500000000029106
 50
90.0
 51
270.0
  0
LINE
  8
OUTLINE
  6
CONTINUOUS
 62
     3
 10
-570.95000000000709
 20
-2.1000000000058212
 30
0.0
 11
-567.70000000000709
 21
-2.1000000000058212
 31
0.0
  0
LINE
  8
OUTLINE
  6
CONTINUOUS
 62
     3
 10
-567.70000000000709
 20
-2.1000000000058212
 30
0.0
 11
-567.70000000000709
 21
-1.3000000000060941
 31
0.0
  0
LINE
  8
OUTLINE
  6
CONTINUOUS
 62
     3
 10
-567.70000000000709
 20
-1.3000000000060941
 30
0.0
 11
-566.20000000002165
 21
-1.3000000000029099
 31
0.0
  0
ARC
  8
OUTLINE
  6
CONTINUOUS
 62
     3
 10
-566.20000000002165
 20
-1.8000000000033443
 30
0.0
 40
0.5000000000004342
 50
354.26082952344757
 51
90.0
  0
LINE
  8
OUTLINE
  6
CONTINUOUS
 62
     3
 10
-565.70250628146732
 20
-1.849999999997181
 30
0.0
 11
-565.70312770707278
 21
-2.8000000000029099
 31
0.0
  0
LINE
  8
OUTLINE
  6
CONTINUOUS
 62
     3
 10
-565.70312770707278
 20
-2.8000000000029099
 30
0.0
 11
-566.20000000002165
 21
-2.8000000000029099
 31
0.0
  0
LINE
  8
OUTLINE
  6
CONTINUOUS
 62
     3
 10
-566.20000000002165
 20
-2.8000000000029099
 30
0.0
 11
-566.20000000002165
 21
-77.000000000003183
 31
0.0
  0
LINE
  8
OUTLINE
  6
CONTINUOUS
 62
     3
 10
-566.20000000002165
 20
-77.000000000003183
 30
0.0
 11
-584.70000000002165
 21
-77.000000000003183
 31
0.0
  0
LINE
  8
OUTLINE
  6
CONTINUOUS
 62
     3
 10
-584.70000000002165
 20
-77.000000000003183
 30
0.0
 11
-584.70000000002165
 21
-114.3698412698418
 31
0.0
  0
LINE
  8
OUTLINE
  6
CONTINUOUS
 62
     3
 10
-584.70000000002165
 20
-114.3698412698418
 30
0.0
 11
-642.99999999999
 21
-121.0999999999983
 31
0.0
  0
LINE
  8
OUTLINE
  6
CONTINUOUS
 62
     3
 10
-642.99999999999
 20
-121.0999999999983
 30
0.0
 11
-650.99999999999
 21
-121.0999999999983
 31
0.0
  0
LINE
  8
OUTLINE
  6
CONTINUOUS
 62
     3
 10
-650.99999999999
 20
-121.0999999999983
 30
0.0
 11
-650.99999999999
 21
-363.09999999999849
 31
0.0
  0
LINE
  8
OUTLINE
  6
CONTINUOUS
 62
     3
 10
-650.99999999999
 20
-363.09999999999849
 30
0.0
 11
-642.99999999999
 21
-363.09999999999849
 31
0.0
  0
LINE
  8
OUTLINE
  6
CONTINUOUS
 62
     3
 10
-642.99999999999
 20
-363.09999999999849
 30
0.0
 11
-573.70000000000437
 21
-371.10000000000667
 31
0.0
  0
LINE
  8
OUTLINE
  6
CONTINUOUS
 62
     3
 10
-573.70000000000437
 20
-371.10000000000667
 30
0.0
 11
-566.50000000003911
 21
-371.10000000000667
 31
0.0
  0
LINE
  8
OUTLINE
  6
CONTINUOUS
 62
     3
 10
-566.50000000003911
 20
-371.10000000000667
 30
0.0
 11
-566.50000000003911
 21
-384.59909544400813
 31
0.0
  0
LINE
  8
OUTLINE
  6
CONTINUOUS
 62
     3
 10
-566.50000000003911
 20
-384.59909544400813
 30
0.0
 11
-566.20000000002165
 21
-384.60020000000401
 31
0.0
  0
LINE
  8
OUTLINE
  6
CONTINUOUS
 62
     3
 10
-566.20000000002165
 20
-384.60020000000401
 30
0.0
 11
-566.20000000002165
 21
-401.20000000000482
 31
0.0
  0
LINE
  8
OUTLINE
  6
CONTINUOUS
 62
     3
 10
-566.20000000002165
 20
-401.20000000000482
 30
0.0
 11
-565.7000000000362
 21
-401.20000000000482
 31
0.0
  0
LINE
  8
OUTLINE
  6
CONTINUOUS
 62
     3
 10
-565.7000000000362
 20
-401.20000000000482
 30
0.0
 11
-565.70000000002165
 21
-402.200000000003
 31
0.0
  0
ARC
  8
OUTLINE
  6
CONTINUOUS
 62
     3
 10
-566.20000000002256
 20
-402.20000000000294
 30
0.0
 40
0.5000000000009606
 50
270.0
 51
0.0
  0
LINE
  8
OUTLINE
  6
CONTINUOUS
 62
     3
 10
-566.20000000002165
 20
-402.70000000000391
 30
0.0
 11
-567.70000000000709
 21
-402.70000000003392
 31
0.0
  0
LINE
  8
OUTLINE
  6
CONTINUOUS
 62
     3
 10
-567.70000000000709
 20
-402.70000000003392
 30
0.0
 11
-567.70000000000709
 21
-401.90000000001561
 31
0.0
  0
LINE
  8
OUTLINE
  6
CONTINUOUS
 62
     3
 10
-567.70000000000709
 20
-401.90000000001561
 30
0.0
 11
-570.95000000000709
 21
-401.90000000001561
 31
0.0
  0
ARC
  8
OUTLINE
  6
CONTINUOUS
 62
     3
 10
-570.95000000000709
 20
-402.95000000000351
 30
0.0
 40
1.0499999999879037
 50
90.0
 51
270.0
  0
LINE
  8
OUTLINE
  6
CONTINUOUS
 62
     3
 10
-570.95000000000709
 20
-403.99999999999142
 30
0.0
 11
-565.87127970400161
 21
-404.00000000000091
 31
0.0
  0
ARC
  8
OUTLINE
  6
CONTINUOUS
 62
     3
 10
-565.87127970332836
 20
-402.40000000185046
 30
0.0
 40
1.5999999981504784
 50
270.0
 51
350.0000000654619
  0
LINE
  8
OUTLINE
  6
CONTINUOUS
 62
     3
 10
-564.29558730001281
 20
-402.67783708399611
 30
0.0
 11
-564.20000000000709
 21
-402.13573456875611
 31
0.0
  0
LINE
  8
OUTLINE
  6
CONTINUOUS
 62
     3
 10
-564.20000000000709
 20
-402.13573456875611
 30
0.0
 11
-564.20000000000709
 21
-403.20000000000391
 31
0.0
  0
LINE
  8
OUTLINE
  6
CONTINUOUS
 62
     3
 10
-564.20000000000709
 20
-403.20000000000391
 30
0.0
 11
-562.80000000002747
 21
-403.20000000000391
 31
0.0
  0
LINE
  8
OUTLINE
  6
CONTINUOUS
 62
     3
 10
-562.80000000002747
 20
-403.20000000000391
 30
0.0
 11
-562.80000000002747
 21
-403.99999999999142
 31
0.0
  0
LINE
  8
OUTLINE
  6
CONTINUOUS
 62
     3
 10
-562.80000000002747
 20
-403.99999999999142
 30
0.0
 11
562.79999999998381
 21
-403.99999999999142
 31
0.0
  0
LINE
  8
OUTLINE
  6
CONTINUOUS
 62
     3
 10
562.79999999998381
 20
-403.99999999999142
 30
0.0
 11
562.79999999998381
 21
-403.20000000000391
 31
0.0
  0
LINE
  8
OUTLINE
  6
CONTINUOUS
 62
     3
 10
562.79999999998381
 20
-403.20000000000391
 30
0.0
 11
564.19999999999254
 21
-403.20000000000391
 31
0.0
  0
LINE
  8
OUTLINE
  6
CONTINUOUS
 62
     3
 10
564.19999999999254
 20
-403.20000000000391
 30
0.0
 11
564.19999999999254
 21
-402.13573456874292
 31
0.0
  0
LINE
  8
OUTLINE
  6
CONTINUOUS
 62
     3
 10
564.19999999999254
 20
-402.13573456874292
 30
0.0
 11
564.29558729998371
 21
-402.67783708399611
 31
0.0
  0
ARC
  8
OUTLINE
  6
CONTINUOUS
 62
     3
 10
565.87127970682707
 20
-402.39999999763461
 30
0.0
 40
1.6000000023568033
 50
190.00000006127641
 51
270.0
  0
LINE
  8
OUTLINE
  6
CONTINUOUS
 62
     3
 10
565.87127970598067
 20
-403.99999999999142
 30
0.0
 11
570.94999999996344
 21
-403.99999999999142
 31
0.0
  0
ARC
  8
OUTLINE
  6
CONTINUOUS
 62
     3
 10
570.94985294116009
 20
-402.94985294119078
 30
0.0
 40
1.0501470690973964
 50
270.0080234940873
 51
91.356097290382081
  0
LINE
  8
OUTLINE
  6
CONTINUOUS
 62
     3
 10
570.92499999999836
 20
-401.90000000003693
 30
0.0
 11
567.69999999999254
 21
-401.90000000001561
 31
0.0
  0
LINE
  8
OUTLINE
  6
CONTINUOUS
 62
     3
 10
567.69999999999254
 20
-401.90000000001561
 30
0.0
 11
567.69999999999618
 21
-402.70000000003262
 31
0.0
  0
LINE
  8
OUTLINE
  6
CONTINUOUS
 62
     3
 10
567.69999999999618
 20
-402.70000000003262
 30
0.0
 11
566.19999999999618
 21
-402.70000000003301
 31
0.0
  0
ARC
  8
OUTLINE
  6
CONTINUOUS
 62
     3
 10
566.19999999999595
 20
-402.20000000003324
 30
0.0
 40
0.4999999999997962
 50
180.0
 51
270.0
  0
LINE
  8
OUTLINE
  6
CONTINUOUS
 62
     3
 10
565.69999999999618
 20
-402.20000000003301
 30
0.0
 11
565.69999999999618
 21
-401.20000000000482
 31
0.0
  0
LINE
  8
OUTLINE
  6
CONTINUOUS
 62
     3
 10
565.69999999999618
 20
-401.20000000000482
 30
0.0
 11
566.19999999997799
 21
-401.20000000000482
 31
0.0
  0
LINE
  8
OUTLINE
  6
CONTINUOUS
 62
     3
 10
566.19999999997799
 20
-401.20000000000482
 30
0.0
 11
566.19999999997799
 21
-378.2700023440093
 31
0.0
  0
LINE
  8
OUTLINE
  6
CONTINUOUS
 62
     3
 10
566.19999999997799
 20
-378.2700023440093
 30
0.0
 11
566.4999999999809
 21
-378.2700023440093
 31
0.0
  0
TEXT
  8
NOTE
  6
CONTINUOUS
 62
     4
 10
-778.39790774807705
 20
-277.1188895906173
 30
0.0
 40
64.065641025638456
  1
RA
 41
0.9
  0
TEXT
  8
NOTE
  6
CONTINUOUS
 62
     4
 10
675.24734033674133
 20
-277.11888959061707
 30
0.0
 40
64.065641025638456
  1
EA
 41
0.9
  0
TEXT
  8
ETC
  6
CONTINUOUS
 62
    61
 10
1061.125437278944
 20
769.9969480760501
 30
0.0
 40
64.065641025638456
  1
LGH-80RVX3-E_4
 41
0.9
  0
TEXT
  8
ETC
  6
CONTINUOUS
 62
    61
 10
1056.935149951765
 20
651.92065825607961
 30
0.0
 40
64.065641025638456
  1
LOSSNAY
 41
0.9
  0
TEXT
  8
ETC
  6
CONTINUOUS
 62
    61
 10
1107.688549634418
 20
543.66096355151342
 30
0.0
 40
40.041025641024042
  1
LGH-80RVX3-E
 50
0.0
 41
0.9
 51
0.0
  7
STANDARD
 71
     0
 11
0.0
 21
0.0
 31
0.0
210
0.0
220
0.0
230
1.0
  0
TEXT
  8
NOTE
  6
CONTINUOUS
 62
     4
 10
707.00887760710066
 20
372.50920116855877
 30
0.0
 40
69.0
  1
Ceiling suspension fixture
 50
0.0
 41
0.9
 51
0.0
  7
STANDARD
 71
     0
 11
0.0
 21
0.0
 31
0.0
210
0.0
220
0.0
230
1.0
  0
TEXT
  8
NOTE
  6
CONTINUOUS
 62
     4
 10
707.00887760710066
 20
258.65920116855875
 30
0.0
 40
69.0
  1
(4-13X20 oval)
 50
0.0
 41
0.9
 51
0.0
  7
STANDARD
 71
     0
 11
0.0
 21
0.0
 31
0.0
210
0.0
220
0.0
230
1.0
  0
LINE
  8
NOTE
  6
CONTINUOUS
 62
     4
 10
697.00887760710066
 20
221.36634402570141
 30
0.0
 11
1913.5231633213859
 21
221.36634402570141
 31
0.0
  0
LINE
  8
NOTE
  6
CONTINUOUS
 62
     4
 10
587.38655481370984
 20
-48.122141927352345
 30
0.0
 11
565.50000461539275
 21
-76.999996651674337
 31
0.0
  0
LINE
  8
NOTE
  6
CONTINUOUS
 62
     4
 10
565.50000461539275
 20
-76.999996651674337
 30
0.0
 11
570.01533154818344
 21
-41.047758950072023
 31
0.0
  0
LINE
  8
NOTE
  6
CONTINUOUS
 62
     4
 10
565.50000461539275
 20
-76.999996651674337
 30
0.0
 11
591.90188174650052
 21
-12.169904225750031
 31
0.0
  0
LINE
  8
NOTE
  6
CONTINUOUS
 62
     4
 10
591.90188174650052
 20
-12.169904225750029
 30
0.0
 11
687.00887760710066
 21
221.36634402570141
 31
0.0
  0
LINE
  8
NOTE
  6
CONTINUOUS
 62
     4
 10
687.00887760710066
 20
221.36634402570141
 30
0.0
 11
697.00887760710066
 21
221.36634402570141
 31
0.0
  0
ENDSEC
  0
EOF
