  0
SECTION
  2
HEADER
  9
$ACADVER
  1
AC1009
  9
$DWGCODEPAGE
  3
dos932
  9
$INSBASE
 10
0.0
 20
0.0
 30
0.0
  9
$EXTMIN
 10
-1033.264144071454
 20
-628.05174632003946
 30
-0.0000000349181948
  9
$EXTMAX
 10
1917.883313386563
 20
834.09119482861206
 30
0.0000000814935746
  9
$LIMMIN
 10
-2970.0
 20
-2100.0
  9
$LIMMAX
 10
2970.0
 20
2100.0
  9
$ORTHOMODE
 70
     1
  9
$REGENMODE
 70
     1
  9
$FILLMODE
 70
     1
  9
$QTEXTMODE
 70
     0
  9
$MIRRTEXT
 70
     0
  9
$LTSCALE
 40
20.0
  9
$ATTMODE
 70
     1
  9
$TEXTSIZE
 40
64.0
  9
$TRACEWID
 40
0.05
  9
$TEXTSTYLE
  7
STANDARD
  9
$CLAYER
  8
SIZE
  9
$CELTYPE
  6
CONTINUOUS
  9
$CECOLOR
 62
     7
  9
$DIMSCALE
 40
1.0
  9
$DIMASZ
 40
12.0
  9
$DIMEXO
 40
20.0
  9
$DIMDLI
 40
200.0
  9
$DIMRND
 40
0.0
  9
$DIMDLE
 40
0.0
  9
$DIMEXE
 40
20.0
  9
$DIMTP
 40
0.0
  9
$DIMTM
 40
0.0
  9
$DIMTXT
 40
64.0
  9
$DIMCEN
 40
0.09
  9
$DIMTSZ
 40
0.0
  9
$DIMTOL
 70
     0
  9
$DIMLIM
 70
     0
  9
$DIMTIH
 70
     0
  9
$DIMTOH
 70
     0
  9
$DIMSE1
 70
     0
  9
$DIMSE2
 70
     0
  9
$DIMTAD
 70
     1
  9
$DIMZIN
 70
     8
  9
$DIMBLK
  1

  9
$DIMASO
 70
     1
  9
$DIMSHO
 70
     0
  9
$DIMPOST
  1

  9
$DIMAPOST
  1

  9
$DIMALT
 70
     0
  9
$DIMALTD
 70
     2
  9
$DIMALTF
 40
25.399999999999999
  9
$DIMLFAC
 40
1.0
  9
$DIMTOFL
 70
     1
  9
$DIMTVP
 40
0.0
  9
$DIMTIX
 70
     1
  9
$DIMSOXD
 70
     0
  9
$DIMSAH
 70
     0
  9
$DIMBLK1
  1

  9
$DIMBLK2
  1

  9
$DIMSTYLE
  2
STANDARD
  9
$DIMCLRD
 70
     7
  9
$DIMCLRE
 70
     7
  9
$DIMCLRT
 70
     7
  9
$DIMTFAC
 40
1.0
  9
$DIMGAP
 40
25.0
  9
$LUNITS
 70
     2
  9
$LUPREC
 70
     4
  9
$SKETCHINC
 40
0.1
  9
$FILLETRAD
 40
3.0
  9
$AUNITS
 70
     1
  9
$AUPREC
 70
     3
  9
$MENU
  1
ACAD
  9
$ELEVATION
 40
0.0
  9
$PELEVATION
 40
0.0
  9
$THICKNESS
 40
0.0
  9
$LIMCHECK
 70
     0
  9
$CHAMFERA
 40
0.0
  9
$CHAMFERB
 40
0.0
  9
$SKPOLY
 70
     0
  9
$TDCREATE
 40
2453019.62301037
  9
$TDUPDATE
 40
2460045.428980023
  9
$TDINDWG
 40
1.7152358912
  9
$TDUSRTIMER
 40
1.7152358912
  9
$USRTIMER
 70
     1
  9
$ANGBASE
 50
0.0
  9
$ANGDIR
 70
     0
  9
$PDMODE
 70
     3
  9
$PDSIZE
 40
-2.0
  9
$PLINEWID
 40
0.0
  9
$SPLFRAME
 70
     0
  9
$SPLINETYPE
 70
     6
  9
$SPLINESEGS
 70
     8
  9
$SURFTAB1
 70
     6
  9
$SURFTAB2
 70
     6
  9
$SURFTYPE
 70
     6
  9
$SURFU
 70
     6
  9
$SURFV
 70
     6
  9
$UCSNAME
  2

  9
$UCSORG
 10
0.0
 20
0.0
 30
0.0
  9
$UCSXDIR
 10
1.0
 20
0.0
 30
0.0
  9
$UCSYDIR
 10
0.0
 20
1.0
 30
0.0
  9
$PUCSNAME
  2

  9
$PUCSORG
 10
0.0
 20
0.0
 30
0.0
  9
$PUCSXDIR
 10
1.0
 20
0.0
 30
0.0
  9
$PUCSYDIR
 10
0.0
 20
1.0
 30
0.0
  9
$USERI1
 70
     0
  9
$USERI2
 70
     0
  9
$USERI3
 70
     0
  9
$USERI4
 70
     0
  9
$USERI5
 70
     0
  9
$USERR1
 40
20.0
  9
$USERR2
 40
0.0
  9
$USERR3
 40
0.0
  9
$USERR4
 40
0.0
  9
$USERR5
 40
0.0
  9
$WORLDVIEW
 70
     1
  9
$SHADEDGE
 70
     3
  9
$SHADEDIF
 70
    70
  9
$TILEMODE
 70
     1
  9
$MAXACTVP
 70
    48
  9
$PINSBASE
 10
0.0
 20
0.0
 30
0.0
  9
$PLIMCHECK
 70
     0
  9
$PEXTMIN
 10
-100000000000000000000.0
 20
-100000000000000000000.0
 30
-100000000000000000000.0
  9
$PEXTMAX
 10
100000000000000000000.0
 20
100000000000000000000.0
 30
100000000000000000000.0
  9
$PLIMMIN
 10
0.0
 20
0.0
  9
$PLIMMAX
 10
12.0
 20
9.0
  9
$UNITMODE
 70
     0
  9
$VISRETAIN
 70
     0
  9
$PLINEGEN
 70
     0
  9
$PSLTSCALE
 70
     0
  9
$TREEDEPTH
 70
  3020
  9
$ATTDIA
 70
     0
  9
$ATTREQ
 70
     1
  9
$BLIPMODE
 70
     1
  9
$COORDS
 70
     1
  9
$DRAGMODE
 70
     2
  9
$OSMODE
 70
     0
  9
$HANDLING
 70
     0
  9
$HANDSEED
  5
101B8
  0
ENDSEC
  0
SECTION
  2
TABLES
  0
TABLE
  2
LTYPE
 70
     3
  0
LTYPE
  2
CONTINUOUS
 70
     0
  3
実線
 72
    65
 73
     0
 40
0.0
  0
LTYPE
  2
DASHDOT
 70
     0
  3
____ _ ____ _ ____ _ ____ _ ____ _ ____ _ ____
 72
    65
 73
     4
 40
5.5
 49
4.0
 49
-0.6
 49
0.3
 49
-0.6
  0
LTYPE
  2
DASHED
 70
     0
  3
-- -- -- -- -- -- -- -- -- -- -- -- -- -- --
 72
    65
 73
     2
 40
0.75
 49
0.5
 49
-0.25
  0
ENDTAB
  0
TABLE
  2
LAYER
 70
    12
  0
LAYER
  2
0
 70
     0
 62
     7
  6
CONTINUOUS
  0
LAYER
  2
BASIS
 70
     0
 62
     6
  6
DASHDOT
  0
LAYER
  2
OUTLINE
 70
     0
 62
     3
  6
CONTINUOUS
  0
LAYER
  2
DETAIL
 70
     0
 62
     5
  6
CONTINUOUS
  0
LAYER
  2
SIZE
 70
     0
 62
    30
  6
CONTINUOUS
  0
LAYER
  2
ARRANGE
 70
     0
 62
     1
  6
CONTINUOUS
  0
LAYER
  2
DEFPOINTS
 70
     0
 62
     7
  6
CONTINUOUS
  0
LAYER
  2
ETC
 70
     0
 62
    61
  6
CONTINUOUS
  0
LAYER
  2
FIX
 70
     0
 62
    11
  6
CONTINUOUS
  0
LAYER
  2
NOTE
 70
     0
 62
     4
  6
CONTINUOUS
  0
LAYER
  2
SERVICESPACE
 70
    64
 62
     2
  6
DASHDOT
  0
LAYER
  2
SYMBOLLINE
 70
    64
 62
    15
  6
CONTINUOUS
  0
ENDTAB
  0
TABLE
  2
STYLE
 70
     1
  0
STYLE
  2
STANDARD
 70
     0
 40
64.0
 41
0.9
 50
0.0
 71
     0
 42
64.0
  3
SIMPLEX.shx
  4
BIGFONT.shx
  0
ENDTAB
  0
TABLE
  2
APPID
 70
    23
  0
APPID
  2
ACAD
 70
     0
  0
APPID
  2
AUTOCAD_POSTSCRIPT_FIGURE
 70
     0
  0
APPID
  2
ACAD_EXEMPT_FROM_CAD_STANDARDS
 70
     0
  0
APPID
  2
ACAD_PSEXT
 70
     0
  0
APPID
  2
ACAUTHENVIRON
 70
     0
  0
APPID
  2
GENIUS_GENOENT_13
 70
     0
  0
APPID
  2
GENIUS_GENCFG_13
 70
     0
  0
APPID
  2
GENIUS_GENCFG0_13
 70
     0
  0
APPID
  2
GENIUS_GENCFG1_13
 70
     0
  0
APPID
  2
GENIUS_GENCFG2_13
 70
     0
  0
APPID
  2
GENIUS_GENCFG3_13
 70
     0
  0
APPID
  2
GENIUS_GENCFG4_13
 70
     0
  0
APPID
  2
GENIUS_GEVCFG0_13
 70
     0
  0
APPID
  2
CONTENTBLOCKICON
 70
     0
  0
APPID
  2
CONTENTBLOCKDESCRIPTION
 70
     0
  0
APPID
  2
ACAD_NAV_VCDISPLAY
 70
     0
  0
APPID
  2
ACAD_MLEADERVER
 70
     0
  0
APPID
  2
ACDBDYNAMICBLOCKTRUENAME
 70
     0
  0
APPID
  2
ACDBDYNAMICBLOCKGUID
 70
     0
  0
APPID
  2
GENIUS_GENODEF_13
 70
     0
  0
APPID
  2
GENIUS_GENOBJ-N-CEN_13
 70
     0
  0
APPID
  2
GENIUS_GENCEN_19
 70
     0
  0
APPID
  2
ACAD_DSTYLE_DIMRADIAL_EXTENSION
 70
     0
  0
ENDTAB
  0
TABLE
  2
DIMSTYLE
 70
     1
  0
DIMSTYLE
  2
STANDARD
 70
     0
  3

  4

  5
_ORIGIN
  6

  7

 40
1.0
 41
12.0
 42
20.0
 43
200.0
 44
20.0
 45
0.0
 46
0.0
 47
0.0
 48
0.0
140
64.0
141
0.09
142
0.0
143
25.399999999999999
144
1.0
145
0.0
146
1.0
147
25.0
 71
     0
 72
     0
 73
     0
 74
     0
 75
     0
 76
     0
 77
     1
 78
     8
170
     0
171
     2
172
     1
173
     0
174
     1
175
     0
176
     7
177
     7
178
     7
  0
ENDTAB
  0
TABLE
  2
VIEW
 70
     1
  0
VIEW
  2
ALL
 70
     0
 40
4282.6198079999986
 10
0.0
 20
41.309904000000003
 41
5940.0
 11
0.0
 21
0.0
 31
1.0
 12
0.0
 22
0.0
 32
0.0
 42
50.0
 43
0.0
 44
0.0
 50
0.0
 71
     0
  0
ENDTAB
  0
TABLE
  2
UCS
 70
     0
  0
ENDTAB
  0
TABLE
  2
VPORT
 70
     1
  0
VPORT
  2
*ACTIVE
 70
     0
 10
0.0
 20
0.0
 11
1.0
 21
1.0
 12
442.3095846575543
 22
103.0197242542863
 13
0.0
 23
0.0
 14
1.0
 24
1.0
 15
0.0
 25
0.0
 16
0.0
 26
0.0
 36
1.0
 17
0.0
 27
0.0
 37
0.0
 40
1663.036146271889
 41
1.781285231116122
 42
50.0
 43
0.0
 44
0.0
 50
0.0
 51
0.0
 71
     0
 72
  1000
 73
     1
 74
     3
 75
     0
 76
     0
 77
     0
 78
     0
  0
ENDTAB
  0
ENDSEC
  0
SECTION
  2
BLOCKS
  0
BLOCK
  8
0
  2
_ORIGIN
 70
     0
 10
0.0
 20
0.0
 30
0.0
  3
_ORIGIN
  1
_ORIGIN
  0
CIRCLE
  8
0
  6
CONTINUOUS
 62
     7
 10
0.0
 20
0.0
 30
0.0
 40
0.5
  0
LINE
  8
0
  6
CONTINUOUS
 62
     7
 10
0.0
 20
0.0
 30
0.0
 11
-1.0
 21
0.0
 31
0.0
  0
ENDBLK
  8
0
  0
ENDSEC
  0
SECTION
  2
ENTITIES
  0
LINE
  8
DETAIL
  6
CONTINUOUS
 62
     5
 10
-584.20000000000709
 20
-122.0000000000032
 30
0.0
 11
-584.20000000000709
 21
-77.000000000003183
 31
0.0
  0
LINE
  8
DETAIL
  6
CONTINUOUS
 62
     5
 10
-572.19999999997799
 20
-84.000000000003183
 30
0.0
 11
-572.19999999997799
 21
-77.000000000003183
 31
0.0
  0
LINE
  8
DETAIL
  6
CONTINUOUS
 62
     5
 10
-570.70000000000709
 20
-403.20000000000391
 30
0.0
 11
-570.70000000000709
 21
-402.70000000000391
 31
0.0
  0
LINE
  8
DETAIL
  6
CONTINUOUS
 62
     5
 10
-570.70000000000709
 20
-1.3000000000029099
 30
0.0
 11
-570.70000000000709
 21
-0.8000000000020009
 31
0.0
  0
LINE
  8
DETAIL
  6
CONTINUOUS
 62
     5
 10
-567.70000000000709
 20
-403.20000000000391
 30
0.0
 11
-567.70000000000709
 21
-401.90000000001561
 31
0.0
  0
LINE
  8
DETAIL
  6
CONTINUOUS
 62
     5
 10
-566.49999999999545
 20
-378.2700023440093
 30
0.0
 11
-566.49999999999545
 21
-127.0000000000032
 31
0.0
  0
LINE
  8
DETAIL
  6
CONTINUOUS
 62
     5
 10
-566.19999999999254
 20
-401.20000000000482
 30
0.0
 11
-566.19999999999254
 21
-100.0000000000032
 31
0.0
  0
LINE
  8
DETAIL
  6
CONTINUOUS
 62
     5
 10
-566.19999999999254
 20
-77.000000000003183
 30
0.0
 11
-566.19999999999254
 21
-2.8000000000029099
 31
0.0
  0
LINE
  8
DETAIL
  6
CONTINUOUS
 62
     5
 10
-565.70000000000709
 20
-402.200000000003
 30
0.0
 11
-565.70000000000709
 21
-401.20000000000482
 31
0.0
  0
LINE
  8
DETAIL
  6
CONTINUOUS
 62
     5
 10
-565.70000000000709
 20
-2.8000000000029099
 30
0.0
 11
-565.70000000000709
 21
-1.8000000000029099
 31
0.0
  0
LINE
  8
DETAIL
  6
CONTINUOUS
 62
     5
 10
-565.20000000000709
 20
-1.8000000000029099
 30
0.0
 11
-565.20000000000709
 21
-2.8000000000029099
 31
0.0
  0
LINE
  8
DETAIL
  6
CONTINUOUS
 62
     5
 10
-565.20000000000709
 20
-401.20000000000482
 30
0.0
 11
-565.20000000000709
 21
-402.200000000003
 31
0.0
  0
LINE
  8
DETAIL
  6
CONTINUOUS
 62
     5
 10
-564.20000000000709
 20
-0.8000000000020009
 30
0.0
 11
-564.20000000000709
 21
-2.8000000000029099
 31
0.0
  0
LINE
  8
DETAIL
  6
CONTINUOUS
 62
     5
 10
-564.20000000000709
 20
-403.20000000000391
 30
0.0
 11
-564.20000000000709
 21
-401.20000000000482
 31
0.0
  0
LINE
  8
DETAIL
  6
CONTINUOUS
 62
     5
 10
-562.84708539201074
 20
0.0
 30
0.0
 11
-562.84708539201074
 21
-0.8000000000020009
 31
0.0
  0
LINE
  8
DETAIL
  6
CONTINUOUS
 62
     5
 10
-562.79999999999836
 20
-403.99999999999142
 30
0.0
 11
-562.79999999999836
 21
-403.20000000000391
 31
0.0
  0
LINE
  8
DETAIL
  6
CONTINUOUS
 62
     5
 10
-559.20000000000709
 20
-73.200000000000273
 30
0.0
 11
-559.20000000000709
 21
-80.200000000000273
 31
0.0
  0
LINE
  8
DETAIL
  6
CONTINUOUS
 62
     5
 10
-542.00000000000409
 20
-172.10000000000309
 30
0.0
 11
-542.00000000000409
 21
-312.100000000004
 31
0.0
  0
LINE
  8
DETAIL
  6
CONTINUOUS
 62
     5
 10
-540.70000000000709
 20
-95.000000000003183
 30
0.0
 11
-540.70000000000709
 21
-73.200000000000273
 31
0.0
  0
LINE
  8
DETAIL
  6
CONTINUOUS
 62
     5
 10
-564.84734604000823
 20
-401.20000000000482
 30
0.0
 11
-565.0834335040081
 21
-402.53891854199861
 31
0.0
  0
LINE
  8
DETAIL
  6
CONTINUOUS
 62
     5
 10
-564.20000000000709
 20
-402.13573456874292
 30
0.0
 11
-564.29558729999826
 21
-402.67783708399611
 31
0.0
  0
LINE
  8
DETAIL
  6
CONTINUOUS
 62
     5
 10
-565.0834335040081
 20
-1.4610814580082661
 30
0.0
 11
-564.84734604000823
 21
-2.8000000000029099
 31
0.0
  0
LINE
  8
DETAIL
  6
CONTINUOUS
 62
     5
 10
-564.29558729999826
 20
-1.322162915996159
 30
0.0
 11
-564.20000000000709
 21
-1.864265431277317
 31
0.0
  0
LINE
  8
DETAIL
  6
CONTINUOUS
 62
     5
 10
-542.00000000000409
 20
-312.100000000004
 30
0.0
 11
-477.00000000000409
 21
-377.100000000004
 31
0.0
  0
LINE
  8
DETAIL
  6
CONTINUOUS
 62
     5
 10
-477.00000000000409
 20
-107.10000000000311
 30
0.0
 11
-542.00000000000409
 21
-172.10000000000309
 31
0.0
  0
LINE
  8
DETAIL
  6
CONTINUOUS
 62
     5
 10
-272.00000000000358
 20
-312.100000000004
 30
0.0
 11
-272.00000000000358
 21
-172.10000000000309
 31
0.0
  0
LINE
  8
DETAIL
  6
CONTINUOUS
 62
     5
 10
-234.63397459600949
 20
-209.60000000000309
 30
0.0
 11
-234.63397459600949
 21
-221.9999999999973
 31
0.0
  0
LINE
  8
DETAIL
  6
CONTINUOUS
 62
     5
 10
-234.63397459600949
 20
-194.60000000000309
 30
0.0
 11
-234.63397459600949
 21
-182.20000000000891
 31
0.0
  0
LINE
  8
DETAIL
  6
CONTINUOUS
 62
     5
 10
-231.27696573998671
 20
-209.60000000000309
 30
0.0
 11
-231.27696573998671
 21
-221.9999999999973
 31
0.0
  0
LINE
  8
DETAIL
  6
CONTINUOUS
 62
     5
 10
-231.27696573998671
 20
-194.60000000000309
 30
0.0
 11
-231.27696573998671
 21
-182.20000000000891
 31
0.0
  0
LINE
  8
DETAIL
  6
CONTINUOUS
 62
     5
 10
-227.90000000001871
 20
-237.27995170201481
 30
0.0
 11
-227.90000000001871
 21
-231.62004829800301
 31
0.0
  0
LINE
  8
DETAIL
  6
CONTINUOUS
 62
     5
 10
-227.7230342619832
 20
-209.60000000000309
 30
0.0
 11
-227.7230342619832
 21
-221.9999999999973
 31
0.0
  0
LINE
  8
DETAIL
  6
CONTINUOUS
 62
     5
 10
-227.7230342619832
 20
-194.60000000000309
 30
0.0
 11
-227.7230342619832
 21
-182.20000000000891
 31
0.0
  0
LINE
  8
DETAIL
  6
CONTINUOUS
 62
     5
 10
-224.99999999999551
 20
-238.45000000000891
 30
0.0
 11
-224.99999999999551
 21
-230.45000000000891
 31
0.0
  0
LINE
  8
DETAIL
  6
CONTINUOUS
 62
     5
 10
-224.36602540399599
 20
-209.60000000000309
 30
0.0
 11
-224.36602540399599
 21
-221.9999999999973
 31
0.0
  0
LINE
  8
DETAIL
  6
CONTINUOUS
 62
     5
 10
-224.36602540399599
 20
-194.60000000000309
 30
0.0
 11
-224.36602540399599
 21
-182.20000000000891
 31
0.0
  0
LINE
  8
DETAIL
  6
CONTINUOUS
 62
     5
 10
-224.20000000000709
 20
-4.3000000000029104
 30
0.0
 11
-224.20000000000709
 21
-177.35000000000309
 31
0.0
  0
LINE
  8
DETAIL
  6
CONTINUOUS
 62
     5
 10
-224.20000000000709
 20
-179.55000000001471
 30
0.0
 11
-224.20000000000709
 21
-224.7500000000127
 31
0.0
  0
LINE
  8
DETAIL
  6
CONTINUOUS
 62
     5
 10
-224.20000000000709
 20
-226.95000000000891
 30
0.0
 11
-224.20000000000709
 21
-399.79999999999518
 31
0.0
  0
LINE
  8
DETAIL
  6
CONTINUOUS
 62
     5
 10
-222.99999999999551
 20
-3.0999999999912689
 30
0.0
 11
-222.99999999999551
 21
-177.35000000000309
 31
0.0
  0
LINE
  8
DETAIL
  6
CONTINUOUS
 62
     5
 10
-222.99999999999551
 20
-179.55000000001471
 30
0.0
 11
-222.99999999999551
 21
-224.7500000000127
 31
0.0
  0
LINE
  8
DETAIL
  6
CONTINUOUS
 62
     5
 10
-222.99999999999551
 20
-401.00000000000682
 30
0.0
 11
-222.99999999999551
 21
-226.95000000000891
 31
0.0
  0
LINE
  8
DETAIL
  6
CONTINUOUS
 62
     5
 10
-222.00000000001
 20
-214.45000000000891
 30
0.0
 11
-222.00000000001
 21
-224.7500000000127
 31
0.0
  0
LINE
  8
DETAIL
  6
CONTINUOUS
 62
     5
 10
-222.00000000001
 20
-226.95000000000891
 30
0.0
 11
-222.00000000001
 21
-228.45000000000979
 31
0.0
  0
LINE
  8
DETAIL
  6
CONTINUOUS
 62
     5
 10
-222.00000000001
 20
-254.45000000000891
 30
0.0
 11
-222.00000000001
 21
-246.2500000000127
 31
0.0
  0
LINE
  8
DETAIL
  6
CONTINUOUS
 62
     5
 10
-559.26730091799436
 20
-403.99999999999181
 30
0.0
 11
-557.16730091801855
 21
-401.90000000001561
 31
0.0
  0
LINE
  8
DETAIL
  6
CONTINUOUS
 62
     5
 10
-559.3143863100081
 20
0.0000000000002274
 30
0.0
 11
-557.21438631000183
 21
-2.1000000000058212
 31
0.0
  0
LINE
  8
DETAIL
  6
CONTINUOUS
 62
     5
 10
-220.99999999999551
 20
-246.2500000000127
 30
0.0
 11
-220.99999999999551
 21
-248.2499999999973
 31
0.0
  0
LINE
  8
DETAIL
  6
CONTINUOUS
 62
     5
 10
-220.99999999999551
 20
-228.45000000000979
 30
0.0
 11
-220.99999999999551
 21
-217.4499999999953
 31
0.0
  0
LINE
  8
DETAIL
  6
CONTINUOUS
 62
     5
 10
-214.99999999999551
 20
-248.2499999999973
 30
0.0
 11
-214.99999999999551
 21
-251.44999999999439
 31
0.0
  0
LINE
  8
DETAIL
  6
CONTINUOUS
 62
     5
 10
-207.9999999999809
 20
-217.4499999999953
 30
0.0
 11
-207.9999999999809
 21
-248.2499999999973
 31
0.0
  0
LINE
  8
DETAIL
  6
CONTINUOUS
 62
     5
 10
-188.9123823699874
 20
-182.35000000000309
 30
0.0
 11
-188.9123823699874
 21
-221.94998952001151
 31
0.0
  0
LINE
  8
DETAIL
  6
CONTINUOUS
 62
     5
 10
-186.71238236999031
 20
-182.35000000000309
 30
0.0
 11
-186.71238236999031
 21
-221.94998952001151
 31
0.0
  0
LINE
  8
DETAIL
  6
CONTINUOUS
 62
     5
 10
570.94999999999254
 20
-403.99999999999142
 30
0.0
 11
565.87127970398706
 21
-403.99999999999142
 31
0.0
  0
LINE
  8
DETAIL
  6
CONTINUOUS
 62
     5
 10
-570.94999999997799
 20
-403.99999999999142
 30
0.0
 11
-565.87127970599522
 21
-403.99999999999142
 31
0.0
  0
LINE
  8
DETAIL
  6
CONTINUOUS
 62
     5
 10
-562.79999999999836
 20
-403.99999999999142
 30
0.0
 11
562.80000000001291
 21
-403.99999999999142
 31
0.0
  0
LINE
  8
DETAIL
  6
CONTINUOUS
 62
     5
 10
570.94999999999254
 20
-403.20000000000391
 30
0.0
 11
565.87127970398706
 21
-403.20000000000391
 31
0.0
  0
LINE
  8
DETAIL
  6
CONTINUOUS
 62
     5
 10
-558.46730091800691
 20
-403.20000000000391
 30
0.0
 11
-564.20000000000709
 21
-403.20000000000391
 31
0.0
  0
LINE
  8
DETAIL
  6
CONTINUOUS
 62
     5
 10
-570.94999999997799
 20
-403.20000000000391
 30
0.0
 11
-565.87127970599522
 21
-403.20000000000391
 31
0.0
  0
LINE
  8
DETAIL
  6
CONTINUOUS
 62
     5
 10
558.46730091801055
 20
-403.20000000000391
 30
0.0
 11
564.19999999999254
 21
-403.20000000000391
 31
0.0
  0
LINE
  8
DETAIL
  6
CONTINUOUS
 62
     5
 10
566.20000000000709
 20
-402.70000000000391
 30
0.0
 11
570.94999999999254
 21
-402.70000000000391
 31
0.0
  0
LINE
  8
DETAIL
  6
CONTINUOUS
 62
     5
 10
-566.19999999999254
 20
-401.20000000000482
 30
0.0
 11
-564.20000000000709
 21
-401.20000000000482
 31
0.0
  0
LINE
  8
DETAIL
  6
CONTINUOUS
 62
     5
 10
564.19999999999254
 20
-401.20000000000482
 30
0.0
 11
566.20000000000709
 21
-401.20000000000482
 31
0.0
  0
LINE
  8
DETAIL
  6
CONTINUOUS
 62
     5
 10
223.00000000001
 20
-401.00000000000682
 30
0.0
 11
-222.99999999999551
 21
-401.00000000000682
 31
0.0
  0
LINE
  8
DETAIL
  6
CONTINUOUS
 62
     5
 10
224.19999999999251
 20
-399.79999999999518
 30
0.0
 11
-224.20000000000709
 21
-399.79999999999518
 31
0.0
  0
LINE
  8
DETAIL
  6
CONTINUOUS
 62
     5
 10
566.50000000002456
 20
-384.60020000000401
 30
0.0
 11
566.20000000000709
 21
-384.60020000000401
 31
0.0
  0
LINE
  8
DETAIL
  6
CONTINUOUS
 62
     5
 10
-566.19999999999254
 20
-378.2700023440093
 30
0.0
 11
-566.49999999999545
 21
-378.2700023440093
 31
0.0
  0
LINE
  8
DETAIL
  6
CONTINUOUS
 62
     5
 10
-477.00000000000409
 20
-377.100000000004
 30
0.0
 11
-337.00000000000358
 21
-377.100000000004
 31
0.0
  0
LINE
  8
DETAIL
  6
CONTINUOUS
 62
     5
 10
-272.00000000000358
 20
-172.10000000000309
 30
0.0
 11
-337.00000000000358
 21
-107.10000000000311
 31
0.0
  0
LINE
  8
DETAIL
  6
CONTINUOUS
 62
     5
 10
-337.00000000000358
 20
-377.100000000004
 30
0.0
 11
-272.00000000000358
 21
-312.100000000004
 31
0.0
  0
LINE
  8
DETAIL
  6
CONTINUOUS
 62
     5
 10
222.43068047600809
 20
-316.55000000000018
 30
0.0
 11
221.2201435300185
 21
-316.55000000000018
 31
0.0
  0
LINE
  8
DETAIL
  6
CONTINUOUS
 62
     5
 10
223.00000000001
 20
-314.55000000001559
 30
0.0
 11
221.56747271601759
 21
-314.55000000001559
 31
0.0
  0
LINE
  8
DETAIL
  6
CONTINUOUS
 62
     5
 10
224.19999999999251
 20
-314.55000000001559
 30
0.0
 11
241.29999999999839
 21
-314.55000000001559
 31
0.0
  0
LINE
  8
DETAIL
  6
CONTINUOUS
 62
     5
 10
223.00000000001
 20
-268.55000000000018
 30
0.0
 11
221.56747271601759
 21
-268.55000000000018
 31
0.0
  0
LINE
  8
DETAIL
  6
CONTINUOUS
 62
     5
 10
224.19999999999251
 20
-268.55000000000018
 30
0.0
 11
241.29999999999839
 21
-268.55000000000018
 31
0.0
  0
LINE
  8
DETAIL
  6
CONTINUOUS
 62
     5
 10
222.43068047600809
 20
-266.55000000000109
 30
0.0
 11
221.2201435300185
 21
-266.55000000000109
 31
0.0
  0
LINE
  8
DETAIL
  6
CONTINUOUS
 62
     5
 10
-222.99999999999551
 20
-254.45000000000891
 30
0.0
 11
-217.99999999999551
 21
-254.45000000000891
 31
0.0
  0
LINE
  8
DETAIL
  6
CONTINUOUS
 62
     5
 10
-207.9999999999809
 20
-248.2499999999973
 30
0.0
 11
-220.99999999999551
 21
-248.2499999999973
 31
0.0
  0
LINE
  8
DETAIL
  6
CONTINUOUS
 62
     5
 10
-220.99999999999551
 20
-247.2500000000127
 30
0.0
 11
-207.9999999999809
 21
-247.2500000000127
 31
0.0
  0
LINE
  8
DETAIL
  6
CONTINUOUS
 62
     5
 10
-220.99999999999551
 20
-246.2500000000127
 30
0.0
 11
-222.99999999999551
 21
-246.2500000000127
 31
0.0
  0
LINE
  8
DETAIL
  6
CONTINUOUS
 62
     5
 10
-224.99999999999551
 20
-238.45000000000891
 30
0.0
 11
-226.98715574398651
 21
-238.27614640001869
 31
0.0
  0
LINE
  8
BASIS
  6
DASHDOT
 62
     6
 10
-0.000000000007276
 20
32.760738174227299
 30
0.0
 11
-0.000000000007276
 21
-437.01073817423998
 31
0.0
  0
LINE
  8
DETAIL
  6
CONTINUOUS
 62
     5
 10
-224.99999999999551
 20
-230.45000000000891
 30
0.0
 11
-226.98715574398651
 21
-230.62385359999919
 31
0.0
  0
LINE
  8
DETAIL
  6
CONTINUOUS
 62
     5
 10
-224.99999999999551
 20
-236.95000000000979
 30
0.0
 11
-224.20000000000709
 21
-236.95000000000979
 31
0.0
  0
LINE
  8
DETAIL
  6
CONTINUOUS
 62
     5
 10
-224.99999999999551
 20
-231.95000000000891
 30
0.0
 11
-224.20000000000709
 21
-231.95000000000891
 31
0.0
  0
LINE
  8
DETAIL
  6
CONTINUOUS
 62
     5
 10
-220.99999999999551
 20
-228.45000000000979
 30
0.0
 11
-222.99999999999551
 21
-228.45000000000979
 31
0.0
  0
LINE
  8
DETAIL
  6
CONTINUOUS
 62
     5
 10
-191.34697728001171
 20
-226.95000000000891
 30
0.0
 11
-207.9999999999809
 21
-226.95000000000891
 31
0.0
  0
LINE
  8
DETAIL
  6
CONTINUOUS
 62
     5
 10
-220.99999999999551
 20
-226.95000000000891
 30
0.0
 11
-229.0600931280014
 21
-226.95000000000891
 31
0.0
  0
LINE
  8
DETAIL
  6
CONTINUOUS
 62
     5
 10
-191.34697728001171
 20
-224.7500000000127
 30
0.0
 11
-207.9999999999809
 21
-224.7500000000127
 31
0.0
  0
LINE
  8
DETAIL
  6
CONTINUOUS
 62
     5
 10
-220.99999999999551
 20
-224.7500000000127
 30
0.0
 11
-229.0600931280014
 21
-224.7500000000127
 31
0.0
  0
LINE
  8
DETAIL
  6
CONTINUOUS
 62
     5
 10
-234.63397459600949
 20
-221.9999999999973
 30
0.0
 11
-224.36602540399599
 21
-221.9999999999973
 31
0.0
  0
LINE
  8
DETAIL
  6
CONTINUOUS
 62
     5
 10
-211.00000000001
 20
-214.45000000000891
 30
0.0
 11
-222.99999999999551
 21
-214.45000000000891
 31
0.0
  0
LINE
  8
BASIS
  6
DASHDOT
 62
     6
 10
695.69367645163584
 20
-202.150000000006
 30
0.0
 11
-695.69367645163584
 21
-202.150000000006
 31
0.0
  0
LINE
  8
DETAIL
  6
CONTINUOUS
 62
     5
 10
-234.63397459600949
 20
-182.20000000000891
 30
0.0
 11
-224.36602540399599
 21
-182.20000000000891
 31
0.0
  0
LINE
  8
DETAIL
  6
CONTINUOUS
 62
     5
 10
-229.0600931280014
 20
-179.55000000001471
 30
0.0
 11
-191.34697728001171
 21
-179.55000000001471
 31
0.0
  0
LINE
  8
DETAIL
  6
CONTINUOUS
 62
     5
 10
-229.0600931280014
 20
-177.35000000000309
 30
0.0
 11
-191.34697728001171
 21
-177.35000000000309
 31
0.0
  0
LINE
  8
DETAIL
  6
CONTINUOUS
 62
     5
 10
-566.19999999999254
 20
-127.0000000000032
 30
0.0
 11
-579.20000000000709
 21
-127.0000000000032
 31
0.0
  0
LINE
  8
DETAIL
  6
CONTINUOUS
 62
     5
 10
566.20000000000709
 20
-127.0000000000032
 30
0.0
 11
579.70000000000709
 21
-127.0000000000032
 31
0.0
  0
LINE
  8
DETAIL
  6
CONTINUOUS
 62
     5
 10
222.43068047600809
 20
-126.5500000000002
 30
0.0
 11
221.2201435300185
 21
-126.5500000000002
 31
0.0
  0
LINE
  8
DETAIL
  6
CONTINUOUS
 62
     5
 10
223.00000000001
 20
-124.5500000000156
 30
0.0
 11
221.56747271601759
 21
-124.5500000000156
 31
0.0
  0
LINE
  8
DETAIL
  6
CONTINUOUS
 62
     5
 10
224.19999999999251
 20
-124.5500000000156
 30
0.0
 11
241.29999999999839
 21
-124.5500000000156
 31
0.0
  0
LINE
  8
DETAIL
  6
CONTINUOUS
 62
     5
 10
-337.00000000000358
 20
-107.10000000000311
 30
0.0
 11
-477.00000000000409
 21
-107.10000000000311
 31
0.0
  0
LINE
  8
DETAIL
  6
CONTINUOUS
 62
     5
 10
-566.19999999999254
 20
-106.0000000000032
 30
0.0
 11
-569.10000000000127
 21
-106.0000000000032
 31
0.0
  0
LINE
  8
DETAIL
  6
CONTINUOUS
 62
     5
 10
566.22641510799713
 20
-106.0000000000032
 30
0.0
 11
569.60000000000127
 21
-106.0000000000032
 31
0.0
  0
LINE
  8
DETAIL
  6
CONTINUOUS
 62
     5
 10
-545.70000000000709
 20
-100.0000000000032
 30
0.0
 11
-569.10000000000127
 21
-100.0000000000032
 31
0.0
  0
LINE
  8
DETAIL
  6
CONTINUOUS
 62
     5
 10
546.20000000000709
 20
-100.0000000000032
 30
0.0
 11
569.60000000000127
 21
-100.0000000000032
 31
0.0
  0
LINE
  8
DETAIL
  6
CONTINUOUS
 62
     5
 10
555.20000000000709
 20
-95.000000000003183
 30
0.0
 11
553.20000000000709
 21
-95.000000000003183
 31
0.0
  0
LINE
  8
DETAIL
  6
CONTINUOUS
 62
     5
 10
-554.69999999999254
 20
-95.000000000003183
 30
0.0
 11
-552.69999999999254
 21
-95.000000000003183
 31
0.0
  0
LINE
  8
DETAIL
  6
CONTINUOUS
 62
     5
 10
-552.69999999999254
 20
-89.000000000003183
 30
0.0
 11
-554.69999999999254
 21
-89.000000000003183
 31
0.0
  0
LINE
  8
DETAIL
  6
CONTINUOUS
 62
     5
 10
553.20000000000709
 20
-89.000000000003183
 30
0.0
 11
555.20000000000709
 21
-89.000000000003183
 31
0.0
  0
LINE
  8
DETAIL
  6
CONTINUOUS
 62
     5
 10
581.70000000000709
 20
-87.000000000004093
 30
0.0
 11
575.70000000000709
 21
-87.000000000004093
 31
0.0
  0
LINE
  8
DETAIL
  6
CONTINUOUS
 62
     5
 10
-581.20000000000709
 20
-87.000000000004093
 30
0.0
 11
-575.20000000000709
 21
-87.000000000004093
 31
0.0
  0
LINE
  8
DETAIL
  6
CONTINUOUS
 62
     5
 10
-572.19999999997799
 20
-80.200000000000273
 30
0.0
 11
-540.70000000000709
 21
-80.200000000000273
 31
0.0
  0
LINE
  8
DETAIL
  6
CONTINUOUS
 62
     5
 10
541.20000000000709
 20
-80.200000000000273
 30
0.0
 11
572.69999999999254
 21
-80.200000000000273
 31
0.0
  0
LINE
  8
DETAIL
  6
CONTINUOUS
 62
     5
 10
223.00000000001
 20
-78.550000000000182
 30
0.0
 11
221.56747271601759
 21
-78.550000000000182
 31
0.0
  0
LINE
  8
DETAIL
  6
CONTINUOUS
 62
     5
 10
224.19999999999251
 20
-78.550000000000182
 30
0.0
 11
241.29999999999839
 21
-78.550000000000182
 31
0.0
  0
LINE
  8
DETAIL
  6
CONTINUOUS
 62
     5
 10
-559.20000000000709
 20
-77.000000000003183
 30
0.0
 11
-584.20000000000709
 21
-77.000000000003183
 31
0.0
  0
LINE
  8
DETAIL
  6
CONTINUOUS
 62
     5
 10
559.69999999999254
 20
-77.000000000003183
 30
0.0
 11
584.70000000000709
 21
-77.000000000003183
 31
0.0
  0
LINE
  8
DETAIL
  6
CONTINUOUS
 62
     5
 10
222.43068047600809
 20
-76.550000000000182
 30
0.0
 11
221.2201435300185
 21
-76.550000000000182
 31
0.0
  0
LINE
  8
DETAIL
  6
CONTINUOUS
 62
     5
 10
-543.70000000000709
 20
-70.200000000000273
 30
0.0
 11
-556.20000000000709
 21
-70.200000000000273
 31
0.0
  0
LINE
  8
DETAIL
  6
CONTINUOUS
 62
     5
 10
544.20000000000709
 20
-70.200000000000273
 30
0.0
 11
556.69999999999254
 21
-70.200000000000273
 31
0.0
  0
LINE
  8
DETAIL
  6
CONTINUOUS
 62
     5
 10
219.13616841799649
 20
-313.55000000000018
 30
0.0
 11
219.13616841799649
 21
-269.55000000001559
 31
0.0
  0
LINE
  8
DETAIL
  6
CONTINUOUS
 62
     5
 10
219.13616841799649
 20
-123.5500000000002
 30
0.0
 11
219.13616841799649
 21
-79.550000000014734
 31
0.0
  0
LINE
  8
DETAIL
  6
CONTINUOUS
 62
     5
 10
221.56747271601759
 20
-76.550000000000182
 30
0.0
 11
221.56747271601759
 21
-78.550000000000182
 31
0.0
  0
LINE
  8
DETAIL
  6
CONTINUOUS
 62
     5
 10
221.56747271601759
 20
-266.55000000000109
 30
0.0
 11
221.56747271601759
 21
-268.55000000000018
 31
0.0
  0
LINE
  8
DETAIL
  6
CONTINUOUS
 62
     5
 10
221.56747271601759
 20
-316.55000000000018
 30
0.0
 11
221.56747271601759
 21
-314.55000000001559
 31
0.0
  0
LINE
  8
DETAIL
  6
CONTINUOUS
 62
     5
 10
221.56747271601759
 20
-126.5500000000002
 30
0.0
 11
221.56747271601759
 21
-124.5500000000156
 31
0.0
  0
LINE
  8
DETAIL
  6
CONTINUOUS
 62
     5
 10
222.43068047600809
 20
-76.550000000000182
 30
0.0
 11
222.43068047600809
 21
-78.550000000000182
 31
0.0
  0
LINE
  8
DETAIL
  6
CONTINUOUS
 62
     5
 10
222.43068047600809
 20
-266.55000000000109
 30
0.0
 11
222.43068047600809
 21
-268.55000000000018
 31
0.0
  0
LINE
  8
DETAIL
  6
CONTINUOUS
 62
     5
 10
222.43068047600809
 20
-316.55000000000018
 30
0.0
 11
222.43068047600809
 21
-314.55000000001559
 31
0.0
  0
LINE
  8
DETAIL
  6
CONTINUOUS
 62
     5
 10
222.43068047600809
 20
-126.5500000000002
 30
0.0
 11
222.43068047600809
 21
-124.5500000000156
 31
0.0
  0
LINE
  8
DETAIL
  6
CONTINUOUS
 62
     5
 10
223.00000000001
 20
-401.00000000000682
 30
0.0
 11
223.00000000001
 21
-3.0999999999912689
 31
0.0
  0
LINE
  8
DETAIL
  6
CONTINUOUS
 62
     5
 10
224.19999999999251
 20
-399.79999999999518
 30
0.0
 11
224.19999999999251
 21
-4.3000000000029104
 31
0.0
  0
LINE
  8
DETAIL
  6
CONTINUOUS
 62
     5
 10
227.4999999999809
 20
-314.55000000001559
 30
0.0
 11
227.4999999999809
 21
-268.55000000000018
 31
0.0
  0
LINE
  8
DETAIL
  6
CONTINUOUS
 62
     5
 10
227.4999999999809
 20
-124.5500000000156
 30
0.0
 11
227.4999999999809
 21
-78.550000000000182
 31
0.0
  0
LINE
  8
DETAIL
  6
CONTINUOUS
 62
     5
 10
-224.200000000008
 20
-4.3000000000029104
 30
0.0
 11
224.19999999999251
 21
-4.3000000000029104
 31
0.0
  0
LINE
  8
DETAIL
  6
CONTINUOUS
 62
     5
 10
-222.99999999999551
 20
-3.0999999999912689
 30
0.0
 11
223.00000000001
 21
-3.0999999999912689
 31
0.0
  0
LINE
  8
DETAIL
  6
CONTINUOUS
 62
     5
 10
-566.19999999999254
 20
-2.8000000000029099
 30
0.0
 11
-564.20000000000709
 21
-2.8000000000029099
 31
0.0
  0
LINE
  8
DETAIL
  6
CONTINUOUS
 62
     5
 10
564.19999999999254
 20
-2.8000000000029099
 30
0.0
 11
566.20000000000709
 21
-2.8000000000029099
 31
0.0
  0
LINE
  8
DETAIL
  6
CONTINUOUS
 62
     5
 10
566.20000000000709
 20
-1.3000000000029099
 30
0.0
 11
570.94999999999254
 21
-1.3000000000029099
 31
0.0
  0
LINE
  8
DETAIL
  6
CONTINUOUS
 62
     5
 10
-570.94999999997799
 20
-0.8000000000020009
 30
0.0
 11
-565.87127970599522
 21
-0.8000000000020009
 31
0.0
  0
LINE
  8
DETAIL
  6
CONTINUOUS
 62
     5
 10
-564.20000000000709
 20
-0.8000000000020009
 30
0.0
 11
-558.51438631000519
 21
-0.8000000000020009
 31
0.0
  0
LINE
  8
DETAIL
  6
CONTINUOUS
 62
     5
 10
558.5143863100102
 20
-0.8000000000020009
 30
0.0
 11
564.19999999999254
 21
-0.8000000000020009
 31
0.0
  0
LINE
  8
DETAIL
  6
CONTINUOUS
 62
     5
 10
565.87127970398706
 20
-0.8000000000020009
 30
0.0
 11
570.94999999999254
 21
-0.8000000000020009
 31
0.0
  0
LINE
  8
DETAIL
  6
CONTINUOUS
 62
     5
 10
-570.94999999997799
 20
0.0
 30
0.0
 11
-565.87127970599522
 21
0.0
 31
0.0
  0
LINE
  8
DETAIL
  6
CONTINUOUS
 62
     5
 10
-562.84708539201074
 20
0.0
 30
0.0
 11
562.84708539201074
 21
0.0
 31
0.0
  0
LINE
  8
DETAIL
  6
CONTINUOUS
 62
     5
 10
565.87127970398706
 20
0.0
 30
0.0
 11
570.94999999999254
 21
0.0
 31
0.0
  0
LINE
  8
DETAIL
  6
CONTINUOUS
 62
     5
 10
241.29999999999839
 20
-314.55000000001559
 30
0.0
 11
241.29999999999839
 21
-268.55000000000018
 31
0.0
  0
LINE
  8
DETAIL
  6
CONTINUOUS
 62
     5
 10
241.29999999999839
 20
-124.5500000000156
 30
0.0
 11
241.29999999999839
 21
-78.550000000000182
 31
0.0
  0
LINE
  8
DETAIL
  6
CONTINUOUS
 62
     5
 10
559.3143863100222
 20
0.0000000000002274
 30
0.0
 11
557.21438630998728
 21
-2.1000000000058212
 31
0.0
  0
LINE
  8
DETAIL
  6
CONTINUOUS
 62
     5
 10
559.26730091800982
 20
-403.99999999999181
 30
0.0
 11
557.167300918004
 21
-401.90000000001561
 31
0.0
  0
LINE
  8
DETAIL
  6
CONTINUOUS
 62
     5
 10
541.20000000000709
 20
-95.000000000003183
 30
0.0
 11
541.20000000000709
 21
-73.200000000000273
 31
0.0
  0
LINE
  8
DETAIL
  6
CONTINUOUS
 62
     5
 10
564.19999999999254
 20
-1.8642654312616289
 30
0.0
 11
564.29558729999826
 21
-1.322162915996159
 31
0.0
  0
LINE
  8
DETAIL
  6
CONTINUOUS
 62
     5
 10
564.84734603798552
 20
-2.8000000000029099
 30
0.0
 11
565.08343350198538
 21
-1.4610814580082661
 31
0.0
  0
LINE
  8
DETAIL
  6
CONTINUOUS
 62
     5
 10
564.29558729999826
 20
-402.67783708399611
 30
0.0
 11
564.19999999999254
 21
-402.13573456875611
 31
0.0
  0
LINE
  8
DETAIL
  6
CONTINUOUS
 62
     5
 10
565.08343350198538
 20
-402.53891854199861
 30
0.0
 11
564.84734603798552
 21
-401.20000000000482
 31
0.0
  0
LINE
  8
DETAIL
  6
CONTINUOUS
 62
     5
 10
559.69999999999254
 20
-73.200000000000273
 30
0.0
 11
559.69999999999254
 21
-80.200000000000273
 31
0.0
  0
LINE
  8
DETAIL
  6
CONTINUOUS
 62
     5
 10
562.80000000001291
 20
-403.99999999999142
 30
0.0
 11
562.80000000001291
 21
-403.20000000000391
 31
0.0
  0
LINE
  8
DETAIL
  6
CONTINUOUS
 62
     5
 10
562.84708539201074
 20
0.0
 30
0.0
 11
562.84708539201074
 21
-0.8000000000020009
 31
0.0
  0
LINE
  8
DETAIL
  6
CONTINUOUS
 62
     5
 10
564.19999999999254
 20
-403.20000000000391
 30
0.0
 11
564.19999999999254
 21
-401.20000000000482
 31
0.0
  0
LINE
  8
DETAIL
  6
CONTINUOUS
 62
     5
 10
564.19999999999254
 20
-2.8000000000029099
 30
0.0
 11
564.19999999999254
 21
-0.8000000000020009
 31
0.0
  0
LINE
  8
DETAIL
  6
CONTINUOUS
 62
     5
 10
565.19999999999254
 20
-402.200000000003
 30
0.0
 11
565.19999999999254
 21
-401.20000000000482
 31
0.0
  0
LINE
  8
DETAIL
  6
CONTINUOUS
 62
     5
 10
565.19999999999254
 20
-2.8000000000029099
 30
0.0
 11
565.19999999999254
 21
-1.8000000000029099
 31
0.0
  0
LINE
  8
DETAIL
  6
CONTINUOUS
 62
     5
 10
565.70000000002165
 20
-1.8000000000029099
 30
0.0
 11
565.70000000002165
 21
-2.8000000000029099
 31
0.0
  0
LINE
  8
DETAIL
  6
CONTINUOUS
 62
     5
 10
565.70000000002165
 20
-401.20000000000482
 30
0.0
 11
565.70000000002165
 21
-402.200000000003
 31
0.0
  0
LINE
  8
DETAIL
  6
CONTINUOUS
 62
     5
 10
566.20000000000709
 20
-401.20000000000482
 30
0.0
 11
566.20000000000709
 21
-100.0000000000032
 31
0.0
  0
LINE
  8
DETAIL
  6
CONTINUOUS
 62
     5
 10
566.20000000000709
 20
-77.000000000003183
 30
0.0
 11
566.20000000000709
 21
-2.8000000000029099
 31
0.0
  0
LINE
  8
DETAIL
  6
CONTINUOUS
 62
     5
 10
566.50000000002456
 20
-127.0000000000032
 30
0.0
 11
566.50000000002456
 21
-384.59909544400813
 31
0.0
  0
LINE
  8
DETAIL
  6
CONTINUOUS
 62
     5
 10
570.70000000002165
 20
-0.8000000000020009
 30
0.0
 11
570.70000000002165
 21
-1.3000000000029099
 31
0.0
  0
LINE
  8
DETAIL
  6
CONTINUOUS
 62
     5
 10
570.70000000002165
 20
-402.70000000000391
 30
0.0
 11
570.70000000002165
 21
-403.20000000000391
 31
0.0
  0
LINE
  8
DETAIL
  6
CONTINUOUS
 62
     5
 10
572.69999999999254
 20
-84.000000000003183
 30
0.0
 11
572.69999999999254
 21
-77.000000000003183
 31
0.0
  0
LINE
  8
DETAIL
  6
CONTINUOUS
 62
     5
 10
584.70000000000709
 20
-122.0000000000032
 30
0.0
 11
584.70000000000709
 21
-77.000000000003183
 31
0.0
  0
ARC
  8
DETAIL
  6
CONTINUOUS
 62
     5
 10
-229.49999999999551
 20
-209.60000000000309
 30
0.0
 40
5.1339745960000123
 50
0.0
 51
180.0
  0
CIRCLE
  8
DETAIL
  6
CONTINUOUS
 62
     5
 10
-503.87362902399451
 20
-338.9736290220153
 30
0.0
 40
4.7000000000000099
  0
CIRCLE
  8
DETAIL
  6
CONTINUOUS
 62
     5
 10
-310.12637097800689
 20
-338.9736290220153
 30
0.0
 40
4.7000000000000099
  0
CIRCLE
  8
DETAIL
  6
CONTINUOUS
 62
     5
 10
-214.50000000001
 20
-220.95000000000979
 30
0.0
 40
4.7000000000000099
  0
ARC
  8
DETAIL
  6
CONTINUOUS
 62
     5
 10
-217.99999999999551
 20
-251.44999999999439
 30
0.0
 40
3.0000000000000071
 50
270.0
 51
0.0
  0
ARC
  8
DETAIL
  6
CONTINUOUS
 62
     5
 10
-217.99999999999551
 20
-217.4499999999953
 30
0.0
 40
3.0000000000000071
 50
90.0
 51
180.0
  0
ARC
  8
DETAIL
  6
CONTINUOUS
 62
     5
 10
-211.00000000001
 20
-217.4499999999953
 30
0.0
 40
3.0000000000000071
 50
0.0
 51
90.0
  0
ARC
  8
DETAIL
  6
CONTINUOUS
 62
     5
 10
-222.4052631579934
 20
-224.45000000000891
 30
0.0
 40
2.5947368420000059
 50
133.84961891519441
 51
186.65105007010379
  0
ARC
  8
DETAIL
  6
CONTINUOUS
 62
     5
 10
-222.4052631579934
 20
-244.45000000000979
 30
0.0
 40
2.5947368420000059
 50
133.84961891650511
 51
226.15038108349489
  0
ARC
  8
DETAIL
  6
CONTINUOUS
 62
     5
 10
-229.49999999999551
 20
-226.99999999999821
 30
0.0
 40
1.9500000000000051
 50
115.8832527379701
 51
1.476210342295877
  0
ARC
  8
DETAIL
  6
CONTINUOUS
 62
     5
 10
-229.49999999999551
 20
-209.60000000000309
 30
0.0
 40
1.7769657400000041
 50
0.0
 51
180.0
  0
ARC
  8
DETAIL
  6
CONTINUOUS
 62
     5
 10
-565.87127970599522
 20
-402.400000000001
 30
0.0
 40
1.600000000000005
 50
270.0
 51
349.99999999999818
  0
ARC
  8
DETAIL
  6
CONTINUOUS
 62
     5
 10
-226.8999999999896
 20
-231.62004829800301
 30
0.0
 40
1.000000000000002
 50
95.000000008081457
 51
180.0
  0
ARC
  8
DETAIL
  6
CONTINUOUS
 62
     5
 10
-226.8999999999896
 20
-237.27995170201481
 30
0.0
 40
1.000000000000002
 50
180.0
 51
264.99999999191863
  0
ARC
  8
DETAIL
  6
CONTINUOUS
 62
     5
 10
-566.19999999999254
 20
-402.200000000003
 30
0.0
 40
1.000000000000002
 50
270.00000000005213
 51
0.0
  0
ARC
  8
DETAIL
  6
CONTINUOUS
 62
     5
 10
-565.87127970599522
 20
-402.400000000001
 30
0.0
 40
0.8000000000000015
 50
270.0
 51
349.99999999999818
  0
ARC
  8
DETAIL
  6
CONTINUOUS
 62
     5
 10
-566.19999999999254
 20
-402.200000000003
 30
0.0
 40
0.500000000000002
 50
270.0
 51
0.0
  0
ARC
  8
DETAIL
  6
CONTINUOUS
 62
     5
 10
-229.49999999999551
 20
-194.60000000000309
 30
0.0
 40
5.1339745960000123
 50
180.0
 51
0.0
  0
ARC
  8
DETAIL
  6
CONTINUOUS
 62
     5
 10
-545.70000000000709
 20
-95.000000000003183
 30
0.0
 40
5.0000000000000124
 50
270.0
 51
0.0
  0
ARC
  8
DETAIL
  6
CONTINUOUS
 62
     5
 10
-579.20000000000709
 20
-122.0000000000032
 30
0.0
 40
5.0000000000000124
 50
180.0
 51
270.0
  0
CIRCLE
  8
DETAIL
  6
CONTINUOUS
 62
     5
 10
-310.12637097800689
 20
-145.22637097800731
 30
0.0
 40
4.7000000000000099
  0
CIRCLE
  8
DETAIL
  6
CONTINUOUS
 62
     5
 10
-503.87362902399451
 20
-145.22637097800731
 30
0.0
 40
4.7000000000000099
  0
ARC
  8
DETAIL
  6
CONTINUOUS
 62
     5
 10
-569.10000000000127
 20
-103.0000000000032
 30
0.0
 40
3.0000000000000071
 50
90.0
 51
270.0
  0
ARC
  8
DETAIL
  6
CONTINUOUS
 62
     5
 10
-552.69999999999254
 20
-92.000000000003183
 30
0.0
 40
3.0000000000000071
 50
270.0
 51
90.0
  0
ARC
  8
DETAIL
  6
CONTINUOUS
 62
     5
 10
-543.70000000000709
 20
-73.200000000000273
 30
0.0
 40
3.0000000000000071
 50
0.0
 51
90.0
  0
ARC
  8
DETAIL
  6
CONTINUOUS
 62
     5
 10
-556.20000000000709
 20
-73.200000000000273
 30
0.0
 40
3.0000000000000071
 50
90.0
 51
180.0
  0
ARC
  8
DETAIL
  6
CONTINUOUS
 62
     5
 10
-554.69999999999254
 20
-92.000000000003183
 30
0.0
 40
3.0000000000000071
 50
90.0
 51
270.0
  0
ARC
  8
DETAIL
  6
CONTINUOUS
 62
     5
 10
-575.20000000000709
 20
-84.000000000003183
 30
0.0
 40
3.0000000000000071
 50
270.0
 51
0.0
  0
ARC
  8
DETAIL
  6
CONTINUOUS
 62
     5
 10
-581.20000000000709
 20
-84.000000000003183
 30
0.0
 40
3.0000000000000071
 50
180.0
 51
270.0
  0
CIRCLE
  8
DETAIL
  6
CONTINUOUS
 62
     5
 10
-553.70000000000709
 20
-92.000000000003183
 30
0.0
 40
2.5000000000000071
  0
ARC
  8
DETAIL
  6
CONTINUOUS
 62
     5
 10
-229.49999999999551
 20
-177.20000000000891
 30
0.0
 40
1.9500000000000051
 50
355.58605125340301
 51
244.51141259290901
  0
ARC
  8
DETAIL
  6
CONTINUOUS
 62
     5
 10
-229.49999999999551
 20
-194.60000000000309
 30
0.0
 40
1.7769657400000041
 50
180.0
 51
0.0
  0
ARC
  8
DETAIL
  6
CONTINUOUS
 62
     5
 10
-565.87127970599522
 20
-1.5999999999903589
 30
0.0
 40
1.600000000000005
 50
10.000000000001821
 51
90.0
  0
ARC
  8
DETAIL
  6
CONTINUOUS
 62
     5
 10
-570.94999999997799
 20
-1.0500000000029099
 30
0.0
 40
1.0500000000000029
 50
90.0
 51
270.00000112386078
  0
ARC
  8
DETAIL
  6
CONTINUOUS
 62
     5
 10
-566.19999999999254
 20
-1.8000000000029099
 30
0.0
 40
1.000000000000002
 50
0.0
 51
89.999999999869729
  0
ARC
  8
DETAIL
  6
CONTINUOUS
 62
     5
 10
-565.87127970599522
 20
-1.5999999999903589
 30
0.0
 40
0.8000000000000015
 50
10.000000000001821
 51
90.0
  0
ARC
  8
DETAIL
  6
CONTINUOUS
 62
     5
 10
-566.19999999999254
 20
-1.8000000000029099
 30
0.0
 40
0.500000000000002
 50
0.0
 51
90.0
  0
ARC
  8
DETAIL
  6
CONTINUOUS
 62
     5
 10
-570.94999999997799
 20
-1.0500000000029099
 30
0.0
 40
0.2500000000000001
 50
90.0
 51
270.00000112386078
  0
CIRCLE
  8
DETAIL
  6
CONTINUOUS
 62
     5
 10
234.29999999999839
 20
-309.05000000000109
 30
0.0
 40
4.7000000000000099
  0
CIRCLE
  8
DETAIL
  6
CONTINUOUS
 62
     5
 10
234.29999999999839
 20
-284.05000000000018
 30
0.0
 40
4.7000000000000099
  0
ARC
  8
DETAIL
  6
CONTINUOUS
 62
     5
 10
565.87127970398706
 20
-402.400000000001
 30
0.0
 40
1.600000000000005
 50
190.00000000000179
 51
270.0
  0
ARC
  8
DETAIL
  6
CONTINUOUS
 62
     5
 10
570.94999999999254
 20
-402.95000000000391
 30
0.0
 40
1.0500000000000029
 50
270.0
 51
89.999963675928214
  0
ARC
  8
DETAIL
  6
CONTINUOUS
 62
     5
 10
566.20000000000709
 20
-402.200000000003
 30
0.0
 40
1.000000000000002
 50
180.0
 51
269.99999999986977
  0
ARC
  8
DETAIL
  6
CONTINUOUS
 62
     5
 10
565.87127970398706
 20
-402.400000000001
 30
0.0
 40
0.8000000000000015
 50
190.00000000000179
 51
270.0
  0
ARC
  8
DETAIL
  6
CONTINUOUS
 62
     5
 10
566.20000000000709
 20
-402.200000000003
 30
0.0
 40
0.500000000000002
 50
180.0
 51
270.0
  0
ARC
  8
DETAIL
  6
CONTINUOUS
 62
     5
 10
570.94999999999254
 20
-402.95000000000391
 30
0.0
 40
0.2500000000000001
 50
270.0
 51
89.999963675928214
  0
CIRCLE
  8
DETAIL
  6
CONTINUOUS
 62
     5
 10
234.29999999999839
 20
-119.0500000000002
 30
0.0
 40
4.7000000000000099
  0
CIRCLE
  8
DETAIL
  6
CONTINUOUS
 62
     5
 10
234.29999999999839
 20
-94.050000000000182
 30
0.0
 40
4.7000000000000099
  0
ARC
  8
DETAIL
  6
CONTINUOUS
 62
     5
 10
579.70000000000709
 20
-122.0000000000032
 30
0.0
 40
5.0000000000000124
 50
270.0
 51
0.0
  0
ARC
  8
DETAIL
  6
CONTINUOUS
 62
     5
 10
569.60000000000127
 20
-103.0000000000032
 30
0.0
 40
3.0000000000000071
 50
270.0
 51
90.0
  0
ARC
  8
DETAIL
  6
CONTINUOUS
 62
     5
 10
546.20000000000709
 20
-95.000000000003183
 30
0.0
 40
5.0000000000000124
 50
180.0
 51
270.0
  0
ARC
  8
DETAIL
  6
CONTINUOUS
 62
     5
 10
553.20000000000709
 20
-92.000000000003183
 30
0.0
 40
3.0000000000000071
 50
90.0
 51
270.0
  0
ARC
  8
DETAIL
  6
CONTINUOUS
 62
     5
 10
544.20000000000709
 20
-73.200000000000273
 30
0.0
 40
3.0000000000000071
 50
90.0
 51
180.0
  0
ARC
  8
DETAIL
  6
CONTINUOUS
 62
     5
 10
556.69999999999254
 20
-73.200000000000273
 30
0.0
 40
3.0000000000000071
 50
0.0
 51
90.0
  0
ARC
  8
DETAIL
  6
CONTINUOUS
 62
     5
 10
555.20000000000709
 20
-92.000000000003183
 30
0.0
 40
3.0000000000000071
 50
270.0
 51
90.0
  0
ARC
  8
DETAIL
  6
CONTINUOUS
 62
     5
 10
575.70000000000709
 20
-84.000000000003183
 30
0.0
 40
3.0000000000000071
 50
180.0
 51
270.0
  0
ARC
  8
DETAIL
  6
CONTINUOUS
 62
     5
 10
581.70000000000709
 20
-84.000000000003183
 30
0.0
 40
3.0000000000000071
 50
270.0
 51
0.0
  0
CIRCLE
  8
DETAIL
  6
CONTINUOUS
 62
     5
 10
553.69999999999254
 20
-92.000000000003183
 30
0.0
 40
2.5000000000000071
  0
ARC
  8
DETAIL
  6
CONTINUOUS
 62
     5
 10
565.87127970398706
 20
-1.5999999999903589
 30
0.0
 40
1.600000000000005
 50
90.0
 51
169.99999999999821
  0
ARC
  8
DETAIL
  6
CONTINUOUS
 62
     5
 10
566.20000000000709
 20
-1.8000000000029099
 30
0.0
 40
1.000000000000002
 50
90.000000000052125
 51
180.0
  0
ARC
  8
DETAIL
  6
CONTINUOUS
 62
     5
 10
565.87127970398706
 20
-1.5999999999903589
 30
0.0
 40
0.8000000000000015
 50
90.0
 51
169.99999999999821
  0
ARC
  8
DETAIL
  6
CONTINUOUS
 62
     5
 10
566.20000000000709
 20
-1.8000000000029099
 30
0.0
 40
0.500000000000002
 50
90.0
 51
180.0
  0
LINE
  8
DETAIL
  6
CONTINUOUS
 62
     5
 10
221.2201435300185
 20
-266.55000000000109
 30
0.0
 11
220.82263196692981
 21
-266.60683629796165
 31
0.0
  0
LINE
  8
DETAIL
  6
CONTINUOUS
 62
     5
 10
220.82263196692981
 20
-266.60683629796165
 30
0.0
 11
220.44864502342375
 21
-266.76337297437237
 31
0.0
  0
LINE
  8
DETAIL
  6
CONTINUOUS
 62
     5
 10
220.44864502342375
 20
-266.76337297437237
 30
0.0
 11
220.12213598662396
 21
-266.99876480602865
 31
0.0
  0
LINE
  8
DETAIL
  6
CONTINUOUS
 62
     5
 10
220.12213598662396
 20
-266.99876480602865
 30
0.0
 11
219.84712387045522
 21
-267.29273198943463
 31
0.0
  0
LINE
  8
DETAIL
  6
CONTINUOUS
 62
     5
 10
219.84712387045522
 20
-267.29273198943463
 30
0.0
 11
219.62138026607107
 21
-267.62559720945399
 31
0.0
  0
LINE
  8
DETAIL
  6
CONTINUOUS
 62
     5
 10
219.62138026607107
 20
-267.62559720945399
 30
0.0
 11
219.44217503713313
 21
-267.98458092013232
 31
0.0
  0
LINE
  8
DETAIL
  6
CONTINUOUS
 62
     5
 10
219.44217503713313
 20
-267.98458092013232
 30
0.0
 11
219.30637311993442
 21
-268.36249324749423
 31
0.0
  0
LINE
  8
DETAIL
  6
CONTINUOUS
 62
     5
 10
219.30637311993442
 20
-268.36249324749423
 30
0.0
 11
219.21107302991581
 21
-268.75261705074433
 31
0.0
  0
LINE
  8
DETAIL
  6
CONTINUOUS
 62
     5
 10
219.21107302991581
 20
-268.75261705074433
 30
0.0
 11
219.15470913075544
 21
-269.14993368157064
 31
0.0
  0
LINE
  8
DETAIL
  6
CONTINUOUS
 62
     5
 10
219.15470913075544
 20
-269.14993368157064
 30
0.0
 11
219.13616841799649
 21
-269.55000000001559
 31
0.0
  0
LINE
  8
DETAIL
  6
CONTINUOUS
 62
     5
 10
219.13616841799649
 20
-313.55000000000018
 30
0.0
 11
219.15470913075535
 21
-313.95006631730701
 31
0.0
  0
LINE
  8
DETAIL
  6
CONTINUOUS
 62
     5
 10
219.15470913075535
 20
-313.95006631730701
 30
0.0
 11
219.21107302991581
 21
-314.34738294828702
 31
0.0
  0
LINE
  8
DETAIL
  6
CONTINUOUS
 62
     5
 10
219.21107302991581
 20
-314.34738294828702
 30
0.0
 11
219.30637311993439
 21
-314.73750675210084
 31
0.0
  0
LINE
  8
DETAIL
  6
CONTINUOUS
 62
     5
 10
219.30637311993439
 20
-314.73750675210084
 30
0.0
 11
219.44217503713313
 21
-315.11541907978244
 31
0.0
  0
LINE
  8
DETAIL
  6
CONTINUOUS
 62
     5
 10
219.44217503713313
 20
-315.11541907978244
 30
0.0
 11
219.62138026607107
 21
-315.47440279055422
 31
0.0
  0
LINE
  8
DETAIL
  6
CONTINUOUS
 62
     5
 10
219.62138026607107
 20
-315.47440279055422
 30
0.0
 11
219.84712387045525
 21
-315.80726801058074
 31
0.0
  0
LINE
  8
DETAIL
  6
CONTINUOUS
 62
     5
 10
219.84712387045525
 20
-315.80726801058074
 30
0.0
 11
220.12213598662402
 21
-316.10123519398655
 31
0.0
  0
LINE
  8
DETAIL
  6
CONTINUOUS
 62
     5
 10
220.12213598662402
 20
-316.10123519398655
 30
0.0
 11
220.44864502342375
 21
-316.33662702563907
 31
0.0
  0
LINE
  8
DETAIL
  6
CONTINUOUS
 62
     5
 10
220.44864502342375
 20
-316.33662702563907
 30
0.0
 11
220.82263196692975
 21
-316.49316370204326
 31
0.0
  0
LINE
  8
DETAIL
  6
CONTINUOUS
 62
     5
 10
220.82263196692975
 20
-316.49316370204326
 30
0.0
 11
221.2201435300185
 21
-316.55000000000018
 31
0.0
  0
LINE
  8
DETAIL
  6
CONTINUOUS
 62
     5
 10
221.2201435300185
 20
-76.550000000000182
 30
0.0
 11
220.82263196692981
 21
-76.606836297960967
 31
0.0
  0
LINE
  8
DETAIL
  6
CONTINUOUS
 62
     5
 10
220.82263196692981
 20
-76.606836297960967
 30
0.0
 11
220.44864502342375
 21
-76.763372974371975
 31
0.0
  0
LINE
  8
DETAIL
  6
CONTINUOUS
 62
     5
 10
220.44864502342375
 20
-76.763372974371975
 30
0.0
 11
220.12213598662396
 21
-76.998764806028262
 31
0.0
  0
LINE
  8
DETAIL
  6
CONTINUOUS
 62
     5
 10
220.12213598662396
 20
-76.998764806028262
 30
0.0
 11
219.84712387045522
 21
-77.292731989433946
 31
0.0
  0
LINE
  8
DETAIL
  6
CONTINUOUS
 62
     5
 10
219.84712387045522
 20
-77.292731989433946
 30
0.0
 11
219.62138026607107
 21
-77.625597209453176
 31
0.0
  0
LINE
  8
DETAIL
  6
CONTINUOUS
 62
     5
 10
219.62138026607107
 20
-77.625597209453176
 30
0.0
 11
219.44217503713313
 21
-77.984580920131407
 31
0.0
  0
LINE
  8
DETAIL
  6
CONTINUOUS
 62
     5
 10
219.44217503713313
 20
-77.984580920131407
 30
0.0
 11
219.30637311993442
 21
-78.362493247493362
 31
0.0
  0
LINE
  8
DETAIL
  6
CONTINUOUS
 62
     5
 10
219.30637311993442
 20
-78.362493247493362
 30
0.0
 11
219.21107302991581
 21
-78.752617050743481
 31
0.0
  0
LINE
  8
DETAIL
  6
CONTINUOUS
 62
     5
 10
219.21107302991581
 20
-78.752617050743481
 30
0.0
 11
219.15470913075544
 21
-79.149933681569777
 31
0.0
  0
LINE
  8
DETAIL
  6
CONTINUOUS
 62
     5
 10
219.15470913075544
 20
-79.149933681569777
 30
0.0
 11
219.13616841799649
 21
-79.550000000014734
 31
0.0
  0
LINE
  8
DETAIL
  6
CONTINUOUS
 62
     5
 10
219.13616841799649
 20
-123.5500000000002
 30
0.0
 11
219.15470913075535
 21
-123.95006631730634
 31
0.0
  0
LINE
  8
DETAIL
  6
CONTINUOUS
 62
     5
 10
219.15470913075535
 20
-123.95006631730634
 30
0.0
 11
219.21107302991581
 21
-124.34738294828618
 31
0.0
  0
LINE
  8
DETAIL
  6
CONTINUOUS
 62
     5
 10
219.21107302991581
 20
-124.34738294828618
 30
0.0
 11
219.30637311993439
 21
-124.7375067521
 31
0.0
  0
LINE
  8
DETAIL
  6
CONTINUOUS
 62
     5
 10
219.30637311993439
 20
-124.7375067521
 30
0.0
 11
219.44217503713313
 21
-125.11541907978153
 31
0.0
  0
LINE
  8
DETAIL
  6
CONTINUOUS
 62
     5
 10
219.44217503713313
 20
-125.11541907978153
 30
0.0
 11
219.62138026607107
 21
-125.47440279055327
 31
0.0
  0
LINE
  8
DETAIL
  6
CONTINUOUS
 62
     5
 10
219.62138026607107
 20
-125.47440279055327
 30
0.0
 11
219.84712387045525
 21
-125.80726801057986
 31
0.0
  0
LINE
  8
DETAIL
  6
CONTINUOUS
 62
     5
 10
219.84712387045525
 20
-125.80726801057986
 30
0.0
 11
220.12213598662402
 21
-126.10123519398564
 31
0.0
  0
LINE
  8
DETAIL
  6
CONTINUOUS
 62
     5
 10
220.12213598662402
 20
-126.10123519398564
 30
0.0
 11
220.44864502342375
 21
-126.33662702563845
 31
0.0
  0
LINE
  8
DETAIL
  6
CONTINUOUS
 62
     5
 10
220.44864502342375
 20
-126.33662702563845
 30
0.0
 11
220.82263196692975
 21
-126.49316370204305
 31
0.0
  0
LINE
  8
DETAIL
  6
CONTINUOUS
 62
     5
 10
220.82263196692975
 20
-126.49316370204305
 30
0.0
 11
221.2201435300185
 21
-126.5500000000002
 31
0.0
  0
LINE
  8
DETAIL
  6
CONTINUOUS
 62
     5
 10
-186.71238236999031
 20
-221.95000000000891
 30
0.0
 11
-186.76533132356178
 21
-222.70205315271656
 31
0.0
  0
LINE
  8
DETAIL
  6
CONTINUOUS
 62
     5
 10
-186.76533132356178
 20
-222.70205315271656
 30
0.0
 11
-186.9234126049879
 21
-223.44200987101607
 31
0.0
  0
LINE
  8
DETAIL
  6
CONTINUOUS
 62
     5
 10
-186.9234126049879
 20
-223.44200987101607
 30
0.0
 11
-187.18541541955668
 21
-224.15216521645903
 31
0.0
  0
LINE
  8
DETAIL
  6
CONTINUOUS
 62
     5
 10
-187.18541541955668
 20
-224.15216521645903
 30
0.0
 11
-187.54811416406289
 21
-224.81567635926734
 31
0.0
  0
LINE
  8
DETAIL
  6
CONTINUOUS
 62
     5
 10
-187.54811416406289
 20
-224.81567635926734
 30
0.0
 11
-188.00588259444595
 21
-225.41672767066163
 31
0.0
  0
LINE
  8
DETAIL
  6
CONTINUOUS
 62
     5
 10
-188.00588259444595
 20
-225.41672767066163
 30
0.0
 11
-188.5520788873842
 21
-225.93953021022119
 31
0.0
  0
LINE
  8
DETAIL
  6
CONTINUOUS
 62
     5
 10
-188.5520788873842
 20
-225.93953021022119
 30
0.0
 11
-189.17541165336286
 21
-226.36811775315724
 31
0.0
  0
LINE
  8
DETAIL
  6
CONTINUOUS
 62
     5
 10
-189.17541165336286
 20
-226.36811775315724
 30
0.0
 11
-189.86286463667383
 21
-226.68658823478225
 31
0.0
  0
LINE
  8
DETAIL
  6
CONTINUOUS
 62
     5
 10
-189.86286463667383
 20
-226.68658823478225
 30
0.0
 11
-190.59542857610319
 21
-226.88297752727834
 31
0.0
  0
LINE
  8
DETAIL
  6
CONTINUOUS
 62
     5
 10
-190.59542857610319
 20
-226.88297752727834
 30
0.0
 11
-191.34697540600149
 21
-226.95000000000891
 31
0.0
  0
LINE
  8
DETAIL
  6
CONTINUOUS
 62
     5
 10
-188.9123823699874
 20
-221.95000000000891
 30
0.0
 11
-188.95226140208823
 21
-222.45433526498661
 31
0.0
  0
LINE
  8
DETAIL
  6
CONTINUOUS
 62
     5
 10
-188.95226140208823
 20
-222.45433526498661
 30
0.0
 11
-189.07280995925407
 21
-222.95216604647186
 31
0.0
  0
LINE
  8
DETAIL
  6
CONTINUOUS
 62
     5
 10
-189.07280995925407
 20
-222.95216604647186
 30
0.0
 11
-189.27539526652666
 21
-223.42460942173298
 31
0.0
  0
LINE
  8
DETAIL
  6
CONTINUOUS
 62
     5
 10
-189.27539526652666
 20
-223.42460942173298
 30
0.0
 11
-189.56138454894773
 21
-223.85278246803824
 31
0.0
  0
LINE
  8
DETAIL
  6
CONTINUOUS
 62
     5
 10
-189.56138454894773
 20
-223.85278246803824
 30
0.0
 11
-189.93051338362713
 21
-224.21783854993129
 31
0.0
  0
LINE
  8
DETAIL
  6
CONTINUOUS
 62
     5
 10
-189.93051338362713
 20
-224.21783854993129
 30
0.0
 11
-190.36717782813315
 21
-224.50127217746962
 31
0.0
  0
LINE
  8
DETAIL
  6
CONTINUOUS
 62
     5
 10
-190.36717782813315
 20
-224.50127217746962
 30
0.0
 11
-190.8473658437201
 21
-224.68476485381211
 31
0.0
  0
LINE
  8
DETAIL
  6
CONTINUOUS
 62
     5
 10
-190.8473658437201
 20
-224.68476485381211
 30
0.0
 11
-191.34697915399281
 21
-224.7500000000127
 31
0.0
  0
LINE
  8
DETAIL
  6
CONTINUOUS
 62
     5
 10
-191.34697540600149
 20
-177.35000000000309
 30
0.0
 11
-190.59542875740289
 21
-177.41702245346468
 31
0.0
  0
LINE
  8
DETAIL
  6
CONTINUOUS
 62
     5
 10
-190.59542875740289
 20
-177.41702245346468
 30
0.0
 11
-189.86286501101765
 21
-177.61341168756448
 31
0.0
  0
LINE
  8
DETAIL
  6
CONTINUOUS
 62
     5
 10
-189.86286501101765
 20
-177.61341168756448
 30
0.0
 11
-189.17541215249852
 21
-177.93188206070829
 31
0.0
  0
LINE
  8
DETAIL
  6
CONTINUOUS
 62
     5
 10
-189.17541215249852
 20
-177.93188206070829
 30
0.0
 11
-188.5520793852551
 21
-178.36046942723883
 31
0.0
  0
LINE
  8
DETAIL
  6
CONTINUOUS
 62
     5
 10
-188.5520793852551
 20
-178.36046942723883
 30
0.0
 11
-188.00588305897568
 21
-178.88327178623598
 31
0.0
  0
LINE
  8
DETAIL
  6
CONTINUOUS
 62
     5
 10
-188.00588305897568
 20
-178.88327178623598
 30
0.0
 11
-187.54811464093581
 21
-179.48432295503272
 31
0.0
  0
LINE
  8
DETAIL
  6
CONTINUOUS
 62
     5
 10
-187.54811464093581
 20
-179.48432295503272
 30
0.0
 11
-187.18541589375172
 21
-180.14783394701033
 31
0.0
  0
LINE
  8
DETAIL
  6
CONTINUOUS
 62
     5
 10
-187.18541589375172
 20
-180.14783394701033
 30
0.0
 11
-186.9234129787927
 21
-180.85798907913446
 31
0.0
  0
LINE
  8
DETAIL
  6
CONTINUOUS
 62
     5
 10
-186.9234129787927
 20
-180.85798907913446
 30
0.0
 11
-186.76533152360219
 21
-181.5979455532688
 31
0.0
  0
LINE
  8
DETAIL
  6
CONTINUOUS
 62
     5
 10
-186.76533152360219
 20
-181.5979455532688
 30
0.0
 11
-186.71238236999031
 21
-182.34999850600161
 31
0.0
  0
LINE
  8
DETAIL
  6
CONTINUOUS
 62
     5
 10
-191.34697915399281
 20
-179.55000000001471
 30
0.0
 11
-190.84736592404334
 21
-179.61523510505833
 31
0.0
  0
LINE
  8
DETAIL
  6
CONTINUOUS
 62
     5
 10
-190.84736592404334
 20
-179.61523510505833
 30
0.0
 11
-190.36717796569886
 21
-179.79872767910112
 31
0.0
  0
LINE
  8
DETAIL
  6
CONTINUOUS
 62
     5
 10
-190.36717796569886
 20
-179.79872767910112
 30
0.0
 11
-189.93051355541866
 21
-180.08216117010207
 31
0.0
  0
LINE
  8
DETAIL
  6
CONTINUOUS
 62
     5
 10
-189.93051355541866
 20
-180.08216117010207
 30
0.0
 11
-189.5613847325869
 21
-180.44721710804652
 31
0.0
  0
LINE
  8
DETAIL
  6
CONTINUOUS
 62
     5
 10
-189.5613847325869
 20
-180.44721710804652
 30
0.0
 11
-189.27539544735257
 21
-180.87539002105058
 31
0.0
  0
LINE
  8
DETAIL
  6
CONTINUOUS
 62
     5
 10
-189.27539544735257
 20
-180.87539002105058
 30
0.0
 11
-189.07281011620287
 21
-181.34783327512017
 31
0.0
  0
LINE
  8
DETAIL
  6
CONTINUOUS
 62
     5
 10
-189.07281011620287
 20
-181.34783327512017
 30
0.0
 11
-188.95226150259532
 21
-181.84566394714031
 31
0.0
  0
LINE
  8
DETAIL
  6
CONTINUOUS
 62
     5
 10
-188.95226150259532
 20
-181.84566394714031
 30
0.0
 11
-188.9123823699874
 21
-182.34999911399609
 31
0.0
  0
LINE
  8
DETAIL
  6
CONTINUOUS
 62
     5
 10
-228.2997398679972
 20
-182.19978400000849
 30
0.0
 11
-228.29724494171779
 21
-181.86812980148798
 31
0.0
  0
LINE
  8
DETAIL
  6
CONTINUOUS
 62
     5
 10
-228.29724494171779
 20
-181.86812980148798
 30
0.0
 11
-228.29225623985326
 21
-181.53648049081445
 31
0.0
  0
LINE
  8
DETAIL
  6
CONTINUOUS
 62
     5
 10
-228.29225623985326
 20
-181.53648049081445
 30
0.0
 11
-228.28500105548005
 21
-181.20478586974457
 31
0.0
  0
LINE
  8
DETAIL
  6
CONTINUOUS
 62
     5
 10
-228.28500105548005
 20
-181.20478586974457
 30
0.0
 11
-228.27503245087428
 21
-180.87310695934477
 31
0.0
  0
LINE
  8
DETAIL
  6
CONTINUOUS
 62
     5
 10
-228.27503245087428
 20
-180.87310695934477
 30
0.0
 11
-228.26154110992266
 21
-180.54156455765201
 31
0.0
  0
LINE
  8
DETAIL
  6
CONTINUOUS
 62
     5
 10
-228.26154110992266
 20
-180.54156455765201
 30
0.0
 11
-228.24371423632567
 21
-180.21028003678518
 31
0.0
  0
LINE
  8
DETAIL
  6
CONTINUOUS
 62
     5
 10
-228.24371423632567
 20
-180.21028003678518
 30
0.0
 11
-228.22073903378376
 21
-179.87937476886347
 31
0.0
  0
LINE
  8
DETAIL
  6
CONTINUOUS
 62
     5
 10
-228.22073903378376
 20
-179.87937476886347
 30
0.0
 11
-228.19180270599739
 21
-179.5489701260058
 31
0.0
  0
LINE
  8
DETAIL
  6
CONTINUOUS
 62
     5
 10
-230.49975373601319
 20
-182.2001574700098
 30
0.0
 11
-230.49589742236361
 21
-181.74172461456203
 31
0.0
  0
LINE
  8
DETAIL
  6
CONTINUOUS
 62
     5
 10
-230.49589742236361
 20
-181.74172461456203
 30
0.0
 11
-230.48719743173959
 21
-181.28335256536346
 31
0.0
  0
LINE
  8
DETAIL
  6
CONTINUOUS
 62
     5
 10
-230.48719743173959
 20
-181.28335256536346
 30
0.0
 11
-230.47343930622728
 21
-180.82505703398141
 31
0.0
  0
LINE
  8
DETAIL
  6
CONTINUOUS
 62
     5
 10
-230.47343930622728
 20
-180.82505703398141
 30
0.0
 11
-230.45439462984737
 21
-180.36685589631043
 31
0.0
  0
LINE
  8
DETAIL
  6
CONTINUOUS
 62
     5
 10
-230.45439462984737
 20
-180.36685589631043
 30
0.0
 11
-230.42868812159284
 21
-179.90894486029015
 31
0.0
  0
LINE
  8
DETAIL
  6
CONTINUOUS
 62
     5
 10
-230.42868812159284
 20
-179.90894486029015
 30
0.0
 11
-230.39296160621183
 21
-179.45182709997869
 31
0.0
  0
LINE
  8
DETAIL
  6
CONTINUOUS
 62
     5
 10
-230.39296160621183
 20
-179.45182709997869
 30
0.0
 11
-230.34359714667846
 21
-178.99604863550374
 31
0.0
  0
LINE
  8
DETAIL
  6
CONTINUOUS
 62
     5
 10
-230.34359714667846
 20
-178.99604863550374
 30
0.0
 11
-230.27160604509473
 21
-178.5432166383174
 31
0.0
  0
LINE
  8
DETAIL
  6
CONTINUOUS
 62
     5
 10
-230.27160604509473
 20
-178.5432166383174
 30
0.0
 11
-230.14197107594083
 21
-178.10323837734188
 31
0.0
  0
LINE
  8
DETAIL
  6
CONTINUOUS
 62
     5
 10
-230.14197107594083
 20
-178.10323837734188
 30
0.0
 11
-229.89432962597385
 21
-177.71485217581102
 31
0.0
  0
LINE
  8
DETAIL
  6
CONTINUOUS
 62
     5
 10
-229.89432962597385
 20
-177.71485217581102
 30
0.0
 11
-229.51354032317317
 21
-177.44739663565068
 31
0.0
  0
LINE
  8
DETAIL
  6
CONTINUOUS
 62
     5
 10
-229.51354032317317
 20
-177.44739663565068
 30
0.0
 11
-229.0601126259962
 21
-177.35000000000309
 31
0.0
  0
LINE
  8
DETAIL
  6
CONTINUOUS
 62
     5
 10
-228.19188871200731
 20
-224.75012354600489
 30
0.0
 11
-228.22114194687359
 21
-224.40727492951842
 31
0.0
  0
LINE
  8
DETAIL
  6
CONTINUOUS
 62
     5
 10
-228.22114194687359
 20
-224.40727492951842
 30
0.0
 11
-228.2440061942248
 21
-224.06391049668224
 31
0.0
  0
LINE
  8
DETAIL
  6
CONTINUOUS
 62
     5
 10
-228.2440061942248
 20
-224.06391049668224
 30
0.0
 11
-228.26231229326172
 21
-223.72026607418317
 31
0.0
  0
LINE
  8
DETAIL
  6
CONTINUOUS
 62
     5
 10
-228.26231229326172
 20
-223.72026607418317
 30
0.0
 11
-228.2765350820097
 21
-223.37641166884228
 31
0.0
  0
LINE
  8
DETAIL
  6
CONTINUOUS
 62
     5
 10
-228.2765350820097
 20
-223.37641166884228
 30
0.0
 11
-228.28704345766297
 21
-223.03240433240757
 31
0.0
  0
LINE
  8
DETAIL
  6
CONTINUOUS
 62
     5
 10
-228.28704345766297
 20
-223.03240433240757
 30
0.0
 11
-228.29420631741544
 21
-222.68830111662703
 31
0.0
  0
LINE
  8
DETAIL
  6
CONTINUOUS
 62
     5
 10
-228.29420631741544
 20
-222.68830111662703
 30
0.0
 11
-228.29839255846116
 21
-222.34415907324859
 31
0.0
  0
LINE
  8
DETAIL
  6
CONTINUOUS
 62
     5
 10
-228.29839255846116
 20
-222.34415907324859
 30
0.0
 11
-228.29997107799409
 21
-222.0000352540201
 31
0.0
  0
LINE
  8
DETAIL
  6
CONTINUOUS
 62
     5
 10
-229.0601126259962
 20
-226.95000000000891
 30
0.0
 11
-229.52139703342451
 21
-226.84882826881645
 31
0.0
  0
LINE
  8
DETAIL
  6
CONTINUOUS
 62
     5
 10
-229.52139703342451
 20
-226.84882826881645
 30
0.0
 11
-229.90600457511144
 21
-226.57223923428984
 31
0.0
  0
LINE
  8
DETAIL
  6
CONTINUOUS
 62
     5
 10
-229.90600457511144
 20
-226.57223923428984
 30
0.0
 11
-230.15183989772623
 21
-226.17304213451149
 31
0.0
  0
LINE
  8
DETAIL
  6
CONTINUOUS
 62
     5
 10
-230.15183989772623
 20
-226.17304213451149
 30
0.0
 11
-230.27821102651626
 21
-225.72358464293407
 31
0.0
  0
LINE
  8
DETAIL
  6
CONTINUOUS
 62
     5
 10
-230.27821102651626
 20
-225.72358464293407
 30
0.0
 11
-230.34879538352257
 21
-225.26219621580063
 31
0.0
  0
LINE
  8
DETAIL
  6
CONTINUOUS
 62
     5
 10
-230.34879538352257
 20
-225.26219621580063
 30
0.0
 11
-230.39743363671795
 21
-224.79804484810856
 31
0.0
  0
LINE
  8
DETAIL
  6
CONTINUOUS
 62
     5
 10
-230.39743363671795
 20
-224.79804484810856
 30
0.0
 11
-230.4325283209987
 21
-224.33260458361787
 31
0.0
  0
LINE
  8
DETAIL
  6
CONTINUOUS
 62
     5
 10
-230.4325283209987
 20
-224.33260458361787
 30
0.0
 11
-230.45763214197001
 21
-223.86640092946652
 31
0.0
  0
LINE
  8
DETAIL
  6
CONTINUOUS
 62
     5
 10
-230.45763214197001
 20
-223.86640092946652
 30
0.0
 11
-230.47605324722409
 21
-223.3999205938394
 31
0.0
  0
LINE
  8
DETAIL
  6
CONTINUOUS
 62
     5
 10
-230.47605324722409
 20
-223.3999205938394
 30
0.0
 11
-230.48912189252033
 21
-222.93335296054585
 31
0.0
  0
LINE
  8
DETAIL
  6
CONTINUOUS
 62
     5
 10
-230.48912189252033
 20
-222.93335296054585
 30
0.0
 11
-230.49703412035936
 21
-222.46671691405717
 31
0.0
  0
LINE
  8
DETAIL
  6
CONTINUOUS
 62
     5
 10
-230.49703412035936
 20
-222.46671691405717
 30
0.0
 11
-230.4999725299958
 21
-222.0000293180037
 31
0.0
  0
LINE
  8
DETAIL
  6
CONTINUOUS
 62
     5
 10
289.09999998952122
 20
-357.90000001050521
 30
0.0
 11
300.49999998950079
 21
-357.90000001050521
 31
0.0
  0
LINE
  8
DETAIL
  6
CONTINUOUS
 62
     5
 10
289.09999998952122
 20
-357.30000001050672
 30
0.0
 11
458.2999999895037
 21
-357.30000001050672
 31
0.0
  0
LINE
  8
DETAIL
  6
CONTINUOUS
 62
     5
 10
286.49999998950079
 20
-356.70000001050812
 30
0.0
 11
297.49999998950079
 21
-356.70000001050812
 31
0.0
  0
LINE
  8
DETAIL
  6
CONTINUOUS
 62
     5
 10
460.69999998951238
 20
-355.95000001050721
 30
0.0
 11
458.2999999895037
 21
-355.95000001050721
 31
0.0
  0
LINE
  8
DETAIL
  6
CONTINUOUS
 62
     5
 10
462.29999998950279
 20
-354.35000001050958
 30
0.0
 11
477.2999999895037
 21
-354.35000001050958
 31
0.0
  0
LINE
  8
DETAIL
  6
CONTINUOUS
 62
     5
 10
457.29999998951831
 20
-305.1000000105098
 30
0.0
 11
457.09999998950661
 21
-305.1000000105098
 31
0.0
  0
LINE
  8
DETAIL
  6
CONTINUOUS
 62
     5
 10
457.29999998951831
 20
-290.1000000105098
 30
0.0
 11
457.09999998950661
 21
-290.1000000105098
 31
0.0
  0
LINE
  8
DETAIL
  6
CONTINUOUS
 62
     5
 10
477.2999999895037
 20
-272.10000001050889
 30
0.0
 11
469.49999998950079
 21
-272.10000001050889
 31
0.0
  0
LINE
  8
DETAIL
  6
CONTINUOUS
 62
     5
 10
275.49999998950079
 20
-199.1000000105098
 30
0.0
 11
280.49999998950079
 21
-199.1000000105098
 31
0.0
  0
LINE
  8
DETAIL
  6
CONTINUOUS
 62
     5
 10
275.49999998950079
 20
-171.10000001050889
 30
0.0
 11
280.49999998950079
 21
-171.10000001050889
 31
0.0
  0
LINE
  8
DETAIL
  6
CONTINUOUS
 62
     5
 10
457.29999998951831
 20
-164.10000001050889
 30
0.0
 11
457.09999998950661
 21
-164.10000001050889
 31
0.0
  0
LINE
  8
DETAIL
  6
CONTINUOUS
 62
     5
 10
472.09999998950661
 20
-161.76550694251301
 30
0.0
 11
470.89999998950952
 21
-161.76550694251301
 31
0.0
  0
LINE
  8
DETAIL
  6
CONTINUOUS
 62
     5
 10
457.29999998951831
 20
-149.10000001050889
 30
0.0
 11
457.09999998950661
 21
-149.10000001050889
 31
0.0
  0
LINE
  8
DETAIL
  6
CONTINUOUS
 62
     5
 10
477.2999999895037
 20
-147.1000000105098
 30
0.0
 11
472.09999998950661
 21
-147.1000000105098
 31
0.0
  0
LINE
  8
DETAIL
  6
CONTINUOUS
 62
     5
 10
470.89999998950952
 20
-147.1000000105098
 30
0.0
 11
469.49999998950079
 21
-147.1000000105098
 31
0.0
  0
LINE
  8
DETAIL
  6
CONTINUOUS
 62
     5
 10
465.29999998951831
 20
-138.1000000105098
 30
0.0
 11
473.2999999895037
 21
-138.1000000105098
 31
0.0
  0
LINE
  8
DETAIL
  6
CONTINUOUS
 62
     5
 10
473.2999999895037
 20
-129.30000001051329
 30
0.0
 11
480.89999998949497
 21
-129.30000001051329
 31
0.0
  0
LINE
  8
DETAIL
  6
CONTINUOUS
 62
     5
 10
465.29999998951831
 20
-128.10000001050889
 30
0.0
 11
480.89999998949497
 21
-128.10000001050889
 31
0.0
  0
LINE
  8
DETAIL
  6
CONTINUOUS
 62
     5
 10
462.29999998950279
 20
-99.850000010508666
 30
0.0
 11
477.2999999895037
 21
-99.850000010508893
 31
0.0
  0
LINE
  8
DETAIL
  6
CONTINUOUS
 62
     5
 10
458.2999999895037
 20
-98.250000010510348
 30
0.0
 11
460.69999998951238
 21
-98.250000010510348
 31
0.0
  0
LINE
  8
DETAIL
  6
CONTINUOUS
 62
     5
 10
286.49999998950079
 20
-97.500000010510348
 30
0.0
 11
297.49999998950079
 21
-97.500000010510348
 31
0.0
  0
LINE
  8
DETAIL
  6
CONTINUOUS
 62
     5
 10
458.2999999895037
 20
-96.900000010511803
 30
0.0
 11
289.09999998952122
 21
-96.900000010511803
 31
0.0
  0
LINE
  8
DETAIL
  6
CONTINUOUS
 62
     5
 10
289.09999998952122
 20
-96.300000010513259
 30
0.0
 11
300.49999998950079
 21
-96.300000010513259
 31
0.0
  0
LINE
  8
DETAIL
  6
CONTINUOUS
 62
     5
 10
283.76794918149972
 20
-276.56410162651099
 30
0.0
 11
285.49999998950079
 21
-279.56410162651201
 31
0.0
  0
LINE
  8
DETAIL
  6
CONTINUOUS
 62
     5
 10
272.49999998950079
 20
-174.10000001050889
 30
0.0
 11
272.49999998950079
 21
-196.10000001050889
 31
0.0
  0
LINE
  8
DETAIL
  6
CONTINUOUS
 62
     5
 10
285.49999998950079
 20
-236.6358983945149
 30
0.0
 11
283.76794918149972
 21
-239.63589839450759
 31
0.0
  0
LINE
  8
DETAIL
  6
CONTINUOUS
 62
     5
 10
283.76794918149972
 20
-220.56410162651099
 30
0.0
 11
285.49999998950079
 21
-223.56410162651201
 31
0.0
  0
LINE
  8
DETAIL
  6
CONTINUOUS
 62
     5
 10
283.49999998950079
 20
-100.50000001051031
 30
0.0
 11
283.49999998950079
 21
-168.1000000105098
 31
0.0
  0
LINE
  8
DETAIL
  6
CONTINUOUS
 62
     5
 10
283.49999998950079
 20
-353.70000001050812
 30
0.0
 11
283.49999998950079
 21
-296.63589839451492
 31
0.0
  0
LINE
  8
DETAIL
  6
CONTINUOUS
 62
     5
 10
283.49999998950079
 20
-275.56410162651099
 30
0.0
 11
283.49999998950079
 21
-240.63589839450759
 31
0.0
  0
LINE
  8
DETAIL
  6
CONTINUOUS
 62
     5
 10
283.49999998950079
 20
-219.56410162651201
 30
0.0
 11
283.49999998950079
 21
-202.10000001050889
 31
0.0
  0
LINE
  8
DETAIL
  6
CONTINUOUS
 62
     5
 10
285.49999998950079
 20
-223.56410162651201
 30
0.0
 11
285.49999998950079
 21
-236.6358983945149
 31
0.0
  0
LINE
  8
DETAIL
  6
CONTINUOUS
 62
     5
 10
285.49999998950079
 20
-279.56410162651201
 30
0.0
 11
285.49999998950079
 21
-292.63589839450759
 31
0.0
  0
LINE
  8
DETAIL
  6
CONTINUOUS
 62
     5
 10
287.89999998950952
 20
-356.70000001050812
 30
0.0
 11
287.89999998950952
 21
-97.500000010510348
 31
0.0
  0
LINE
  8
DETAIL
  6
CONTINUOUS
 62
     5
 10
289.09999998952122
 20
-356.70000001050812
 30
0.0
 11
289.09999998952122
 21
-357.30000001050672
 31
0.0
  0
LINE
  8
DETAIL
  6
CONTINUOUS
 62
     5
 10
289.09999998952122
 20
-97.500000010510348
 30
0.0
 11
289.09999998952122
 21
-96.900000010511803
 31
0.0
  0
LINE
  8
DETAIL
  6
CONTINUOUS
 62
     5
 10
300.49999998950079
 20
-100.50000001051031
 30
0.0
 11
300.49999998950079
 21
-353.70000001050812
 31
0.0
  0
LINE
  8
DETAIL
  6
CONTINUOUS
 62
     5
 10
300.49999998950079
 20
-357.30000001050672
 30
0.0
 11
300.49999998950079
 21
-357.90000001050521
 31
0.0
  0
LINE
  8
DETAIL
  6
CONTINUOUS
 62
     5
 10
300.49999998950079
 20
-96.900000010511803
 30
0.0
 11
300.49999998950079
 21
-96.300000010513259
 31
0.0
  0
LINE
  8
DETAIL
  6
CONTINUOUS
 62
     5
 10
285.49999998950079
 20
-292.63589839450759
 30
0.0
 11
283.76794918149972
 21
-295.63589839450668
 31
0.0
  0
LINE
  8
DETAIL
  6
CONTINUOUS
 62
     5
 10
477.2999999895037
 20
-147.1000000105098
 30
0.0
 11
480.2999999895037
 21
-144.10000001050889
 31
0.0
  0
LINE
  8
DETAIL
  6
CONTINUOUS
 62
     5
 10
480.2999999895037
 20
-275.1000000105098
 30
0.0
 11
477.2999999895037
 21
-272.10000001050889
 31
0.0
  0
LINE
  8
DETAIL
  6
CONTINUOUS
 62
     5
 10
457.09999998950661
 20
-305.1000000105098
 30
0.0
 11
457.09999998950661
 21
-290.1000000105098
 31
0.0
  0
LINE
  8
DETAIL
  6
CONTINUOUS
 62
     5
 10
457.09999998950661
 20
-164.10000001050889
 30
0.0
 11
457.09999998950661
 21
-149.10000001050889
 31
0.0
  0
LINE
  8
DETAIL
  6
CONTINUOUS
 62
     5
 10
458.2999999895037
 20
-357.30000001050672
 30
0.0
 11
458.2999999895037
 21
-306.1000000105098
 31
0.0
  0
LINE
  8
DETAIL
  6
CONTINUOUS
 62
     5
 10
458.2999999895037
 20
-289.1000000105098
 30
0.0
 11
458.2999999895037
 21
-165.10000001050889
 31
0.0
  0
LINE
  8
DETAIL
  6
CONTINUOUS
 62
     5
 10
458.2999999895037
 20
-148.10000001050889
 30
0.0
 11
458.2999999895037
 21
-96.900000010511803
 31
0.0
  0
LINE
  8
DETAIL
  6
CONTINUOUS
 62
     5
 10
462.2999999895037
 20
-354.35000001050958
 30
0.0
 11
462.2999999895037
 21
-99.850000010508893
 31
0.0
  0
LINE
  8
DETAIL
  6
CONTINUOUS
 62
     5
 10
463.42449978751392
 20
-132.47036715050879
 30
0.0
 11
463.42449978751392
 21
-131.02963287050471
 31
0.0
  0
LINE
  8
DETAIL
  6
CONTINUOUS
 62
     5
 10
465.29999998951831
 20
-108.2500000105113
 30
0.0
 11
465.29999998951831
 21
-128.25000001051029
 31
0.0
  0
LINE
  8
DETAIL
  6
CONTINUOUS
 62
     5
 10
465.29999998951831
 20
-135.25000001051029
 30
0.0
 11
465.29999998951831
 21
-155.25000001051029
 31
0.0
  0
LINE
  8
DETAIL
  6
CONTINUOUS
 62
     5
 10
465.29999998951831
 20
-305.95000001050829
 30
0.0
 11
465.29999998951831
 21
-325.95000001050812
 31
0.0
  0
LINE
  8
DETAIL
  6
CONTINUOUS
 62
     5
 10
465.39999998950952
 20
-128.10000001050889
 30
0.0
 11
465.39999998950952
 21
-138.1000000105098
 31
0.0
  0
LINE
  8
DETAIL
  6
CONTINUOUS
 62
     5
 10
466.49999998950079
 20
-269.10000001050889
 30
0.0
 11
466.49999998950079
 21
-150.10000001050889
 31
0.0
  0
LINE
  8
DETAIL
  6
CONTINUOUS
 62
     5
 10
469.69999998951238
 20
-138.1000000105098
 30
0.0
 11
469.69999998951238
 21
-128.10000001050889
 31
0.0
  0
LINE
  8
DETAIL
  6
CONTINUOUS
 62
     5
 10
470.89999998950952
 20
-119.3000000105133
 30
0.0
 11
470.89999998950952
 21
-128.10000001050889
 31
0.0
  0
LINE
  8
DETAIL
  6
CONTINUOUS
 62
     5
 10
470.89999998950952
 20
-161.76550694251301
 30
0.0
 11
470.89999998950952
 21
-138.1000000105098
 31
0.0
  0
LINE
  8
DETAIL
  6
CONTINUOUS
 62
     5
 10
472.09999998950661
 20
-119.3000000105133
 30
0.0
 11
472.09999998950661
 21
-128.10000001050889
 31
0.0
  0
LINE
  8
DETAIL
  6
CONTINUOUS
 62
     5
 10
472.09999998950661
 20
-138.1000000105098
 30
0.0
 11
472.09999998950661
 21
-161.76550694251301
 31
0.0
  0
LINE
  8
DETAIL
  6
CONTINUOUS
 62
     5
 10
473.2999999895037
 20
-128.10000001050889
 30
0.0
 11
473.2999999895037
 21
-138.1000000105098
 31
0.0
  0
LINE
  8
DETAIL
  6
CONTINUOUS
 62
     5
 10
480.2999999895037
 20
-102.85000001050889
 30
0.0
 11
480.2999999895037
 21
-109.3287305225133
 31
0.0
  0
LINE
  8
DETAIL
  6
CONTINUOUS
 62
     5
 10
480.2999999895037
 20
-110.5323299245113
 30
0.0
 11
480.2999999895037
 21
-128.10000001050889
 31
0.0
  0
LINE
  8
DETAIL
  6
CONTINUOUS
 62
     5
 10
480.2999999895037
 20
-129.30000001051329
 30
0.0
 11
480.2999999895037
 21
-144.10000001050889
 31
0.0
  0
LINE
  8
DETAIL
  6
CONTINUOUS
 62
     5
 10
480.2999999895037
 20
-275.1000000105098
 30
0.0
 11
480.2999999895037
 21
-351.35000001050958
 31
0.0
  0
LINE
  8
DETAIL
  6
CONTINUOUS
 62
     5
 10
477.2999999895037
 20
-354.35000001050958
 30
0.0
 11
480.2999999895037
 21
-351.35000001050958
 31
0.0
  0
LINE
  8
DETAIL
  6
CONTINUOUS
 62
     5
 10
480.2999999895037
 20
-102.85000001050889
 30
0.0
 11
477.2999999895037
 21
-99.850000010508893
 31
0.0
  0
ARC
  8
DETAIL
  6
CONTINUOUS
 62
     5
 10
286.49999998950079
 20
-353.70000001050812
 30
0.0
 40
3.0000000000000071
 50
180.0
 51
270.0
  0
ARC
  8
DETAIL
  6
CONTINUOUS
 62
     5
 10
297.49999998950079
 20
-353.70000001050812
 30
0.0
 40
3.0000000000000071
 50
270.0
 51
0.0
  0
ARC
  8
DETAIL
  6
CONTINUOUS
 62
     5
 10
289.09999998952122
 20
-356.70000001050812
 30
0.0
 40
1.2000000000000031
 50
180.0
 51
270.0
  0
ARC
  8
DETAIL
  6
CONTINUOUS
 62
     5
 10
289.09999998952122
 20
-356.70000001050812
 30
0.0
 40
0.6000000000000024
 50
180.0
 51
270.0
  0
ARC
  8
DETAIL
  6
CONTINUOUS
 62
     5
 10
285.49999998950079
 20
-275.56410162651099
 30
0.0
 40
2.0000000000000049
 50
180.0
 51
209.9999999999977
  0
ARC
  8
DETAIL
  6
CONTINUOUS
 62
     5
 10
285.49999998950079
 20
-240.63589839450759
 30
0.0
 40
2.0000000000000049
 50
150.0000000000023
 51
180.0
  0
ARC
  8
DETAIL
  6
CONTINUOUS
 62
     5
 10
285.49999998950079
 20
-219.56410162651201
 30
0.0
 40
2.0000000000000049
 50
180.0
 51
209.9999999999977
  0
ARC
  8
DETAIL
  6
CONTINUOUS
 62
     5
 10
285.49999998950079
 20
-296.63589839451492
 30
0.0
 40
2.0000000000000049
 50
150.0000000000023
 51
180.0
  0
CIRCLE
  8
DETAIL
  6
CONTINUOUS
 62
     5
 10
472.2999999895037
 20
-327.10000001050958
 30
0.0
 40
4.7000000000000099
  0
CIRCLE
  8
DETAIL
  6
CONTINUOUS
 62
     5
 10
451.49999998950079
 20
-332.10000001050958
 30
0.0
 40
4.7000000000000099
  0
ARC
  8
DETAIL
  6
CONTINUOUS
 62
     5
 10
462.2999999895037
 20
-325.95000001050812
 30
0.0
 40
3.0000000000000071
 50
270.0
 51
0.0
  0
ARC
  8
DETAIL
  6
CONTINUOUS
 62
     5
 10
460.69999998951238
 20
-354.35000001050958
 30
0.0
 40
1.600000000000005
 50
270.0
 51
0.0
  0
ARC
  8
DETAIL
  6
CONTINUOUS
 62
     5
 10
462.2999999895037
 20
-305.95000001050829
 30
0.0
 40
3.0000000000000071
 50
0.0
 51
90.0
  0
ARC
  8
DETAIL
  6
CONTINUOUS
 62
     5
 10
469.49999998950079
 20
-269.10000001050889
 30
0.0
 40
3.0000000000000071
 50
180.0
 51
270.0
  0
ARC
  8
DETAIL
  6
CONTINUOUS
 62
     5
 10
457.29999998951831
 20
-289.1000000105098
 30
0.0
 40
1.000000000000002
 50
270.0
 51
0.0
  0
ARC
  8
DETAIL
  6
CONTINUOUS
 62
     5
 10
457.29999998951831
 20
-306.1000000105098
 30
0.0
 40
1.000000000000002
 50
0.0
 51
90.0
  0
CIRCLE
  8
DETAIL
  6
CONTINUOUS
 62
     5
 10
278.7999999895037
 20
-185.1000000105098
 30
0.0
 40
4.7000000000000099
  0
ARC
  8
DETAIL
  6
CONTINUOUS
 62
     5
 10
275.49999998950079
 20
-196.10000001050889
 30
0.0
 40
3.0000000000000071
 50
180.0
 51
270.0
  0
ARC
  8
DETAIL
  6
CONTINUOUS
 62
     5
 10
275.49999998950079
 20
-174.10000001050889
 30
0.0
 40
3.0000000000000071
 50
90.0
 51
180.0
  0
ARC
  8
DETAIL
  6
CONTINUOUS
 62
     5
 10
280.49999998950079
 20
-168.1000000105098
 30
0.0
 40
3.0000000000000071
 50
270.0
 51
0.0
  0
ARC
  8
DETAIL
  6
CONTINUOUS
 62
     5
 10
280.49999998950079
 20
-202.10000001050889
 30
0.0
 40
3.0000000000000071
 50
0.0
 51
90.0
  0
ARC
  8
DETAIL
  6
CONTINUOUS
 62
     5
 10
286.49999998950079
 20
-100.50000001051031
 30
0.0
 40
3.0000000000000071
 50
90.0
 51
180.0
  0
ARC
  8
DETAIL
  6
CONTINUOUS
 62
     5
 10
297.49999998950079
 20
-100.50000001051031
 30
0.0
 40
3.0000000000000071
 50
0.0
 51
90.0
  0
ARC
  8
DETAIL
  6
CONTINUOUS
 62
     5
 10
289.09999998952122
 20
-97.500000010510348
 30
0.0
 40
1.2000000000000031
 50
90.0
 51
180.0
  0
ARC
  8
DETAIL
  6
CONTINUOUS
 62
     5
 10
289.09999998952122
 20
-97.500000010510348
 30
0.0
 40
0.6000000000000024
 50
90.0
 51
180.0
  0
ARC
  8
DETAIL
  6
CONTINUOUS
 62
     5
 10
462.2999999895037
 20
-155.25000001051029
 30
0.0
 40
3.0000000000000071
 50
270.0
 51
0.0
  0
ARC
  8
DETAIL
  6
CONTINUOUS
 62
     5
 10
469.49999998950079
 20
-150.10000001050889
 30
0.0
 40
3.0000000000000071
 50
90.0
 51
180.0
  0
ARC
  8
DETAIL
  6
CONTINUOUS
 62
     5
 10
457.29999998951831
 20
-148.10000001050889
 30
0.0
 40
1.000000000000002
 50
270.0
 51
0.0
  0
ARC
  8
DETAIL
  6
CONTINUOUS
 62
     5
 10
457.29999998951831
 20
-165.10000001050889
 30
0.0
 40
1.000000000000002
 50
0.0
 51
90.0
  0
ARC
  8
DETAIL
  6
CONTINUOUS
 62
     5
 10
480.89999998949497
 20
-119.3000000105133
 30
0.0
 40
10.00000000000002
 50
270.0
 51
180.0
  0
ARC
  8
DETAIL
  6
CONTINUOUS
 62
     5
 10
480.89999998949497
 20
-119.3000000105133
 30
0.0
 40
8.8000000000000203
 50
270.0
 51
180.0
  0
ARC
  8
DETAIL
  6
CONTINUOUS
 62
     5
 10
472.2999999895037
 20
-119.10000001050889
 30
0.0
 40
5.5000000000000142
 50
131.97416068467871
 51
255.24000878674281
  0
ARC
  8
DETAIL
  6
CONTINUOUS
 62
     5
 10
472.2999999895037
 20
-119.10000001050889
 30
0.0
 40
5.5000000000000142
 50
267.91752440258438
 51
48.025839315321313
  0
ARC
  8
DETAIL
  6
CONTINUOUS
 62
     5
 10
472.2999999895037
 20
-112.10000001050889
 30
0.0
 40
4.7000000000000099
 50
22.833675615687341
 51
257.24802663449702
  0
ARC
  8
DETAIL
  6
CONTINUOUS
 62
     5
 10
472.2999999895037
 20
-112.10000001050889
 30
0.0
 40
4.7000000000000099
 50
272.24859668200719
 51
7.8924166607133994
  0
CIRCLE
  8
DETAIL
  6
CONTINUOUS
 62
     5
 10
451.49999998950079
 20
-122.10000001050889
 30
0.0
 40
4.7000000000000099
  0
ARC
  8
DETAIL
  6
CONTINUOUS
 62
     5
 10
462.2999999895037
 20
-135.25000001051029
 30
0.0
 40
3.0000000000000071
 50
0.0
 51
90.0
  0
ARC
  8
DETAIL
  6
CONTINUOUS
 62
     5
 10
462.2999999895037
 20
-108.2500000105113
 30
0.0
 40
3.0000000000000071
 50
0.0
 51
90.0
  0
ARC
  8
DETAIL
  6
CONTINUOUS
 62
     5
 10
462.2999999895037
 20
-128.25000001051029
 30
0.0
 40
3.0000000000000071
 50
270.0
 51
0.0
  0
ARC
  8
DETAIL
  6
CONTINUOUS
 62
     5
 10
460.69999998951238
 20
-99.850000010508893
 30
0.0
 40
1.600000000000005
 50
0.0
 51
90.0
  0
ARC
  8
DETAIL
  6
CONTINUOUS
 62
     5
 10
570.94999999999254
 20
-1.0500000000029099
 30
0.0
 40
1.0500000000000029
 50
270.0
 51
89.999963675928214
  0
ARC
  8
DETAIL
  6
CONTINUOUS
 62
     5
 10
570.94999999999254
 20
-1.0500000000029099
 30
0.0
 40
0.2500000000000001
 50
270.0
 51
89.999963675928214
  0
LINE
  8
DETAIL
  6
CONTINUOUS
 62
     5
 10
567.69999999999254
 20
-1.3000000000029099
 30
0.0
 11
567.69999999999254
 21
-2.1000000000058212
 31
0.0
  0
LINE
  8
DETAIL
  6
CONTINUOUS
 62
     5
 10
567.69999999999254
 20
-2.1000000000058212
 30
0.0
 11
570.94999999999254
 21
-2.1000000000058212
 31
0.0
  0
LINE
  8
DETAIL
  6
CONTINUOUS
 62
     5
 10
557.21438630998728
 20
-2.1000000000058212
 30
0.0
 11
-557.21438631000183
 21
-2.1000000000058212
 31
0.0
  0
LINE
  8
DETAIL
  6
CONTINUOUS
 62
     5
 10
-570.94999999997799
 20
-1.3000000000029099
 30
0.0
 11
-566.19999999999254
 21
-1.3000000000029099
 31
0.0
  0
LINE
  8
DETAIL
  6
CONTINUOUS
 62
     5
 10
-570.94999999997799
 20
-2.1000000000058212
 30
0.0
 11
-567.70000000000709
 21
-2.1000000000058212
 31
0.0
  0
LINE
  8
DETAIL
  6
CONTINUOUS
 62
     5
 10
-567.70000000000709
 20
-1.3000000000029099
 30
0.0
 11
-567.70000000000709
 21
-2.1000000000058212
 31
0.0
  0
LINE
  8
DETAIL
  6
CONTINUOUS
 62
     5
 10
-570.94999999997799
 20
-402.70000000000391
 30
0.0
 11
-566.19999999999254
 21
-402.70000000000391
 31
0.0
  0
ARC
  8
DETAIL
  6
CONTINUOUS
 62
     5
 10
-570.94999999997799
 20
-402.95000000000391
 30
0.0
 40
1.0500000000000029
 50
90.0
 51
270.00000112386078
  0
ARC
  8
DETAIL
  6
CONTINUOUS
 62
     5
 10
-570.94999999997799
 20
-402.95000000000391
 30
0.0
 40
0.2500000000000001
 50
90.0
 51
270.00000112386078
  0
LINE
  8
DETAIL
  6
CONTINUOUS
 62
     5
 10
-570.94999999997799
 20
-401.90000000001561
 30
0.0
 11
-567.70000000000709
 21
-401.90000000001561
 31
0.0
  0
LINE
  8
DETAIL
  6
CONTINUOUS
 62
     5
 10
-557.16730091801855
 20
-401.90000000001561
 30
0.0
 11
557.167300918004
 21
-401.90000000001561
 31
0.0
  0
LINE
  8
DETAIL
  6
CONTINUOUS
 62
     5
 10
570.94999999999254
 20
-401.90000000001561
 30
0.0
 11
567.69999999999254
 21
-401.90000000001561
 31
0.0
  0
LINE
  8
DETAIL
  6
CONTINUOUS
 62
     5
 10
567.69999999999254
 20
-401.90000000001561
 30
0.0
 11
567.69999999999254
 21
-402.70000000000391
 31
0.0
  0
CIRCLE
  8
DETAIL
  6
DASHED
 62
     5
 10
-406.99999999998948
 20
-242.100000000004
 30
0.0
 40
130.0000000095113
  0
LINE
  8
BASIS
  6
DASHDOT
 62
     6
 10
-260.57719159756738
 20
-242.15000000000401
 30
0.0
 11
-692.2122232939364
 21
-242.15000000000401
 31
0.0
1001
GENIUS_GENODEF_13
1002
{
1000
HIER
1070
     0
1002
}
1002
{
1000
MANEDIT
1070
     0
1002
}
1002
{
1000
NOSEL
1070
     0
1002
}
1002
{
1000
BEHIND
1070
     0
1002
}
1002
{
1000
OTHER
1070
     0
1002
}
1002
{
1000
REACTOR
1002
}
1001
GENIUS_GENOBJ-N-CEN_13
1002
{
1000
OWNER
1000
GEN
1002
}
1001
GENIUS_GENCEN_19
1002
{
1040
5.0
1002
}
  0
LINE
  8
BASIS
  6
DASHDOT
 62
     6
 10
-406.99999999998948
 20
-88.874642958598542
 30
0.0
 11
-406.99999999998948
 21
-395.32535704140952
 31
0.0
1001
GENIUS_GENODEF_13
1002
{
1000
HIER
1070
     0
1002
}
1002
{
1000
MANEDIT
1070
     0
1002
}
1002
{
1000
NOSEL
1070
     0
1002
}
1002
{
1000
BEHIND
1070
     0
1002
}
1002
{
1000
OTHER
1070
     0
1002
}
1002
{
1000
REACTOR
1002
}
1001
GENIUS_GENOBJ-N-CEN_13
1002
{
1000
OWNER
1000
GEN
1002
}
1001
GENIUS_GENCEN_19
1002
{
1040
5.0
1002
}
  0
LINE
  8
BASIS
  6
DASHDOT
 62
     6
 10
682.27954395190591
 20
-242.100000000004
 30
0.0
 11
545.2932826385495
 21
-242.100000000004
 31
0.0
1001
GENIUS_GENODEF_13
1002
{
1000
HIER
1070
     0
1002
}
1002
{
1000
MANEDIT
1070
     0
1002
}
1002
{
1000
NOSEL
1070
     0
1002
}
1002
{
1000
BEHIND
1070
     0
1002
}
1002
{
1000
OTHER
1070
     0
1002
}
1002
{
1000
REACTOR
1002
}
1001
GENIUS_GENOBJ-N-CEN_13
1002
{
1000
OWNER
1000
GEN
1002
}
1001
GENIUS_GENCEN_19
1002
{
1040
5.0
1002
}
  0
LINE
  8
SIZE
  6
CONTINUOUS
 62
    30
 10
-571.99999999997817
 20
18.949999989699108
 30
0.0
 11
-571.99999999997817
 21
294.93907252417472
 31
0.0
  0
LINE
  8
SIZE
  6
CONTINUOUS
 62
    30
 10
571.99999999999272
 20
18.949999667160451
 30
0.0
 11
571.99999999999272
 21
294.93907252417472
 31
0.0
  0
LINE
  8
SIZE
  6
CONTINUOUS
 62
    30
 10
-559.99999999997817
 20
274.93907252417472
 30
0.0
 11
559.99999999999272
 21
274.93907252417472
 31
0.0
  0
CIRCLE
  8
SIZE
  6
CONTINUOUS
 62
    30
 10
-571.99999999997817
 20
274.93907252417472
 30
0.0
 40
6.0
  0
LINE
  8
SIZE
  6
CONTINUOUS
 62
    30
 10
-571.99999999997817
 20
274.93907252417472
 30
0.0
 11
-559.99999999997817
 21
274.93907252417472
 31
0.0
  0
CIRCLE
  8
SIZE
  6
CONTINUOUS
 62
    30
 10
571.99999999999272
 20
274.93907252417472
 30
0.0
 40
6.0
  0
LINE
  8
SIZE
  6
CONTINUOUS
 62
    30
 10
571.99999999999272
 20
274.93907252417472
 30
0.0
 11
559.99999999999272
 21
274.93907252417472
 31
0.0
  0
TEXT
  8
SIZE
  6
CONTINUOUS
 62
    30
 10
-96.767999999992739
 20
299.93907252417472
 30
0.0
 40
64.0
  1
1144
 50
0.0
 41
0.9
 51
0.0
  7
STANDARD
 71
     0
 72
     1
 11
0.000000000007276
 21
299.93907252417472
 31
0.0
210
0.0
220
0.0
230
1.0
  0
POINT
  8
DEFPOINTS
  6
CONTINUOUS
 62
    30
 10
-571.99999999997817
 20
-1.050000010300892
 30
0.0
  0
POINT
  8
DEFPOINTS
  6
CONTINUOUS
 62
    30
 10
571.99999999999272
 20
-1.0500003328395451
 30
0.0
  0
POINT
  8
DEFPOINTS
  6
CONTINUOUS
 62
    30
 10
571.99999999999272
 20
274.93907252417472
 30
0.0
  0
LINE
  8
SIZE
  6
CONTINUOUS
 62
    30
 10
651.00000000002183
 20
-101.0999682200122
 30
0.0
 11
651.00000000002183
 21
294.93907252417472
 31
0.0
  0
LINE
  8
SIZE
  6
CONTINUOUS
 62
    30
 10
571.99999999999272
 20
18.949999667160451
 30
0.0
 11
571.99999999999272
 21
294.93907252417472
 31
0.0
  0
LINE
  8
SIZE
  6
CONTINUOUS
 62
    30
 10
663.00000000002183
 20
274.93907252417472
 30
0.0
 11
675.00000000002183
 21
274.93907252417472
 31
0.0
  0
LINE
  8
SIZE
  6
CONTINUOUS
 62
    30
 10
559.99999999999272
 20
274.93907252417472
 30
0.0
 11
547.99999999999272
 21
274.93907252417472
 31
0.0
  0
LINE
  8
SIZE
  6
CONTINUOUS
 62
    30
 10
651.00000000002183
 20
274.93907252417472
 30
0.0
 11
571.99999999999272
 21
274.93907252417472
 31
0.0
  0
CIRCLE
  8
SIZE
  6
CONTINUOUS
 62
    30
 10
651.00000000002183
 20
274.93907252417472
 30
0.0
 40
6.0
  0
LINE
  8
SIZE
  6
CONTINUOUS
 62
    30
 10
651.00000000002183
 20
274.93907252417472
 30
0.0
 11
663.00000000002183
 21
274.93907252417472
 31
0.0
  0
CIRCLE
  8
SIZE
  6
CONTINUOUS
 62
    30
 10
571.99999999999272
 20
274.93907252417472
 30
0.0
 40
6.0
  0
LINE
  8
SIZE
  6
CONTINUOUS
 62
    30
 10
571.99999999999272
 20
274.93907252417472
 30
0.0
 11
559.99999999999272
 21
274.93907252417472
 31
0.0
  0
TEXT
  8
SIZE
  6
CONTINUOUS
 62
    30
 10
557.93200000000729
 20
299.93907252417472
 30
0.0
 40
64.0
  1
79
 50
0.0
 41
0.9
 51
0.0
  7
STANDARD
 71
     0
 72
     1
 11
611.50000000000728
 21
299.93907252417472
 31
0.0
210
0.0
220
0.0
230
1.0
  0
POINT
  8
DEFPOINTS
  6
CONTINUOUS
 62
    30
 10
651.00000000002183
 20
-121.0999682200122
 30
0.0
  0
POINT
  8
DEFPOINTS
  6
CONTINUOUS
 62
    30
 10
571.99999999999272
 20
-1.0500003328395451
 30
0.0
  0
POINT
  8
DEFPOINTS
  6
CONTINUOUS
 62
    30
 10
571.99999999999272
 20
274.93907252417472
 30
0.0
  0
LINE
  8
SIZE
  6
CONTINUOUS
 62
    30
 10
-571.99999999997817
 20
18.949999989699108
 30
0.0
 11
-571.99999999997817
 21
294.93907252417472
 31
0.0
  0
LINE
  8
SIZE
  6
CONTINUOUS
 62
    30
 10
-650.99999999999272
 20
-101.10016822001219
 30
0.0
 11
-650.99999999999272
 21
294.93907252417472
 31
0.0
  0
LINE
  8
SIZE
  6
CONTINUOUS
 62
    30
 10
-559.99999999997817
 20
274.93907252417472
 30
0.0
 11
-547.99999999997817
 21
274.93907252417472
 31
0.0
  0
LINE
  8
SIZE
  6
CONTINUOUS
 62
    30
 10
-662.99999999999272
 20
274.93907252417472
 30
0.0
 11
-674.99999999999272
 21
274.93907252417472
 31
0.0
  0
LINE
  8
SIZE
  6
CONTINUOUS
 62
    30
 10
-571.99999999997817
 20
274.93907252417472
 30
0.0
 11
-650.99999999999272
 21
274.93907252417472
 31
0.0
  0
CIRCLE
  8
SIZE
  6
CONTINUOUS
 62
    30
 10
-571.99999999997817
 20
274.93907252417472
 30
0.0
 40
6.0
  0
LINE
  8
SIZE
  6
CONTINUOUS
 62
    30
 10
-571.99999999997817
 20
274.93907252417472
 30
0.0
 11
-559.99999999997817
 21
274.93907252417472
 31
0.0
  0
CIRCLE
  8
SIZE
  6
CONTINUOUS
 62
    30
 10
-650.99999999999272
 20
274.93907252417472
 30
0.0
 40
6.0
  0
LINE
  8
SIZE
  6
CONTINUOUS
 62
    30
 10
-650.99999999999272
 20
274.93907252417472
 30
0.0
 11
-662.99999999999272
 21
274.93907252417472
 31
0.0
  0
TEXT
  8
SIZE
  6
CONTINUOUS
 62
    30
 10
-665.06799999998543
 20
299.93907252417472
 30
0.0
 40
64.0
  1
79
 50
0.0
 41
0.9
 51
0.0
  7
STANDARD
 71
     0
 72
     1
 11
-611.49999999998545
 21
299.93907252417472
 31
0.0
210
0.0
220
0.0
230
1.0
  0
POINT
  8
DEFPOINTS
  6
CONTINUOUS
 62
    30
 10
-571.99999999997817
 20
-1.050000010300892
 30
0.0
  0
POINT
  8
DEFPOINTS
  6
CONTINUOUS
 62
    30
 10
-650.99999999999272
 20
-121.10016822001219
 30
0.0
  0
POINT
  8
DEFPOINTS
  6
CONTINUOUS
 62
    30
 10
-650.99999999999272
 20
274.93907252417472
 30
0.0
  0
LINE
  8
SIZE
  6
CONTINUOUS
 62
    30
 10
-712.21222329393663
 20
-242.1500000000041
 30
0.0
 11
-848.13521291904044
 21
-242.1500000000041
 31
0.0
  0
LINE
  8
SIZE
  6
CONTINUOUS
 62
    30
 10
-715.69367645163607
 20
-202.15000000000609
 30
0.0
 11
-848.13521291904044
 21
-202.1500000000062
 31
0.0
  0
LINE
  8
SIZE
  6
CONTINUOUS
 62
    30
 10
-828.13521291904044
 20
-254.1500000000041
 30
0.0
 11
-828.13521291904033
 21
-266.15000000000413
 31
0.0
  0
LINE
  8
SIZE
  6
CONTINUOUS
 62
    30
 10
-828.13521291904044
 20
-190.15000000000609
 30
0.0
 11
-828.13521291904044
 21
-178.15000000000609
 31
0.0
  0
LINE
  8
SIZE
  6
CONTINUOUS
 62
    30
 10
-828.13521291904044
 20
-242.1500000000041
 30
0.0
 11
-828.13521291904044
 21
-202.15000000000609
 31
0.0
  0
CIRCLE
  8
SIZE
  6
CONTINUOUS
 62
    30
 10
-828.13521291904044
 20
-242.1500000000041
 30
0.0
 40
6.0
  0
LINE
  8
SIZE
  6
CONTINUOUS
 62
    30
 10
-828.13521291904044
 20
-242.1500000000041
 30
0.0
 11
-828.13521291904044
 21
-254.1500000000041
 31
0.0
  0
CIRCLE
  8
SIZE
  6
CONTINUOUS
 62
    30
 10
-828.13521291904044
 20
-202.15000000000609
 30
0.0
 40
6.0
  0
LINE
  8
SIZE
  6
CONTINUOUS
 62
    30
 10
-828.13521291904044
 20
-202.15000000000609
 30
0.0
 11
-828.13521291904044
 21
-190.15000000000609
 31
0.0
  0
TEXT
  8
SIZE
  6
CONTINUOUS
 62
    30
 10
-853.13521291904021
 20
-276.87000000000484
 30
0.0
 40
64.0
  1
40
 50
90.0
 41
0.9
 51
0.0
  7
STANDARD
 71
     0
 72
     1
 11
-853.13521291904021
 21
-222.15000000000481
 31
0.0
210
0.0
220
0.0
230
1.0
  0
POINT
  8
DEFPOINTS
  6
CONTINUOUS
 62
    30
 10
-692.21222329393663
 20
-242.1500000000041
 30
0.0
  0
POINT
  8
DEFPOINTS
  6
CONTINUOUS
 62
    30
 10
-695.69367645163607
 20
-202.15000000000609
 30
0.0
  0
POINT
  8
DEFPOINTS
  6
CONTINUOUS
 62
    30
 10
-828.13521291904044
 20
-202.15000000000609
 30
0.0
  0
LINE
  8
SIZE
  6
CONTINUOUS
 62
    30
 10
-590.94999999997822
 20
-0.0000000000000032
 30
0.0
 11
-963.88299528713901
 21
-0.0000000000000632
 31
0.0
  0
LINE
  8
SIZE
  6
CONTINUOUS
 62
    30
 10
-590.94999999997822
 20
-403.99999999999159
 30
0.0
 11
-963.8829952871389
 21
-403.9999999999917
 31
0.0
  0
LINE
  8
SIZE
  6
CONTINUOUS
 62
    30
 10
-943.88299528713901
 20
-12.00000000000006
 30
0.0
 11
-943.8829952871389
 21
-391.9999999999917
 31
0.0
  0
CIRCLE
  8
SIZE
  6
CONTINUOUS
 62
    30
 10
-943.88299528713901
 20
-0.00000000000006
 30
0.0
 40
6.0
  0
LINE
  8
SIZE
  6
CONTINUOUS
 62
    30
 10
-943.88299528713901
 20
-0.00000000000006
 30
0.0
 11
-943.88299528713901
 21
-12.00000000000006
 31
0.0
  0
CIRCLE
  8
SIZE
  6
CONTINUOUS
 62
    30
 10
-943.8829952871389
 20
-403.9999999999917
 30
0.0
 40
6.0
  0
LINE
  8
SIZE
  6
CONTINUOUS
 62
    30
 10
-943.8829952871389
 20
-403.9999999999917
 30
0.0
 11
-943.8829952871389
 21
-391.9999999999917
 31
0.0
  0
TEXT
  8
SIZE
  6
CONTINUOUS
 62
    30
 10
-968.88299528713901
 20
-284.07999999999544
 30
0.0
 40
64.0
  1
404
 50
90.0
 41
0.9
 51
0.0
  7
STANDARD
 71
     0
 72
     1
 11
-968.88299528713901
 21
-201.9999999999954
 31
0.0
210
0.0
220
0.0
230
1.0
  0
POINT
  8
DEFPOINTS
  6
CONTINUOUS
 62
    30
 10
-570.94999999997822
 20
0.0
 30
0.0
  0
POINT
  8
DEFPOINTS
  6
CONTINUOUS
 62
    30
 10
-570.94999999997822
 20
-403.99999999999159
 30
0.0
  0
POINT
  8
DEFPOINTS
  6
CONTINUOUS
 62
    30
 10
-943.8829952871389
 20
-403.9999999999917
 30
0.0
  0
LINE
  8
SIZE
  6
CONTINUOUS
 62
    30
 10
-636.4342787409571
 20
-77.000000000003212
 30
0.0
 11
-848.13521291904385
 21
-77.00000000000324
 31
0.0
  0
LINE
  8
SIZE
  6
CONTINUOUS
 62
    30
 10
-590.94999999997822
 20
-0.0000000000000032
 30
0.0
 11
-848.13521291904385
 21
-0.0000000000000446
 31
0.0
  0
LINE
  8
SIZE
  6
CONTINUOUS
 62
    30
 10
-828.13521291904385
 20
-65.00000000000324
 30
0.0
 11
-828.13521291904385
 21
-12.000000000000041
 31
0.0
  0
LINE
  8
SIZE
  6
CONTINUOUS
 62
    30
 10
-828.13521291904385
 20
-0.0000000000000414
 30
0.0
 11
-828.13521291904385
 21
155.25714285714469
 31
0.0
  0
CIRCLE
  8
SIZE
  6
CONTINUOUS
 62
    30
 10
-828.13521291904385
 20
-77.00000000000324
 30
0.0
 40
6.0
  0
LINE
  8
SIZE
  6
CONTINUOUS
 62
    30
 10
-828.13521291904385
 20
-77.00000000000324
 30
0.0
 11
-828.13521291904385
 21
-65.00000000000324
 31
0.0
  0
CIRCLE
  8
SIZE
  6
CONTINUOUS
 62
    30
 10
-828.13521291904385
 20
-0.0000000000000414
 30
0.0
 40
6.0
  0
LINE
  8
SIZE
  6
CONTINUOUS
 62
    30
 10
-828.13521291904385
 20
-0.0000000000000414
 30
0.0
 11
-828.13521291904385
 21
-12.000000000000041
 31
0.0
  0
TEXT
  8
SIZE
  6
CONTINUOUS
 62
    30
 10
-853.13521291904362
 20
30.060571428573439
 30
0.0
 40
64.0
  1
77
 50
90.0
 41
0.9
 51
0.0
  7
STANDARD
 71
     0
 72
     1
 11
-853.13521291904362
 21
83.628571428573423
 31
0.0
210
0.0
220
0.0
230
1.0
  0
POINT
  8
DEFPOINTS
  6
CONTINUOUS
 62
    30
 10
-616.4342787409571
 20
-77.000000000003212
 30
0.0
  0
POINT
  8
DEFPOINTS
  6
CONTINUOUS
 62
    30
 10
-570.94999999997822
 20
0.0
 30
0.0
  0
POINT
  8
DEFPOINTS
  6
CONTINUOUS
 62
    30
 10
-828.13521291904385
 20
-0.0000000000000414
 30
0.0
  0
LINE
  8
SIZE
  6
CONTINUOUS
 62
    30
 10
636.43427874095346
 20
-77.000000000003212
 30
0.0
 11
1015.893610259337
 21
-77.000000000003155
 31
0.0
  0
LINE
  8
SIZE
  6
CONTINUOUS
 62
    30
 10
590.94999999999277
 20
0.0000000000000032
 30
0.0
 11
1015.893610259337
 21
0.0000000000000716
 31
0.0
  0
LINE
  8
SIZE
  6
CONTINUOUS
 62
    30
 10
995.89361025933738
 20
-65.000000000003155
 30
0.0
 11
995.89361025933738
 21
-11.99999999999994
 31
0.0
  0
LINE
  8
SIZE
  6
CONTINUOUS
 62
    30
 10
995.89361025933738
 20
0.0000000000000683
 30
0.0
 11
995.89361025933738
 21
155.25714285714301
 31
0.0
  0
CIRCLE
  8
SIZE
  6
CONTINUOUS
 62
    30
 10
995.89361025933738
 20
-77.000000000003155
 30
0.0
 40
6.0
  0
LINE
  8
SIZE
  6
CONTINUOUS
 62
    30
 10
995.89361025933738
 20
-77.000000000003155
 30
0.0
 11
995.89361025933738
 21
-65.000000000003155
 31
0.0
  0
CIRCLE
  8
SIZE
  6
CONTINUOUS
 62
    30
 10
995.89361025933738
 20
0.0000000000000683
 30
0.0
 40
6.0
  0
LINE
  8
SIZE
  6
CONTINUOUS
 62
    30
 10
995.89361025933738
 20
0.0000000000000683
 30
0.0
 11
995.89361025933738
 21
-11.999999999999932
 31
0.0
  0
TEXT
  8
SIZE
  6
CONTINUOUS
 62
    30
 10
970.89361025933715
 20
30.060571428571237
 30
0.0
 40
64.0
  1
77
 50
90.0
 41
0.9
 51
0.0
  7
STANDARD
 71
     0
 72
     1
 11
970.89361025933715
 21
83.62857142857122
 31
0.0
210
0.0
220
0.0
230
1.0
  0
POINT
  8
DEFPOINTS
  6
CONTINUOUS
 62
    30
 10
616.43427874095346
 20
-77.000000000003212
 30
0.0
  0
POINT
  8
DEFPOINTS
  6
CONTINUOUS
 62
    30
 10
570.94999999999277
 20
0.0
 30
0.0
  0
POINT
  8
DEFPOINTS
  6
CONTINUOUS
 62
    30
 10
995.89361025933738
 20
0.0000000000000683
 30
0.0
  0
LINE
  8
DETAIL
  6
CONTINUOUS
 62
     5
 10
650.99999999997544
 20
-363.09999999999849
 30
0.0
 11
650.99999999997453
 21
-121.0999999999983
 31
0.0
  0
LINE
  8
DETAIL
  6
CONTINUOUS
 62
     5
 10
642.99999999997544
 20
-363.09999999999849
 30
0.0
 11
642.99999999997544
 21
-121.0999999999983
 31
0.0
  0
LINE
  8
DETAIL
  6
CONTINUOUS
 62
     5
 10
573.69999999998981
 20
-371.10000000047057
 30
0.0
 11
573.69999999998981
 21
-127.0000000000032
 31
0.0
  0
LINE
  8
DETAIL
  6
CONTINUOUS
 62
     5
 10
573.69999999998981
 20
-371.10000000047057
 30
0.0
 11
642.99999999997544
 21
-363.09999999999849
 31
0.0
  0
LINE
  8
DETAIL
  6
CONTINUOUS
 62
     5
 10
642.99999999997544
 20
-363.09999999999849
 30
0.0
 11
650.99999999997544
 21
-363.09999999999849
 31
0.0
  0
LINE
  8
DETAIL
  6
CONTINUOUS
 62
     5
 10
642.99999999997544
 20
-121.0999999999983
 30
0.0
 11
650.99999999997544
 21
-121.0999999999983
 31
0.0
  0
LINE
  8
DETAIL
  6
CONTINUOUS
 62
     5
 10
584.70000000000709
 20
-114.3698412698418
 30
0.0
 11
642.99999999997544
 21
-121.0999999999983
 31
0.0
  0
LINE
  8
DETAIL
  6
CONTINUOUS
 62
     5
 10
566.50000000002456
 20
-371.10000000000667
 30
0.0
 11
573.69999999998981
 21
-371.10000000000667
 31
0.0
  0
LINE
  8
SIZE
  6
CONTINUOUS
 62
    30
 10
670.99999999997567
 20
-121.0999999999984
 30
0.0
 11
1015.893610259337
 21
-121.0999999999983
 31
0.0
  0
LINE
  8
SIZE
  6
CONTINUOUS
 62
    30
 10
670.99999999997567
 20
-363.09999999999872
 30
0.0
 11
1015.893610259337
 21
-363.0999999999986
 31
0.0
  0
LINE
  8
SIZE
  6
CONTINUOUS
 62
    30
 10
995.89361025933738
 20
-109.0999999999983
 30
0.0
 11
995.89361025933738
 21
-97.099999999998303
 31
0.0
  0
LINE
  8
SIZE
  6
CONTINUOUS
 62
    30
 10
995.89361025933749
 20
-375.0999999999986
 30
0.0
 11
995.89361025933749
 21
-387.09999999999872
 31
0.0
  0
LINE
  8
SIZE
  6
CONTINUOUS
 62
    30
 10
995.89361025933738
 20
-121.0999999999983
 30
0.0
 11
995.89361025933749
 21
-363.0999999999986
 31
0.0
  0
CIRCLE
  8
SIZE
  6
CONTINUOUS
 62
    30
 10
995.89361025933738
 20
-121.0999999999983
 30
0.0
 40
6.0
  0
LINE
  8
SIZE
  6
CONTINUOUS
 62
    30
 10
995.89361025933738
 20
-121.0999999999983
 30
0.0
 11
995.89361025933738
 21
-109.0999999999983
 31
0.0
  0
CIRCLE
  8
SIZE
  6
CONTINUOUS
 62
    30
 10
995.89361025933749
 20
-363.0999999999986
 30
0.0
 40
6.0
  0
LINE
  8
SIZE
  6
CONTINUOUS
 62
    30
 10
995.89361025933749
 20
-363.0999999999986
 30
0.0
 11
995.89361025933749
 21
-375.0999999999986
 31
0.0
  0
TEXT
  8
SIZE
  6
CONTINUOUS
 62
    30
 10
970.89361025933715
 20
-357.5879999999986
 30
0.0
 40
64.0
  1
φ242
 50
90.0
 41
0.9
 51
0.0
  7
STANDARD
 71
     0
 72
     1
 11
970.89361025933715
 21
-242.09999999999857
 31
0.0
210
0.0
220
0.0
230
1.0
  0
POINT
  8
DEFPOINTS
  6
CONTINUOUS
 62
    30
 10
650.99999999997567
 20
-121.0999999999984
 30
0.0
  0
POINT
  8
DEFPOINTS
  6
CONTINUOUS
 62
    30
 10
650.99999999997567
 20
-363.09999999999872
 30
0.0
  0
POINT
  8
DEFPOINTS
  6
CONTINUOUS
 62
    30
 10
995.89361025933749
 20
-363.0999999999986
 30
0.0
  0
LINE
  8
SIZE
  6
CONTINUOUS
 62
    30
 10
593.69999999999004
 20
-371.10000000047069
 30
0.0
 11
1153.408375078232
 21
-371.10000000047057
 31
0.0
  0
LINE
  8
SIZE
  6
CONTINUOUS
 62
    30
 10
593.69999999999004
 20
-113.1000000004706
 30
0.0
 11
1153.408375078232
 21
-113.1000000004705
 31
0.0
  0
LINE
  8
SIZE
  6
CONTINUOUS
 62
    30
 10
1133.408375078232
 20
-359.10000000047057
 30
0.0
 11
1133.408375078232
 21
-125.1000000004705
 31
0.0
  0
CIRCLE
  8
SIZE
  6
CONTINUOUS
 62
    30
 10
1133.408375078232
 20
-371.10000000047057
 30
0.0
 40
6.0
  0
LINE
  8
SIZE
  6
CONTINUOUS
 62
    30
 10
1133.408375078232
 20
-371.10000000047057
 30
0.0
 11
1133.408375078232
 21
-359.10000000047057
 31
0.0
  0
CIRCLE
  8
SIZE
  6
CONTINUOUS
 62
    30
 10
1133.408375078232
 20
-113.1000000004705
 30
0.0
 40
6.0
  0
LINE
  8
SIZE
  6
CONTINUOUS
 62
    30
 10
1133.408375078232
 20
-113.1000000004705
 30
0.0
 11
1133.408375078232
 21
-125.1000000004705
 31
0.0
  0
TEXT
  8
SIZE
  6
CONTINUOUS
 62
    30
 10
1108.408375078232
 20
-357.01200000047083
 30
0.0
 40
64.0
  1
φ258
 50
90.0
 41
0.9
 51
0.0
  7
STANDARD
 71
     0
 72
     1
 11
1108.408375078232
 21
-242.1000000004708
 31
0.0
210
0.0
220
0.0
230
1.0
  0
POINT
  8
DEFPOINTS
  6
CONTINUOUS
 62
    30
 10
573.69999999999004
 20
-371.10000000047069
 30
0.0
  0
POINT
  8
DEFPOINTS
  6
CONTINUOUS
 62
    30
 10
573.69999999999004
 20
-113.1000000004706
 30
0.0
  0
POINT
  8
DEFPOINTS
  6
CONTINUOUS
 62
    30
 10
1133.408375078232
 20
-113.1000000004705
 30
0.0
  0
LINE
  8
DETAIL
  6
CONTINUOUS
 62
     5
 10
-650.99999999999
 20
-363.09999999999849
 30
0.0
 11
-650.99999999998909
 21
-121.0999999999983
 31
0.0
  0
LINE
  8
DETAIL
  6
CONTINUOUS
 62
     5
 10
-642.99999999999
 20
-363.09999999999849
 30
0.0
 11
-642.99999999999
 21
-121.0999999999983
 31
0.0
  0
LINE
  8
DETAIL
  6
CONTINUOUS
 62
     5
 10
-573.70000000000437
 20
-371.10000000047057
 30
0.0
 11
-573.70000000000437
 21
-127.0000000000032
 31
0.0
  0
LINE
  8
DETAIL
  6
CONTINUOUS
 62
     5
 10
-573.70000000000437
 20
-371.10000000047057
 30
0.0
 11
-642.99999999999
 21
-363.09999999999849
 31
0.0
  0
LINE
  8
DETAIL
  6
CONTINUOUS
 62
     5
 10
-642.99999999999
 20
-363.09999999999849
 30
0.0
 11
-650.99999999999
 21
-363.09999999999849
 31
0.0
  0
LINE
  8
DETAIL
  6
CONTINUOUS
 62
     5
 10
-642.99999999999
 20
-121.0999999999983
 30
0.0
 11
-650.99999999999
 21
-121.0999999999983
 31
0.0
  0
LINE
  8
DETAIL
  6
CONTINUOUS
 62
     5
 10
-584.20000000000709
 20
-114.3121212121205
 30
0.0
 11
-642.99999999999
 21
-121.0999999999983
 31
0.0
  0
LINE
  8
DETAIL
  6
CONTINUOUS
 62
     5
 10
-566.50000000003911
 20
-371.10000000000667
 30
0.0
 11
-573.70000000000437
 21
-371.10000000000667
 31
0.0
  0
LINE
  8
SIZE
  6
CONTINUOUS
 62
    30
 10
-571.99999999997817
 20
-422.95000001030172
 30
0.0
 11
-571.99999999997817
 21
-584.16488068077251
 31
0.0
  0
LINE
  8
SIZE
  6
CONTINUOUS
 62
    30
 10
-406.99999999998948
 20
-415.32535704140952
 30
0.0
 11
-406.99999999998948
 21
-584.16488068077251
 31
0.0
  0
LINE
  8
SIZE
  6
CONTINUOUS
 62
    30
 10
-418.99999999998948
 20
-564.16488068077251
 30
0.0
 11
-559.99999999997817
 21
-564.16488068077251
 31
0.0
  0
LINE
  8
SIZE
  6
CONTINUOUS
 62
    30
 10
-571.99999999997817
 20
-564.16488068077251
 30
0.0
 11
-771.14285714283528
 21
-564.16488068077251
 31
0.0
  0
CIRCLE
  8
SIZE
  6
CONTINUOUS
 62
    30
 10
-406.99999999998948
 20
-564.16488068077251
 30
0.0
 40
6.0
  0
LINE
  8
SIZE
  6
CONTINUOUS
 62
    30
 10
-406.99999999998948
 20
-564.16488068077251
 30
0.0
 11
-418.99999999998948
 21
-564.16488068077251
 31
0.0
  0
CIRCLE
  8
SIZE
  6
CONTINUOUS
 62
    30
 10
-571.99999999997817
 20
-564.16488068077251
 30
0.0
 40
6.0
  0
LINE
  8
SIZE
  6
CONTINUOUS
 62
    30
 10
-571.99999999997817
 20
-564.16488068077251
 30
0.0
 11
-559.99999999997817
 21
-564.16488068077251
 31
0.0
  0
TEXT
  8
SIZE
  6
CONTINUOUS
 62
    30
 10
-752.16342857140671
 20
-539.16488068077251
 30
0.0
 40
64.0
  1
165
 50
0.0
 41
0.9
 51
0.0
  7
STANDARD
 71
     0
 72
     1
 11
-677.57142857140673
 21
-539.16488068077251
 31
0.0
210
0.0
220
0.0
230
1.0
  0
POINT
  8
DEFPOINTS
  6
CONTINUOUS
 62
    30
 10
-571.99999999997817
 20
-402.95000001030172
 30
0.0
  0
POINT
  8
DEFPOINTS
  6
CONTINUOUS
 62
    30
 10
-406.99999999998948
 20
-395.32535704140952
 30
0.0
  0
POINT
  8
DEFPOINTS
  6
CONTINUOUS
 62
    30
 10
-406.99999999998948
 20
-564.16488068077251
 30
0.0
  0
POINT
  8
ARRANGE
  6
CONTINUOUS
 62
     1
 10
0.0
 20
0.0
 30
0.0
  0
CIRCLE
  8
ARRANGE
  6
CONTINUOUS
 62
     1
 10
0.0
 20
0.0
 30
0.0
 40
40.0
  0
LINE
  8
BASIS
  6
DASHDOT
 62
     6
 10
-514.56572125901766
 20
-77.000000000003183
 30
0.0
 11
-616.43427874095687
 21
-77.000000000003183
 31
0.0
  0
LINE
  8
BASIS
  6
DASHDOT
 62
     6
 10
-565.49999999998727
 20
-26.06572125902267
 30
0.0
 11
-565.49999999998727
 21
-127.93427874097461
 31
0.0
  0
LINE
  8
BASIS
  6
DASHDOT
 62
     6
 10
514.56572125901403
 20
-77.000000000003183
 30
0.0
 11
616.43427874095323
 21
-77.000000000003183
 31
0.0
  0
LINE
  8
BASIS
  6
DASHDOT
 62
     6
 10
565.49999999998363
 20
-26.06572125902267
 30
0.0
 11
565.49999999998363
 21
-127.93427874097461
 31
0.0
  0
LINE
  8
SIZE
  6
CONTINUOUS
 62
    30
 10
-565.49999999998727
 20
-5.8657212590226209
 30
0.0
 11
-565.49999999998727
 21
170.4945070246392
 31
0.0
  0
LINE
  8
SIZE
  6
CONTINUOUS
 62
    30
 10
565.49999999998363
 20
-5.8657212590226209
 30
0.0
 11
565.49999999998363
 21
170.4945070246392
 31
0.0
  0
LINE
  8
SIZE
  6
CONTINUOUS
 62
    30
 10
-553.49999999998727
 20
150.4945070246392
 30
0.0
 11
553.49999999998363
 21
150.4945070246392
 31
0.0
  0
CIRCLE
  8
SIZE
  6
CONTINUOUS
 62
    30
 10
-565.49999999998727
 20
150.4945070246392
 30
0.0
 40
6.0
  0
LINE
  8
SIZE
  6
CONTINUOUS
 62
    30
 10
-565.49999999998727
 20
150.4945070246392
 30
0.0
 11
-553.49999999998727
 21
150.4945070246392
 31
0.0
  0
CIRCLE
  8
SIZE
  6
CONTINUOUS
 62
    30
 10
565.49999999998363
 20
150.4945070246392
 30
0.0
 40
6.0
  0
LINE
  8
SIZE
  6
CONTINUOUS
 62
    30
 10
565.49999999998363
 20
150.4945070246392
 30
0.0
 11
553.49999999998363
 21
150.4945070246392
 31
0.0
  0
TEXT
  8
SIZE
  6
CONTINUOUS
 62
    30
 10
-89.856000000001828
 20
175.4945070246392
 30
0.0
 40
64.0
  1
1131
 50
0.0
 41
0.9
 51
0.0
  7
STANDARD
 71
     0
 72
     1
 11
-0.000000000001819
 21
175.4945070246392
 31
0.0
210
0.0
220
0.0
230
1.0
  0
POINT
  8
DEFPOINTS
  6
CONTINUOUS
 62
    30
 10
-565.49999999998727
 20
-25.865721259022621
 30
0.0
  0
POINT
  8
DEFPOINTS
  6
CONTINUOUS
 62
    30
 10
565.49999999998363
 20
-25.865721259022621
 30
0.0
  0
POINT
  8
DEFPOINTS
  6
CONTINUOUS
 62
    30
 10
565.49999999998363
 20
150.4945070246392
 30
0.0
  0
CIRCLE
  8
FIX
  6
CONTINUOUS
 62
    11
 10
565.49999999998363
 20
-76.999999999998636
 30
0.0
 40
6.5
  0
CIRCLE
  8
FIX
  6
CONTINUOUS
 62
    11
 10
-565.49999999998727
 20
-76.999999999998636
 30
0.0
 40
6.5
  0
LINE
  8
OUTLINE
  6
CONTINUOUS
 62
     3
 10
-566.49999999999545
 20
-378.2700023440093
 30
0.0
 11
-566.50000000003911
 21
-371.10000000000667
 31
0.0
  0
LINE
  8
OUTLINE
  6
CONTINUOUS
 62
     3
 10
-566.50000000003911
 20
-371.10000000000667
 30
0.0
 11
-573.70000000000437
 21
-371.10000000000667
 31
0.0
  0
LINE
  8
OUTLINE
  6
CONTINUOUS
 62
     3
 10
-573.70000000000437
 20
-371.10000000000667
 30
0.0
 11
-642.99999999999
 21
-363.09999999999849
 31
0.0
  0
LINE
  8
OUTLINE
  6
CONTINUOUS
 62
     3
 10
-642.99999999999
 20
-363.09999999999849
 30
0.0
 11
-650.99999999999
 21
-363.09999999999849
 31
0.0
  0
LINE
  8
OUTLINE
  6
CONTINUOUS
 62
     3
 10
-650.99999999999
 20
-363.09999999999849
 30
0.0
 11
-650.99999999999
 21
-121.0999999999983
 31
0.0
  0
LINE
  8
OUTLINE
  6
CONTINUOUS
 62
     3
 10
-650.99999999999
 20
-121.0999999999983
 30
0.0
 11
-642.99999999999
 21
-121.0999999999983
 31
0.0
  0
LINE
  8
OUTLINE
  6
CONTINUOUS
 62
     3
 10
-642.99999999999
 20
-121.0999999999983
 30
0.0
 11
-584.20000000000709
 21
-114.3121212121205
 31
0.0
  0
LINE
  8
OUTLINE
  6
CONTINUOUS
 62
     3
 10
-584.20000000000709
 20
-114.3121212121205
 30
0.0
 11
-584.20000000000709
 21
-77.000000000003183
 31
0.0
  0
LINE
  8
OUTLINE
  6
CONTINUOUS
 62
     3
 10
-584.20000000000709
 20
-77.000000000003183
 30
0.0
 11
-566.19999999999254
 21
-77.000000000003183
 31
0.0
  0
LINE
  8
OUTLINE
  6
CONTINUOUS
 62
     3
 10
-566.19999999999254
 20
-77.000000000003183
 30
0.0
 11
-566.19999999999254
 21
-2.8000000000029099
 31
0.0
  0
LINE
  8
OUTLINE
  6
CONTINUOUS
 62
     3
 10
-566.19999999999254
 20
-2.8000000000029099
 30
0.0
 11
-565.70000000000709
 21
-2.8000000000029099
 31
0.0
  0
LINE
  8
OUTLINE
  6
CONTINUOUS
 62
     3
 10
-565.70000000000709
 20
-2.8000000000029099
 30
0.0
 11
-565.70000000000709
 21
-1.8000000000029099
 31
0.0
  0
ARC
  8
OUTLINE
  6
CONTINUOUS
 62
     3
 10
-566.19999999998208
 20
-1.7999999999778644
 30
0.0
 40
0.4999999999749545
 50
0.0
 51
90.0
  0
LINE
  8
OUTLINE
  6
CONTINUOUS
 62
     3
 10
-566.19999999999254
 20
-1.3000000000029099
 30
0.0
 11
-567.70000000001437
 21
-1.300000000014734
 31
0.0
  0
LINE
  8
OUTLINE
  6
CONTINUOUS
 62
     3
 10
-567.70000000001437
 20
-1.300000000014734
 30
0.0
 11
-567.70000000000709
 21
-2.1000000000058212
 31
0.0
  0
LINE
  8
OUTLINE
  6
CONTINUOUS
 62
     3
 10
-567.70000000000709
 20
-2.1000000000058212
 30
0.0
 11
-570.92500000001291
 21
-2.1000000000058212
 31
0.0
  0
ARC
  8
OUTLINE
  6
CONTINUOUS
 62
     3
 10
-570.94985294114576
 20
-1.0501470588259221
 30
0.0
 40
1.0501470691227188
 50
90.008023495662655
 51
271.35609728877341
  0
LINE
  8
OUTLINE
  6
CONTINUOUS
 62
     3
 10
-570.94999999997799
 20
0.0
 30
0.0
 11
-565.87127970599522
 21
0.0
 31
0.0
  0
ARC
  8
OUTLINE
  6
CONTINUOUS
 62
     3
 10
-565.87127970597646
 20
-1.5999999999798564
 30
0.0
 40
1.5999999999798564
 50
9.9999999997522764
 51
90.0
  0
LINE
  8
OUTLINE
  6
CONTINUOUS
 62
     3
 10
-564.2955873011756
 20
-1.3221629157230841
 30
0.0
 11
-564.20000000000709
 21
-1.864265431277317
 31
0.0
  0
LINE
  8
OUTLINE
  6
CONTINUOUS
 62
     3
 10
-564.20000000000709
 20
-1.864265431277317
 30
0.0
 11
-564.20000000000709
 21
-0.8000000000020009
 31
0.0
  0
LINE
  8
OUTLINE
  6
CONTINUOUS
 62
     3
 10
-564.20000000000709
 20
-0.8000000000020009
 30
0.0
 11
-562.84708539201074
 21
-0.8000000000020009
 31
0.0
  0
LINE
  8
OUTLINE
  6
CONTINUOUS
 62
     3
 10
-562.84708539201074
 20
-0.8000000000020009
 30
0.0
 11
-562.84708539201074
 21
0.0
 31
0.0
  0
LINE
  8
OUTLINE
  6
CONTINUOUS
 62
     3
 10
-562.84708539201074
 20
0.0
 30
0.0
 11
562.84708539201074
 21
0.0
 31
0.0
  0
LINE
  8
OUTLINE
  6
CONTINUOUS
 62
     3
 10
562.84708539201074
 20
0.0
 30
0.0
 11
562.84708539201074
 21
-0.8000000000020009
 31
0.0
  0
LINE
  8
OUTLINE
  6
CONTINUOUS
 62
     3
 10
562.84708539201074
 20
-0.8000000000020009
 30
0.0
 11
564.19999999999254
 21
-0.8000000000020009
 31
0.0
  0
LINE
  8
OUTLINE
  6
CONTINUOUS
 62
     3
 10
564.19999999999254
 20
-0.8000000000020009
 30
0.0
 11
564.19999999999254
 21
-1.8642654312616289
 31
0.0
  0
LINE
  8
OUTLINE
  6
CONTINUOUS
 62
     3
 10
564.19999999999254
 20
-1.8642654312616289
 30
0.0
 11
564.29558729999826
 21
-1.322162915996159
 31
0.0
  0
ARC
  8
OUTLINE
  6
CONTINUOUS
 62
     3
 10
565.87127970329516
 20
-1.5999999981300883
 30
0.0
 40
1.5999999981300885
 50
90.0
 51
170.00000006575942
  0
LINE
  8
OUTLINE
  6
CONTINUOUS
 62
     3
 10
565.87127970398706
 20
0.0
 30
0.0
 11
570.94999999999254
 21
0.0
 31
0.0
  0
ARC
  8
OUTLINE
  6
CONTINUOUS
 62
     3
 10
570.94999999999254
 20
-1.0500000000029106
 30
0.0
 40
1.0500000000029106
 50
270.0
 51
90.0
  0
LINE
  8
OUTLINE
  6
CONTINUOUS
 62
     3
 10
570.94999999999254
 20
-2.1000000000058212
 30
0.0
 11
567.69999999999254
 21
-2.1000000000058212
 31
0.0
  0
LINE
  8
OUTLINE
  6
CONTINUOUS
 62
     3
 10
567.69999999999254
 20
-2.1000000000058212
 30
0.0
 11
567.69999999999254
 21
-1.3000000000060941
 31
0.0
  0
LINE
  8
OUTLINE
  6
CONTINUOUS
 62
     3
 10
567.69999999999254
 20
-1.3000000000060941
 30
0.0
 11
566.20000000000709
 21
-1.3000000000029099
 31
0.0
  0
ARC
  8
OUTLINE
  6
CONTINUOUS
 62
     3
 10
566.20000000000709
 20
-1.8000000000033443
 30
0.0
 40
0.5000000000004342
 50
90.0
 51
185.73917047655243
  0
LINE
  8
OUTLINE
  6
CONTINUOUS
 62
     3
 10
565.70250628145277
 20
-1.849999999997181
 30
0.0
 11
565.70312770705823
 21
-2.8000000000029099
 31
0.0
  0
LINE
  8
OUTLINE
  6
CONTINUOUS
 62
     3
 10
565.70312770705823
 20
-2.8000000000029099
 30
0.0
 11
566.20000000000709
 21
-2.8000000000029099
 31
0.0
  0
LINE
  8
OUTLINE
  6
CONTINUOUS
 62
     3
 10
566.20000000000709
 20
-2.8000000000029099
 30
0.0
 11
566.20000000000709
 21
-77.000000000003183
 31
0.0
  0
LINE
  8
OUTLINE
  6
CONTINUOUS
 62
     3
 10
566.20000000000709
 20
-77.000000000003183
 30
0.0
 11
584.70000000000709
 21
-77.000000000003183
 31
0.0
  0
LINE
  8
OUTLINE
  6
CONTINUOUS
 62
     3
 10
584.70000000000709
 20
-77.000000000003183
 30
0.0
 11
584.70000000000709
 21
-114.3698412698418
 31
0.0
  0
LINE
  8
OUTLINE
  6
CONTINUOUS
 62
     3
 10
584.70000000000709
 20
-114.3698412698418
 30
0.0
 11
642.99999999997544
 21
-121.0999999999983
 31
0.0
  0
LINE
  8
OUTLINE
  6
CONTINUOUS
 62
     3
 10
642.99999999997544
 20
-121.0999999999983
 30
0.0
 11
650.99999999997544
 21
-121.0999999999983
 31
0.0
  0
LINE
  8
OUTLINE
  6
CONTINUOUS
 62
     3
 10
650.99999999997544
 20
-121.0999999999983
 30
0.0
 11
650.99999999997544
 21
-363.09999999999849
 31
0.0
  0
LINE
  8
OUTLINE
  6
CONTINUOUS
 62
     3
 10
650.99999999997544
 20
-363.09999999999849
 30
0.0
 11
642.99999999997544
 21
-363.09999999999849
 31
0.0
  0
LINE
  8
OUTLINE
  6
CONTINUOUS
 62
     3
 10
642.99999999997544
 20
-363.09999999999849
 30
0.0
 11
573.69999999998981
 21
-371.10000000000667
 31
0.0
  0
LINE
  8
OUTLINE
  6
CONTINUOUS
 62
     3
 10
573.69999999998981
 20
-371.10000000000667
 30
0.0
 11
566.50000000002456
 21
-371.10000000000667
 31
0.0
  0
LINE
  8
OUTLINE
  6
CONTINUOUS
 62
     3
 10
566.50000000002456
 20
-371.10000000000667
 30
0.0
 11
566.50000000002456
 21
-384.59909544400813
 31
0.0
  0
LINE
  8
OUTLINE
  6
CONTINUOUS
 62
     3
 10
566.50000000002456
 20
-384.59909544400813
 30
0.0
 11
566.20000000000709
 21
-384.60020000000401
 31
0.0
  0
LINE
  8
OUTLINE
  6
CONTINUOUS
 62
     3
 10
566.20000000000709
 20
-384.60020000000401
 30
0.0
 11
566.20000000000709
 21
-401.20000000000482
 31
0.0
  0
LINE
  8
OUTLINE
  6
CONTINUOUS
 62
     3
 10
566.20000000000709
 20
-401.20000000000482
 30
0.0
 11
565.70000000002165
 21
-401.20000000000482
 31
0.0
  0
LINE
  8
OUTLINE
  6
CONTINUOUS
 62
     3
 10
565.70000000002165
 20
-401.20000000000482
 30
0.0
 11
565.70000000000709
 21
-402.200000000003
 31
0.0
  0
ARC
  8
OUTLINE
  6
CONTINUOUS
 62
     3
 10
566.200000000008
 20
-402.20000000000294
 30
0.0
 40
0.5000000000009606
 50
180.0
 51
270.0
  0
LINE
  8
OUTLINE
  6
CONTINUOUS
 62
     3
 10
566.20000000000709
 20
-402.70000000000391
 30
0.0
 11
567.69999999999254
 21
-402.70000000003392
 31
0.0
  0
LINE
  8
OUTLINE
  6
CONTINUOUS
 62
     3
 10
567.69999999999254
 20
-402.70000000003392
 30
0.0
 11
567.69999999999254
 21
-401.90000000001561
 31
0.0
  0
LINE
  8
OUTLINE
  6
CONTINUOUS
 62
     3
 10
567.69999999999254
 20
-401.90000000001561
 30
0.0
 11
570.94999999999254
 21
-401.90000000001561
 31
0.0
  0
ARC
  8
OUTLINE
  6
CONTINUOUS
 62
     3
 10
570.94999999999254
 20
-402.95000000000351
 30
0.0
 40
1.0499999999879037
 50
270.0
 51
90.0
  0
LINE
  8
OUTLINE
  6
CONTINUOUS
 62
     3
 10
570.94999999999254
 20
-403.99999999999142
 30
0.0
 11
565.87127970398706
 21
-404.00000000000091
 31
0.0
  0
ARC
  8
OUTLINE
  6
CONTINUOUS
 62
     3
 10
565.8712797033138
 20
-402.40000000185046
 30
0.0
 40
1.5999999981504784
 50
189.9999999345381
 51
270.0
  0
LINE
  8
OUTLINE
  6
CONTINUOUS
 62
     3
 10
564.29558729999826
 20
-402.67783708399611
 30
0.0
 11
564.19999999999254
 21
-402.13573456875611
 31
0.0
  0
LINE
  8
OUTLINE
  6
CONTINUOUS
 62
     3
 10
564.19999999999254
 20
-402.13573456875611
 30
0.0
 11
564.19999999999254
 21
-403.20000000000391
 31
0.0
  0
LINE
  8
OUTLINE
  6
CONTINUOUS
 62
     3
 10
564.19999999999254
 20
-403.20000000000391
 30
0.0
 11
562.80000000001291
 21
-403.20000000000391
 31
0.0
  0
LINE
  8
OUTLINE
  6
CONTINUOUS
 62
     3
 10
562.80000000001291
 20
-403.20000000000391
 30
0.0
 11
562.80000000001291
 21
-403.99999999999142
 31
0.0
  0
LINE
  8
OUTLINE
  6
CONTINUOUS
 62
     3
 10
562.80000000001291
 20
-403.99999999999142
 30
0.0
 11
-562.79999999999836
 21
-403.99999999999142
 31
0.0
  0
LINE
  8
OUTLINE
  6
CONTINUOUS
 62
     3
 10
-562.79999999999836
 20
-403.99999999999142
 30
0.0
 11
-562.79999999999836
 21
-403.20000000000391
 31
0.0
  0
LINE
  8
OUTLINE
  6
CONTINUOUS
 62
     3
 10
-562.79999999999836
 20
-403.20000000000391
 30
0.0
 11
-564.20000000000709
 21
-403.20000000000391
 31
0.0
  0
LINE
  8
OUTLINE
  6
CONTINUOUS
 62
     3
 10
-564.20000000000709
 20
-403.20000000000391
 30
0.0
 11
-564.20000000000709
 21
-402.13573456874292
 31
0.0
  0
LINE
  8
OUTLINE
  6
CONTINUOUS
 62
     3
 10
-564.20000000000709
 20
-402.13573456874292
 30
0.0
 11
-564.29558729999826
 21
-402.67783708399611
 31
0.0
  0
ARC
  8
OUTLINE
  6
CONTINUOUS
 62
     3
 10
-565.87127970684162
 20
-402.39999999763461
 30
0.0
 40
1.6000000023568033
 50
270.0
 51
349.99999993872359
  0
LINE
  8
OUTLINE
  6
CONTINUOUS
 62
     3
 10
-565.87127970599522
 20
-403.99999999999142
 30
0.0
 11
-570.94999999997799
 21
-403.99999999999142
 31
0.0
  0
ARC
  8
OUTLINE
  6
CONTINUOUS
 62
     3
 10
-570.94985294117464
 20
-402.94985294119078
 30
0.0
 40
1.0501470690973964
 50
88.643902709617919
 51
269.9919765059127
  0
LINE
  8
OUTLINE
  6
CONTINUOUS
 62
     3
 10
-570.92500000001291
 20
-401.90000000003693
 30
0.0
 11
-567.70000000000709
 21
-401.90000000001561
 31
0.0
  0
LINE
  8
OUTLINE
  6
CONTINUOUS
 62
     3
 10
-567.70000000000709
 20
-401.90000000001561
 30
0.0
 11
-567.70000000001073
 21
-402.70000000003262
 31
0.0
  0
LINE
  8
OUTLINE
  6
CONTINUOUS
 62
     3
 10
-567.70000000001073
 20
-402.70000000003262
 30
0.0
 11
-566.20000000001073
 21
-402.70000000003301
 31
0.0
  0
ARC
  8
OUTLINE
  6
CONTINUOUS
 62
     3
 10
-566.2000000000105
 20
-402.20000000003324
 30
0.0
 40
0.4999999999997962
 50
270.0
 51
0.0
  0
LINE
  8
OUTLINE
  6
CONTINUOUS
 62
     3
 10
-565.70000000001073
 20
-402.20000000003301
 30
0.0
 11
-565.70000000001073
 21
-401.20000000000482
 31
0.0
  0
LINE
  8
OUTLINE
  6
CONTINUOUS
 62
     3
 10
-565.70000000001073
 20
-401.20000000000482
 30
0.0
 11
-566.19999999999254
 21
-401.20000000000482
 31
0.0
  0
LINE
  8
OUTLINE
  6
CONTINUOUS
 62
     3
 10
-566.19999999999254
 20
-401.20000000000482
 30
0.0
 11
-566.19999999999254
 21
-378.2700023440093
 31
0.0
  0
LINE
  8
OUTLINE
  6
CONTINUOUS
 62
     3
 10
-566.19999999999254
 20
-378.2700023440093
 30
0.0
 11
-566.49999999999545
 21
-378.2700023440093
 31
0.0
  0
TEXT
  8
NOTE
  6
CONTINUOUS
 62
     4
 10
679.55377587993462
 20
-277.1188895906173
 30
0.0
 40
64.065641025638456
  1
SA
 41
0.9
  0
TEXT
  8
NOTE
  6
CONTINUOUS
 62
     4
 10
-779.58281286422425
 20
-277.11888959061707
 30
0.0
 40
64.065641025638456
  1
OA
 41
0.9
  0
TEXT
  8
ETC
  6
CONTINUOUS
 62
    61
 10
1061.125437278944
 20
769.9969480760501
 30
0.0
 40
64.065641025638456
  1
LGH-80RVX3-E_5
 41
0.9
  0
TEXT
  8
ETC
  6
CONTINUOUS
 62
    61
 10
1056.935149951765
 20
651.92065825607961
 30
0.0
 40
64.065641025638456
  1
LOSSNAY
 41
0.9
  0
TEXT
  8
ETC
  6
CONTINUOUS
 62
    61
 10
1107.688549634418
 20
543.66096355151342
 30
0.0
 40
40.041025641024042
  1
LGH-80RVX3-E
 50
0.0
 41
0.9
 51
0.0
  7
STANDARD
 71
     0
 11
0.0
 21
0.0
 31
0.0
210
0.0
220
0.0
230
1.0
  0
TEXT
  8
NOTE
  6
CONTINUOUS
 62
     4
 10
634.22713674941042
 20
-489.83197724464941
 30
0.0
 40
69.0
  1
Power supply
 50
0.0
 41
0.9
 51
0.0
  7
STANDARD
 71
     0
 11
0.0
 21
0.0
 31
0.0
210
0.0
220
0.0
230
1.0
  0
TEXT
  8
NOTE
  6
CONTINUOUS
 62
     4
 10
634.22713674941042
 20
-603.68197724464937
 30
0.0
 40
69.0
  1
cable opening
 50
0.0
 41
0.9
 51
0.0
  7
STANDARD
 71
     0
 11
0.0
 21
0.0
 31
0.0
210
0.0
220
0.0
230
1.0
  0
LINE
  8
NOTE
  6
CONTINUOUS
 62
     4
 10
624.22713674941042
 20
-627.83197724464935
 30
0.0
 11
1275.92713674941
 21
-627.83197724464935
 31
0.0
  0
LINE
  8
NOTE
  6
CONTINUOUS
 62
     4
 10
471.91876158527515
 20
-351.57504131576184
 30
0.0
 11
465.29999998951831
 21
-315.95000001050812
 31
0.0
  0
LINE
  8
NOTE
  6
CONTINUOUS
 62
     4
 10
465.29999998951831
 20
-315.95000001050812
 30
0.0
 11
488.84457783110167
 21
-343.49277451352651
 31
0.0
  0
LINE
  8
NOTE
  6
CONTINUOUS
 62
     4
 10
465.29999998951831
 20
-315.95000001050812
 30
0.0
 11
495.46333942685857
 21
-379.11781581878023
 31
0.0
  0
LINE
  8
NOTE
  6
CONTINUOUS
 62
     4
 10
495.46333942685851
 20
-379.11781581878029
 30
0.0
 11
614.22713674941042
 21
-627.83197724464935
 31
0.0
  0
LINE
  8
NOTE
  6
CONTINUOUS
 62
     4
 10
614.22713674941042
 20
-627.83197724464935
 30
0.0
 11
624.22713674941042
 21
-627.83197724464935
 31
0.0
  0
TEXT
  8
NOTE
  6
CONTINUOUS
 62
     4
 10
707.00887760710066
 20
372.50920116855877
 30
0.0
 40
69.0
  1
Ceiling suspension fixture
 50
0.0
 41
0.9
 51
0.0
  7
STANDARD
 71
     0
 11
0.0
 21
0.0
 31
0.0
210
0.0
220
0.0
230
1.0
  0
TEXT
  8
NOTE
  6
CONTINUOUS
 62
     4
 10
707.00887760710066
 20
258.65920116855875
 30
0.0
 40
69.0
  1
(4-13X20 oval)
 50
0.0
 41
0.9
 51
0.0
  7
STANDARD
 71
     0
 11
0.0
 21
0.0
 31
0.0
210
0.0
220
0.0
230
1.0
  0
LINE
  8
NOTE
  6
CONTINUOUS
 62
     4
 10
697.00887760710066
 20
221.36634402570141
 30
0.0
 11
1913.5231633213859
 21
221.36634402570141
 31
0.0
  0
LINE
  8
NOTE
  6
CONTINUOUS
 62
     4
 10
587.38655481370984
 20
-48.122141927352345
 30
0.0
 11
565.50000461539275
 21
-76.999996651674337
 31
0.0
  0
LINE
  8
NOTE
  6
CONTINUOUS
 62
     4
 10
565.50000461539275
 20
-76.999996651674337
 30
0.0
 11
570.01533154818344
 21
-41.047758950072023
 31
0.0
  0
LINE
  8
NOTE
  6
CONTINUOUS
 62
     4
 10
565.50000461539275
 20
-76.999996651674337
 30
0.0
 11
591.90188174650052
 21
-12.169904225750031
 31
0.0
  0
LINE
  8
NOTE
  6
CONTINUOUS
 62
     4
 10
591.90188174650052
 20
-12.169904225750029
 30
0.0
 11
687.00887760710066
 21
221.36634402570141
 31
0.0
  0
LINE
  8
NOTE
  6
CONTINUOUS
 62
     4
 10
687.00887760710066
 20
221.36634402570141
 30
0.0
 11
697.00887760710066
 21
221.36634402570141
 31
0.0
  0
ENDSEC
  0
EOF
