  0
SECTION
  2
HEADER
  9
$ACADVER
  1
AC1009
  9
$DWGCODEPAGE
  3
dos932
  9
$INSBASE
 10
0.0
 20
0.0
 30
0.0
  9
$EXTMIN
 10
-729.1763141276042
 20
-606.26219551342365
 30
-0.0015258207003583
  9
$EXTMAX
 10
1934.1980106711819
 20
847.86988136808941
 30
0.0000000349246037
  9
$LIMMIN
 10
-2970.0
 20
-2100.0
  9
$LIMMAX
 10
2970.0
 20
2100.0
  9
$ORTHOMODE
 70
     1
  9
$REGENMODE
 70
     1
  9
$FILLMODE
 70
     1
  9
$QTEXTMODE
 70
     0
  9
$MIRRTEXT
 70
     0
  9
$LTSCALE
 40
20.0
  9
$ATTMODE
 70
     1
  9
$TEXTSIZE
 40
64.0
  9
$TRACEWID
 40
0.05
  9
$TEXTSTYLE
  7
STANDARD
  9
$CLAYER
  8
SIZE
  9
$CELTYPE
  6
CONTINUOUS
  9
$CECOLOR
 62
     7
  9
$DIMSCALE
 40
1.0
  9
$DIMASZ
 40
12.0
  9
$DIMEXO
 40
20.0
  9
$DIMDLI
 40
200.0
  9
$DIMRND
 40
0.0
  9
$DIMDLE
 40
0.0
  9
$DIMEXE
 40
20.0
  9
$DIMTP
 40
0.0
  9
$DIMTM
 40
0.0
  9
$DIMTXT
 40
64.0
  9
$DIMCEN
 40
0.09
  9
$DIMTSZ
 40
0.0
  9
$DIMTOL
 70
     0
  9
$DIMLIM
 70
     0
  9
$DIMTIH
 70
     0
  9
$DIMTOH
 70
     0
  9
$DIMSE1
 70
     0
  9
$DIMSE2
 70
     0
  9
$DIMTAD
 70
     1
  9
$DIMZIN
 70
     8
  9
$DIMBLK
  1

  9
$DIMASO
 70
     1
  9
$DIMSHO
 70
     0
  9
$DIMPOST
  1

  9
$DIMAPOST
  1

  9
$DIMALT
 70
     0
  9
$DIMALTD
 70
     2
  9
$DIMALTF
 40
25.399999999999999
  9
$DIMLFAC
 40
1.0
  9
$DIMTOFL
 70
     1
  9
$DIMTVP
 40
0.0
  9
$DIMTIX
 70
     1
  9
$DIMSOXD
 70
     0
  9
$DIMSAH
 70
     0
  9
$DIMBLK1
  1

  9
$DIMBLK2
  1

  9
$DIMSTYLE
  2
STANDARD
  9
$DIMCLRD
 70
     7
  9
$DIMCLRE
 70
     7
  9
$DIMCLRT
 70
     7
  9
$DIMTFAC
 40
1.0
  9
$DIMGAP
 40
25.0
  9
$LUNITS
 70
     2
  9
$LUPREC
 70
     4
  9
$SKETCHINC
 40
0.1
  9
$FILLETRAD
 40
3.0
  9
$AUNITS
 70
     1
  9
$AUPREC
 70
     3
  9
$MENU
  1
ACAD
  9
$ELEVATION
 40
0.0
  9
$PELEVATION
 40
0.0
  9
$THICKNESS
 40
0.0
  9
$LIMCHECK
 70
     0
  9
$CHAMFERA
 40
0.0
  9
$CHAMFERB
 40
0.0
  9
$SKPOLY
 70
     0
  9
$TDCREATE
 40
2453019.62301037
  9
$TDUPDATE
 40
2460045.428880556
  9
$TDINDWG
 40
1.714888669
  9
$TDUSRTIMER
 40
1.714888669
  9
$USRTIMER
 70
     1
  9
$ANGBASE
 50
0.0
  9
$ANGDIR
 70
     0
  9
$PDMODE
 70
     3
  9
$PDSIZE
 40
-2.0
  9
$PLINEWID
 40
0.0
  9
$SPLFRAME
 70
     0
  9
$SPLINETYPE
 70
     6
  9
$SPLINESEGS
 70
     8
  9
$SURFTAB1
 70
     6
  9
$SURFTAB2
 70
     6
  9
$SURFTYPE
 70
     6
  9
$SURFU
 70
     6
  9
$SURFV
 70
     6
  9
$UCSNAME
  2

  9
$UCSORG
 10
0.0
 20
0.0
 30
0.0
  9
$UCSXDIR
 10
1.0
 20
0.0
 30
0.0
  9
$UCSYDIR
 10
0.0
 20
1.0
 30
0.0
  9
$PUCSNAME
  2

  9
$PUCSORG
 10
0.0
 20
0.0
 30
0.0
  9
$PUCSXDIR
 10
1.0
 20
0.0
 30
0.0
  9
$PUCSYDIR
 10
0.0
 20
1.0
 30
0.0
  9
$USERI1
 70
     0
  9
$USERI2
 70
     0
  9
$USERI3
 70
     0
  9
$USERI4
 70
     0
  9
$USERI5
 70
     0
  9
$USERR1
 40
20.0
  9
$USERR2
 40
0.0
  9
$USERR3
 40
0.0
  9
$USERR4
 40
0.0
  9
$USERR5
 40
0.0
  9
$WORLDVIEW
 70
     1
  9
$SHADEDGE
 70
     3
  9
$SHADEDIF
 70
    70
  9
$TILEMODE
 70
     1
  9
$MAXACTVP
 70
    48
  9
$PINSBASE
 10
0.0
 20
0.0
 30
0.0
  9
$PLIMCHECK
 70
     0
  9
$PEXTMIN
 10
-100000000000000000000.0
 20
-100000000000000000000.0
 30
-100000000000000000000.0
  9
$PEXTMAX
 10
100000000000000000000.0
 20
100000000000000000000.0
 30
100000000000000000000.0
  9
$PLIMMIN
 10
0.0
 20
0.0
  9
$PLIMMAX
 10
12.0
 20
9.0
  9
$UNITMODE
 70
     0
  9
$VISRETAIN
 70
     0
  9
$PLINEGEN
 70
     0
  9
$PSLTSCALE
 70
     0
  9
$TREEDEPTH
 70
  3020
  9
$ATTDIA
 70
     0
  9
$ATTREQ
 70
     1
  9
$BLIPMODE
 70
     1
  9
$COORDS
 70
     1
  9
$DRAGMODE
 70
     2
  9
$OSMODE
 70
     0
  9
$HANDLING
 70
     0
  9
$HANDSEED
  5
FBC1
  0
ENDSEC
  0
SECTION
  2
TABLES
  0
TABLE
  2
LTYPE
 70
     2
  0
LTYPE
  2
CONTINUOUS
 70
     0
  3
実線
 72
    65
 73
     0
 40
0.0
  0
LTYPE
  2
DASHDOT
 70
     0
  3
____ _ ____ _ ____ _ ____ _ ____ _ ____ _ ____
 72
    65
 73
     4
 40
5.5
 49
4.0
 49
-0.6
 49
0.3
 49
-0.6
  0
ENDTAB
  0
TABLE
  2
LAYER
 70
    12
  0
LAYER
  2
0
 70
     0
 62
     7
  6
CONTINUOUS
  0
LAYER
  2
BASIS
 70
     0
 62
     6
  6
DASHDOT
  0
LAYER
  2
OUTLINE
 70
     0
 62
     3
  6
CONTINUOUS
  0
LAYER
  2
DETAIL
 70
     0
 62
     5
  6
CONTINUOUS
  0
LAYER
  2
SIZE
 70
     0
 62
    30
  6
CONTINUOUS
  0
LAYER
  2
ARRANGE
 70
     0
 62
     1
  6
CONTINUOUS
  0
LAYER
  2
DEFPOINTS
 70
     0
 62
     7
  6
CONTINUOUS
  0
LAYER
  2
ETC
 70
     0
 62
    61
  6
CONTINUOUS
  0
LAYER
  2
FIX
 70
     0
 62
    11
  6
CONTINUOUS
  0
LAYER
  2
NOTE
 70
     0
 62
     4
  6
CONTINUOUS
  0
LAYER
  2
SERVICESPACE
 70
    64
 62
     2
  6
DASHDOT
  0
LAYER
  2
SYMBOLLINE
 70
    64
 62
    15
  6
CONTINUOUS
  0
ENDTAB
  0
TABLE
  2
STYLE
 70
     1
  0
STYLE
  2
STANDARD
 70
     0
 40
64.0
 41
0.9
 50
0.0
 71
     0
 42
64.0
  3
SIMPLEX.shx
  4
BIGFONT.shx
  0
ENDTAB
  0
TABLE
  2
APPID
 70
    23
  0
APPID
  2
ACAD
 70
     0
  0
APPID
  2
AUTOCAD_POSTSCRIPT_FIGURE
 70
     0
  0
APPID
  2
ACAD_EXEMPT_FROM_CAD_STANDARDS
 70
     0
  0
APPID
  2
ACAD_PSEXT
 70
     0
  0
APPID
  2
ACAUTHENVIRON
 70
     0
  0
APPID
  2
GENIUS_GENOENT_13
 70
     0
  0
APPID
  2
GENIUS_GENCFG_13
 70
     0
  0
APPID
  2
GENIUS_GENCFG0_13
 70
     0
  0
APPID
  2
GENIUS_GENCFG1_13
 70
     0
  0
APPID
  2
GENIUS_GENCFG2_13
 70
     0
  0
APPID
  2
GENIUS_GENCFG3_13
 70
     0
  0
APPID
  2
GENIUS_GENCFG4_13
 70
     0
  0
APPID
  2
GENIUS_GEVCFG0_13
 70
     0
  0
APPID
  2
CONTENTBLOCKICON
 70
     0
  0
APPID
  2
CONTENTBLOCKDESCRIPTION
 70
     0
  0
APPID
  2
ACAD_NAV_VCDISPLAY
 70
     0
  0
APPID
  2
ACAD_MLEADERVER
 70
     0
  0
APPID
  2
ACDBDYNAMICBLOCKTRUENAME
 70
     0
  0
APPID
  2
ACDBDYNAMICBLOCKGUID
 70
     0
  0
APPID
  2
GENIUS_GENODEF_13
 70
     0
  0
APPID
  2
GENIUS_GENOBJ-N-CEN_13
 70
     0
  0
APPID
  2
GENIUS_GENCEN_19
 70
     0
  0
APPID
  2
ACAD_DSTYLE_DIMRADIAL_EXTENSION
 70
     0
  0
ENDTAB
  0
TABLE
  2
DIMSTYLE
 70
     1
  0
DIMSTYLE
  2
STANDARD
 70
     0
  3

  4

  5
_ORIGIN
  6

  7

 40
1.0
 41
12.0
 42
20.0
 43
200.0
 44
20.0
 45
0.0
 46
0.0
 47
0.0
 48
0.0
140
64.0
141
0.09
142
0.0
143
25.399999999999999
144
1.0
145
0.0
146
1.0
147
25.0
 71
     0
 72
     0
 73
     0
 74
     0
 75
     0
 76
     0
 77
     1
 78
     8
170
     0
171
     2
172
     1
173
     0
174
     1
175
     0
176
     7
177
     7
178
     7
  0
ENDTAB
  0
TABLE
  2
VIEW
 70
     1
  0
VIEW
  2
ALL
 70
     0
 40
4282.6198079999986
 10
0.0
 20
41.309904000000003
 41
5940.0
 11
0.0
 21
0.0
 31
1.0
 12
0.0
 22
0.0
 32
0.0
 42
50.0
 43
0.0
 44
0.0
 50
0.0
 71
     0
  0
ENDTAB
  0
TABLE
  2
UCS
 70
     0
  0
ENDTAB
  0
TABLE
  2
VPORT
 70
     1
  0
VPORT
  2
*ACTIVE
 70
     0
 10
0.0
 20
0.0
 11
1.0
 21
1.0
 12
602.51084827178875
 22
120.80384292733289
 13
0.0
 23
0.0
 14
1.0
 24
1.0
 15
0.0
 25
0.0
 16
0.0
 26
0.0
 36
1.0
 17
0.0
 27
0.0
 37
0.0
 40
1500.8696912109069
 41
1.781285231116122
 42
50.0
 43
0.0
 44
0.0
 50
0.0
 51
0.0
 71
     0
 72
  1000
 73
     1
 74
     3
 75
     0
 76
     0
 77
     0
 78
     0
  0
ENDTAB
  0
ENDSEC
  0
SECTION
  2
BLOCKS
  0
BLOCK
  8
0
  2
_ORIGIN
 70
     0
 10
0.0
 20
0.0
 30
0.0
  3
_ORIGIN
  1
_ORIGIN
  0
CIRCLE
  8
0
  6
CONTINUOUS
 62
     7
 10
0.0
 20
0.0
 30
0.0
 40
0.5
  0
LINE
  8
0
  6
CONTINUOUS
 62
     7
 10
0.0
 20
0.0
 30
0.0
 11
-1.0
 21
0.0
 31
0.0
  0
ENDBLK
  8
0
  0
ENDSEC
  0
SECTION
  2
ENTITIES
  0
LINE
  8
DETAIL
  6
CONTINUOUS
 62
     5
 10
611.899999999996
 20
-97.500000000014552
 30
0.0
 11
611.899999999996
 21
-356.70000000001158
 31
0.0
  0
LINE
  8
DETAIL
  6
CONTINUOUS
 62
     5
 10
611.29999999999654
 20
-97.500000000014552
 30
0.0
 11
611.29999999999654
 21
-356.70000000001158
 31
0.0
  0
LINE
  8
DETAIL
  6
CONTINUOUS
 62
     5
 10
610.69999999999891
 20
-96.300000000017462
 30
0.0
 11
610.69999999999891
 21
-97.152055014012149
 31
0.0
  0
LINE
  8
DETAIL
  6
CONTINUOUS
 62
     5
 10
610.69999999999891
 20
-357.04794498599949
 30
0.0
 11
610.69999999999891
 21
-357.90000000000867
 31
0.0
  0
LINE
  8
DETAIL
  6
CONTINUOUS
 62
     5
 10
594.14999999999964
 20
-96.300000000017462
 30
0.0
 11
594.14999999999964
 21
-96.899999999994179
 31
0.0
  0
LINE
  8
DETAIL
  6
CONTINUOUS
 62
     5
 10
591.14999999999873
 20
-96.300000000017462
 30
0.0
 11
591.14999999999873
 21
-96.899999999994179
 31
0.0
  0
LINE
  8
DETAIL
  6
CONTINUOUS
 62
     5
 10
545.50000000000364
 20
-70.199999999999818
 30
0.0
 11
545.50000000000364
 21
-73.800000000005639
 31
0.0
  0
LINE
  8
DETAIL
  6
CONTINUOUS
 62
     5
 10
545.50000000000364
 20
-83.399999999996908
 30
0.0
 11
545.50000000000364
 21
-87.000000000002728
 31
0.0
  0
LINE
  8
DETAIL
  6
CONTINUOUS
 62
     5
 10
542.30000000000655
 20
-83.399999999996908
 30
0.0
 11
542.30000000000655
 21
-87.000000000002728
 31
0.0
  0
LINE
  8
DETAIL
  6
CONTINUOUS
 62
     5
 10
542.30000000000655
 20
-70.199999999999818
 30
0.0
 11
542.30000000000655
 21
-73.800000000005639
 31
0.0
  0
LINE
  8
DETAIL
  6
CONTINUOUS
 62
     5
 10
530.69999999999345
 20
-96.300000000017462
 30
0.0
 11
530.69999999999345
 21
-80.20000000001437
 31
0.0
  0
LINE
  8
DETAIL
  6
CONTINUOUS
 62
     5
 10
530.69999999999345
 20
-77.000000000002728
 30
0.0
 11
530.69999999999345
 21
-46.458075234008902
 31
0.0
  0
LINE
  8
DETAIL
  6
CONTINUOUS
 62
     5
 10
522.70000000000164
 20
-96.300000000017462
 30
0.0
 11
522.70000000000164
 21
-80.20000000001437
 31
0.0
  0
LINE
  8
DETAIL
  6
CONTINUOUS
 62
     5
 10
516.09999999999582
 20
-96.300000000017462
 30
0.0
 11
516.09999999999582
 21
-80.20000000001437
 31
0.0
  0
LINE
  8
DETAIL
  6
CONTINUOUS
 62
     5
 10
514.19999999999436
 20
-76.550000000005639
 30
0.0
 11
514.19999999999436
 21
-77.000000000002728
 31
0.0
  0
LINE
  8
DETAIL
  6
CONTINUOUS
 62
     5
 10
505.09999999999491
 20
-400.55000000001468
 30
0.0
 11
505.09999999999491
 21
-399.94999999999442
 31
0.0
  0
LINE
  8
DETAIL
  6
CONTINUOUS
 62
     5
 10
505.09999999999491
 20
-3.750000000011823
 30
0.0
 11
505.09999999999491
 21
-4.3500000000030923
 31
0.0
  0
LINE
  8
DETAIL
  6
CONTINUOUS
 62
     5
 10
500.99999999999642
 20
-357.29562532200362
 30
0.0
 11
500.99999999999642
 21
-356.70000000001158
 31
0.0
  0
LINE
  8
DETAIL
  6
CONTINUOUS
 62
     5
 10
500.99999999999642
 20
-96.899999999994179
 30
0.0
 11
500.99999999999642
 21
-96.300000000017462
 31
0.0
  0
LINE
  8
DETAIL
  6
CONTINUOUS
 62
     5
 10
500.99999999999642
 20
-96.904374675999861
 30
0.0
 11
500.99999999999642
 21
-97.500000000014552
 31
0.0
  0
LINE
  8
DETAIL
  6
CONTINUOUS
 62
     5
 10
500.99999999999642
 20
-357.30000000001752
 30
0.0
 11
500.99999999999642
 21
-357.90000000000867
 31
0.0
  0
LINE
  8
DETAIL
  6
CONTINUOUS
 62
     5
 10
500.69999999999351
 20
-403.20000000001801
 30
0.0
 11
500.69999999999351
 21
-402.70000000000351
 31
0.0
  0
LINE
  8
DETAIL
  6
CONTINUOUS
 62
     5
 10
500.69999999999351
 20
-1.3000000000029099
 30
0.0
 11
500.69999999999351
 21
-0.8000000000029104
 31
0.0
  0
LINE
  8
DETAIL
  6
CONTINUOUS
 62
     5
 10
499.19999999999442
 20
-400.650000000006
 30
0.0
 11
499.19999999999442
 21
-356.70000000001158
 31
0.0
  0
LINE
  8
DETAIL
  6
CONTINUOUS
 62
     5
 10
499.19999999999442
 20
-77.700590832001581
 30
0.0
 11
499.19999999999442
 21
-3.650000000020555
 31
0.0
  0
LINE
  8
DETAIL
  6
CONTINUOUS
 62
     5
 10
498.89999999999873
 20
-127.00000000001729
 30
0.0
 11
498.89999999999873
 21
-83.399999999996908
 31
0.0
  0
LINE
  8
DETAIL
  6
CONTINUOUS
 62
     5
 10
496.49999999999733
 20
-355.98360070001218
 30
0.0
 11
496.49999999999733
 21
-356.70000000001158
 31
0.0
  0
LINE
  8
DETAIL
  6
CONTINUOUS
 62
     5
 10
495.69999999999442
 20
-402.20000000000351
 30
0.0
 11
495.69999999999442
 21
-1.8000000000029099
 31
0.0
  0
LINE
  8
DETAIL
  6
CONTINUOUS
 62
     5
 10
495.20000000000158
 20
-2.8000000000029099
 30
0.0
 11
495.20000000000158
 21
-1.8000000000029099
 31
0.0
  0
LINE
  8
DETAIL
  6
CONTINUOUS
 62
     5
 10
495.20000000000158
 20
-401.35000000001759
 30
0.0
 11
495.20000000000158
 21
-402.20000000000351
 31
0.0
  0
LINE
  8
DETAIL
  6
CONTINUOUS
 62
     5
 10
494.19999999999351
 20
-0.8000000000029104
 30
0.0
 11
494.19999999999351
 21
-2.8000000000029099
 31
0.0
  0
LINE
  8
DETAIL
  6
CONTINUOUS
 62
     5
 10
494.19999999999351
 20
-401.35000000001759
 30
0.0
 11
494.19999999999351
 21
-403.20000000001801
 31
0.0
  0
LINE
  8
DETAIL
  6
CONTINUOUS
 62
     5
 10
492.84708539199801
 20
0.0
 30
0.0
 11
492.84708539199801
 21
-0.8000000000029104
 31
0.0
  0
LINE
  8
DETAIL
  6
CONTINUOUS
 62
     5
 10
492.799999999992
 20
-404.00000000000642
 30
0.0
 11
492.799999999992
 21
-403.20000000001801
 31
0.0
  0
LINE
  8
DETAIL
  6
CONTINUOUS
 62
     5
 10
489.80000000000018
 20
-278.3383376500251
 30
0.0
 11
489.80000000000018
 21
-205.861662348002
 31
0.0
  0
LINE
  8
DETAIL
  6
CONTINUOUS
 62
     5
 10
489.19999999999442
 20
-398.35000000001759
 30
0.0
 11
489.19999999999442
 21
-397.150000000006
 31
0.0
  0
LINE
  8
DETAIL
  6
CONTINUOUS
 62
     5
 10
489.19999999999442
 20
-5.8500000000176442
 30
0.0
 11
489.19999999999442
 21
-7.0500000000147338
 31
0.0
  0
LINE
  8
DETAIL
  6
CONTINUOUS
 62
     5
 10
480.69999999999351
 20
-10.05000000001473
 30
0.0
 11
480.69999999999351
 21
-110.18181818013819
 31
0.0
  0
LINE
  8
DETAIL
  6
CONTINUOUS
 62
     5
 10
480.69999999999351
 20
-127.0000000006721
 30
0.0
 11
480.69999999999351
 21
-190.10000000001759
 31
0.0
  0
LINE
  8
DETAIL
  6
CONTINUOUS
 62
     5
 10
480.69999999999351
 20
-294.10000000000309
 30
0.0
 11
480.69999999999351
 21
-394.150000000006
 31
0.0
  0
LINE
  8
DETAIL
  6
CONTINUOUS
 62
     5
 10
475.69999999999533
 20
-122.0000000000027
 30
0.0
 11
475.69999999999533
 21
-115.50213632201761
 31
0.0
  0
LINE
  8
DETAIL
  6
CONTINUOUS
 62
     5
 10
495.08343350199448
 20
-1.4610814580082661
 30
0.0
 11
494.8473460379937
 21
-2.8000000000029099
 31
0.0
  0
LINE
  8
DETAIL
  6
CONTINUOUS
 62
     5
 10
494.2955872999928
 20
-1.322162914017099
 30
0.0
 11
494.19999999999351
 21
-1.8642654314828631
 31
0.0
  0
LINE
  8
DETAIL
  6
CONTINUOUS
 62
     5
 10
494.8473460379937
 20
-401.35000000001759
 30
0.0
 11
495.08343350199448
 21
-402.5389185419981
 31
0.0
  0
LINE
  8
DETAIL
  6
CONTINUOUS
 62
     5
 10
494.19999999999442
 20
-402.13573456879652
 30
0.0
 11
494.2955872999928
 21
-402.67783708401021
 31
0.0
  0
LINE
  8
DETAIL
  6
CONTINUOUS
 62
     5
 10
489.80000000000018
 20
-205.861662348002
 30
0.0
 11
480.69999999999351
 21
-190.10000000001759
 31
0.0
  0
LINE
  8
DETAIL
  6
CONTINUOUS
 62
     5
 10
317.4365527639975
 20
-377.50234159800488
 30
0.0
 11
316.88689240599518
 21
-379.70690888200812
 31
0.0
  0
LINE
  8
DETAIL
  6
CONTINUOUS
 62
     5
 10
374.87229503599701
 20
-107.2884191499998
 30
0.0
 11
375.26683360999778
 21
-105.0508797120074
 31
0.0
  0
LINE
  8
DETAIL
  6
CONTINUOUS
 62
     5
 10
305.24334369199818
 20
-376.80384613600648
 30
0.0
 11
305.79300405000049
 21
-374.59927885200341
 31
0.0
  0
LINE
  8
DETAIL
  6
CONTINUOUS
 62
     5
 10
363.44914057199821
 20
-102.9671015800068
 30
0.0
 11
363.05460199999737
 21
-105.2046410180137
 31
0.0
  0
LINE
  8
DETAIL
  6
CONTINUOUS
 62
     5
 10
510.20000000000158
 20
-399.94999999999442
 30
0.0
 11
510.5809174319993
 21
-400.41357514001447
 31
0.0
  0
LINE
  8
DETAIL
  6
CONTINUOUS
 62
     5
 10
-489.26730091800249
 20
-404.00000000000728
 30
0.0
 11
-487.16730091799849
 21
-401.90000000000049
 31
0.0
  0
LINE
  8
DETAIL
  6
CONTINUOUS
 62
     5
 10
500.94999999999442
 20
0.0
 30
0.0
 11
495.87127970399519
 21
0.0
 31
0.0
  0
LINE
  8
DETAIL
  6
CONTINUOUS
 62
     5
 10
492.84708539199801
 20
0.0
 30
0.0
 11
-492.84708539200352
 21
0.0
 31
0.0
  0
LINE
  8
DETAIL
  6
CONTINUOUS
 62
     5
 10
-495.8712797060025
 20
0.0
 30
0.0
 11
-500.95000000000709
 21
0.0
 31
0.0
  0
LINE
  8
DETAIL
  6
CONTINUOUS
 62
     5
 10
500.94999999999442
 20
-0.8000000000029104
 30
0.0
 11
495.87127970399519
 21
-0.8000000000029104
 31
0.0
  0
LINE
  8
DETAIL
  6
CONTINUOUS
 62
     5
 10
494.19999999999351
 20
-0.8000000000029104
 30
0.0
 11
488.51438631001838
 21
-0.8000000000038199
 31
0.0
  0
LINE
  8
DETAIL
  6
CONTINUOUS
 62
     5
 10
-495.8712797060025
 20
-0.8000000000029104
 30
0.0
 11
-500.95000000000709
 21
-0.8000000000029104
 31
0.0
  0
LINE
  8
DETAIL
  6
CONTINUOUS
 62
     5
 10
-488.51438631002293
 20
-0.8000000000029104
 30
0.0
 11
-492.84708539200352
 21
-0.8000000000029104
 31
0.0
  0
LINE
  8
DETAIL
  6
CONTINUOUS
 62
     5
 10
-496.20000000000709
 20
-1.3000000000029099
 30
0.0
 11
-500.95000000000709
 21
-1.3000000000029099
 31
0.0
  0
LINE
  8
DETAIL
  6
CONTINUOUS
 62
     5
 10
495.69999999999442
 20
-2.8000000000029099
 30
0.0
 11
492.19999999999351
 21
-2.8000000000029099
 31
0.0
  0
LINE
  8
DETAIL
  6
CONTINUOUS
 62
     5
 10
-492.84708539200352
 20
-2.8000000000029099
 30
0.0
 11
-495.70000000000891
 21
-2.8000000000029099
 31
0.0
  0
LINE
  8
DETAIL
  6
CONTINUOUS
 62
     5
 10
500.39999999999782
 20
-3.1000000000058212
 30
0.0
 11
509.59999999999491
 21
-3.1500000000060031
 31
0.0
  0
LINE
  8
DETAIL
  6
CONTINUOUS
 62
     5
 10
499.19999999999442
 20
-3.650000000020555
 30
0.0
 11
495.69999999999442
 21
-3.650000000020555
 31
0.0
  0
LINE
  8
DETAIL
  6
CONTINUOUS
 62
     5
 10
500.39999999999782
 20
-3.750000000011823
 30
0.0
 11
509.59999999999491
 21
-3.750000000011823
 31
0.0
  0
LINE
  8
DETAIL
  6
CONTINUOUS
 62
     5
 10
510.20000000000158
 20
-4.3500000000030923
 30
0.0
 11
499.19999999999442
 21
-4.3500000000030923
 31
0.0
  0
LINE
  8
DETAIL
  6
CONTINUOUS
 62
     5
 10
483.69999999999442
 20
-7.0500000000147338
 30
0.0
 11
489.19999999999442
 21
-7.0500000000147338
 31
0.0
  0
LINE
  8
DETAIL
  6
CONTINUOUS
 62
     5
 10
492.19999999999351
 20
-401.35000000001759
 30
0.0
 11
489.19999999999442
 21
-398.35000000001759
 31
0.0
  0
LINE
  8
DETAIL
  6
CONTINUOUS
 62
     5
 10
483.69999999999442
 20
-397.150000000006
 30
0.0
 11
480.69999999999351
 21
-394.150000000006
 31
0.0
  0
LINE
  8
DETAIL
  6
CONTINUOUS
 62
     5
 10
489.26730091800709
 20
-404.00000000000728
 30
0.0
 11
487.16730091799673
 21
-401.90000000000049
 31
0.0
  0
LINE
  8
DETAIL
  6
CONTINUOUS
 62
     5
 10
542.30000000000655
 20
-70.199999999999818
 30
0.0
 11
545.50000000000364
 21
-70.199999999999818
 31
0.0
  0
LINE
  8
DETAIL
  6
CONTINUOUS
 62
     5
 10
-542.30000000000382
 20
-70.199999999999818
 30
0.0
 11
-545.50000000000819
 21
-70.199999999999818
 31
0.0
  0
LINE
  8
DETAIL
  6
CONTINUOUS
 62
     5
 10
518.19999999999436
 20
-76.550000000005639
 30
0.0
 11
514.19999999999436
 21
-76.550000000005639
 31
0.0
  0
LINE
  8
DETAIL
  6
CONTINUOUS
 62
     5
 10
-539.10000000000673
 20
-77.000000000002728
 30
0.0
 11
-502.10000000000309
 21
-77.000000000002728
 31
0.0
  0
LINE
  8
DETAIL
  6
CONTINUOUS
 62
     5
 10
539.10000000000309
 20
-77.000000000002728
 30
0.0
 11
502.09999999999491
 21
-77.000000000002728
 31
0.0
  0
LINE
  8
DETAIL
  6
CONTINUOUS
 62
     5
 10
-539.10000000000673
 20
-80.20000000001437
 30
0.0
 11
-502.10000000000309
 21
-80.20000000001437
 31
0.0
  0
LINE
  8
DETAIL
  6
CONTINUOUS
 62
     5
 10
539.10000000000309
 20
-80.20000000001437
 30
0.0
 11
502.09999999999491
 21
-80.20000000001437
 31
0.0
  0
LINE
  8
DETAIL
  6
CONTINUOUS
 62
     5
 10
542.30000000000655
 20
-87.000000000002728
 30
0.0
 11
545.50000000000364
 21
-87.000000000002728
 31
0.0
  0
LINE
  8
DETAIL
  6
CONTINUOUS
 62
     5
 10
-542.30000000000382
 20
-87.000000000002728
 30
0.0
 11
-545.50000000000819
 21
-87.000000000002728
 31
0.0
  0
LINE
  8
DETAIL
  6
CONTINUOUS
 62
     5
 10
516.09999999999582
 20
-87.550000000005639
 30
0.0
 11
518.19999999999436
 21
-87.550000000005639
 31
0.0
  0
LINE
  8
DETAIL
  6
CONTINUOUS
 62
     5
 10
520.20000000000073
 20
-89.550000000005639
 30
0.0
 11
522.70000000000164
 21
-89.550000000005639
 31
0.0
  0
LINE
  8
DETAIL
  6
CONTINUOUS
 62
     5
 10
610.69999999999891
 20
-96.300000000017462
 30
0.0
 11
500.99999999999642
 21
-96.300000000017462
 31
0.0
  0
LINE
  8
DETAIL
  6
CONTINUOUS
 62
     5
 10
500.99999999999642
 20
-96.899999999994179
 30
0.0
 11
610.69999999999891
 21
-96.899999999994179
 31
0.0
  0
LINE
  8
DETAIL
  6
CONTINUOUS
 62
     5
 10
498.89999999999873
 20
-97.500000000014552
 30
0.0
 11
500.99999999999642
 21
-97.500000000014552
 31
0.0
  0
LINE
  8
DETAIL
  6
CONTINUOUS
 62
     5
 10
611.899999999996
 20
-97.500000000014552
 30
0.0
 11
611.04794305799624
 21
-97.500000000014552
 31
0.0
  0
LINE
  8
DETAIL
  6
CONTINUOUS
 62
     5
 10
493.0808748879972
 20
-106.00000000001729
 30
0.0
 11
493.61355287199331
 21
-106.00000000001729
 31
0.0
  0
LINE
  8
DETAIL
  6
CONTINUOUS
 62
     5
 10
-493.08087488800362
 20
-106.00000000001729
 30
0.0
 11
-493.61355287200689
 21
-106.00000000001729
 31
0.0
  0
LINE
  8
DETAIL
  6
CONTINUOUS
 62
     5
 10
498.89999999999873
 20
-127.00000000001729
 30
0.0
 11
480.69999999969968
 21
-127.0000000006721
 31
0.0
  0
LINE
  8
DETAIL
  6
CONTINUOUS
 62
     5
 10
-480.69999999969968
 20
-127.0000000006721
 30
0.0
 11
-498.900000000006
 21
-127.00000000001729
 31
0.0
  0
LINE
  8
DETAIL
  6
CONTINUOUS
 62
     5
 10
-210.3461538640031
 20
-202.3933436900206
 30
0.0
 11
-212.55072114799901
 21
-202.943004048002
 31
0.0
  0
LINE
  8
DETAIL
  6
CONTINUOUS
 62
     5
 10
-209.64765840000561
 20
-214.58655276400711
 30
0.0
 11
-207.44309111800891
 21
-214.0368924059967
 31
0.0
  0
LINE
  8
DETAIL
  6
CONTINUOUS
 62
     5
 10
-484.18289841800379
 20
-260.59914057200689
 30
0.0
 11
-481.94535898200502
 21
-260.20460200000713
 31
0.0
  0
LINE
  8
DETAIL
  6
CONTINUOUS
 62
     5
 10
-479.86158085000437
 20
-272.02229503601302
 30
0.0
 11
-482.0991202860032
 21
-272.41683360799829
 31
0.0
  0
LINE
  8
DETAIL
  6
CONTINUOUS
 62
     5
 10
-217.6331999380063
 20
-219.20613496799521
 30
0.0
 11
-218.0930087820079
 21
-219.20613496799521
 31
0.0
  0
LINE
  8
BASIS
  6
DASHDOT
 62
     6
 10
0.0
 20
103.32078161998921
 30
0.0
 11
0.0000000000009095
 21
-543.7060076720054
 31
0.0
  0
LINE
  8
DETAIL
  6
CONTINUOUS
 62
     5
 10
478.99128468399982
 20
-110.8031692039976
 30
0.0
 11
491.37215957199442
 21
-106.3010328819973
 31
0.0
  0
LINE
  8
DETAIL
  6
CONTINUOUS
 62
     5
 10
-478.99128468400608
 20
-110.8031692039976
 30
0.0
 11
-491.37215957401082
 21
-106.3010328819973
 31
0.0
  0
LINE
  8
DETAIL
  6
CONTINUOUS
 62
     5
 10
208.0546410179968
 20
-260.20460200000713
 30
0.0
 11
205.817101581998
 21
-260.59914057200689
 31
0.0
  0
LINE
  8
DETAIL
  6
CONTINUOUS
 62
     5
 10
207.90087971399859
 20
-272.41683360799829
 30
0.0
 11
210.13841914999739
 21
-272.02229503601302
 31
0.0
  0
LINE
  8
DETAIL
  6
CONTINUOUS
 62
     5
 10
477.44927885200201
 20
-202.943004048002
 30
0.0
 11
479.6538461359969
 21
-202.3933436900206
 31
0.0
  0
LINE
  8
DETAIL
  6
CONTINUOUS
 62
     5
 10
482.55690888199211
 20
-214.0368924059967
 30
0.0
 11
480.35234159999709
 21
-214.58655276400711
 31
0.0
  0
LINE
  8
DETAIL
  6
CONTINUOUS
 62
     5
 10
611.899999999996
 20
-356.70000000001158
 30
0.0
 11
611.04794305799624
 21
-356.70000000001158
 31
0.0
  0
LINE
  8
DETAIL
  6
CONTINUOUS
 62
     5
 10
500.99999999999642
 20
-356.70000000001158
 30
0.0
 11
496.49999999999733
 21
-356.70000000001158
 31
0.0
  0
LINE
  8
DETAIL
  6
CONTINUOUS
 62
     5
 10
610.69999999999891
 20
-357.30000000001752
 30
0.0
 11
500.99999999999642
 21
-357.30000000001752
 31
0.0
  0
LINE
  8
DETAIL
  6
CONTINUOUS
 62
     5
 10
610.69999999999891
 20
-357.90000000000867
 30
0.0
 11
500.99999999999642
 21
-357.90000000000867
 31
0.0
  0
LINE
  8
DETAIL
  6
CONTINUOUS
 62
     5
 10
483.69999999999442
 20
-397.150000000006
 30
0.0
 11
489.19999999999442
 21
-397.150000000006
 31
0.0
  0
LINE
  8
DETAIL
  6
CONTINUOUS
 62
     5
 10
510.20000000000158
 20
-399.94999999999442
 30
0.0
 11
499.19999999999442
 21
-399.94999999999442
 31
0.0
  0
LINE
  8
DETAIL
  6
CONTINUOUS
 62
     5
 10
509.59999999999491
 20
-400.55000000001468
 30
0.0
 11
500.39999999999782
 21
-400.55000000001468
 31
0.0
  0
LINE
  8
DETAIL
  6
CONTINUOUS
 62
     5
 10
499.19999999999442
 20
-400.650000000006
 30
0.0
 11
495.69999999999442
 21
-400.650000000006
 31
0.0
  0
LINE
  8
DETAIL
  6
CONTINUOUS
 62
     5
 10
509.59999999999491
 20
-401.150000000006
 30
0.0
 11
500.39999999999782
 21
-401.150000000006
 31
0.0
  0
LINE
  8
DETAIL
  6
CONTINUOUS
 62
     5
 10
495.69999999999442
 20
-401.35000000001759
 30
0.0
 11
492.19999999999351
 21
-401.35000000001759
 31
0.0
  0
LINE
  8
DETAIL
  6
CONTINUOUS
 62
     5
 10
-492.80000000000382
 20
-401.35000000001759
 30
0.0
 11
-495.70000000000891
 21
-401.35000000001759
 31
0.0
  0
LINE
  8
DETAIL
  6
CONTINUOUS
 62
     5
 10
-496.20000000000709
 20
-402.70000000000351
 30
0.0
 11
-500.95000000000709
 21
-402.70000000000351
 31
0.0
  0
LINE
  8
DETAIL
  6
CONTINUOUS
 62
     5
 10
-500.95000000000709
 20
-403.20000000001801
 30
0.0
 11
-495.8712797060025
 21
-403.20000000001801
 31
0.0
  0
LINE
  8
DETAIL
  6
CONTINUOUS
 62
     5
 10
488.4673009180151
 20
-403.20000000001801
 30
0.0
 11
494.19999999999351
 21
-403.20000000001801
 31
0.0
  0
LINE
  8
DETAIL
  6
CONTINUOUS
 62
     5
 10
500.94999999999442
 20
-403.20000000001801
 30
0.0
 11
495.87127970399519
 21
-403.20000000001801
 31
0.0
  0
LINE
  8
DETAIL
  6
CONTINUOUS
 62
     5
 10
-488.46730091801243
 20
-403.20000000001801
 30
0.0
 11
-492.80000000000382
 21
-403.20000000001801
 31
0.0
  0
LINE
  8
DETAIL
  6
CONTINUOUS
 62
     5
 10
-500.95000000000709
 20
-404.00000000000642
 30
0.0
 11
-495.8712797060025
 21
-404.00000000000642
 31
0.0
  0
LINE
  8
DETAIL
  6
CONTINUOUS
 62
     5
 10
500.94999999999442
 20
-404.00000000000642
 30
0.0
 11
495.87127970399519
 21
-404.00000000000642
 31
0.0
  0
LINE
  8
DETAIL
  6
CONTINUOUS
 62
     5
 10
492.799999999992
 20
-404.00000000000642
 30
0.0
 11
-492.80000000000382
 21
-404.00000000000642
 31
0.0
  0
LINE
  8
DETAIL
  6
CONTINUOUS
 62
     5
 10
489.31438631003311
 20
-0.0000000000009095
 30
0.0
 11
487.21438630999728
 21
-2.1000000000058212
 31
0.0
  0
LINE
  8
DETAIL
  6
CONTINUOUS
 62
     5
 10
480.69999999999351
 20
-10.05000000001473
 30
0.0
 11
483.69999999999442
 21
-7.0500000000147338
 31
0.0
  0
LINE
  8
DETAIL
  6
CONTINUOUS
 62
     5
 10
489.19999999999442
 20
-5.8500000000176442
 30
0.0
 11
492.19999999999351
 21
-2.8000000000029099
 31
0.0
  0
LINE
  8
DETAIL
  6
CONTINUOUS
 62
     5
 10
-489.31438631003681
 20
-0.0000000000009095
 30
0.0
 11
-487.21438631000183
 21
-2.1000000000058212
 31
0.0
  0
LINE
  8
DETAIL
  6
CONTINUOUS
 62
     5
 10
510.20000000000158
 20
-4.3500000000030923
 30
0.0
 11
510.5809174319993
 21
-3.886424860012085
 31
0.0
  0
LINE
  8
DETAIL
  6
CONTINUOUS
 62
     5
 10
-373.11310759400749
 20
-379.70690888200812
 30
0.0
 11
-372.5634472360025
 21
-377.50234159800488
 31
0.0
  0
LINE
  8
DETAIL
  6
CONTINUOUS
 62
     5
 10
-322.46743476200299
 20
-115.1716414960047
 30
0.0
 11
-322.46743476200299
 21
-114.70905113600929
 31
0.0
  0
LINE
  8
DETAIL
  6
CONTINUOUS
 62
     5
 10
-323.06054887600573
 20
-115.0687264340031
 30
0.0
 11
-323.06054887600573
 21
-114.6021249900023
 31
0.0
  0
LINE
  8
DETAIL
  6
CONTINUOUS
 62
     5
 10
-384.20699595000133
 20
-374.59927885200341
 30
0.0
 11
-384.75665630800268
 21
-376.80384613600648
 31
0.0
  0
LINE
  8
DETAIL
  6
CONTINUOUS
 62
     5
 10
-314.73316639000501
 20
-105.0508797120074
 30
0.0
 11
-315.12770496400572
 21
-107.2884191499998
 31
0.0
  0
LINE
  8
DETAIL
  6
CONTINUOUS
 62
     5
 10
-326.94539800000439
 20
-105.2046410180137
 30
0.0
 11
-326.55085942800451
 21
-102.9671015800068
 31
0.0
  0
LINE
  8
DETAIL
  6
CONTINUOUS
 62
     5
 10
480.69999999999351
 20
-294.10000000000309
 30
0.0
 11
489.80000000000018
 21
-278.3383376500251
 31
0.0
  0
LINE
  8
DETAIL
  6
CONTINUOUS
 62
     5
 10
-494.29558730000741
 20
-402.67783708401021
 30
0.0
 11
-494.03500474999868
 21
-401.35000000001759
 31
0.0
  0
LINE
  8
DETAIL
  6
CONTINUOUS
 62
     5
 10
-494.03500474999868
 20
-2.8000000000029099
 30
0.0
 11
-494.29558730000741
 21
-1.322162914017099
 31
0.0
  0
LINE
  8
DETAIL
  6
CONTINUOUS
 62
     5
 10
-495.08343350200721
 20
-402.5389185419981
 30
0.0
 11
-494.84734603800922
 21
-401.35000000001759
 31
0.0
  0
LINE
  8
DETAIL
  6
CONTINUOUS
 62
     5
 10
-475.70000000000891
 20
-122.0000000000027
 30
0.0
 11
-475.70000000000891
 21
-115.50213632201761
 31
0.0
  0
LINE
  8
DETAIL
  6
CONTINUOUS
 62
     5
 10
-492.80000000000382
 20
-401.35000000001759
 30
0.0
 11
-492.80000000000382
 21
-404.00000000000642
 31
0.0
  0
LINE
  8
DETAIL
  6
CONTINUOUS
 62
     5
 10
-492.84708539200352
 20
0.0
 30
0.0
 11
-492.84708539200352
 21
-2.8000000000029099
 31
0.0
  0
LINE
  8
DETAIL
  6
CONTINUOUS
 62
     5
 10
-494.84734603800922
 20
-2.8000000000029099
 30
0.0
 11
-495.08343350200721
 21
-1.4610814580082661
 31
0.0
  0
LINE
  8
DETAIL
  6
CONTINUOUS
 62
     5
 10
-495.20000000000158
 20
-402.20000000000351
 30
0.0
 11
-495.20000000000158
 21
-401.35000000001759
 31
0.0
  0
LINE
  8
DETAIL
  6
CONTINUOUS
 62
     5
 10
-495.20000000000158
 20
-1.8000000000029099
 30
0.0
 11
-495.20000000000158
 21
-2.8000000000029099
 31
0.0
  0
LINE
  8
DETAIL
  6
CONTINUOUS
 62
     5
 10
-495.70000000000891
 20
-402.20000000000351
 30
0.0
 11
-495.70000000000891
 21
-1.8000000000029099
 31
0.0
  0
LINE
  8
DETAIL
  6
CONTINUOUS
 62
     5
 10
-497.69999999999982
 20
-1.3000000000029099
 30
0.0
 11
-497.69999999999982
 21
-2.1000000000058212
 31
0.0
  0
LINE
  8
DETAIL
  6
CONTINUOUS
 62
     5
 10
-497.69999999999982
 20
-401.90000000000049
 30
0.0
 11
-497.69999999999982
 21
-402.70000000000351
 31
0.0
  0
LINE
  8
DETAIL
  6
CONTINUOUS
 62
     5
 10
-498.900000000006
 20
-127.00000000001729
 30
0.0
 11
-498.900000000006
 21
-83.399999999996908
 31
0.0
  0
LINE
  8
DETAIL
  6
CONTINUOUS
 62
     5
 10
-500.70000000000891
 20
-0.8000000000029104
 30
0.0
 11
-500.70000000000891
 21
-1.3000000000029099
 31
0.0
  0
LINE
  8
DETAIL
  6
CONTINUOUS
 62
     5
 10
-500.70000000000891
 20
-402.70000000000351
 30
0.0
 11
-500.70000000000891
 21
-403.20000000001801
 31
0.0
  0
LINE
  8
DETAIL
  6
CONTINUOUS
 62
     5
 10
-542.30000000000382
 20
-83.399999999996908
 30
0.0
 11
-542.30000000000382
 21
-87.000000000002728
 31
0.0
  0
LINE
  8
DETAIL
  6
CONTINUOUS
 62
     5
 10
-542.30000000000382
 20
-70.199999999999818
 30
0.0
 11
-542.30000000000382
 21
-73.800000000005639
 31
0.0
  0
LINE
  8
DETAIL
  6
CONTINUOUS
 62
     5
 10
-545.50000000000819
 20
-70.199999999999818
 30
0.0
 11
-545.50000000000819
 21
-73.800000000005639
 31
0.0
  0
LINE
  8
DETAIL
  6
CONTINUOUS
 62
     5
 10
-545.50000000000819
 20
-83.399999999996908
 30
0.0
 11
-545.50000000000819
 21
-87.000000000002728
 31
0.0
  0
ARC
  8
DETAIL
  6
CONTINUOUS
 62
     5
 10
475.59999999999491
 20
-46.458075234008902
 30
0.0
 40
55.100000000000101
 50
0.0
 51
50.590221408988477
  0
ARC
  8
DETAIL
  6
CONTINUOUS
 62
     5
 10
539.10000000000309
 20
-73.800000000005639
 30
0.0
 40
6.4000000000000146
 50
311.343544847945
 51
0.0
  0
ARC
  8
DETAIL
  6
CONTINUOUS
 62
     5
 10
539.10000000000309
 20
-83.399999999996908
 30
0.0
 40
6.4000000000000146
 50
0.0
 51
90.0
  0
ARC
  8
DETAIL
  6
CONTINUOUS
 62
     5
 10
502.09999999999491
 20
-83.399999999996908
 30
0.0
 40
6.4000000000000146
 50
90.0
 51
180.0
  0
ARC
  8
DETAIL
  6
CONTINUOUS
 62
     5
 10
539.10000000000309
 20
-83.399999999996908
 30
0.0
 40
3.2000000000000082
 50
0.0
 51
90.0
  0
ARC
  8
DETAIL
  6
CONTINUOUS
 62
     5
 10
502.09999999999491
 20
-83.399999999996908
 30
0.0
 40
3.2000000000000082
 50
90.0
 51
180.0
  0
ARC
  8
DETAIL
  6
CONTINUOUS
 62
     5
 10
539.10000000000309
 20
-73.800000000005639
 30
0.0
 40
3.2000000000000082
 50
270.0
 51
0.0
  0
ARC
  8
DETAIL
  6
CONTINUOUS
 62
     5
 10
495.87127970399519
 20
-1.600000000005821
 30
0.0
 40
1.600000000000005
 50
90.0
 51
169.9999999999942
  0
ARC
  8
DETAIL
  6
CONTINUOUS
 62
     5
 10
609.899999999996
 20
-98.300000000017462
 30
0.0
 40
1.4000000000000039
 50
0.0
 51
90.0
  0
ARC
  8
DETAIL
  6
CONTINUOUS
 62
     5
 10
500.44354596809899
 20
-4.3428041293800561
 30
0.0
 40
1.243566787644935
 50
92.006736094867634
 51
180.331542560956
  0
ARC
  8
DETAIL
  6
CONTINUOUS
 62
     5
 10
500.94999999999442
 20
-1.0500000000174621
 30
0.0
 40
1.0500000000000029
 50
270.0000176001185
 51
90.000000000104222
  0
ARC
  8
DETAIL
  6
CONTINUOUS
 62
     5
 10
520.20000000000073
 20
-88.550000000020191
 30
0.0
 40
1.000000000000002
 50
180.0
 51
270.0
  0
ARC
  8
DETAIL
  6
CONTINUOUS
 62
     5
 10
518.19999999999436
 20
-88.550000000020191
 30
0.0
 40
1.000000000000002
 50
0.0
 51
90.0
  0
ARC
  8
DETAIL
  6
CONTINUOUS
 62
     5
 10
496.19999999999442
 20
-1.8000000000029099
 30
0.0
 40
1.000000000000002
 50
90.0
 51
180.0
  0
ARC
  8
DETAIL
  6
CONTINUOUS
 62
     5
 10
518.19999999999436
 20
-77.550000000020191
 30
0.0
 40
1.000000000000002
 50
33.394743781504353
 51
90.0
  0
ARC
  8
DETAIL
  6
CONTINUOUS
 62
     5
 10
495.87127970399519
 20
-1.600000000005821
 30
0.0
 40
0.8000000000000015
 50
90.0
 51
169.9999999999942
  0
ARC
  8
DETAIL
  6
CONTINUOUS
 62
     5
 10
500.39999999999782
 20
-4.3500000000030923
 30
0.0
 40
0.6000000000000024
 50
90.0
 51
180.0
  0
ARC
  8
DETAIL
  6
CONTINUOUS
 62
     5
 10
509.59999999999491
 20
-3.750000000011823
 30
0.0
 40
0.6000000000000024
 50
270.0
 51
90.0
  0
ARC
  8
DETAIL
  6
CONTINUOUS
 62
     5
 10
496.19999999999442
 20
-1.8000000000029099
 30
0.0
 40
0.500000000000002
 50
90.0
 51
180.0
  0
ARC
  8
DETAIL
  6
CONTINUOUS
 62
     5
 10
500.94999999999442
 20
-1.0500000000174621
 30
0.0
 40
0.2500000000000001
 50
270.0000176001185
 51
90.00000000041689
  0
CIRCLE
  8
DETAIL
  6
CONTINUOUS
 62
     5
 10
484.69999999999533
 20
-118.0000000000027
 30
0.0
 40
7.000000000000016
  0
ARC
  8
DETAIL
  6
CONTINUOUS
 62
     5
 10
480.69999999999351
 20
-115.50213632201761
 30
0.0
 40
5.0000000000000124
 50
109.98310652186569
 51
180.0
  0
ARC
  8
DETAIL
  6
CONTINUOUS
 62
     5
 10
493.0808748879972
 20
-111.00000000001729
 30
0.0
 40
5.0000000000000124
 50
90.0
 51
109.98310652186569
  0
CIRCLE
  8
DETAIL
  6
CONTINUOUS
 62
     5
 10
470.20000000000249
 20
-106.00000000001729
 30
0.0
 40
4.7000000000000099
  0
ARC
  8
DETAIL
  6
CONTINUOUS
 62
     5
 10
479.17000234399347
 20
-200.45275223800309
 30
0.0
 40
2.0000000000000049
 50
283.99999999997613
 51
17.264158554280879
  0
ARC
  8
DETAIL
  6
CONTINUOUS
 62
     5
 10
368.96344851799398
 20
-106.2465300840213
 30
0.0
 40
6.0000000000000142
 50
169.9999999999942
 51
349.99999999999409
  0
ARC
  8
DETAIL
  6
CONTINUOUS
 62
     5
 10
377.23644911599791
 20
-105.39817606799809
 30
0.0
 40
2.0000000000000049
 50
76.735841445818338
 51
169.9999999999942
  0
ARC
  8
DETAIL
  6
CONTINUOUS
 62
     5
 10
361.47952506599722
 20
-102.6198052260243
 30
0.0
 40
2.0000000000000049
 50
349.99999999999409
 51
83.264158554305055
  0
ARC
  8
DETAIL
  6
CONTINUOUS
 62
     5
 10
-539.10000000000673
 20
-73.800000000005639
 30
0.0
 40
6.4000000000000146
 50
180.0
 51
228.65645515205489
  0
ARC
  8
DETAIL
  6
CONTINUOUS
 62
     5
 10
-539.10000000000673
 20
-83.399999999996908
 30
0.0
 40
6.4000000000000146
 50
90.0
 51
180.0
  0
ARC
  8
DETAIL
  6
CONTINUOUS
 62
     5
 10
-502.10000000000309
 20
-83.399999999996908
 30
0.0
 40
6.4000000000000146
 50
0.0
 51
90.0
  0
ARC
  8
DETAIL
  6
CONTINUOUS
 62
     5
 10
-539.10000000000673
 20
-83.399999999996908
 30
0.0
 40
3.2000000000000082
 50
90.0
 51
180.0
  0
ARC
  8
DETAIL
  6
CONTINUOUS
 62
     5
 10
-502.10000000000309
 20
-83.399999999996908
 30
0.0
 40
3.2000000000000082
 50
0.0
 51
90.0
  0
ARC
  8
DETAIL
  6
CONTINUOUS
 62
     5
 10
-539.10000000000673
 20
-73.800000000005639
 30
0.0
 40
3.2000000000000082
 50
180.0
 51
270.0
  0
ARC
  8
DETAIL
  6
CONTINUOUS
 62
     5
 10
-495.8712797060025
 20
-1.600000000005821
 30
0.0
 40
1.600000000000005
 50
10.000000000005819
 51
90.0
  0
ARC
  8
DETAIL
  6
CONTINUOUS
 62
     5
 10
-496.20000000000709
 20
-1.8000000000029099
 30
0.0
 40
1.000000000000002
 50
0.0
 51
77.742522747697805
  0
ARC
  8
DETAIL
  6
CONTINUOUS
 62
     5
 10
-495.8712797060025
 20
-1.600000000005821
 30
0.0
 40
0.8000000000000015
 50
10.000000000005819
 51
90.0
  0
ARC
  8
DETAIL
  6
CONTINUOUS
 62
     5
 10
-496.20000000000709
 20
-1.8000000000029099
 30
0.0
 40
0.500000000000002
 50
0.0
 51
90.0
  0
ARC
  8
DETAIL
  6
CONTINUOUS
 62
     5
 10
-321.03655148200869
 20
-106.2465300840213
 30
0.0
 40
6.0000000000000142
 50
169.9999999999942
 51
349.99999999999409
  0
ARC
  8
DETAIL
  6
CONTINUOUS
 62
     5
 10
-312.76355088400402
 20
-105.39817606799809
 30
0.0
 40
2.0000000000000049
 50
76.735841445818338
 51
169.9999999999942
  0
ARC
  8
DETAIL
  6
CONTINUOUS
 62
     5
 10
-328.52047493400369
 20
-102.6198052260243
 30
0.0
 40
2.0000000000000049
 50
349.99999999999409
 51
83.264158554305055
  0
ARC
  8
DETAIL
  6
CONTINUOUS
 62
     5
 10
-210.82999765600931
 20
-200.45275223800309
 30
0.0
 40
2.0000000000000049
 50
283.99999999997613
 51
17.264158554280879
  0
CIRCLE
  8
DETAIL
  6
CONTINUOUS
 62
     5
 10
-484.70000000000891
 20
-118.0000000000027
 30
0.0
 40
7.000000000000016
  0
ARC
  8
DETAIL
  6
CONTINUOUS
 62
     5
 10
-493.08087488800362
 20
-111.00000000001729
 30
0.0
 40
5.0000000000000124
 50
70.01689347813425
 51
90.0
  0
ARC
  8
DETAIL
  6
CONTINUOUS
 62
     5
 10
-480.70000000000528
 20
-115.50213632201761
 30
0.0
 40
5.0000000000000124
 50
0.0
 51
70.01689347813425
  0
CIRCLE
  8
DETAIL
  6
CONTINUOUS
 62
     5
 10
-470.20000000000158
 20
-106.00000000001729
 30
0.0
 40
4.7000000000000099
  0
ARC
  8
DETAIL
  6
CONTINUOUS
 62
     5
 10
478.90081022599219
 20
-208.7647784060191
 30
0.0
 40
6.0000000000000142
 50
103.9999999999761
 51
283.99999999997613
  0
ARC
  8
DETAIL
  6
CONTINUOUS
 62
     5
 10
483.04075267399639
 20
-215.97748385801421
 30
0.0
 40
2.0000000000000049
 50
10.73584144572366
 51
103.9999999999761
  0
ARC
  8
DETAIL
  6
CONTINUOUS
 62
     5
 10
345.00000000000267
 20
-242.1500000000033
 30
0.0
 40
142.50000000000031
 50
17.264158554280879
 51
76.735841445711301
  0
ARC
  8
DETAIL
  6
CONTINUOUS
 62
     5
 10
345.00000000000267
 20
-242.1500000000033
 30
0.0
 40
142.50000000000031
 50
259.26415855428229
 51
10.73584144572366
  0
ARC
  8
DETAIL
  6
CONTINUOUS
 62
     5
 10
345.00000000000267
 20
-242.1500000000033
 30
0.0
 40
142.50000000000031
 50
193.2641585542961
 51
252.735841445663
  0
ARC
  8
DETAIL
  6
CONTINUOUS
 62
     5
 10
345.00000000000267
 20
-242.1500000000033
 30
0.0
 40
142.50000000000031
 50
83.264158554305055
 51
186.73584144570091
  0
CIRCLE
  8
DETAIL
  6
CONTINUOUS
 62
     5
 10
345.00000000000267
 20
-242.1500000000033
 30
0.0
 40
129.00000000000031
  0
CIRCLE
  8
DETAIL
  6
CONTINUOUS
 62
     5
 10
345.00000000000267
 20
-242.1500000000033
 30
0.0
 40
121.0000000000003
  0
ARC
  8
DETAIL
  6
CONTINUOUS
 62
     5
 10
209.0965300839971
 20
-266.11344851800283
 30
0.0
 40
6.0000000000000142
 50
280.00000000000517
 51
100.0000000000052
  0
ARC
  8
DETAIL
  6
CONTINUOUS
 62
     5
 10
208.24817606799661
 20
-274.38644911400661
 30
0.0
 40
2.0000000000000049
 50
100.0000000000052
 51
193.26415855417559
  0
ARC
  8
DETAIL
  6
CONTINUOUS
 62
     5
 10
205.4698052259937
 20
-258.62952506601317
 30
0.0
 40
2.0000000000000049
 50
186.73584144570091
 51
280.00000000000517
  0
ARC
  8
DETAIL
  6
CONTINUOUS
 62
     5
 10
475.4990239013523
 20
-357.79423689153458
 30
0.0
 40
55.20097142544045
 50
309.45933177092479
 51
359.89020175409752
  0
ARC
  8
DETAIL
  6
CONTINUOUS
 62
     5
 10
495.87127970399519
 20
-402.4000000000151
 30
0.0
 40
1.600000000000005
 50
190.0000000000058
 51
270.0
  0
ARC
  8
DETAIL
  6
CONTINUOUS
 62
     5
 10
609.899999999996
 20
-355.90000000000867
 30
0.0
 40
1.4000000000000039
 50
270.0
 51
0.0
  0
ARC
  8
DETAIL
  6
CONTINUOUS
 62
     5
 10
500.39999999999782
 20
-399.94999999999442
 30
0.0
 40
1.2000000000000031
 50
180.0
 51
270.0
  0
ARC
  8
DETAIL
  6
CONTINUOUS
 62
     5
 10
496.19999999999442
 20
-402.20000000000351
 30
0.0
 40
1.000000000000002
 50
180.0
 51
270.0
  0
ARC
  8
DETAIL
  6
CONTINUOUS
 62
     5
 10
495.87127970399519
 20
-402.4000000000151
 30
0.0
 40
0.8000000000000015
 50
190.0000000000058
 51
270.0
  0
ARC
  8
DETAIL
  6
CONTINUOUS
 62
     5
 10
500.39999999999782
 20
-399.94999999999442
 30
0.0
 40
0.6000000000000024
 50
180.0
 51
270.0
  0
ARC
  8
DETAIL
  6
CONTINUOUS
 62
     5
 10
509.59999999999491
 20
-400.55000000001468
 30
0.0
 40
0.6000000000000024
 50
270.0
 51
90.0
  0
ARC
  8
DETAIL
  6
CONTINUOUS
 62
     5
 10
496.19999999999442
 20
-402.20000000000351
 30
0.0
 40
0.500000000000002
 50
180.0
 51
270.0
  0
ARC
  8
DETAIL
  6
CONTINUOUS
 62
     5
 10
311.61477840799489
 20
-376.05081022601553
 30
0.0
 40
6.0000000000000142
 50
346.0000000000249
 51
166.00000000003081
  0
ARC
  8
DETAIL
  6
CONTINUOUS
 62
     5
 10
318.82748385999912
 20
-380.19075267400513
 30
0.0
 40
2.0000000000000049
 50
166.00000000003081
 51
259.26415855428229
  0
ARC
  8
DETAIL
  6
CONTINUOUS
 62
     5
 10
303.30275223799441
 20
-376.32000234400948
 30
0.0
 40
2.0000000000000049
 50
252.735841445663
 51
346.0000000000249
  0
ARC
  8
DETAIL
  6
CONTINUOUS
 62
     5
 10
-344.99999999999909
 20
-242.1500000000033
 30
0.0
 40
142.50000000000031
 50
17.264158554280879
 51
76.735841445711301
  0
ARC
  8
DETAIL
  6
CONTINUOUS
 62
     5
 10
-344.99999999999909
 20
-242.1500000000033
 30
0.0
 40
142.50000000000031
 50
259.26415855428229
 51
10.73584144572366
  0
ARC
  8
DETAIL
  6
CONTINUOUS
 62
     5
 10
-344.99999999999909
 20
-242.1500000000033
 30
0.0
 40
142.50000000000031
 50
193.2641585542961
 51
252.735841445663
  0
ARC
  8
DETAIL
  6
CONTINUOUS
 62
     5
 10
-344.99999999999909
 20
-242.1500000000033
 30
0.0
 40
142.50000000000031
 50
83.264158554305055
 51
186.73584144570091
  0
CIRCLE
  8
DETAIL
  6
CONTINUOUS
 62
     5
 10
-344.99999999999909
 20
-242.1500000000033
 30
0.0
 40
129.00000000000031
  0
CIRCLE
  8
DETAIL
  6
CONTINUOUS
 62
     5
 10
-344.99999999999909
 20
-242.1500000000033
 30
0.0
 40
121.0000000000003
  0
ARC
  8
DETAIL
  6
CONTINUOUS
 62
     5
 10
-211.09918977401051
 20
-208.7647784060191
 30
0.0
 40
6.0000000000000142
 50
103.9999999999761
 51
283.99999999997613
  0
ARC
  8
DETAIL
  6
CONTINUOUS
 62
     5
 10
-206.95924732600631
 20
-215.97748385801421
 30
0.0
 40
2.0000000000000049
 50
10.735841445771079
 51
103.9999999999761
  0
ARC
  8
DETAIL
  6
CONTINUOUS
 62
     5
 10
-480.90346991600472
 20
-266.11344851800283
 30
0.0
 40
6.0000000000000142
 50
280.00000000000517
 51
100.0000000000052
  0
ARC
  8
DETAIL
  6
CONTINUOUS
 62
     5
 10
-481.75182393200612
 20
-274.38644911400661
 30
0.0
 40
2.0000000000000049
 50
100.0000000000052
 51
193.2641585542961
  0
ARC
  8
DETAIL
  6
CONTINUOUS
 62
     5
 10
-484.53019477400898
 20
-258.62952506601317
 30
0.0
 40
2.0000000000000049
 50
186.73584144579951
 51
280.00000000000517
  0
ARC
  8
DETAIL
  6
CONTINUOUS
 62
     5
 10
-378.3852215920042
 20
-376.05081022601553
 30
0.0
 40
6.0000000000000142
 50
346.0000000000249
 51
166.00000000003081
  0
ARC
  8
DETAIL
  6
CONTINUOUS
 62
     5
 10
-371.17251614000361
 20
-380.19075267400513
 30
0.0
 40
2.0000000000000049
 50
166.00000000003081
 51
259.26415855422931
  0
ARC
  8
DETAIL
  6
CONTINUOUS
 62
     5
 10
-386.69724776200661
 20
-376.32000234400948
 30
0.0
 40
2.0000000000000049
 50
252.735841445663
 51
346.0000000000249
  0
ARC
  8
DETAIL
  6
CONTINUOUS
 62
     5
 10
-495.8712797060025
 20
-402.4000000000151
 30
0.0
 40
1.600000000000005
 50
270.0
 51
349.99999999999409
  0
ARC
  8
DETAIL
  6
CONTINUOUS
 62
     5
 10
-500.95000000000709
 20
-402.95000000000351
 30
0.0
 40
1.0500000000000029
 50
89.999980152159793
 51
269.99999999989569
  0
ARC
  8
DETAIL
  6
CONTINUOUS
 62
     5
 10
-496.20000000000709
 20
-402.20000000000351
 30
0.0
 40
1.000000000000002
 50
282.25747725230218
 51
0.0
  0
ARC
  8
DETAIL
  6
CONTINUOUS
 62
     5
 10
-495.8712797060025
 20
-402.4000000000151
 30
0.0
 40
0.8000000000000015
 50
270.0
 51
350.00000000010078
  0
ARC
  8
DETAIL
  6
CONTINUOUS
 62
     5
 10
-496.20000000000709
 20
-402.20000000000351
 30
0.0
 40
0.500000000000002
 50
270.0
 51
0.0
  0
ARC
  8
DETAIL
  6
CONTINUOUS
 62
     5
 10
-500.95000000000709
 20
-402.95000000000351
 30
0.0
 40
0.2500000000000001
 50
89.999980152159793
 51
269.99999999958311
  0
LINE
  8
DETAIL
  6
CONTINUOUS
 62
     5
 10
-493.61355287200689
 20
-106.00000000001729
 30
0.0
 11
-493.98509349390054
 21
-105.99739144619517
 31
0.0
  0
LINE
  8
DETAIL
  6
CONTINUOUS
 62
     5
 10
-493.98509349390054
 20
-105.99739144619517
 30
0.0
 11
-494.35593275458706
 21
-105.97648281974926
 31
0.0
  0
LINE
  8
DETAIL
  6
CONTINUOUS
 62
     5
 10
-494.35593275458706
 20
-105.97648281974926
 30
0.0
 11
-494.72267086663675
 21
-105.91764859010361
 31
0.0
  0
LINE
  8
DETAIL
  6
CONTINUOUS
 62
     5
 10
-494.72267086663675
 20
-105.91764859010361
 30
0.0
 11
-495.07238506592205
 21
-105.79277197679613
 31
0.0
  0
LINE
  8
DETAIL
  6
CONTINUOUS
 62
     5
 10
-495.07238506592205
 20
-105.79277197679613
 30
0.0
 11
-495.35994981111929
 21
-105.55792874760292
 31
0.0
  0
LINE
  8
DETAIL
  6
CONTINUOUS
 62
     5
 10
-495.35994981111929
 20
-105.55792874760292
 30
0.0
 11
-495.54252968597513
 21
-105.23907837721096
 31
0.0
  0
LINE
  8
DETAIL
  6
CONTINUOUS
 62
     5
 10
-495.54252968597513
 20
-105.23907837721096
 30
0.0
 11
-495.6341882189289
 21
-104.87492291585369
 31
0.0
  0
LINE
  8
DETAIL
  6
CONTINUOUS
 62
     5
 10
-495.6341882189289
 20
-104.87492291585369
 30
0.0
 11
-495.674675614568
 21
-104.49677561817478
 31
0.0
  0
LINE
  8
DETAIL
  6
CONTINUOUS
 62
     5
 10
-495.674675614568
 20
-104.49677561817478
 30
0.0
 11
-495.69322956437759
 21
-104.1243298419737
 31
0.0
  0
LINE
  8
DETAIL
  6
CONTINUOUS
 62
     5
 10
-495.69322956437759
 20
-104.1243298419737
 30
0.0
 11
-495.69923542262836
 21
-103.75568420084363
 31
0.0
  0
LINE
  8
DETAIL
  6
CONTINUOUS
 62
     5
 10
-495.69923542262836
 20
-103.75568420084363
 30
0.0
 11
-495.69990884600969
 21
-103.38657718000739
 31
0.0
  0
LINE
  8
DETAIL
  6
CONTINUOUS
 62
     5
 10
493.61355287199331
 20
-106.00000000001729
 30
0.0
 11
493.98509349349422
 21
-105.99739144619517
 31
0.0
  0
LINE
  8
DETAIL
  6
CONTINUOUS
 62
     5
 10
493.98509349349422
 20
-105.99739144619517
 30
0.0
 11
494.35593275337237
 21
-105.97648281974926
 31
0.0
  0
LINE
  8
DETAIL
  6
CONTINUOUS
 62
     5
 10
494.35593275337237
 20
-105.97648281974926
 30
0.0
 11
494.72267086477223
 21
-105.91764859010361
 31
0.0
  0
LINE
  8
DETAIL
  6
CONTINUOUS
 62
     5
 10
494.72267086477223
 20
-105.91764859010361
 30
0.0
 11
495.07238506409544
 21
-105.79277197679613
 31
0.0
  0
LINE
  8
DETAIL
  6
CONTINUOUS
 62
     5
 10
495.07238506409544
 20
-105.79277197679613
 30
0.0
 11
495.35994981017217
 21
-105.55792874760292
 31
0.0
  0
LINE
  8
DETAIL
  6
CONTINUOUS
 62
     5
 10
495.35994981017217
 20
-105.55792874760292
 30
0.0
 11
495.54252968572359
 21
-105.23907837721096
 31
0.0
  0
LINE
  8
DETAIL
  6
CONTINUOUS
 62
     5
 10
495.54252968572359
 20
-105.23907837721096
 30
0.0
 11
495.63418821890036
 21
-104.87492291585369
 31
0.0
  0
LINE
  8
DETAIL
  6
CONTINUOUS
 62
     5
 10
495.63418821890036
 20
-104.87492291585369
 30
0.0
 11
495.67467561455857
 21
-104.49677561817478
 31
0.0
  0
LINE
  8
DETAIL
  6
CONTINUOUS
 62
     5
 10
495.67467561455857
 20
-104.49677561817478
 30
0.0
 11
495.6932295643669
 21
-104.1243298419737
 31
0.0
  0
LINE
  8
DETAIL
  6
CONTINUOUS
 62
     5
 10
495.6932295643669
 20
-104.1243298419737
 30
0.0
 11
495.69923542261586
 21
-103.75568420084363
 31
0.0
  0
LINE
  8
DETAIL
  6
CONTINUOUS
 62
     5
 10
495.69923542261586
 20
-103.75568420084363
 30
0.0
 11
495.69990884599611
 21
-103.38657718000739
 31
0.0
  0
CIRCLE
  8
DETAIL
  6
CONTINUOUS
 62
     5
 10
-441.87362902199771
 20
-145.27637097700239
 30
0.0
 40
4.7000000000000099
  0
CIRCLE
  8
DETAIL
  6
CONTINUOUS
 62
     5
 10
-441.87362902199578
 20
-339.0236290230041
 30
0.0
 40
4.7000000000000099
  0
CIRCLE
  8
DETAIL
  6
CONTINUOUS
 62
     5
 10
-248.12637097799319
 20
-339.0236290230041
 30
0.0
 40
4.7000000000000099
  0
CIRCLE
  8
DETAIL
  6
CONTINUOUS
 62
     5
 10
-248.12637097799319
 20
-145.27637097700239
 30
0.0
 40
4.7000000000000099
  0
CIRCLE
  8
DETAIL
  6
CONTINUOUS
 62
     5
 10
248.1263709780051
 20
-145.27637097700239
 30
0.0
 40
4.7000000000000099
  0
CIRCLE
  8
DETAIL
  6
CONTINUOUS
 62
     5
 10
248.1263709780051
 20
-339.0236290230041
 30
0.0
 40
4.7000000000000099
  0
CIRCLE
  8
DETAIL
  6
CONTINUOUS
 62
     5
 10
441.87362902200579
 20
-339.0236290230041
 30
0.0
 40
4.7000000000000099
  0
CIRCLE
  8
DETAIL
  6
CONTINUOUS
 62
     5
 10
441.87362902200579
 20
-145.27637097700239
 30
0.0
 40
4.7000000000000099
  0
ARC
  8
DETAIL
  6
CONTINUOUS
 62
     5
 10
480.69999999969968
 20
-122.0000000003229
 30
0.0
 40
5.0000000003707283
 50
180.0
 51
270.0
  0
ARC
  8
DETAIL
  6
CONTINUOUS
 62
     5
 10
-480.69999999969968
 20
-122.0000000003229
 30
0.0
 40
5.0000000003707283
 50
270.0
 51
0.0
  0
LINE
  8
BASIS
  6
DASHDOT
 62
     6
 10
512.71343876124229
 20
-242.1500000000033
 30
0.0
 11
-507.38710317655659
 21
-242.1500000000033
 31
0.0
  0
LINE
  8
BASIS
  6
DASHDOT
 62
     6
 10
345.00000000000267
 20
-79.956950680070804
 30
0.0
 11
345.00000000000267
 21
-404.34304931993569
 31
0.0
  0
LINE
  8
BASIS
  6
DASHDOT
 62
     6
 10
-344.99999999999909
 20
-85.045756862718918
 30
0.0
 11
-344.99999999999909
 21
-399.25424313728757
 31
0.0
  0
ARC
  8
DETAIL
  6
CONTINUOUS
 62
     5
 10
-500.95000000000709
 20
-1.0500000000174621
 30
0.0
 40
1.0500000000000029
 50
89.999980152159793
 51
269.99999999989569
  0
ARC
  8
DETAIL
  6
CONTINUOUS
 62
     5
 10
-500.95000000000709
 20
-1.0500000000174621
 30
0.0
 40
0.2500000000000001
 50
89.999980152159793
 51
269.99999999958311
  0
LINE
  8
DETAIL
  6
CONTINUOUS
 62
     5
 10
-497.69999999999982
 20
-2.1000000000058212
 30
0.0
 11
-500.95000000000709
 21
-2.1000000000058212
 31
0.0
  0
LINE
  8
DETAIL
  6
CONTINUOUS
 62
     5
 10
-500.95000000000709
 20
-401.90000000000049
 30
0.0
 11
-497.69999999999982
 21
-401.90000000000049
 31
0.0
  0
LINE
  8
DETAIL
  6
CONTINUOUS
 62
     5
 10
497.70000000000158
 20
-1.3000000000029099
 30
0.0
 11
497.70000000000158
 21
-2.1000000000058212
 31
0.0
  0
LINE
  8
DETAIL
  6
CONTINUOUS
 62
     5
 10
497.70000000000158
 20
-401.90000000000049
 30
0.0
 11
497.70000000000158
 21
-402.70000000000351
 31
0.0
  0
LINE
  8
DETAIL
  6
CONTINUOUS
 62
     5
 10
497.70000000000158
 20
-2.1000000000058212
 30
0.0
 11
500.95000000000891
 21
-2.1000000000058212
 31
0.0
  0
LINE
  8
DETAIL
  6
CONTINUOUS
 62
     5
 10
496.19999999999442
 20
-1.3000000000029099
 30
0.0
 11
500.95000000000891
 21
-1.3000000000029099
 31
0.0
  0
LINE
  8
DETAIL
  6
CONTINUOUS
 62
     5
 10
500.95000000000891
 20
-402.70000000000351
 30
0.0
 11
496.19999999999442
 21
-402.70000000000351
 31
0.0
  0
LINE
  8
DETAIL
  6
CONTINUOUS
 62
     5
 10
500.95000000000891
 20
-401.90000000000049
 30
0.0
 11
497.70000000000158
 21
-401.90000000000049
 31
0.0
  0
ARC
  8
DETAIL
  6
CONTINUOUS
 62
     5
 10
500.95000000000891
 20
-402.95000000000351
 30
0.0
 40
1.0500000000000029
 50
270.0000176001185
 51
89.999999999895778
  0
ARC
  8
DETAIL
  6
CONTINUOUS
 62
     5
 10
500.95000000000891
 20
-402.95000000000351
 30
0.0
 40
0.2500000000000001
 50
270.0000176001185
 51
89.99999999958311
  0
LINE
  8
DETAIL
  6
CONTINUOUS
 62
     5
 10
487.16730091799673
 20
-401.90000000000049
 30
0.0
 11
-487.16730091799849
 21
-401.90000000000049
 31
0.0
  0
LINE
  8
DETAIL
  6
CONTINUOUS
 62
     5
 10
-487.21438631000183
 20
-2.1000000000058212
 30
0.0
 11
487.21438630999728
 21
-2.1000000000058212
 31
0.0
  0
LINE
  8
BASIS
  6
DASHDOT
 62
     6
 10
544.77998029967057
 20
-202.150000000006
 30
0.0
 11
-586.11652088574647
 21
-202.150000000006
 31
0.0
  0
LINE
  8
DETAIL
  6
CONTINUOUS
 62
     5
 10
496.49999636127359
 20
-355.98360345509718
 30
0.0
 11
495.69999999999442
 21
-355.98360345509718
 31
0.0
  0
LINE
  8
SIZE
  6
CONTINUOUS
 62
    30
 10
-502.00000000000819
 20
18.95000018184874
 30
0.0
 11
-502.00000000000819
 21
309.62655656707369
 31
0.0
  0
LINE
  8
SIZE
  6
CONTINUOUS
 62
    30
 10
501.99999999999449
 20
18.950000161253229
 30
0.0
 11
501.99999999999449
 21
309.62655656707369
 31
0.0
  0
LINE
  8
SIZE
  6
CONTINUOUS
 62
    30
 10
-490.00000000000819
 20
289.62655656707369
 30
0.0
 11
489.99999999999449
 21
289.62655656707369
 31
0.0
  0
CIRCLE
  8
SIZE
  6
CONTINUOUS
 62
    30
 10
-502.00000000000819
 20
289.62655656707369
 30
0.0
 40
6.0
  0
LINE
  8
SIZE
  6
CONTINUOUS
 62
    30
 10
-502.00000000000819
 20
289.62655656707369
 30
0.0
 11
-490.00000000000819
 21
289.62655656707369
 31
0.0
  0
CIRCLE
  8
SIZE
  6
CONTINUOUS
 62
    30
 10
501.99999999999449
 20
289.62655656707369
 30
0.0
 40
6.0
  0
LINE
  8
SIZE
  6
CONTINUOUS
 62
    30
 10
501.99999999999449
 20
289.62655656707369
 30
0.0
 11
489.99999999999449
 21
289.62655656707369
 31
0.0
  0
TEXT
  8
SIZE
  6
CONTINUOUS
 62
    30
 10
-103.10400000000682
 20
314.62655656707369
 30
0.0
 40
64.0
  1
1004
 50
0.0
 41
0.9
 51
0.0
  7
STANDARD
 71
     0
 72
     1
 11
-0.0000000000068212
 21
314.62655656707369
 31
0.0
210
0.0
220
0.0
230
1.0
  0
POINT
  8
DEFPOINTS
  6
CONTINUOUS
 62
    30
 10
-502.00000000000819
 20
-1.049999818151264
 30
0.0
  0
POINT
  8
DEFPOINTS
  6
CONTINUOUS
 62
    30
 10
501.99999999999449
 20
-1.0499998387467711
 30
0.0
  0
POINT
  8
DEFPOINTS
  6
CONTINUOUS
 62
    30
 10
501.99999999999449
 20
289.62655656707369
 30
0.0
  0
LINE
  8
SIZE
  6
CONTINUOUS
 62
    30
 10
-344.99999999999909
 20
-65.045756862718918
 30
0.0
 11
-344.99999999999909
 21
189.7536739391835
 31
0.0
  0
LINE
  8
SIZE
  6
CONTINUOUS
 62
    30
 10
345.00000000000267
 20
-59.956950680070797
 30
0.0
 11
345.00000000000267
 21
189.7536739391835
 31
0.0
  0
LINE
  8
SIZE
  6
CONTINUOUS
 62
    30
 10
-332.99999999999909
 20
169.7536739391835
 30
0.0
 11
333.00000000000267
 21
169.7536739391835
 31
0.0
  0
CIRCLE
  8
SIZE
  6
CONTINUOUS
 62
    30
 10
-344.99999999999909
 20
169.7536739391835
 30
0.0
 40
6.0
  0
LINE
  8
SIZE
  6
CONTINUOUS
 62
    30
 10
-344.99999999999909
 20
169.7536739391835
 30
0.0
 11
-332.99999999999909
 21
169.7536739391835
 31
0.0
  0
CIRCLE
  8
SIZE
  6
CONTINUOUS
 62
    30
 10
345.00000000000267
 20
169.7536739391835
 30
0.0
 40
6.0
  0
LINE
  8
SIZE
  6
CONTINUOUS
 62
    30
 10
345.00000000000267
 20
169.7536739391835
 30
0.0
 11
333.00000000000267
 21
169.7536739391835
 31
0.0
  0
TEXT
  8
SIZE
  6
CONTINUOUS
 62
    30
 10
-80.927999999998178
 20
194.7536739391835
 30
0.0
 40
64.0
  1
690
 50
0.0
 41
0.9
 51
0.0
  7
STANDARD
 71
     0
 72
     1
 11
0.000000000001819
 21
194.7536739391835
 31
0.0
210
0.0
220
0.0
230
1.0
  0
POINT
  8
DEFPOINTS
  6
CONTINUOUS
 62
    30
 10
-344.99999999999909
 20
-85.045756862718918
 30
0.0
  0
POINT
  8
DEFPOINTS
  6
CONTINUOUS
 62
    30
 10
345.00000000000267
 20
-79.956950680070804
 30
0.0
  0
POINT
  8
DEFPOINTS
  6
CONTINUOUS
 62
    30
 10
345.00000000000267
 20
169.7536739391835
 30
0.0
  0
LINE
  8
SIZE
  6
CONTINUOUS
 62
    30
 10
610.69999999999891
 20
-377.90000000000867
 30
0.0
 11
610.69999999999891
 21
-606.09287980490353
 31
0.0
  0
LINE
  8
SIZE
  6
CONTINUOUS
 62
    30
 10
495.69999999999442
 20
-422.20000000000351
 30
0.0
 11
495.69999999999442
 21
-606.09287980490353
 31
0.0
  0
LINE
  8
SIZE
  6
CONTINUOUS
 62
    30
 10
598.69999999999891
 20
-586.09287980490353
 30
0.0
 11
507.69999999999442
 21
-586.09287980490353
 31
0.0
  0
LINE
  8
SIZE
  6
CONTINUOUS
 62
    30
 10
495.69999999999442
 20
-586.09287980490353
 30
0.0
 11
307.52857142856573
 21
-586.09287980490353
 31
0.0
  0
CIRCLE
  8
SIZE
  6
CONTINUOUS
 62
    30
 10
610.69999999999891
 20
-586.09287980490353
 30
0.0
 40
6.0
  0
LINE
  8
SIZE
  6
CONTINUOUS
 62
    30
 10
610.69999999999891
 20
-586.09287980490353
 30
0.0
 11
598.69999999999891
 21
-586.09287980490353
 31
0.0
  0
CIRCLE
  8
SIZE
  6
CONTINUOUS
 62
    30
 10
495.69999999999442
 20
-586.09287980490353
 30
0.0
 40
6.0
  0
LINE
  8
SIZE
  6
CONTINUOUS
 62
    30
 10
495.69999999999442
 20
-586.09287980490353
 30
0.0
 11
507.69999999999442
 21
-586.09287980490353
 31
0.0
  0
TEXT
  8
SIZE
  6
CONTINUOUS
 62
    30
 10
326.78228571428002
 20
-561.09287980490353
 30
0.0
 40
64.0
  1
115
 50
0.0
 41
0.9
 51
0.0
  7
STANDARD
 71
     0
 72
     1
 11
395.61428571428002
 21
-561.09287980490353
 31
0.0
210
0.0
220
0.0
230
1.0
  0
POINT
  8
DEFPOINTS
  6
CONTINUOUS
 62
    30
 10
610.69999999999891
 20
-357.90000000000867
 30
0.0
  0
POINT
  8
DEFPOINTS
  6
CONTINUOUS
 62
    30
 10
495.69999999999442
 20
-402.20000000000351
 30
0.0
  0
POINT
  8
DEFPOINTS
  6
CONTINUOUS
 62
    30
 10
495.69999999999442
 20
-586.09287980490353
 30
0.0
  0
LINE
  8
SIZE
  6
CONTINUOUS
 62
    30
 10
564.7799802996708
 20
-202.15000000000609
 30
0.0
 11
861.13032292399134
 21
-202.15000000000609
 31
0.0
  0
LINE
  8
SIZE
  6
CONTINUOUS
 62
    30
 10
532.71343876124251
 20
-242.15000000000339
 30
0.0
 11
861.13032292399134
 21
-242.1500000000033
 31
0.0
  0
LINE
  8
SIZE
  6
CONTINUOUS
 62
    30
 10
841.13032292399134
 20
-190.150000000006
 30
0.0
 11
841.13032292399134
 21
-178.150000000006
 31
0.0
  0
LINE
  8
SIZE
  6
CONTINUOUS
 62
    30
 10
841.13032292399134
 20
-254.1500000000033
 30
0.0
 11
841.13032292399146
 21
-548.77236010198044
 31
0.0
  0
LINE
  8
SIZE
  6
CONTINUOUS
 62
    30
 10
841.13032292399134
 20
-202.15000000000609
 30
0.0
 11
841.13032292399134
 21
-242.1500000000033
 31
0.0
  0
CIRCLE
  8
SIZE
  6
CONTINUOUS
 62
    30
 10
841.13032292399134
 20
-202.15000000000609
 30
0.0
 40
6.0
  0
LINE
  8
SIZE
  6
CONTINUOUS
 62
    30
 10
841.13032292399134
 20
-202.15000000000609
 30
0.0
 11
841.13032292399134
 21
-190.15000000000609
 31
0.0
  0
CIRCLE
  8
SIZE
  6
CONTINUOUS
 62
    30
 10
841.13032292399134
 20
-242.1500000000033
 30
0.0
 40
6.0
  0
LINE
  8
SIZE
  6
CONTINUOUS
 62
    30
 10
841.13032292399134
 20
-242.1500000000033
 30
0.0
 11
841.13032292399134
 21
-254.1500000000033
 31
0.0
  0
TEXT
  8
SIZE
  6
CONTINUOUS
 62
    30
 10
816.13032292399112
 20
-531.8637886734092
 30
0.0
 40
64.0
  1
40
 50
90.0
 41
0.9
 51
0.0
  7
STANDARD
 71
     0
 72
     1
 11
816.13032292399112
 21
-477.14378867340918
 31
0.0
210
0.0
220
0.0
230
1.0
  0
POINT
  8
DEFPOINTS
  6
CONTINUOUS
 62
    30
 10
544.7799802996708
 20
-202.15000000000609
 30
0.0
  0
POINT
  8
DEFPOINTS
  6
CONTINUOUS
 62
    30
 10
512.71343876124251
 20
-242.15000000000339
 30
0.0
  0
POINT
  8
DEFPOINTS
  6
CONTINUOUS
 62
    30
 10
841.13032292399134
 20
-242.1500000000033
 30
0.0
  0
LINE
  8
SIZE
  6
CONTINUOUS
 62
    30
 10
520.94999999999459
 20
0.0000000000000032
 30
0.0
 11
999.66944737446045
 21
0.0000000000000802
 31
0.0
  0
LINE
  8
SIZE
  6
CONTINUOUS
 62
    30
 10
520.94999999999459
 20
-404.00000000000659
 30
0.0
 11
999.66944737446056
 21
-404.00000000000648
 31
0.0
  0
LINE
  8
SIZE
  6
CONTINUOUS
 62
    30
 10
979.66944737446045
 20
-11.999999999999931
 30
0.0
 11
979.66944737446056
 21
-392.00000000000648
 31
0.0
  0
CIRCLE
  8
SIZE
  6
CONTINUOUS
 62
    30
 10
979.66944737446045
 20
0.000000000000077
 30
0.0
 40
6.0
  0
LINE
  8
SIZE
  6
CONTINUOUS
 62
    30
 10
979.66944737446045
 20
0.000000000000077
 30
0.0
 11
979.66944737446045
 21
-11.999999999999924
 31
0.0
  0
CIRCLE
  8
SIZE
  6
CONTINUOUS
 62
    30
 10
979.66944737446056
 20
-404.00000000000648
 30
0.0
 40
6.0
  0
LINE
  8
SIZE
  6
CONTINUOUS
 62
    30
 10
979.66944737446056
 20
-404.00000000000648
 30
0.0
 11
979.66944737446056
 21
-392.00000000000648
 31
0.0
  0
TEXT
  8
SIZE
  6
CONTINUOUS
 62
    30
 10
954.66944737446022
 20
-284.08000000000345
 30
0.0
 40
64.0
  1
404
 50
90.0
 41
0.9
 51
0.0
  7
STANDARD
 71
     0
 72
     1
 11
954.66944737446022
 21
-202.00000000000341
 31
0.0
210
0.0
220
0.0
230
1.0
  0
POINT
  8
DEFPOINTS
  6
CONTINUOUS
 62
    30
 10
500.94999999999459
 20
0.0
 30
0.0
  0
POINT
  8
DEFPOINTS
  6
CONTINUOUS
 62
    30
 10
500.94999999999459
 20
-404.00000000000659
 30
0.0
  0
POINT
  8
DEFPOINTS
  6
CONTINUOUS
 62
    30
 10
979.66944737446056
 20
-404.00000000000648
 30
0.0
  0
LINE
  8
SIZE
  6
CONTINUOUS
 62
    30
 10
520.94999999999277
 20
-0.0000000000172772
 30
0.0
 11
861.13032292399134
 21
-0.0000000000172225
 31
0.0
  0
LINE
  8
SIZE
  6
CONTINUOUS
 62
    30
 10
596.43427874098074
 20
-77.000000000001847
 30
0.0
 11
861.13032292399134
 21
-77.000000000001805
 31
0.0
  0
LINE
  8
SIZE
  6
CONTINUOUS
 62
    30
 10
841.13032292399134
 20
-65.000000000001805
 30
0.0
 11
841.13032292399134
 21
-12.000000000017231
 31
0.0
  0
LINE
  8
SIZE
  6
CONTINUOUS
 62
    30
 10
841.13032292399134
 20
-0.0000000000172257
 30
0.0
 11
841.13032292399134
 21
155.25714285712601
 31
0.0
  0
CIRCLE
  8
SIZE
  6
CONTINUOUS
 62
    30
 10
841.13032292399134
 20
-77.000000000001805
 30
0.0
 40
6.0
  0
LINE
  8
SIZE
  6
CONTINUOUS
 62
    30
 10
841.13032292399134
 20
-77.000000000001805
 30
0.0
 11
841.13032292399134
 21
-65.000000000001805
 31
0.0
  0
CIRCLE
  8
SIZE
  6
CONTINUOUS
 62
    30
 10
841.13032292399134
 20
-0.0000000000172257
 30
0.0
 40
6.0
  0
LINE
  8
SIZE
  6
CONTINUOUS
 62
    30
 10
841.13032292399134
 20
-0.0000000000172257
 30
0.0
 11
841.13032292399134
 21
-12.000000000017225
 31
0.0
  0
TEXT
  8
SIZE
  6
CONTINUOUS
 62
    30
 10
816.13032292399112
 20
30.060571428554354
 30
0.0
 40
64.0
  1
77
 50
90.0
 41
0.9
 51
0.0
  7
STANDARD
 71
     0
 72
     1
 11
816.13032292399112
 21
83.628571428554338
 31
0.0
210
0.0
220
0.0
230
1.0
  0
POINT
  8
DEFPOINTS
  6
CONTINUOUS
 62
    30
 10
500.94999999999283
 20
-0.0000000000172804
 30
0.0
  0
POINT
  8
DEFPOINTS
  6
CONTINUOUS
 62
    30
 10
576.43427874098074
 20
-77.000000000001847
 30
0.0
  0
POINT
  8
DEFPOINTS
  6
CONTINUOUS
 62
    30
 10
841.13032292399134
 20
-77.000000000001805
 30
0.0
  0
LINE
  8
SIZE
  6
CONTINUOUS
 62
    30
 10
-520.95000000000732
 20
-0.0000000000000032
 30
0.0
 11
-659.97276259089813
 21
-0.0000000000000256
 31
0.0
  0
LINE
  8
SIZE
  6
CONTINUOUS
 62
    30
 10
-596.43427874098165
 20
-77.000000000001847
 30
0.0
 11
-659.97276259089813
 21
-77.000000000001862
 31
0.0
  0
LINE
  8
SIZE
  6
CONTINUOUS
 62
    30
 10
-639.97276259089813
 20
-65.000000000001862
 30
0.0
 11
-639.97276259089813
 21
-12.00000000000002
 31
0.0
  0
LINE
  8
SIZE
  6
CONTINUOUS
 62
    30
 10
-639.97276259089813
 20
-0.0000000000000224
 30
0.0
 11
-639.97276259089813
 21
155.25714285714301
 31
0.0
  0
CIRCLE
  8
SIZE
  6
CONTINUOUS
 62
    30
 10
-639.97276259089813
 20
-77.000000000001862
 30
0.0
 40
6.0
  0
LINE
  8
SIZE
  6
CONTINUOUS
 62
    30
 10
-639.97276259089813
 20
-77.000000000001862
 30
0.0
 11
-639.97276259089813
 21
-65.000000000001862
 31
0.0
  0
CIRCLE
  8
SIZE
  6
CONTINUOUS
 62
    30
 10
-639.97276259089813
 20
-0.0000000000000224
 30
0.0
 40
6.0
  0
LINE
  8
SIZE
  6
CONTINUOUS
 62
    30
 10
-639.97276259089813
 20
-0.0000000000000224
 30
0.0
 11
-639.97276259089813
 21
-12.000000000000023
 31
0.0
  0
TEXT
  8
SIZE
  6
CONTINUOUS
 62
    30
 10
-664.97276259089801
 20
30.060571428571734
 30
0.0
 40
64.0
  1
77
 50
90.0
 41
0.9
 51
0.0
  7
STANDARD
 71
     0
 72
     1
 11
-664.97276259089801
 21
83.628571428571718
 31
0.0
210
0.0
220
0.0
230
1.0
  0
POINT
  8
DEFPOINTS
  6
CONTINUOUS
 62
    30
 10
-500.95000000000732
 20
0.0
 30
0.0
  0
POINT
  8
DEFPOINTS
  6
CONTINUOUS
 62
    30
 10
-576.43427874098165
 20
-77.000000000001847
 30
0.0
  0
POINT
  8
DEFPOINTS
  6
CONTINUOUS
 62
    30
 10
-639.97276259089813
 20
-77.000000000001862
 30
0.0
  0
POINT
  8
ARRANGE
  6
CONTINUOUS
 62
     1
 10
0.0
 20
0.0
 30
0.0
 50
270.0
  0
CIRCLE
  8
ARRANGE
  6
CONTINUOUS
 62
     1
 10
0.0
 20
0.0
 30
0.0
 40
40.0
  0
LINE
  8
BASIS
  6
DASHDOT
 62
     6
 10
-525.50000000000091
 20
-26.06572125903222
 30
0.0
 11
-525.50000000000091
 21
-127.93427874097139
 31
0.0
  0
LINE
  8
BASIS
  6
DASHDOT
 62
     6
 10
-576.43427874098143
 20
-77.000000000001819
 30
0.0
 11
-474.56572125902773
 21
-77.000000000001819
 31
0.0
  0
LINE
  8
BASIS
  6
DASHDOT
 62
     6
 10
525.5
 20
-26.06572125903222
 30
0.0
 11
525.5
 21
-127.93427874097139
 31
0.0
  0
LINE
  8
BASIS
  6
DASHDOT
 62
     6
 10
576.43427874098052
 20
-77.000000000001819
 30
0.0
 11
474.56572125902858
 21
-77.000000000001819
 31
0.0
  0
LINE
  8
SIZE
  6
CONTINUOUS
 62
    30
 10
525.5
 20
-6.065721259032216
 30
0.0
 11
525.5
 21
431.89993163094908
 31
0.0
  0
LINE
  8
SIZE
  6
CONTINUOUS
 62
    30
 10
-525.50000000000091
 20
-6.065721259032216
 30
0.0
 11
-525.50000000000091
 21
431.89993163094908
 31
0.0
  0
LINE
  8
SIZE
  6
CONTINUOUS
 62
    30
 10
513.5
 20
411.89993163094908
 30
0.0
 11
-513.50000000000091
 21
411.89993163094908
 31
0.0
  0
CIRCLE
  8
SIZE
  6
CONTINUOUS
 62
    30
 10
525.5
 20
411.89993163094908
 30
0.0
 40
6.0
  0
LINE
  8
SIZE
  6
CONTINUOUS
 62
    30
 10
525.5
 20
411.89993163094908
 30
0.0
 11
513.5
 21
411.89993163094908
 31
0.0
  0
CIRCLE
  8
SIZE
  6
CONTINUOUS
 62
    30
 10
-525.50000000000091
 20
411.89993163094908
 30
0.0
 40
6.0
  0
LINE
  8
SIZE
  6
CONTINUOUS
 62
    30
 10
-525.50000000000091
 20
411.89993163094908
 30
0.0
 11
-513.50000000000091
 21
411.89993163094908
 31
0.0
  0
TEXT
  8
SIZE
  6
CONTINUOUS
 62
    30
 10
-96.192000000000448
 20
436.89993163094908
 30
0.0
 40
64.0
  1
1051
 50
0.0
 41
0.9
 51
0.0
  7
STANDARD
 71
     0
 72
     1
 11
-0.0000000000004547
 21
436.89993163094908
 31
0.0
210
0.0
220
0.0
230
1.0
  0
POINT
  8
DEFPOINTS
  6
CONTINUOUS
 62
    30
 10
525.5
 20
-26.06572125903222
 30
0.0
  0
POINT
  8
DEFPOINTS
  6
CONTINUOUS
 62
    30
 10
-525.50000000000091
 20
-26.06572125903222
 30
0.0
  0
POINT
  8
DEFPOINTS
  6
CONTINUOUS
 62
    30
 10
-525.50000000000091
 20
411.89993163094908
 30
0.0
  0
LINE
  8
SIZE
  6
CONTINUOUS
 62
    30
 10
545.50000000000364
 20
-50.199999999999818
 30
0.0
 11
545.50000000000364
 21
431.89993163097188
 31
0.0
  0
LINE
  8
SIZE
  6
CONTINUOUS
 62
    30
 10
525.5
 20
-6.065721259032216
 30
0.0
 11
525.5
 21
431.89993163097188
 31
0.0
  0
LINE
  8
SIZE
  6
CONTINUOUS
 62
    30
 10
513.5
 20
411.89993163097188
 30
0.0
 11
501.5
 21
411.89993163097188
 31
0.0
  0
LINE
  8
SIZE
  6
CONTINUOUS
 62
    30
 10
557.50000000000364
 20
411.89993163097188
 30
0.0
 11
712.75714285714832
 21
411.89993163097188
 31
0.0
  0
LINE
  8
SIZE
  6
CONTINUOUS
 62
    30
 10
525.5
 20
411.89993163097188
 30
0.0
 11
545.50000000000364
 21
411.89993163097188
 31
0.0
  0
CIRCLE
  8
SIZE
  6
CONTINUOUS
 62
    30
 10
525.5
 20
411.89993163097188
 30
0.0
 40
6.0
  0
LINE
  8
SIZE
  6
CONTINUOUS
 62
    30
 10
525.5
 20
411.89993163097188
 30
0.0
 11
513.5
 21
411.89993163097188
 31
0.0
  0
CIRCLE
  8
SIZE
  6
CONTINUOUS
 62
    30
 10
545.50000000000364
 20
411.89993163097188
 30
0.0
 40
6.0
  0
LINE
  8
SIZE
  6
CONTINUOUS
 62
    30
 10
545.50000000000364
 20
411.89993163097188
 30
0.0
 11
557.50000000000364
 21
411.89993163097188
 31
0.0
  0
TEXT
  8
SIZE
  6
CONTINUOUS
 62
    30
 10
586.98457142857683
 20
436.89993163097188
 30
0.0
 40
64.0
  1
20
 50
0.0
 41
0.9
 51
0.0
  7
STANDARD
 71
     0
 72
     1
 11
641.12857142857683
 21
436.89993163097188
 31
0.0
210
0.0
220
0.0
230
1.0
  0
POINT
  8
DEFPOINTS
  6
CONTINUOUS
 62
    30
 10
545.50000000000364
 20
-70.199999999999818
 30
0.0
  0
POINT
  8
DEFPOINTS
  6
CONTINUOUS
 62
    30
 10
525.5
 20
-26.06572125903222
 30
0.0
  0
POINT
  8
DEFPOINTS
  6
CONTINUOUS
 62
    30
 10
525.5
 20
411.89993163097188
 30
0.0
  0
CIRCLE
  8
FIX
  6
CONTINUOUS
 62
    11
 10
525.5
 20
-77.000000000001819
 30
0.0
 40
6.5
  0
CIRCLE
  8
FIX
  6
CONTINUOUS
 62
    11
 10
-525.50000000000455
 20
-77.000000000001819
 30
0.0
 40
6.5
  0
LINE
  8
OUTLINE
  6
CONTINUOUS
 62
     3
 10
-495.70000000000891
 20
-83.399999999996908
 30
0.0
 11
-495.70000000000891
 21
-1.8000000000029099
 31
0.0
  0
ARC
  8
OUTLINE
  6
CONTINUOUS
 62
     3
 10
-496.20000000000755
 20
-1.8000000000015417
 30
0.0
 40
0.4999999999986317
 50
0.0
 51
90.0
  0
LINE
  8
OUTLINE
  6
CONTINUOUS
 62
     3
 10
-496.20000000000709
 20
-1.3000000000029099
 30
0.0
 11
-497.69999999999982
 21
-1.3000000000029099
 31
0.0
  0
LINE
  8
OUTLINE
  6
CONTINUOUS
 62
     3
 10
-497.69999999999982
 20
-1.3000000000029099
 30
0.0
 11
-497.69999999999618
 21
-2.0999999999976349
 31
0.0
  0
LINE
  8
OUTLINE
  6
CONTINUOUS
 62
     3
 10
-497.69999999999618
 20
-2.0999999999976349
 30
0.0
 11
-500.95000000000709
 21
-2.1000000000058212
 31
0.0
  0
ARC
  8
OUTLINE
  6
CONTINUOUS
 62
     3
 10
-500.95000000000709
 20
-1.0500000000029106
 30
0.0
 40
1.0500000000029106
 50
90.0
 51
270.0
  0
LINE
  8
OUTLINE
  6
CONTINUOUS
 62
     3
 10
-500.95000000000709
 20
0.0
 30
0.0
 11
-495.8712797060025
 21
-0.000000000005798
 31
0.0
  0
ARC
  8
OUTLINE
  6
CONTINUOUS
 62
     3
 10
-495.8712797060021
 20
-1.6000000000059946
 30
0.0
 40
1.6000000000001966
 50
10.000000000011823
 51
90.0
  0
LINE
  8
OUTLINE
  6
CONTINUOUS
 62
     3
 10
-494.29558730118242
 20
-1.3221629157385451
 30
0.0
 11
-494.03500474999868
 21
-2.8000000000029099
 31
0.0
  0
LINE
  8
OUTLINE
  6
CONTINUOUS
 62
     3
 10
-494.03500474999868
 20
-2.8000000000029099
 30
0.0
 11
-492.84708539200352
 21
-2.8000000000029099
 31
0.0
  0
LINE
  8
OUTLINE
  6
CONTINUOUS
 62
     3
 10
-492.84708539200352
 20
-2.8000000000029099
 30
0.0
 11
-492.84708539200352
 21
0.0
 31
0.0
  0
LINE
  8
OUTLINE
  6
CONTINUOUS
 62
     3
 10
-492.84708539200352
 20
0.0
 30
0.0
 11
492.84708539199801
 21
0.0
 31
0.0
  0
LINE
  8
OUTLINE
  6
CONTINUOUS
 62
     3
 10
492.84708539199801
 20
0.0
 30
0.0
 11
492.84708539199801
 21
-0.8000000000029104
 31
0.0
  0
LINE
  8
OUTLINE
  6
CONTINUOUS
 62
     3
 10
492.84708539199801
 20
-0.8000000000029104
 30
0.0
 11
494.19999999999351
 21
-0.8000000000029104
 31
0.0
  0
LINE
  8
OUTLINE
  6
CONTINUOUS
 62
     3
 10
494.19999999999351
 20
-0.8000000000029104
 30
0.0
 11
494.21759236999418
 21
-1.8000000000029099
 31
0.0
  0
LINE
  8
OUTLINE
  6
CONTINUOUS
 62
     3
 10
494.21759236999418
 20
-1.8000000000029099
 30
0.0
 11
494.29558729917608
 21
-1.3221629157385451
 31
0.0
  0
ARC
  8
OUTLINE
  6
CONTINUOUS
 62
     3
 10
495.87127970400616
 20
-1.6000000000113563
 30
0.0
 40
1.6000000000113563
 50
90.0
 51
169.9999999998638
  0
LINE
  8
OUTLINE
  6
CONTINUOUS
 62
     3
 10
495.87127970399519
 20
0.0
 30
0.0
 11
500.94999999999442
 21
0.0
 31
0.0
  0
ARC
  8
OUTLINE
  6
CONTINUOUS
 62
     3
 10
500.95000016126392
 20
-1.0500000000087082
 30
0.0
 40
1.0500000000087206
 50
270.0
 51
90.0
  0
LINE
  8
OUTLINE
  6
CONTINUOUS
 62
     3
 10
500.95000032253301
 20
-2.1000000000174168
 30
0.0
 11
497.70000000000158
 21
-2.1000000000058212
 31
0.0
  0
LINE
  8
OUTLINE
  6
CONTINUOUS
 62
     3
 10
497.70000000000158
 20
-2.1000000000058212
 30
0.0
 11
497.70000000000158
 21
-1.3000000000154159
 31
0.0
  0
LINE
  8
OUTLINE
  6
CONTINUOUS
 62
     3
 10
497.70000000000158
 20
-1.3000000000154159
 30
0.0
 11
496.20000000000528
 21
-1.3000000000154159
 31
0.0
  0
ARC
  8
OUTLINE
  6
CONTINUOUS
 62
     3
 10
496.19999999999277
 20
-1.8000000000028882
 30
0.0
 40
0.4999999999874724
 50
90.0
 51
180.0
  0
LINE
  8
OUTLINE
  6
CONTINUOUS
 62
     3
 10
495.70000000000528
 20
-1.80000000000814
 30
0.0
 11
495.69999999999442
 21
-3.650000000020555
 31
0.0
  0
LINE
  8
OUTLINE
  6
CONTINUOUS
 62
     3
 10
495.69999999999442
 20
-3.650000000020555
 30
0.0
 11
499.19999999999442
 21
-3.650000000020555
 31
0.0
  0
LINE
  8
OUTLINE
  6
CONTINUOUS
 62
     3
 10
499.19999999999442
 20
-3.650000000020555
 30
0.0
 11
499.19999999999709
 21
-4.3000000000029104
 31
0.0
  0
ARC
  8
OUTLINE
  6
CONTINUOUS
 62
     3
 10
500.44414577726008
 20
-4.3441457772689454
 30
0.0
 40
1.2449287388167054
 50
92.032162188966311
 51
177.96783781085969
  0
LINE
  8
OUTLINE
  6
CONTINUOUS
 62
     3
 10
500.39999999999782
 20
-3.1000000000058212
 30
0.0
 11
509.59999999923087
 21
-3.149999998789212
 31
0.0
  0
ARC
  8
OUTLINE
  6
CONTINUOUS
 62
     3
 10
509.59999999923087
 20
-3.7499999987884389
 30
0.0
 40
0.599999999999227
 50
270.0
 51
90.0
  0
LINE
  8
OUTLINE
  6
CONTINUOUS
 62
     3
 10
509.59999999923087
 20
-4.3499999987876663
 30
0.0
 11
510.20113113123438
 21
-4.3508654841305088
 31
0.0
  0
LINE
  8
OUTLINE
  6
CONTINUOUS
 62
     3
 10
510.20113113123438
 20
-4.3508654841305088
 30
0.0
 11
510.58091743123441
 21
-3.8864248588022292
 31
0.0
  0
ARC
  8
OUTLINE
  6
CONTINUOUS
 62
     3
 10
475.59999999999786
 20
-46.458075234005271
 30
0.0
 40
55.099999999995603
 50
0.0
 51
50.590221408983155
  0
LINE
  8
OUTLINE
  6
CONTINUOUS
 62
     3
 10
530.69999999999345
 20
-46.458075234008902
 30
0.0
 11
530.69999999999345
 21
-77.000000000002728
 31
0.0
  0
LINE
  8
OUTLINE
  6
CONTINUOUS
 62
     3
 10
530.69999999999345
 20
-77.000000000002728
 30
0.0
 11
539.10000000000218
 21
-77.000000000002728
 31
0.0
  0
ARC
  8
OUTLINE
  6
CONTINUOUS
 62
     3
 10
539.10000000000821
 20
-73.800000000007998
 30
0.0
 40
3.1999999999947359
 50
270.0
 51
0.0
  0
LINE
  8
OUTLINE
  6
CONTINUOUS
 62
     3
 10
542.30000000000291
 20
-73.800000000005639
 30
0.0
 11
542.29999999999927
 21
-70.200000000007094
 31
0.0
  0
LINE
  8
OUTLINE
  6
CONTINUOUS
 62
     3
 10
542.29999999999927
 20
-70.200000000007094
 30
0.0
 11
545.50000000000364
 21
-70.200000000007094
 31
0.0
  0
LINE
  8
OUTLINE
  6
CONTINUOUS
 62
     3
 10
545.50000000000364
 20
-70.200000000007094
 30
0.0
 11
545.50000000000364
 21
-73.800000000005639
 31
0.0
  0
ARC
  8
OUTLINE
  6
CONTINUOUS
 62
     3
 10
539.10000000000753
 20
-73.800000000006179
 30
0.0
 40
6.3999999999960586
 50
311.34354484781682
 51
0.0
  0
ARC
  8
OUTLINE
  6
CONTINUOUS
 62
     3
 10
539.35163095437326
 20
-83.295771045999899
 30
0.0
 40
6.1492524420551051
 50
359.02879818118618
 51
49.715159321486453
  0
LINE
  8
OUTLINE
  6
CONTINUOUS
 62
     3
 10
545.50000000000364
 20
-83.40000000001146
 30
0.0
 11
545.50000000000364
 21
-87.000000000002728
 31
0.0
  0
LINE
  8
OUTLINE
  6
CONTINUOUS
 62
     3
 10
545.50000000000364
 20
-87.000000000002728
 30
0.0
 11
542.29999999999927
 21
-87.000000000002728
 31
0.0
  0
LINE
  8
OUTLINE
  6
CONTINUOUS
 62
     3
 10
542.29999999999927
 20
-87.000000000002728
 30
0.0
 11
542.30000000000291
 21
-83.40000000001146
 31
0.0
  0
ARC
  8
OUTLINE
  6
CONTINUOUS
 62
     3
 10
539.10000000000218
 20
-83.400000000011715
 30
0.0
 40
3.2000000000007525
 50
0.0
 51
90.0
  0
LINE
  8
OUTLINE
  6
CONTINUOUS
 62
     3
 10
539.10000000000218
 20
-80.200000000010959
 30
0.0
 11
533.397224422004
 21
-80.20000000001437
 31
0.0
  0
LINE
  8
OUTLINE
  6
CONTINUOUS
 62
     3
 10
533.397224422004
 20
-80.20000000001437
 30
0.0
 11
533.39722442198399
 21
-96.300000000016553
 31
0.0
  0
LINE
  8
OUTLINE
  6
CONTINUOUS
 62
     3
 10
533.39722442198399
 20
-96.300000000016553
 30
0.0
 11
610.69999999999891
 21
-96.300000000017462
 31
0.0
  0
LINE
  8
OUTLINE
  6
CONTINUOUS
 62
     3
 10
610.69999999999891
 20
-96.300000000017462
 30
0.0
 11
610.69999999999891
 21
-97.151087470710991
 31
0.0
  0
ARC
  8
OUTLINE
  6
CONTINUOUS
 62
     3
 10
609.89999999999736
 20
-98.300000000007444
 30
0.0
 40
1.3999999999917083
 50
34.849904578609824
 51
55.150095420640753
  0
LINE
  8
OUTLINE
  6
CONTINUOUS
 62
     3
 10
611.04891252930429
 20
-97.500000000020918
 30
0.0
 11
611.899999999996
 21
-97.500000000020918
 31
0.0
  0
LINE
  8
OUTLINE
  6
CONTINUOUS
 62
     3
 10
611.899999999996
 20
-97.500000000020918
 30
0.0
 11
611.899999999996
 21
-356.70000000001158
 31
0.0
  0
LINE
  8
OUTLINE
  6
CONTINUOUS
 62
     3
 10
611.899999999996
 20
-356.70000000001158
 30
0.0
 11
611.04891252930429
 21
-356.70000000001068
 31
0.0
  0
ARC
  8
OUTLINE
  6
CONTINUOUS
 62
     3
 10
609.89999999999304
 20
-355.90000000002323
 30
0.0
 40
1.3999999999957846
 50
304.84990457945878
 51
325.15009542146026
  0
LINE
  8
OUTLINE
  6
CONTINUOUS
 62
     3
 10
610.69999999999891
 20
-357.04891252932163
 30
0.0
 11
610.69999999999891
 21
-357.9000000000151
 31
0.0
  0
LINE
  8
OUTLINE
  6
CONTINUOUS
 62
     3
 10
610.69999999999891
 20
-357.9000000000151
 30
0.0
 11
530.69989396783603
 21
-357.90002070626679
 31
0.0
  0
ARC
  8
OUTLINE
  6
CONTINUOUS
 62
     3
 10
475.49902390135122
 20
-357.79423689153447
 30
0.0
 40
55.200971425441388
 50
309.45933177091376
 51
359.89020175409735
  0
LINE
  8
OUTLINE
  6
CONTINUOUS
 62
     3
 10
510.58091743124442
 20
-400.41357513920832
 30
0.0
 11
510.20110091753583
 21
-399.94909756664822
 31
0.0
  0
LINE
  8
OUTLINE
  6
CONTINUOUS
 62
     3
 10
510.20110091753583
 20
-399.94909756664822
 30
0.0
 11
509.60000000000491
 21
-399.94999999799978
 31
0.0
  0
ARC
  8
OUTLINE
  6
CONTINUOUS
 62
     3
 10
509.60000000000491
 20
-400.5499999980027
 30
0.0
 40
0.6000000000029218
 50
270.0
 51
90.0
  0
LINE
  8
OUTLINE
  6
CONTINUOUS
 62
     3
 10
509.60000000000491
 20
-401.14999999800563
 30
0.0
 11
500.4011009175365
 21
-401.14909756665247
 31
0.0
  0
ARC
  8
OUTLINE
  6
CONTINUOUS
 62
     3
 10
500.40110091754303
 20
-399.94909756664526
 30
0.0
 40
1.2000000000071962
 50
180.0
 51
270.0
  0
LINE
  8
OUTLINE
  6
CONTINUOUS
 62
     3
 10
499.20110091753583
 20
-399.94909756664822
 30
0.0
 11
499.19999999999442
 21
-400.650000000006
 31
0.0
  0
LINE
  8
OUTLINE
  6
CONTINUOUS
 62
     3
 10
499.19999999999442
 20
-400.650000000006
 30
0.0
 11
495.69999999999442
 21
-400.650000000006
 31
0.0
  0
LINE
  8
OUTLINE
  6
CONTINUOUS
 62
     3
 10
495.69999999999442
 20
-400.650000000006
 30
0.0
 11
495.69999999999442
 21
-402.20000000000351
 31
0.0
  0
ARC
  8
OUTLINE
  6
CONTINUOUS
 62
     3
 10
496.20000000000704
 20
-402.19999999999806
 30
0.0
 40
0.500000000012605
 50
180.0
 51
270.0
  0
LINE
  8
OUTLINE
  6
CONTINUOUS
 62
     3
 10
496.20000000000891
 20
-402.70000000001068
 30
0.0
 11
497.70000000000158
 21
-402.70000000001301
 31
0.0
  0
LINE
  8
OUTLINE
  6
CONTINUOUS
 62
     3
 10
497.70000000000158
 20
-402.70000000001301
 30
0.0
 11
497.70000000000158
 21
-401.90000000000049
 31
0.0
  0
LINE
  8
OUTLINE
  6
CONTINUOUS
 62
     3
 10
497.70000000000158
 20
-401.90000000000049
 30
0.0
 11
500.92500000000751
 21
-401.89999999999822
 31
0.0
  0
ARC
  8
OUTLINE
  6
CONTINUOUS
 62
     3
 10
500.94985294115781
 20
-402.94985294117907
 30
0.0
 40
1.050147069124119
 50
270.0080234959014
 51
91.356097289724062
  0
LINE
  8
OUTLINE
  6
CONTINUOUS
 62
     3
 10
500.94999999999442
 20
-404.00000000000642
 30
0.0
 11
495.87127970399519
 21
-404.00000000000642
 31
0.0
  0
ARC
  8
OUTLINE
  6
CONTINUOUS
 62
     3
 10
495.87127970397768
 20
-402.40000000002595
 30
0.0
 40
1.5999999999804699
 50
189.99999999973329
 51
270.0
  0
LINE
  8
OUTLINE
  6
CONTINUOUS
 62
     3
 10
494.29558729917608
 20
-402.67783708428232
 30
0.0
 11
494.19999999999442
 21
-402.13573456879652
 31
0.0
  0
LINE
  8
OUTLINE
  6
CONTINUOUS
 62
     3
 10
494.19999999999442
 20
-402.13573456879652
 30
0.0
 11
494.19999999999351
 21
-403.20000000001801
 31
0.0
  0
LINE
  8
OUTLINE
  6
CONTINUOUS
 62
     3
 10
494.19999999999351
 20
-403.20000000001801
 30
0.0
 11
492.799999999992
 21
-403.20000000001801
 31
0.0
  0
LINE
  8
OUTLINE
  6
CONTINUOUS
 62
     3
 10
492.799999999992
 20
-403.20000000001801
 30
0.0
 11
492.799999999992
 21
-404.00000000000642
 31
0.0
  0
LINE
  8
OUTLINE
  6
CONTINUOUS
 62
     3
 10
492.799999999992
 20
-404.00000000000642
 30
0.0
 11
-492.80000000000382
 21
-404.00000000000642
 31
0.0
  0
LINE
  8
OUTLINE
  6
CONTINUOUS
 62
     3
 10
-492.80000000000382
 20
-404.00000000000642
 30
0.0
 11
-492.80000000000382
 21
-401.35000000001759
 31
0.0
  0
LINE
  8
OUTLINE
  6
CONTINUOUS
 62
     3
 10
-492.80000000000382
 20
-401.35000000001759
 30
0.0
 11
-494.03500474999868
 21
-401.35000000001759
 31
0.0
  0
LINE
  8
OUTLINE
  6
CONTINUOUS
 62
     3
 10
-494.03500474999868
 20
-401.35000000001759
 30
0.0
 11
-494.29558730000741
 21
-402.67783708401021
 31
0.0
  0
ARC
  8
OUTLINE
  6
CONTINUOUS
 62
     3
 10
-495.87127970686743
 20
-402.39999999764052
 30
0.0
 40
1.6000000023745782
 50
270.0
 51
349.99999993853851
  0
LINE
  8
OUTLINE
  6
CONTINUOUS
 62
     3
 10
-495.8712797060025
 20
-404.00000000001512
 30
0.0
 11
-500.95000000000709
 21
-404.00000000000642
 31
0.0
  0
ARC
  8
OUTLINE
  6
CONTINUOUS
 62
     3
 10
-500.9498529411365
 20
-402.94985294118038
 30
0.0
 40
1.0501470691228196
 50
88.643902711037413
 51
269.99197650224392
  0
LINE
  8
OUTLINE
  6
CONTINUOUS
 62
     3
 10
-500.92500000000018
 20
-401.90000000000049
 30
0.0
 11
-497.70000000000158
 21
-401.89999999998599
 31
0.0
  0
LINE
  8
OUTLINE
  6
CONTINUOUS
 62
     3
 10
-497.70000000000158
 20
-401.89999999998599
 30
0.0
 11
-497.70000000000158
 21
-402.70000000000351
 31
0.0
  0
LINE
  8
OUTLINE
  6
CONTINUOUS
 62
     3
 10
-497.70000000000158
 20
-402.70000000000351
 30
0.0
 11
-496.20000000000528
 21
-402.70000000000351
 31
0.0
  0
ARC
  8
OUTLINE
  6
CONTINUOUS
 62
     3
 10
-496.20000000000704
 20
-402.20000000000539
 30
0.0
 40
0.4999999999981465
 50
270.0
 51
0.0
  0
LINE
  8
OUTLINE
  6
CONTINUOUS
 62
     3
 10
-495.70000000000891
 20
-402.20000000000351
 30
0.0
 11
-495.70000000000891
 21
-127.0000000001323
 31
0.0
  0
LINE
  8
OUTLINE
  6
CONTINUOUS
 62
     3
 10
-495.70000000000891
 20
-127.0000000001323
 30
0.0
 11
-498.900000000006
 21
-127.00000000001729
 31
0.0
  0
LINE
  8
OUTLINE
  6
CONTINUOUS
 62
     3
 10
-498.900000000006
 20
-127.00000000001729
 30
0.0
 11
-498.90000000000958
 21
-83.400000000018736
 31
0.0
  0
ARC
  8
OUTLINE
  6
CONTINUOUS
 62
     3
 10
-502.10281766879734
 20
-83.401167116645226
 30
0.0
 40
3.2028178814381847
 50
0.0208787576605687
 51
88.160360343740251
  0
LINE
  8
OUTLINE
  6
CONTINUOUS
 62
     3
 10
-502.00000000001
 20
-80.200000000007094
 30
0.0
 11
-539.10000000001219
 21
-80.200000000022555
 31
0.0
  0
ARC
  8
OUTLINE
  6
CONTINUOUS
 62
     3
 10
-539.10000000001082
 20
-83.400000000020981
 30
0.0
 40
3.1999999999984237
 50
90.0
 51
180.0
  0
LINE
  8
OUTLINE
  6
CONTINUOUS
 62
     3
 10
-542.30000000000928
 20
-83.400000000022374
 30
0.0
 11
-542.30000000000928
 21
-87.00000000001728
 31
0.0
  0
LINE
  8
OUTLINE
  6
CONTINUOUS
 62
     3
 10
-542.30000000000928
 20
-87.00000000001728
 30
0.0
 11
-545.50000000001364
 21
-87.00000000001728
 31
0.0
  0
LINE
  8
OUTLINE
  6
CONTINUOUS
 62
     3
 10
-545.50000000001364
 20
-87.00000000001728
 30
0.0
 11
-545.50000000001
 21
-83.400000000022374
 31
0.0
  0
ARC
  8
OUTLINE
  6
CONTINUOUS
 62
     3
 10
-539.10000000001082
 20
-83.400000000019745
 30
0.0
 40
6.3999999999992259
 50
131.40962210922203
 51
180.0
  0
ARC
  8
OUTLINE
  6
CONTINUOUS
 62
     3
 10
-539.10000000001196
 20
-73.800000000009419
 30
0.0
 40
6.4000000000016728
 50
180.0
 51
228.59037789081117
  0
LINE
  8
OUTLINE
  6
CONTINUOUS
 62
     3
 10
-545.50000000001364
 20
-73.800000000012915
 30
0.0
 11
-545.50000000001364
 21
-70.20000000001437
 31
0.0
  0
LINE
  8
OUTLINE
  6
CONTINUOUS
 62
     3
 10
-545.50000000001364
 20
-70.20000000001437
 30
0.0
 11
-542.30000000000928
 21
-70.20000000001437
 31
0.0
  0
LINE
  8
OUTLINE
  6
CONTINUOUS
 62
     3
 10
-542.30000000000928
 20
-70.20000000001437
 30
0.0
 11
-542.30000000000928
 21
-73.800000000012915
 31
0.0
  0
ARC
  8
OUTLINE
  6
CONTINUOUS
 62
     3
 10
-539.10000000001401
 20
-73.80000000001742
 30
0.0
 40
3.1999999999953181
 50
180.0
 51
270.0
  0
LINE
  8
OUTLINE
  6
CONTINUOUS
 62
     3
 10
-539.10000000001219
 20
-77.000000000012733
 30
0.0
 11
-502.10000000001043
 21
-77.000000000017735
 31
0.0
  0
ARC
  8
OUTLINE
  6
CONTINUOUS
 62
     3
 10
-502.09999999996279
 20
-83.399999999971598
 30
0.0
 40
6.3999999999538613
 50
0.0
 51
90.0
  0
LINE
  8
SIZE
  6
CONTINUOUS
 62
    30
 10
-720.02577127895836
 20
-366.89491793292831
 30
0.0
 11
-471.2014722260937
 21
-284.12842788822519
 31
0.0
  0
LINE
  8
SIZE
  6
CONTINUOUS
 62
    30
 10
-218.7985277739044
 20
-200.1715721117825
 30
0.0
 11
-207.41192877606139
 21
-196.38404478352189
 31
0.0
  0
TEXT
  8
SIZE
  6
CONTINUOUS
 62
    30
 10
-718.78223194056477
 20
-340.13451833638004
 30
0.0
 40
64.0
  1
φ242
 50
18.398686100166572
 41
0.9
 51
0.0
  7
STANDARD
 71
     0
 72
     1
 11
-609.1976031853236
 21
-303.68335532920059
 31
0.0
210
0.0
220
0.0
230
1.0
  0
LINE
  8
SIZE
  6
CONTINUOUS
 62
    30
 10
-230.18512677174741
 20
-203.95909944004299
 30
0.0
 11
-459.81487322825069
 21
-280.34090055996472
 31
0.0
  0
CIRCLE
  8
SIZE
  6
CONTINUOUS
 62
    30
 10
-230.18512677174741
 20
-203.95909944004299
 30
0.0
 40
6.0
  0
LINE
  8
SIZE
  6
CONTINUOUS
 62
    30
 10
-230.18512677174741
 20
-203.95909944004299
 30
0.0
 11
-218.7985277739044
 21
-200.17157211178244
 31
0.0
  0
CIRCLE
  8
SIZE
  6
CONTINUOUS
 62
    30
 10
-459.81487322825069
 20
-280.34090055996472
 30
0.0
 40
6.0
  0
LINE
  8
SIZE
  6
CONTINUOUS
 62
    30
 10
-459.81487322825069
 20
-280.34090055996472
 30
0.0
 11
-471.2014722260937
 21
-284.12842788822525
 31
0.0
  0
POINT
  8
DEFPOINTS
  6
CONTINUOUS
 62
    30
 10
-459.81487322825069
 20
-280.34090055996472
 30
0.0
  0
POINT
  8
DEFPOINTS
  6
CONTINUOUS
 62
    30
 10
-230.18512677174741
 20
-203.95909944004299
 30
0.0
  0
LINE
  8
SIZE
  6
CONTINUOUS
 62
    30
 10
-697.92983885489514
 20
-537.42462855487497
 30
0.0
 11
-453.14321854013338
 21
-332.62676101508657
 31
0.0
  0
LINE
  8
SIZE
  6
CONTINUOUS
 62
    30
 10
-236.85678145986481
 20
-151.6732389849187
 30
0.0
 11
-227.6531032862363
 21
-143.97308911129451
 31
0.0
  0
TEXT
  8
SIZE
  6
CONTINUOUS
 62
    30
 10
-706.14693822913773
 20
-511.70370493868779
 30
0.0
 40
64.0
  1
φ258
 50
39.917144202131965
 41
0.9
 51
0.0
  7
STANDARD
 71
     0
 72
     1
 11
-618.0125160384714
 21
-437.9670697488624
 31
0.0
210
0.0
220
0.0
230
1.0
  0
LINE
  8
SIZE
  6
CONTINUOUS
 62
    30
 10
-246.06045963349331
 20
-159.37338885854291
 30
0.0
 11
-443.93954036650501
 21
-324.92661114146239
 31
0.0
  0
CIRCLE
  8
SIZE
  6
CONTINUOUS
 62
    30
 10
-246.06045963349331
 20
-159.37338885854291
 30
0.0
 40
6.0
  0
LINE
  8
SIZE
  6
CONTINUOUS
 62
    30
 10
-246.06045963349331
 20
-159.37338885854291
 30
0.0
 11
-236.85678145986483
 21
-151.67323898491873
 31
0.0
  0
CIRCLE
  8
SIZE
  6
CONTINUOUS
 62
    30
 10
-443.93954036650501
 20
-324.92661114146239
 30
0.0
 40
6.0
  0
LINE
  8
SIZE
  6
CONTINUOUS
 62
    30
 10
-443.93954036650501
 20
-324.92661114146239
 30
0.0
 11
-453.14321854013349
 21
-332.62676101508657
 31
0.0
  0
POINT
  8
DEFPOINTS
  6
CONTINUOUS
 62
    30
 10
-443.93954036650501
 20
-324.92661114146239
 30
0.0
  0
POINT
  8
DEFPOINTS
  6
CONTINUOUS
 62
    30
 10
-246.06045963349331
 20
-159.37338885854291
 30
0.0
  0
TEXT
  8
NOTE
  6
CONTINUOUS
 62
     4
 10
297.16801722372662
 20
-276.81334291654281
 30
0.0
 40
64.065641025638456
  1
OA
 41
0.9
  0
TEXT
  8
NOTE
  6
CONTINUOUS
 62
     4
 10
-400.60866192234602
 20
-276.81334291654281
 30
0.0
 40
64.065641025638456
  1
EA
 41
0.9
  0
TEXT
  8
ETC
  6
CONTINUOUS
 62
    61
 10
919.84882692510746
 20
783.71987539918246
 30
0.0
 40
64.065641025638456
  1
LGH-80RVX3-E_3
 41
0.9
  0
TEXT
  8
ETC
  6
CONTINUOUS
 62
    61
 10
915.65853959792821
 20
665.64358557921196
 30
0.0
 40
64.065641025638456
  1
LOSSNAY
 41
0.9
  0
TEXT
  8
ETC
  6
CONTINUOUS
 62
    61
 10
966.41193928058146
 20
557.38389087464577
 30
0.0
 40
40.041025641024042
  1
LGH-80RVX3-E
 50
0.0
 41
0.9
 51
0.0
  7
STANDARD
 71
     0
 11
0.0
 21
0.0
 31
0.0
210
0.0
220
0.0
230
1.0
  0
TEXT
  8
NOTE
  6
CONTINUOUS
 62
     4
 10
771.3402006297365
 20
372.50920230362948
 30
0.0
 40
69.0
  1
Ceiling suspension fixture
 50
0.0
 41
0.9
 51
0.0
  7
STANDARD
 71
     0
 11
0.0
 21
0.0
 31
0.0
210
0.0
220
0.0
230
1.0
  0
TEXT
  8
NOTE
  6
CONTINUOUS
 62
     4
 10
771.3402006297365
 20
258.65920230362951
 30
0.0
 40
69.0
  1
(4-13X20 oval)
 50
0.0
 41
0.9
 51
0.0
  7
STANDARD
 71
     0
 11
0.0
 21
0.0
 31
0.0
210
0.0
220
0.0
230
1.0
  0
LINE
  8
NOTE
  6
CONTINUOUS
 62
     4
 10
761.3402006297365
 20
221.3663451607722
 30
0.0
 11
1977.854486344022
 21
221.3663451607722
 31
0.0
  0
LINE
  8
NOTE
  6
CONTINUOUS
 62
     4
 10
554.1011245638116
 20
-54.753021737982863
 30
0.0
 11
525.5000104114597
 21
-76.999995516603576
 31
0.0
  0
LINE
  8
NOTE
  6
CONTINUOUS
 62
     4
 10
525.5000104114597
 20
-76.999995516603576
 30
0.0
 11
539.14576437102653
 21
-43.432973427394252
 31
0.0
  0
LINE
  8
NOTE
  6
CONTINUOUS
 62
     4
 10
525.5000104114597
 20
-76.999995516603576
 30
0.0
 11
567.74687852337843
 21
-21.185999648773539
 31
0.0
  0
LINE
  8
NOTE
  6
CONTINUOUS
 62
     4
 10
567.74687852337831
 20
-21.185999648773471
 30
0.0
 11
751.3402006297365
 21
221.3663451607722
 31
0.0
  0
LINE
  8
NOTE
  6
CONTINUOUS
 62
     4
 10
751.3402006297365
 20
221.3663451607722
 30
0.0
 11
761.3402006297365
 21
221.3663451607722
 31
0.0
  0
ENDSEC
  0
EOF
