  0
SECTION
  2
HEADER
  9
$ACADVER
  1
AC1009
  9
$DWGCODEPAGE
  3
dos932
  9
$INSBASE
 10
0.0
 20
0.0
 30
0.0
  9
$EXTMIN
 10
-1437.959273937113
 20
-1236.2365614811861
 30
-0.0015258207003583
  9
$EXTMAX
 10
2007.918823012066
 20
1484.8938078909341
 30
0.0000000349246037
  9
$LIMMIN
 10
-2970.0
 20
-2100.0
  9
$LIMMAX
 10
2970.0
 20
2100.0
  9
$ORTHOMODE
 70
     1
  9
$REGENMODE
 70
     1
  9
$FILLMODE
 70
     1
  9
$QTEXTMODE
 70
     0
  9
$MIRRTEXT
 70
     0
  9
$LTSCALE
 40
20.0
  9
$ATTMODE
 70
     1
  9
$TEXTSIZE
 40
64.0
  9
$TRACEWID
 40
0.05
  9
$TEXTSTYLE
  7
STANDARD
  9
$CLAYER
  8
SIZE
  9
$CELTYPE
  6
CONTINUOUS
  9
$CECOLOR
 62
     7
  9
$DIMSCALE
 40
1.0
  9
$DIMASZ
 40
12.0
  9
$DIMEXO
 40
20.0
  9
$DIMDLI
 40
200.0
  9
$DIMRND
 40
0.0
  9
$DIMDLE
 40
0.0
  9
$DIMEXE
 40
20.0
  9
$DIMTP
 40
0.0
  9
$DIMTM
 40
0.0
  9
$DIMTXT
 40
64.0
  9
$DIMCEN
 40
0.09
  9
$DIMTSZ
 40
0.0
  9
$DIMTOL
 70
     0
  9
$DIMLIM
 70
     0
  9
$DIMTIH
 70
     0
  9
$DIMTOH
 70
     0
  9
$DIMSE1
 70
     0
  9
$DIMSE2
 70
     0
  9
$DIMTAD
 70
     1
  9
$DIMZIN
 70
     8
  9
$DIMBLK
  1

  9
$DIMASO
 70
     1
  9
$DIMSHO
 70
     0
  9
$DIMPOST
  1

  9
$DIMAPOST
  1

  9
$DIMALT
 70
     0
  9
$DIMALTD
 70
     2
  9
$DIMALTF
 40
25.399999999999999
  9
$DIMLFAC
 40
1.0
  9
$DIMTOFL
 70
     1
  9
$DIMTVP
 40
0.0
  9
$DIMTIX
 70
     1
  9
$DIMSOXD
 70
     0
  9
$DIMSAH
 70
     0
  9
$DIMBLK1
  1

  9
$DIMBLK2
  1

  9
$DIMSTYLE
  2
STANDARD
  9
$DIMCLRD
 70
     7
  9
$DIMCLRE
 70
     7
  9
$DIMCLRT
 70
     7
  9
$DIMTFAC
 40
1.0
  9
$DIMGAP
 40
25.0
  9
$LUNITS
 70
     2
  9
$LUPREC
 70
     4
  9
$SKETCHINC
 40
0.1
  9
$FILLETRAD
 40
3.0
  9
$AUNITS
 70
     1
  9
$AUPREC
 70
     3
  9
$MENU
  1
ACAD
  9
$ELEVATION
 40
0.0
  9
$PELEVATION
 40
0.0
  9
$THICKNESS
 40
0.0
  9
$LIMCHECK
 70
     0
  9
$CHAMFERA
 40
0.0
  9
$CHAMFERB
 40
0.0
  9
$SKPOLY
 70
     0
  9
$TDCREATE
 40
2453019.62301037
  9
$TDUPDATE
 40
2460045.429376586
  9
$TDINDWG
 40
1.7130946875
  9
$TDUSRTIMER
 40
1.7130946875
  9
$USRTIMER
 70
     1
  9
$ANGBASE
 50
0.0
  9
$ANGDIR
 70
     0
  9
$PDMODE
 70
     3
  9
$PDSIZE
 40
-2.0
  9
$PLINEWID
 40
0.0
  9
$SPLFRAME
 70
     0
  9
$SPLINETYPE
 70
     6
  9
$SPLINESEGS
 70
     8
  9
$SURFTAB1
 70
     6
  9
$SURFTAB2
 70
     6
  9
$SURFTYPE
 70
     6
  9
$SURFU
 70
     6
  9
$SURFV
 70
     6
  9
$UCSNAME
  2

  9
$UCSORG
 10
0.0
 20
0.0
 30
0.0
  9
$UCSXDIR
 10
1.0
 20
0.0
 30
0.0
  9
$UCSYDIR
 10
0.0
 20
1.0
 30
0.0
  9
$PUCSNAME
  2

  9
$PUCSORG
 10
0.0
 20
0.0
 30
0.0
  9
$PUCSXDIR
 10
1.0
 20
0.0
 30
0.0
  9
$PUCSYDIR
 10
0.0
 20
1.0
 30
0.0
  9
$USERI1
 70
     0
  9
$USERI2
 70
     0
  9
$USERI3
 70
     0
  9
$USERI4
 70
     0
  9
$USERI5
 70
     0
  9
$USERR1
 40
20.0
  9
$USERR2
 40
0.0
  9
$USERR3
 40
0.0
  9
$USERR4
 40
0.0
  9
$USERR5
 40
0.0
  9
$WORLDVIEW
 70
     1
  9
$SHADEDGE
 70
     3
  9
$SHADEDIF
 70
    70
  9
$TILEMODE
 70
     1
  9
$MAXACTVP
 70
    48
  9
$PINSBASE
 10
0.0
 20
0.0
 30
0.0
  9
$PLIMCHECK
 70
     0
  9
$PEXTMIN
 10
-100000000000000000000.0
 20
-100000000000000000000.0
 30
-100000000000000000000.0
  9
$PEXTMAX
 10
100000000000000000000.0
 20
100000000000000000000.0
 30
100000000000000000000.0
  9
$PLIMMIN
 10
0.0
 20
0.0
  9
$PLIMMAX
 10
12.0
 20
9.0
  9
$UNITMODE
 70
     0
  9
$VISRETAIN
 70
     0
  9
$PLINEGEN
 70
     0
  9
$PSLTSCALE
 70
     0
  9
$TREEDEPTH
 70
  3020
  9
$ATTDIA
 70
     0
  9
$ATTREQ
 70
     1
  9
$BLIPMODE
 70
     1
  9
$COORDS
 70
     1
  9
$DRAGMODE
 70
     2
  9
$OSMODE
 70
     0
  9
$HANDLING
 70
     0
  9
$HANDSEED
  5
F160
  0
ENDSEC
  0
SECTION
  2
TABLES
  0
TABLE
  2
LTYPE
 70
     3
  0
LTYPE
  2
CONTINUOUS
 70
     0
  3
実線
 72
    65
 73
     0
 40
0.0
  0
LTYPE
  2
DASHDOT
 70
     0
  3
____ _ ____ _ ____ _ ____ _ ____ _ ____ _ ____
 72
    65
 73
     4
 40
5.5
 49
4.0
 49
-0.6
 49
0.3
 49
-0.6
  0
LTYPE
  2
DASHED
 70
     0
  3
-- -- -- -- -- -- -- -- -- -- -- -- -- -- --
 72
    65
 73
     2
 40
0.75
 49
0.5
 49
-0.25
  0
ENDTAB
  0
TABLE
  2
LAYER
 70
    12
  0
LAYER
  2
0
 70
     0
 62
     7
  6
CONTINUOUS
  0
LAYER
  2
BASIS
 70
     0
 62
     6
  6
DASHDOT
  0
LAYER
  2
OUTLINE
 70
     0
 62
     3
  6
CONTINUOUS
  0
LAYER
  2
DETAIL
 70
     0
 62
     5
  6
CONTINUOUS
  0
LAYER
  2
SIZE
 70
     0
 62
    30
  6
CONTINUOUS
  0
LAYER
  2
ARRANGE
 70
     0
 62
     1
  6
CONTINUOUS
  0
LAYER
  2
DEFPOINTS
 70
     0
 62
     7
  6
CONTINUOUS
  0
LAYER
  2
ETC
 70
     0
 62
    61
  6
CONTINUOUS
  0
LAYER
  2
FIX
 70
     0
 62
    11
  6
CONTINUOUS
  0
LAYER
  2
NOTE
 70
     0
 62
     4
  6
CONTINUOUS
  0
LAYER
  2
SERVICESPACE
 70
     0
 62
     2
  6
DASHDOT
  0
LAYER
  2
SYMBOLLINE
 70
    64
 62
    15
  6
CONTINUOUS
  0
ENDTAB
  0
TABLE
  2
STYLE
 70
     1
  0
STYLE
  2
STANDARD
 70
     0
 40
64.0
 41
0.9
 50
0.0
 71
     0
 42
64.0
  3
SIMPLEX.shx
  4
BIGFONT.shx
  0
ENDTAB
  0
TABLE
  2
APPID
 70
    19
  0
APPID
  2
ACAD
 70
     0
  0
APPID
  2
AUTOCAD_POSTSCRIPT_FIGURE
 70
     0
  0
APPID
  2
ACAD_EXEMPT_FROM_CAD_STANDARDS
 70
     0
  0
APPID
  2
ACAD_PSEXT
 70
     0
  0
APPID
  2
ACAUTHENVIRON
 70
     0
  0
APPID
  2
GENIUS_GENOENT_13
 70
     0
  0
APPID
  2
GENIUS_GENCFG_13
 70
     0
  0
APPID
  2
GENIUS_GENCFG0_13
 70
     0
  0
APPID
  2
GENIUS_GENCFG1_13
 70
     0
  0
APPID
  2
GENIUS_GENCFG2_13
 70
     0
  0
APPID
  2
GENIUS_GENCFG3_13
 70
     0
  0
APPID
  2
GENIUS_GENCFG4_13
 70
     0
  0
APPID
  2
GENIUS_GEVCFG0_13
 70
     0
  0
APPID
  2
CONTENTBLOCKICON
 70
     0
  0
APPID
  2
CONTENTBLOCKDESCRIPTION
 70
     0
  0
APPID
  2
ACAD_NAV_VCDISPLAY
 70
     0
  0
APPID
  2
ACAD_MLEADERVER
 70
     0
  0
APPID
  2
ACDBDYNAMICBLOCKTRUENAME
 70
     0
  0
APPID
  2
ACDBDYNAMICBLOCKGUID
 70
     0
  0
ENDTAB
  0
TABLE
  2
DIMSTYLE
 70
     1
  0
DIMSTYLE
  2
STANDARD
 70
     0
  3

  4

  5
_ORIGIN
  6

  7

 40
1.0
 41
12.0
 42
20.0
 43
200.0
 44
20.0
 45
0.0
 46
0.0
 47
0.0
 48
0.0
140
64.0
141
0.09
142
0.0
143
25.399999999999999
144
1.0
145
0.0
146
1.0
147
25.0
 71
     0
 72
     0
 73
     0
 74
     0
 75
     0
 76
     0
 77
     1
 78
     8
170
     0
171
     2
172
     1
173
     0
174
     1
175
     0
176
     7
177
     7
178
     7
  0
ENDTAB
  0
TABLE
  2
VIEW
 70
     1
  0
VIEW
  2
ALL
 70
     0
 40
4282.6198079999986
 10
0.0
 20
41.309904000000003
 41
5940.0
 11
0.0
 21
0.0
 31
1.0
 12
0.0
 22
0.0
 32
0.0
 42
50.0
 43
0.0
 44
0.0
 50
0.0
 71
     0
  0
ENDTAB
  0
TABLE
  2
UCS
 70
     0
  0
ENDTAB
  0
TABLE
  2
VPORT
 70
     1
  0
VPORT
  2
*ACTIVE
 70
     0
 10
0.0
 20
0.0
 11
1.0
 21
1.0
 12
274.17756541885382
 22
124.32862320487401
 13
0.0
 23
0.0
 14
1.0
 24
1.0
 15
0.0
 25
0.0
 16
0.0
 26
0.0
 36
1.0
 17
0.0
 27
0.0
 37
0.0
 40
2739.516385381391
 41
1.781285231116122
 42
50.0
 43
0.0
 44
0.0
 50
0.0
 51
0.0
 71
     0
 72
  1000
 73
     1
 74
     3
 75
     0
 76
     0
 77
     0
 78
     0
  0
ENDTAB
  0
ENDSEC
  0
SECTION
  2
BLOCKS
  0
BLOCK
  8
0
  2
_ORIGIN
 70
     0
 10
0.0
 20
0.0
 30
0.0
  3
_ORIGIN
  1
_ORIGIN
  0
CIRCLE
  8
0
  6
CONTINUOUS
 62
     7
 10
0.0
 20
0.0
 30
0.0
 40
0.5
  0
LINE
  8
0
  6
CONTINUOUS
 62
     7
 10
0.0
 20
0.0
 30
0.0
 11
-1.0
 21
0.0
 31
0.0
  0
ENDBLK
  8
0
  0
ENDSEC
  0
SECTION
  2
ENTITIES
  0
LINE
  8
DETAIL
  6
CONTINUOUS
 62
     5
 10
615.5
 20
557.99999999999318
 30
0.0
 11
610.70000000000437
 21
562.79999999999836
 31
0.0
  0
LINE
  8
DETAIL
  6
CONTINUOUS
 62
     5
 10
601.50000000001728
 20
571.99999999998818
 30
0.0
 11
606.30000000000382
 21
567.19999999999254
 31
0.0
  0
LINE
  8
DETAIL
  6
CONTINUOUS
 62
     5
 10
-604.69999999999527
 20
570.69999999999254
 30
0.0
 11
-607.69999999999573
 21
567.69999999999982
 31
0.0
  0
LINE
  8
DETAIL
  6
CONTINUOUS
 62
     5
 10
-611.19999999999527
 20
564.19999999999254
 30
0.0
 11
-614.19999999999527
 21
561.19999999999254
 31
0.0
  0
LINE
  8
DETAIL
  6
CONTINUOUS
 62
     5
 10
-615.49999999999818
 20
557.9999999999859
 30
0.0
 11
-610.69999999999527
 21
562.79999999999836
 31
0.0
  0
LINE
  8
DETAIL
  6
CONTINUOUS
 62
     5
 10
-601.50000000000819
 20
571.99999999998772
 30
0.0
 11
-606.29999999999427
 21
567.19999999999254
 31
0.0
  0
LINE
  8
DETAIL
  6
DASHED
 62
     5
 10
-694.19999999999527
 20
527.99999999999682
 30
0.0
 11
-694.19999999999527
 21
285.99999999999682
 31
0.0
  0
LINE
  8
DETAIL
  6
DASHED
 62
     5
 10
-686.19999999999527
 20
527.99999999999682
 30
0.0
 11
-686.19999999999527
 21
285.99999999999682
 31
0.0
  0
LINE
  8
DETAIL
  6
CONTINUOUS
 62
     5
 10
-656.29999999999382
 20
210.99999999999551
 30
0.0
 11
-656.29999999999382
 21
217.99999999999551
 31
0.0
  0
LINE
  8
DETAIL
  6
CONTINUOUS
 62
     5
 10
-638.79999999999382
 20
224.99999999999551
 30
0.0
 11
-638.71735847600075
 21
225.94459692999499
 31
0.0
  0
LINE
  8
DETAIL
  6
CONTINUOUS
 62
     5
 10
-637.62078172199654
 20
208.04964206399291
 30
0.0
 11
-646.79416298799879
 21
188.37726245599609
 31
0.0
  0
LINE
  8
DETAIL
  6
CONTINUOUS
 62
     5
 10
-635.62690458999532
 20
207.11988188799569
 30
0.0
 11
-644.80028585599757
 21
187.44750227999879
 31
0.0
  0
LINE
  8
DETAIL
  6
CONTINUOUS
 62
     5
 10
601.50000000001728
 20
571.99999999998818
 30
0.0
 11
-601.50000000000728
 21
571.99999999998818
 31
0.0
  0
LINE
  8
DETAIL
  6
CONTINUOUS
 62
     5
 10
-602.80000000000155
 20
570.69999999999254
 30
0.0
 11
-604.69999999999527
 21
570.69999999999254
 31
0.0
  0
LINE
  8
DETAIL
  6
DASHED
 62
     5
 10
617.19999999999709
 20
536.00000000000409
 30
0.0
 11
686.20000000000437
 21
527.99999999999682
 31
0.0
  0
LINE
  8
DETAIL
  6
CONTINUOUS
 62
     5
 10
-630.79999999999427
 20
224.99999999999551
 30
0.0
 11
-630.94215499999518
 21
226.6248390899955
 31
0.0
  0
LINE
  8
DETAIL
  6
CONTINUOUS
 62
     5
 10
-649.29999999999382
 20
220.99999999999551
 30
0.0
 11
-649.29999999999382
 21
207.99999999999551
 31
0.0
  0
LINE
  8
DETAIL
  6
CONTINUOUS
 62
     5
 10
-648.29999999999427
 20
220.99999999999551
 30
0.0
 11
-648.29999999999427
 21
207.99999999999551
 31
0.0
  0
LINE
  8
DETAIL
  6
CONTINUOUS
 62
     5
 10
-646.79999999999382
 20
211.8999999999896
 30
0.0
 11
-646.79999999999382
 21
217.099999999994
 31
0.0
  0
LINE
  8
DETAIL
  6
CONTINUOUS
 62
     5
 10
-643.29999999999382
 20
221.99999999999551
 30
0.0
 11
-643.29999999999382
 21
222.99999999999551
 31
0.0
  0
LINE
  8
DETAIL
  6
CONTINUOUS
 62
     5
 10
-641.29999999999382
 20
214.6988677519939
 30
0.0
 11
-641.29999999999382
 21
212.99999999999551
 31
0.0
  0
LINE
  8
DETAIL
  6
CONTINUOUS
 62
     5
 10
-637.40000000000009
 20
220.99999999999551
 30
0.0
 11
-637.40000000000009
 21
220.49999999999551
 31
0.0
  0
LINE
  8
DETAIL
  6
CONTINUOUS
 62
     5
 10
-637.29999999999427
 20
224.19999999999251
 30
0.0
 11
-637.29999999999427
 21
224.99999999999551
 31
0.0
  0
LINE
  8
DETAIL
  6
CONTINUOUS
 62
     5
 10
-636.29999999999427
 20
220.49999999999551
 30
0.0
 11
-636.29999999999427
 21
216.99999999999551
 31
0.0
  0
LINE
  8
DETAIL
  6
CONTINUOUS
 62
     5
 10
-633.29999999999382
 20
220.49999999999551
 30
0.0
 11
-633.29999999999382
 21
216.99999999999551
 31
0.0
  0
LINE
  8
DETAIL
  6
CONTINUOUS
 62
     5
 10
-632.29999999999427
 20
224.19999999999251
 30
0.0
 11
-632.29999999999427
 21
224.99999999999551
 31
0.0
  0
LINE
  8
DETAIL
  6
CONTINUOUS
 62
     5
 10
-632.19999999999527
 20
220.99999999999551
 30
0.0
 11
-632.19999999999527
 21
220.49999999999551
 31
0.0
  0
LINE
  8
DETAIL
  6
CONTINUOUS
 62
     5
 10
-625.19999999999527
 20
-224.20000000000709
 30
0.0
 11
-625.19999999999527
 21
-223.6000000000013
 31
0.0
  0
LINE
  8
DETAIL
  6
CONTINUOUS
 62
     5
 10
-625.19999999999527
 20
224.19999999999251
 30
0.0
 11
-625.19999999999527
 21
223.6000000000013
 31
0.0
  0
LINE
  8
DETAIL
  6
CONTINUOUS
 62
     5
 10
-625.19999999999527
 20
222.99999999999551
 30
0.0
 11
-625.19999999999527
 21
-223.0000000000027
 31
0.0
  0
LINE
  8
DETAIL
  6
CONTINUOUS
 62
     5
 10
-623.79999999999382
 20
224.19999999999251
 30
0.0
 11
-623.79999999999382
 21
224.99999999999551
 31
0.0
  0
LINE
  8
DETAIL
  6
CONTINUOUS
 62
     5
 10
-623.51163546799035
 20
-223.6000000000013
 30
0.0
 11
-623.51163546799035
 21
-223.0000000000027
 31
0.0
  0
LINE
  8
DETAIL
  6
CONTINUOUS
 62
     5
 10
-623.51163546799035
 20
223.6000000000013
 30
0.0
 11
-623.51163546799035
 21
222.99999999999551
 31
0.0
  0
LINE
  8
DETAIL
  6
DASHED
 62
     5
 10
-617.19999999999573
 20
536.00000000000409
 30
0.0
 11
-617.19999999999573
 21
277.99999999999682
 31
0.0
  0
LINE
  8
DETAIL
  6
CONTINUOUS
 62
     5
 10
-615.49999999999818
 20
557.99999999998545
 30
0.0
 11
-615.49999999999864
 21
-558.00000000000364
 31
0.0
  0
LINE
  8
DETAIL
  6
CONTINUOUS
 62
     5
 10
-614.19999999999527
 20
561.19999999999254
 30
0.0
 11
-614.19999999999527
 21
559.29999999999836
 31
0.0
  0
LINE
  8
DETAIL
  6
CONTINUOUS
 62
     5
 10
-614.19999999999527
 20
-559.29999999999836
 30
0.0
 11
-614.19999999999527
 21
-561.20000000000709
 31
0.0
  0
LINE
  8
DETAIL
  6
CONTINUOUS
 62
     5
 10
-608.69999999999527
 20
565.19999999999982
 30
0.0
 11
-608.69999999999527
 21
562.79999999999836
 31
0.0
  0
LINE
  8
DETAIL
  6
CONTINUOUS
 62
     5
 10
-608.69999999999573
 20
-562.80000000000564
 30
0.0
 11
-608.69999999999573
 21
-565.19999999999982
 31
0.0
  0
LINE
  8
DETAIL
  6
CONTINUOUS
 62
     5
 10
-608.19999999999527
 20
562.79999999999836
 30
0.0
 11
-608.19999999999527
 21
564.69999999999254
 31
0.0
  0
LINE
  8
DETAIL
  6
CONTINUOUS
 62
     5
 10
-608.19999999999573
 20
-562.80000000000564
 30
0.0
 11
-608.19999999999573
 21
-564.69999999999982
 31
0.0
  0
LINE
  8
DETAIL
  6
CONTINUOUS
 62
     5
 10
-607.69999999999573
 20
-567.69999999999982
 30
0.0
 11
-607.69999999999573
 21
-565.19999999999982
 31
0.0
  0
LINE
  8
DETAIL
  6
CONTINUOUS
 62
     5
 10
-607.69999999999573
 20
567.69999999999982
 30
0.0
 11
-607.69999999999573
 21
565.19999999999982
 31
0.0
  0
LINE
  8
DETAIL
  6
CONTINUOUS
 62
     5
 10
-606.29999999999427
 20
567.19999999999254
 30
0.0
 11
-606.29999999999427
 21
562.79999999999836
 31
0.0
  0
LINE
  8
DETAIL
  6
CONTINUOUS
 62
     5
 10
-606.29999999999472
 20
-562.80000000000564
 30
0.0
 11
-606.29999999999472
 21
-567.19999999999982
 31
0.0
  0
LINE
  8
DETAIL
  6
DASHED
 62
     5
 10
-617.19999999999573
 20
536.00000000000409
 30
0.0
 11
-686.19999999999527
 21
527.99999999999682
 31
0.0
  0
LINE
  8
DETAIL
  6
CONTINUOUS
 62
     5
 10
604.60000000000582
 20
568.89999999999691
 30
0.0
 11
606.0
 21
568.89999999999691
 31
0.0
  0
LINE
  8
DETAIL
  6
CONTINUOUS
 62
     5
 10
-608.19999999999527
 20
566.19999999999254
 30
0.0
 11
-607.69999999999573
 21
566.19999999999254
 31
0.0
  0
LINE
  8
DETAIL
  6
CONTINUOUS
 62
     5
 10
-608.19999999999527
 20
565.69999999999982
 30
0.0
 11
-607.69999999999573
 21
565.69999999999982
 31
0.0
  0
LINE
  8
DETAIL
  6
CONTINUOUS
 62
     5
 10
-607.69999999999573
 20
565.19999999999982
 30
0.0
 11
-606.29999999999427
 21
565.19999999999982
 31
0.0
  0
LINE
  8
DETAIL
  6
CONTINUOUS
 62
     5
 10
606.30000000000382
 20
565.19999999999982
 30
0.0
 11
608.20000000000528
 21
565.19999999999982
 31
0.0
  0
LINE
  8
DETAIL
  6
CONTINUOUS
 62
     5
 10
-611.19999999999527
 20
564.19999999999254
 30
0.0
 11
-608.69999999999527
 21
564.19999999999254
 31
0.0
  0
LINE
  8
DETAIL
  6
CONTINUOUS
 62
     5
 10
-610.69999999999527
 20
562.79999999999836
 30
0.0
 11
-606.29999999999427
 21
562.79999999999836
 31
0.0
  0
LINE
  8
DETAIL
  6
CONTINUOUS
 62
     5
 10
606.30000000000382
 20
562.79999999999836
 30
0.0
 11
610.70000000000437
 21
562.79999999999836
 31
0.0
  0
LINE
  8
DETAIL
  6
DASHED
 62
     5
 10
-615.49999999999818
 20
536.00000000000409
 30
0.0
 11
-617.19999999999573
 21
536.00000000000409
 31
0.0
  0
LINE
  8
DETAIL
  6
DASHED
 62
     5
 10
615.5
 20
536.00000000000409
 30
0.0
 11
617.19999999999709
 21
536.00000000000409
 31
0.0
  0
LINE
  8
DETAIL
  6
DASHED
 62
     5
 10
-686.19999999999527
 20
527.99999999999682
 30
0.0
 11
-694.19999999999527
 21
527.99999999999682
 31
0.0
  0
LINE
  8
DETAIL
  6
DASHED
 62
     5
 10
686.20000000000437
 20
527.99999999999682
 30
0.0
 11
694.20000000000437
 21
527.99999999999682
 31
0.0
  0
LINE
  8
DETAIL
  6
CONTINUOUS
 62
     5
 10
-615.49999999999818
 20
230.1842562359916
 30
0.0
 11
-643.4710574140031
 21
227.73710580598981
 31
0.0
  0
LINE
  8
DETAIL
  6
CONTINUOUS
 62
     5
 10
-615.49999999999818
 20
227.9758525939933
 30
0.0
 11
-643.27931477999482
 21
225.5454774699929
 31
0.0
  0
LINE
  8
DETAIL
  6
DASHED
 62
     5
 10
-686.19999999999527
 20
285.99999999999682
 30
0.0
 11
-694.19999999999527
 21
285.99999999999682
 31
0.0
  0
LINE
  8
DETAIL
  6
DASHED
 62
     5
 10
686.20000000000437
 20
285.99999999999682
 30
0.0
 11
694.20000000000437
 21
285.99999999999682
 31
0.0
  0
LINE
  8
DETAIL
  6
DASHED
 62
     5
 10
-615.49999999999818
 20
277.99999999999682
 30
0.0
 11
-617.19999999999573
 21
277.99999999999682
 31
0.0
  0
LINE
  8
DETAIL
  6
DASHED
 62
     5
 10
615.5
 20
277.99999999999682
 30
0.0
 11
617.19999999999709
 21
277.99999999999682
 31
0.0
  0
LINE
  8
DETAIL
  6
CONTINUOUS
 62
     5
 10
-628.48032203599541
 20
-223.0000000000027
 30
0.0
 11
-625.19999999999527
 21
-219.8322298320081
 31
0.0
  0
LINE
  8
DETAIL
  6
CONTINUOUS
 62
     5
 10
-628.03359004399545
 20
-224.2367922400035
 30
0.0
 11
-627.99549056400292
 21
-224.20000000000709
 31
0.0
  0
LINE
  8
DETAIL
  6
CONTINUOUS
 62
     5
 10
-625.19999999999527
 20
-221.50042614200629
 30
0.0
 11
-626.75285418800013
 21
-223.0000000000027
 31
0.0
  0
LINE
  8
DETAIL
  6
CONTINUOUS
 62
     5
 10
-638.79862218599601
 20
224.99999999999551
 30
0.0
 11
-630.80137781399981
 21
224.99999999999551
 31
0.0
  0
LINE
  8
DETAIL
  6
CONTINUOUS
 62
     5
 10
-615.49999999999818
 20
224.19999999999251
 30
0.0
 11
-645.0999999999899
 21
224.19999999999251
 31
0.0
  0
LINE
  8
DETAIL
  6
CONTINUOUS
 62
     5
 10
-615.49999999999818
 20
223.6000000000013
 30
0.0
 11
-625.19999999999527
 21
223.6000000000013
 31
0.0
  0
LINE
  8
DETAIL
  6
CONTINUOUS
 62
     5
 10
-623.51163546799035
 20
223.1000000000013
 30
0.0
 11
-621.29999999999382
 21
223.1000000000013
 31
0.0
  0
LINE
  8
DETAIL
  6
CONTINUOUS
 62
     5
 10
-647.29999999999382
 20
222.99999999999551
 30
0.0
 11
-646.81357814799276
 21
222.99999999999551
 31
0.0
  0
LINE
  8
DETAIL
  6
CONTINUOUS
 62
     5
 10
-645.0999999999899
 20
222.99999999999551
 30
0.0
 11
-615.49999999999818
 21
222.99999999999551
 31
0.0
  0
LINE
  8
DETAIL
  6
CONTINUOUS
 62
     5
 10
-647.29999999999382
 20
221.99999999999551
 30
0.0
 11
-646.39512888399486
 21
221.99999999999551
 31
0.0
  0
LINE
  8
DETAIL
  6
CONTINUOUS
 62
     5
 10
-643.72660374199586
 20
221.99999999999551
 30
0.0
 11
-625.19999999999527
 21
221.99999999999551
 31
0.0
  0
LINE
  8
DETAIL
  6
CONTINUOUS
 62
     5
 10
-653.29999999999382
 20
220.99999999999551
 30
0.0
 11
-648.29999999999427
 21
220.99999999999551
 31
0.0
  0
LINE
  8
DETAIL
  6
CONTINUOUS
 62
     5
 10
-637.40000000000009
 20
220.49999999999551
 30
0.0
 11
-632.19999999999527
 21
220.49999999999551
 31
0.0
  0
LINE
  8
DETAIL
  6
CONTINUOUS
 62
     5
 10
-647.29999999999382
 20
217.099999999994
 30
0.0
 11
-646.79999999999382
 21
217.099999999994
 31
0.0
  0
LINE
  8
DETAIL
  6
CONTINUOUS
 62
     5
 10
-633.29999999999382
 20
216.99999999999551
 30
0.0
 11
-636.29999999999427
 21
216.99999999999551
 31
0.0
  0
LINE
  8
DETAIL
  6
CONTINUOUS
 62
     5
 10
-646.79999999999382
 20
215.99999999999551
 30
0.0
 11
-642.21106260799434
 21
215.99999999999551
 31
0.0
  0
LINE
  8
DETAIL
  6
CONTINUOUS
 62
     5
 10
-646.79999999999382
 20
212.99999999999551
 30
0.0
 11
-641.29999999999382
 21
212.99999999999551
 31
0.0
  0
LINE
  8
DETAIL
  6
CONTINUOUS
 62
     5
 10
-647.29999999999382
 20
211.8999999999896
 30
0.0
 11
-646.79999999999382
 21
211.8999999999896
 31
0.0
  0
LINE
  8
DETAIL
  6
CONTINUOUS
 62
     5
 10
-653.29999999999382
 20
207.99999999999551
 30
0.0
 11
-648.29999999999427
 21
207.99999999999551
 31
0.0
  0
LINE
  8
DETAIL
  6
DASHED
 62
     5
 10
-617.19999999999573
 20
277.99999999999682
 30
0.0
 11
-686.19999999999527
 21
285.99999999999682
 31
0.0
  0
LINE
  8
DETAIL
  6
DASHED
 62
     5
 10
617.19999999999709
 20
277.99999999999682
 30
0.0
 11
686.20000000000437
 21
285.99999999999682
 31
0.0
  0
LINE
  8
BASIS
  6
DASHDOT
 62
     6
 10
-700.08627832728325
 20
0.0
 30
0.0
 11
668.55790133693972
 21
0.0
 31
0.0
  0
LINE
  8
BASIS
  6
DASHDOT
 62
     6
 10
0.0
 20
-607.41899760077195
 30
0.0
 11
0.0
 21
608.80592030341631
 31
0.0
  0
LINE
  8
DETAIL
  6
CONTINUOUS
 62
     5
 10
-645.0999999999899
 20
-223.0000000000027
 30
0.0
 11
-615.49999999999864
 21
-223.0000000000027
 31
0.0
  0
LINE
  8
DETAIL
  6
CONTINUOUS
 62
     5
 10
-625.19999999999527
 20
-223.6000000000013
 30
0.0
 11
-615.49999999999864
 21
-223.6000000000013
 31
0.0
  0
LINE
  8
DETAIL
  6
CONTINUOUS
 62
     5
 10
-645.0999999999899
 20
-224.20000000000709
 30
0.0
 11
-615.49999999999864
 21
-224.20000000000709
 31
0.0
  0
LINE
  8
DETAIL
  6
CONTINUOUS
 62
     5
 10
-615.49999999999864
 20
-226.30000000000561
 30
0.0
 11
-627.19999999999527
 21
-226.30000000000561
 31
0.0
  0
LINE
  8
DETAIL
  6
CONTINUOUS
 62
     5
 10
-615.49999999999864
 20
-227.5000000000027
 30
0.0
 11
-627.19999999999527
 21
-227.5000000000027
 31
0.0
  0
LINE
  8
DETAIL
  6
CONTINUOUS
 62
     5
 10
329.49999999999733
 20
-573.70000000000709
 30
0.0
 11
337.50000000000449
 21
-643.0
 31
0.0
  0
LINE
  8
DETAIL
  6
CONTINUOUS
 62
     5
 10
-644.42681127999685
 20
222.99999999999551
 30
0.0
 11
-635.95809641199412
 21
210.90542174199351
 31
0.0
  0
LINE
  8
DETAIL
  6
CONTINUOUS
 62
     5
 10
-646.25264335999782
 20
221.77197549399989
 30
0.0
 11
-637.76023091000252
 21
209.6435535819937
 31
0.0
  0
LINE
  8
DETAIL
  6
CONTINUOUS
 62
     5
 10
329.49999999999733
 20
-572.00000000000273
 30
0.0
 11
329.49999999999733
 21
-573.70000000000709
 31
0.0
  0
LINE
  8
DETAIL
  6
CONTINUOUS
 62
     5
 10
337.50000000000449
 20
-643.0
 30
0.0
 11
337.50000000000449
 21
-651.0
 31
0.0
  0
LINE
  8
DETAIL
  6
CONTINUOUS
 62
     5
 10
615.5
 20
-540.50000000000728
 30
0.0
 11
659.00000000000455
 21
-540.50000000000728
 31
0.0
  0
LINE
  8
DETAIL
  6
CONTINUOUS
 62
     5
 10
639.00000000000364
 20
-559.00000000000728
 30
0.0
 11
659.00000000000455
 21
-559.00000000000728
 31
0.0
  0
LINE
  8
DETAIL
  6
CONTINUOUS
 62
     5
 10
-610.69999999999573
 20
-562.80000000000564
 30
0.0
 11
-606.29999999999472
 21
-562.80000000000564
 31
0.0
  0
LINE
  8
DETAIL
  6
CONTINUOUS
 62
     5
 10
606.30000000000382
 20
-562.80000000000564
 30
0.0
 11
610.70000000000437
 21
-562.80000000000564
 31
0.0
  0
LINE
  8
DETAIL
  6
CONTINUOUS
 62
     5
 10
-611.19999999999527
 20
-564.19999999999982
 30
0.0
 11
-608.69999999999573
 21
-564.19999999999982
 31
0.0
  0
LINE
  8
DETAIL
  6
CONTINUOUS
 62
     5
 10
-607.69999999999573
 20
-565.19999999999982
 30
0.0
 11
-606.29999999999472
 21
-565.19999999999982
 31
0.0
  0
LINE
  8
DETAIL
  6
CONTINUOUS
 62
     5
 10
606.30000000000382
 20
-565.19999999999982
 30
0.0
 11
608.20000000000528
 21
-565.19999999999982
 31
0.0
  0
LINE
  8
DETAIL
  6
CONTINUOUS
 62
     5
 10
-608.19999999999573
 20
-565.69999999999982
 30
0.0
 11
-607.69999999999573
 21
-565.69999999999982
 31
0.0
  0
LINE
  8
DETAIL
  6
CONTINUOUS
 62
     5
 10
-608.19999999999573
 20
-566.20000000000709
 30
0.0
 11
-607.69999999999573
 21
-566.20000000000709
 31
0.0
  0
LINE
  8
DETAIL
  6
CONTINUOUS
 62
     5
 10
604.60000000000491
 20
-568.90000000000418
 30
0.0
 11
606.0
 21
-568.90000000000418
 31
0.0
  0
LINE
  8
DETAIL
  6
CONTINUOUS
 62
     5
 10
-604.69999999999573
 20
-570.69999999999982
 30
0.0
 11
-602.80000000000155
 21
-570.69999999999982
 31
0.0
  0
LINE
  8
DETAIL
  6
CONTINUOUS
 62
     5
 10
-601.49999999999227
 20
-572.00000000000273
 30
0.0
 11
601.5
 21
-572.00000000000273
 31
0.0
  0
LINE
  8
DETAIL
  6
CONTINUOUS
 62
     5
 10
639.00000000000364
 20
-572.0
 30
0.0
 11
659.00000000000455
 21
-572.0
 31
0.0
  0
LINE
  8
DETAIL
  6
CONTINUOUS
 62
     5
 10
329.49999999999733
 20
-573.70000000000709
 30
0.0
 11
587.50000000000455
 21
-573.70000000000709
 31
0.0
  0
LINE
  8
DETAIL
  6
CONTINUOUS
 62
     5
 10
609.20000000000346
 20
-584.00000000000728
 30
0.0
 11
659.00000000000455
 21
-584.00000000000728
 31
0.0
  0
LINE
  8
DETAIL
  6
CONTINUOUS
 62
     5
 10
337.50000000000449
 20
-643.0
 30
0.0
 11
579.49999999999727
 21
-643.0
 31
0.0
  0
LINE
  8
DETAIL
  6
CONTINUOUS
 62
     5
 10
337.50000000000449
 20
-651.0
 30
0.0
 11
579.49999999999727
 21
-651.0
 31
0.0
  0
LINE
  8
DETAIL
  6
CONTINUOUS
 62
     5
 10
-626.16330656399623
 20
-222.43068047800901
 30
0.0
 11
-626.9968966079964
 21
-221.5674727160031
 31
0.0
  0
LINE
  8
DETAIL
  6
CONTINUOUS
 62
     5
 10
579.49999999999727
 20
-643.0
 30
0.0
 11
579.49999999999727
 21
-651.0
 31
0.0
  0
LINE
  8
DETAIL
  6
CONTINUOUS
 62
     5
 10
606.30000000000382
 20
567.19999999999254
 30
0.0
 11
606.30000000000382
 21
562.79999999999836
 31
0.0
  0
LINE
  8
DETAIL
  6
CONTINUOUS
 62
     5
 10
606.30000000000382
 20
-562.80000000000564
 30
0.0
 11
606.30000000000382
 21
-567.19999999999982
 31
0.0
  0
LINE
  8
DETAIL
  6
CONTINUOUS
 62
     5
 10
608.70000000000437
 20
-564.69999999999982
 30
0.0
 11
608.70000000000437
 21
-562.80000000000564
 31
0.0
  0
LINE
  8
DETAIL
  6
CONTINUOUS
 62
     5
 10
608.70000000000437
 20
564.69999999999254
 30
0.0
 11
608.70000000000437
 21
562.79999999999836
 31
0.0
  0
LINE
  8
DETAIL
  6
CONTINUOUS
 62
     5
 10
609.20000000000346
 20
-584.00000000000728
 30
0.0
 11
609.20000000000346
 21
584.00000000000728
 31
0.0
  0
LINE
  8
DETAIL
  6
CONTINUOUS
 62
     5
 10
615.5
 20
-558.00000000000909
 30
0.0
 11
615.5
 21
557.99999999999318
 31
0.0
  0
LINE
  8
DETAIL
  6
DASHED
 62
     5
 10
617.19999999999709
 20
536.00000000000409
 30
0.0
 11
617.19999999999709
 21
277.99999999999682
 31
0.0
  0
LINE
  8
DETAIL
  6
CONTINUOUS
 62
     5
 10
655.79999999999927
 20
-540.50000000000728
 30
0.0
 11
655.79999999999927
 21
-559.00000000000728
 31
0.0
  0
LINE
  8
DETAIL
  6
CONTINUOUS
 62
     5
 10
659.00000000000455
 20
-540.50000000000728
 30
0.0
 11
659.00000000000455
 21
-559.00000000000728
 31
0.0
  0
LINE
  8
DETAIL
  6
CONTINUOUS
 62
     5
 10
659.00000000000455
 20
-572.0
 30
0.0
 11
659.00000000000455
 21
-584.00000000000728
 31
0.0
  0
LINE
  8
DETAIL
  6
DASHED
 62
     5
 10
686.20000000000437
 20
527.99999999999682
 30
0.0
 11
686.20000000000437
 21
285.99999999999682
 31
0.0
  0
LINE
  8
DETAIL
  6
DASHED
 62
     5
 10
694.20000000000437
 20
527.99999999999682
 30
0.0
 11
694.20000000000437
 21
285.99999999999682
 31
0.0
  0
LINE
  8
DETAIL
  6
CONTINUOUS
 62
     5
 10
587.50000000000455
 20
-573.70000001010612
 30
0.0
 11
579.49999999999727
 21
-643.0
 31
0.0
  0
LINE
  8
DETAIL
  6
CONTINUOUS
 62
     5
 10
-601.49999999999227
 20
-572.00000000000273
 30
0.0
 11
-606.29999999999472
 21
-567.19999999999982
 31
0.0
  0
LINE
  8
DETAIL
  6
CONTINUOUS
 62
     5
 10
-615.49999999999864
 20
-558.00000000000273
 30
0.0
 11
-610.69999999999573
 21
-562.80000000000564
 31
0.0
  0
LINE
  8
DETAIL
  6
CONTINUOUS
 62
     5
 10
-607.69999999999573
 20
-567.69999999999982
 30
0.0
 11
-604.69999999999573
 21
-570.69999999999982
 31
0.0
  0
LINE
  8
DETAIL
  6
CONTINUOUS
 62
     5
 10
-614.19999999999527
 20
-561.20000000000709
 30
0.0
 11
-611.19999999999527
 21
-564.19999999999982
 31
0.0
  0
LINE
  8
DETAIL
  6
CONTINUOUS
 62
     5
 10
601.50000000000091
 20
-572.00000000000273
 30
0.0
 11
606.30000000000382
 21
-567.19999999999982
 31
0.0
  0
LINE
  8
DETAIL
  6
CONTINUOUS
 62
     5
 10
615.5
 20
-558.00000000000819
 30
0.0
 11
610.70000000000437
 21
-562.80000000000564
 31
0.0
  0
ARC
  8
DETAIL
  6
CONTINUOUS
 62
     5
 10
-605.99999999999818
 20
572.599999999994
 30
0.0
 40
6.3999999999999968
 50
239.99274859062231
 51
254.58872213311341
  0
ARC
  8
DETAIL
  6
CONTINUOUS
 62
     5
 10
-605.99999999999818
 20
572.599999999994
 30
0.0
 40
3.199999999999998
 50
180.4462110643729
 51
270.0
  0
ARC
  8
DETAIL
  6
CONTINUOUS
 62
     5
 10
-608.19999999999527
 20
565.19999999999982
 30
0.0
 40
0.9999999999999993
 50
90.0
 51
180.0
  0
ARC
  8
DETAIL
  6
CONTINUOUS
 62
     5
 10
-607.69999999999573
 20
564.69999999999254
 30
0.0
 40
0.9999999999999993
 50
90.0
 51
180.0
  0
ARC
  8
DETAIL
  6
CONTINUOUS
 62
     5
 10
-608.19999999999527
 20
565.19999999999982
 30
0.0
 40
0.5000000000000004
 50
90.0
 51
180.0
  0
ARC
  8
DETAIL
  6
CONTINUOUS
 62
     5
 10
-607.69999999999573
 20
564.69999999999254
 30
0.0
 40
0.5000000000000004
 50
90.0
 51
180.0
  0
ARC
  8
DETAIL
  6
CONTINUOUS
 62
     5
 10
-639.07087417999583
 20
208.72583128399401
 30
0.0
 40
3.799999999999998
 50
335.00000000002382
 51
34.999999999979217
  0
ARC
  8
DETAIL
  6
CONTINUOUS
 62
     5
 10
-643.13986559199657
 20
223.95156595199211
 30
0.0
 40
3.799999999999998
 50
95.000000000025977
 51
214.9999999999792
  0
ARC
  8
DETAIL
  6
CONTINUOUS
 62
     5
 10
-653.29999999999382
 20
210.99999999999551
 30
0.0
 40
2.9999999999999978
 50
180.0
 51
270.0
  0
ARC
  8
DETAIL
  6
CONTINUOUS
 62
     5
 10
-653.29999999999382
 20
217.99999999999551
 30
0.0
 40
2.9999999999999978
 50
90.0
 51
180.0
  0
ARC
  8
DETAIL
  6
CONTINUOUS
 62
     5
 10
-623.79999999999382
 20
222.40526315798621
 30
0.0
 40
2.5947368420000001
 50
15.53033203684792
 51
27.475020287715299
  0
ARC
  8
DETAIL
  6
CONTINUOUS
 62
     5
 10
-623.79999999999382
 20
222.40526315798621
 30
0.0
 40
2.5947368420000001
 50
43.835513774704033
 51
90.0
  0
ARC
  8
DETAIL
  6
CONTINUOUS
 62
     5
 10
-647.29999999999382
 20
220.99999999999551
 30
0.0
 40
1.9999999999999989
 50
90.0
 51
180.0
  0
ARC
  8
DETAIL
  6
CONTINUOUS
 62
     5
 10
-639.07087417999583
 20
208.72583128399401
 30
0.0
 40
1.6000000000000001
 50
335.00000000002382
 51
34.999999999979217
  0
ARC
  8
DETAIL
  6
CONTINUOUS
 62
     5
 10
-643.13986559199657
 20
223.95156595199211
 30
0.0
 40
1.6000000000000001
 50
95.000000000025977
 51
171.05997092652669
  0
ARC
  8
DETAIL
  6
CONTINUOUS
 62
     5
 10
-645.79722442199818
 20
187.91238236800109
 30
0.0
 40
1.099999999999999
 50
155.0000000000239
 51
335.00000000002382
  0
ARC
  8
DETAIL
  6
CONTINUOUS
 62
     5
 10
-631.19999999999527
 20
220.99999999999551
 30
0.0
 40
0.9999999999999993
 50
90.0
 51
180.0
  0
ARC
  8
DETAIL
  6
CONTINUOUS
 62
     5
 10
-638.40000000000009
 20
220.99999999999551
 30
0.0
 40
0.9999999999999993
 50
0.0
 51
90.0
  0
ARC
  8
DETAIL
  6
CONTINUOUS
 62
     5
 10
-647.29999999999382
 20
220.99999999999551
 30
0.0
 40
0.9999999999999993
 50
90.0
 51
180.0
  0
ARC
  8
DETAIL
  6
CONTINUOUS
 62
     5
 10
-647.29999999999382
 20
210.89999999999691
 30
0.0
 40
0.9999999999999993
 50
90.0
 51
171.00000000003249
  0
ARC
  8
DETAIL
  6
CONTINUOUS
 62
     5
 10
-647.29999999999382
 20
218.1000000000013
 30
0.0
 40
0.9999999999999993
 50
188.99999999996751
 51
270.0
  0
ARC
  8
DETAIL
  6
CONTINUOUS
 62
     5
 10
-645.0999999999899
 20
223.6000000000013
 30
0.0
 40
0.6000000000000002
 50
90.0
 51
270.0
  0
ARC
  8
DETAIL
  6
CONTINUOUS
 62
     5
 10
-621.19999999999573
 20
223.1000000000013
 30
0.0
 40
0.0999999999999998
 50
180.0
 51
270.0
  0
ARC
  8
DETAIL
  6
CONTINUOUS
 62
     5
 10
606.0
 20
572.099999999994
 30
0.0
 40
6.3999999999999968
 50
272.68674856051121
 51
300.00725140937772
  0
ARC
  8
DETAIL
  6
CONTINUOUS
 62
     5
 10
606.0
 20
572.099999999994
 30
0.0
 40
3.199999999999998
 50
270.0
 51
359.55378894177619
  0
ARC
  8
DETAIL
  6
CONTINUOUS
 62
     5
 10
608.53615922600147
 20
569.43372483199619
 30
0.0
 40
2.666299197999999
 50
75.597488024255782
 51
76.114622487605516
  0
ARC
  8
DETAIL
  6
CONTINUOUS
 62
     5
 10
608.53688008600238
 20
569.43663096399086
 30
0.0
 40
2.6633049959999981
 50
76.114673715555796
 51
76.3565357468689
  0
ARC
  8
DETAIL
  6
CONTINUOUS
 62
     5
 10
608.20000000000528
 20
564.69999999999254
 30
0.0
 40
0.9999999999999993
 50
0.0
 51
90.0
  0
ARC
  8
DETAIL
  6
CONTINUOUS
 62
     5
 10
608.20000000000528
 20
564.69999999999254
 30
0.0
 40
0.5000000000000004
 50
0.0
 51
90.0
  0
ARC
  8
DETAIL
  6
CONTINUOUS
 62
     5
 10
-627.19999999999527
 20
-225.1000000000013
 30
0.0
 40
2.3999999999999981
 50
157.96421970720391
 51
270.0
  0
ARC
  8
DETAIL
  6
CONTINUOUS
 62
     5
 10
-627.19999999999527
 20
-225.1000000000013
 30
0.0
 40
1.1999999999999991
 50
134.0000000000301
 51
270.0
  0
ARC
  8
DETAIL
  6
CONTINUOUS
 62
     5
 10
-645.0999999999899
 20
-223.6000000000013
 30
0.0
 40
0.6000000000000002
 50
90.0
 51
270.0
  0
ARC
  8
DETAIL
  6
CONTINUOUS
 62
     5
 10
-605.99999999999818
 20
-572.60000000000855
 30
0.0
 40
6.3999999999999968
 50
105.41127786688661
 51
120.0072514093778
  0
ARC
  8
DETAIL
  6
CONTINUOUS
 62
     5
 10
-605.99999999999818
 20
-572.60000000000855
 30
0.0
 40
3.199999999999998
 50
90.0
 51
179.5537889357314
  0
ARC
  8
DETAIL
  6
CONTINUOUS
 62
     5
 10
-608.53615921599521
 20
-569.9337248000038
 30
0.0
 40
2.6662992319999992
 50
255.5974880258965
 51
256.11462248255958
  0
ARC
  8
DETAIL
  6
CONTINUOUS
 62
     5
 10
-608.53688008599283
 20
-569.93663096600631
 30
0.0
 40
2.6633049959999981
 50
256.1146737155558
 51
256.35653574686887
  0
ARC
  8
DETAIL
  6
CONTINUOUS
 62
     5
 10
-608.19999999999573
 20
-565.19999999999982
 30
0.0
 40
0.9999999999999993
 50
180.0
 51
270.0
  0
ARC
  8
DETAIL
  6
CONTINUOUS
 62
     5
 10
-607.69999999999573
 20
-564.69999999999982
 30
0.0
 40
0.9999999999999993
 50
180.0
 51
270.0
  0
ARC
  8
DETAIL
  6
CONTINUOUS
 62
     5
 10
-607.69999999999573
 20
-564.69999999999982
 30
0.0
 40
0.5000000000000004
 50
180.0
 51
270.0
  0
ARC
  8
DETAIL
  6
CONTINUOUS
 62
     5
 10
-608.19999999999573
 20
-565.19999999999982
 30
0.0
 40
0.5000000000000004
 50
180.0
 51
270.0
  0
ARC
  8
DETAIL
  6
CONTINUOUS
 62
     5
 10
639.00000000000364
 20
-565.5
 30
0.0
 40
6.4999999999999956
 50
90.0
 51
270.0
  0
ARC
  8
DETAIL
  6
CONTINUOUS
 62
     5
 10
606.0
 20
-572.10000000000855
 30
0.0
 40
6.3999999999999968
 50
59.992748590622242
 51
87.313251428794445
  0
ARC
  8
DETAIL
  6
CONTINUOUS
 62
     5
 10
606.0
 20
-572.10000000000855
 30
0.0
 40
3.199999999999998
 50
0.4462110580154106
 51
89.999999988900527
  0
ARC
  8
DETAIL
  6
CONTINUOUS
 62
     5
 10
608.5361591999972
 20
-569.43372473400359
 30
0.0
 40
2.6662993019999979
 50
283.88537752731759
 51
284.40251197071387
  0
ARC
  8
DETAIL
  6
CONTINUOUS
 62
     5
 10
608.53687998800251
 20
-569.43663056000787
 30
0.0
 40
2.6633054139999981
 50
283.64346426026327
 51
283.88532625368663
  0
ARC
  8
DETAIL
  6
CONTINUOUS
 62
     5
 10
608.20000000000528
 20
-564.69999999999982
 30
0.0
 40
0.9999999999999993
 50
270.0
 51
0.0
  0
ARC
  8
DETAIL
  6
CONTINUOUS
 62
     5
 10
608.20000000000528
 20
-564.69999999999982
 30
0.0
 40
0.5000000000000004
 50
270.0
 51
0.0
  0
LINE
  8
DETAIL
  6
CONTINUOUS
 62
     5
 10
-625.19999999999527
 20
224.19999999999251
 30
0.0
 11
-625.35945305896462
 21
224.14843749999321
 31
0.0
  0
LINE
  8
DETAIL
  6
CONTINUOUS
 62
     5
 10
-625.35945305896462
 20
224.14843749999321
 30
0.0
 11
-625.47927735674602
 21
224.01249999999479
 31
0.0
  0
LINE
  8
DETAIL
  6
CONTINUOUS
 62
     5
 10
-625.47927735674602
 20
224.01249999999479
 30
0.0
 11
-625.55468387915209
 21
223.82031249999653
 31
0.0
  0
LINE
  8
DETAIL
  6
CONTINUOUS
 62
     5
 10
-625.55468387915209
 20
223.82031249999653
 30
0.0
 11
-625.58088361199589
 21
223.59999999999764
 31
0.0
  0
LINE
  8
DETAIL
  6
CONTINUOUS
 62
     5
 10
-625.58088361199589
 20
223.59999999999764
 30
0.0
 11
-625.55468387915221
 21
223.37968749999766
 31
0.0
  0
LINE
  8
DETAIL
  6
CONTINUOUS
 62
     5
 10
-625.55468387915221
 20
223.37968749999766
 30
0.0
 11
-625.47927735674602
 21
223.18749999999685
 31
0.0
  0
LINE
  8
DETAIL
  6
CONTINUOUS
 62
     5
 10
-625.47927735674602
 20
223.18749999999685
 30
0.0
 11
-625.35945305896462
 21
223.05156249999595
 31
0.0
  0
LINE
  8
DETAIL
  6
CONTINUOUS
 62
     5
 10
-625.35945305896462
 20
223.05156249999595
 30
0.0
 11
-625.19999999999527
 21
222.99999999999551
 31
0.0
  0
LINE
  8
DETAIL
  6
CONTINUOUS
 62
     5
 10
-625.19999999999527
 20
-224.20000000000709
 30
0.0
 11
-625.35945305896485
 21
-224.14843750000662
 31
0.0
  0
LINE
  8
DETAIL
  6
CONTINUOUS
 62
     5
 10
-625.35945305896485
 20
-224.14843750000662
 30
0.0
 11
-625.47927735674637
 21
-224.0125000000055
 31
0.0
  0
LINE
  8
DETAIL
  6
CONTINUOUS
 62
     5
 10
-625.47927735674637
 20
-224.0125000000055
 30
0.0
 11
-625.55468387915244
 21
-223.82031250000421
 31
0.0
  0
LINE
  8
DETAIL
  6
CONTINUOUS
 62
     5
 10
-625.55468387915244
 20
-223.82031250000421
 30
0.0
 11
-625.58088361199611
 21
-223.60000000000309
 31
0.0
  0
LINE
  8
DETAIL
  6
CONTINUOUS
 62
     5
 10
-625.58088361199611
 20
-223.60000000000309
 30
0.0
 11
-625.55468387915244
 21
-223.37968750000258
 31
0.0
  0
LINE
  8
DETAIL
  6
CONTINUOUS
 62
     5
 10
-625.55468387915244
 20
-223.37968750000258
 30
0.0
 11
-625.47927735674625
 21
-223.18750000000247
 31
0.0
  0
LINE
  8
DETAIL
  6
CONTINUOUS
 62
     5
 10
-625.47927735674625
 20
-223.18750000000247
 30
0.0
 11
-625.35945305896485
 21
-223.0515625000026
 31
0.0
  0
LINE
  8
DETAIL
  6
CONTINUOUS
 62
     5
 10
-625.35945305896485
 20
-223.0515625000026
 30
0.0
 11
-625.19999999999527
 21
-223.0000000000027
 31
0.0
  0
LINE
  8
DETAIL
  6
CONTINUOUS
 62
     5
 10
587.50000000000455
 20
-572.00000000000273
 30
0.0
 11
587.50000000000455
 21
-573.70000001010612
 31
0.0
  0
LINE
  8
DETAIL
  6
CONTINUOUS
 62
     5
 10
-725.39999999999145
 20
-289.10000000000849
 30
0.0
 11
-725.39999999999145
 21
-300.50000000001
 31
0.0
  0
LINE
  8
DETAIL
  6
CONTINUOUS
 62
     5
 10
-724.79999999999291
 20
-300.50000000001
 30
0.0
 11
-724.79999999999291
 21
-458.30000000000558
 31
0.0
  0
LINE
  8
DETAIL
  6
CONTINUOUS
 62
     5
 10
-724.19999999999482
 20
-460.70000000000709
 30
0.0
 11
-724.19999999999482
 21
-458.30000000000558
 31
0.0
  0
LINE
  8
DETAIL
  6
CONTINUOUS
 62
     5
 10
-679.19999999998981
 20
-462.92449980000953
 30
0.0
 11
-679.19999999998981
 21
-462.80000000000558
 31
0.0
  0
LINE
  8
DETAIL
  6
CONTINUOUS
 62
     5
 10
-674.89999999999463
 20
-469.70000000001443
 30
0.0
 11
-674.89999999999463
 21
-473.30000000000558
 31
0.0
  0
LINE
  8
DETAIL
  6
CONTINUOUS
 62
     5
 10
-673.69999999999754
 20
-472.35000000000849
 30
0.0
 11
-673.69999999999754
 21
-470.65000000000418
 31
0.0
  0
LINE
  8
DETAIL
  6
CONTINUOUS
 62
     5
 10
-673.19999999998981
 20
-490.8994310020089
 30
0.0
 11
-673.19999999998981
 21
-470.90000000001152
 31
0.0
  0
LINE
  8
DETAIL
  6
CONTINUOUS
 62
     5
 10
-672.89999999999463
 20
-465.40000000000418
 30
0.0
 11
-672.89999999999463
 21
-469.70000000001443
 31
0.0
  0
LINE
  8
DETAIL
  6
CONTINUOUS
 62
     5
 10
-671.69999999999072
 20
-470.65000000000418
 30
0.0
 11
-671.69999999999072
 21
-466.65000000001152
 31
0.0
  0
LINE
  8
DETAIL
  6
CONTINUOUS
 62
     5
 10
-666.69999999999027
 20
-466.65000000001152
 30
0.0
 11
-666.69999999999027
 21
-470.65000000000418
 31
0.0
  0
LINE
  8
DETAIL
  6
CONTINUOUS
 62
     5
 10
-665.49999999999318
 20
-469.45000000000709
 30
0.0
 11
-665.49999999999318
 21
-465.85000000000849
 31
0.0
  0
LINE
  8
DETAIL
  6
CONTINUOUS
 62
     5
 10
-665.19999999999072
 20
-490.8994310020089
 30
0.0
 11
-665.19999999999072
 21
-470.90000000001152
 31
0.0
  0
LINE
  8
DETAIL
  6
CONTINUOUS
 62
     5
 10
-664.69999999999027
 20
-470.65000000000418
 30
0.0
 11
-664.69999999999027
 21
-472.35000000000849
 31
0.0
  0
LINE
  8
DETAIL
  6
CONTINUOUS
 62
     5
 10
-663.49999999999318
 20
-473.30000000000558
 30
0.0
 11
-663.49999999999318
 21
-469.45000000000709
 31
0.0
  0
LINE
  8
DETAIL
  6
CONTINUOUS
 62
     5
 10
-659.19999999999027
 20
-462.80000000000558
 30
0.0
 11
-659.19999999999027
 21
-462.92449980000953
 31
0.0
  0
LINE
  8
DETAIL
  6
CONTINUOUS
 62
     5
 10
-665.49999999999318
 20
-465.85000000000849
 30
0.0
 11
-660.33256777199131
 21
-462.93819295000412
 31
0.0
  0
LINE
  8
DETAIL
  6
CONTINUOUS
 62
     5
 10
-724.19999999999482
 20
-287.90000000001152
 30
0.0
 11
-615.49999999999318
 21
-287.90000000001152
 31
0.0
  0
LINE
  8
DETAIL
  6
CONTINUOUS
 62
     5
 10
-724.79999999999291
 20
-300.50000000001
 30
0.0
 11
-725.39999999999145
 21
-300.50000000001
 31
0.0
  0
LINE
  8
DETAIL
  6
CONTINUOUS
 62
     5
 10
-724.79999999999291
 20
-458.30000000000558
 30
0.0
 11
-724.19999999999482
 21
-458.30000000000558
 31
0.0
  0
LINE
  8
DETAIL
  6
CONTINUOUS
 62
     5
 10
-722.59999999998854
 20
-462.30000000001291
 30
0.0
 11
-615.49999999999318
 21
-462.30000000001291
 31
0.0
  0
LINE
  8
DETAIL
  6
CONTINUOUS
 62
     5
 10
-715.39999999999463
 20
-465.30000000000558
 30
0.0
 11
-689.39999999999509
 21
-465.30000000000558
 31
0.0
  0
LINE
  8
DETAIL
  6
CONTINUOUS
 62
     5
 10
-671.69999999999072
 20
-466.65000000001152
 30
0.0
 11
-666.69999999999027
 21
-466.65000000001152
 31
0.0
  0
LINE
  8
DETAIL
  6
CONTINUOUS
 62
     5
 10
-663.49999999999318
 20
-469.45000000000709
 30
0.0
 11
-665.49999999999318
 21
-469.45000000000709
 31
0.0
  0
LINE
  8
DETAIL
  6
CONTINUOUS
 62
     5
 10
-672.89999999999463
 20
-469.70000000001443
 30
0.0
 11
-674.89999999999463
 21
-469.70000000001443
 31
0.0
  0
LINE
  8
DETAIL
  6
CONTINUOUS
 62
     5
 10
-673.69999999999754
 20
-470.65000000000418
 30
0.0
 11
-671.69999999999072
 21
-470.65000000000418
 31
0.0
  0
LINE
  8
DETAIL
  6
CONTINUOUS
 62
     5
 10
-666.69999999999027
 20
-470.65000000000418
 30
0.0
 11
-664.69999999999027
 21
-470.65000000000418
 31
0.0
  0
LINE
  8
DETAIL
  6
CONTINUOUS
 62
     5
 10
-665.19999999999072
 20
-470.90000000001152
 30
0.0
 11
-673.19999999998981
 21
-470.90000000001152
 31
0.0
  0
LINE
  8
DETAIL
  6
CONTINUOUS
 62
     5
 10
-664.69999999999027
 20
-472.35000000000849
 30
0.0
 11
-665.19999999999072
 21
-472.35000000000849
 31
0.0
  0
LINE
  8
DETAIL
  6
CONTINUOUS
 62
     5
 10
-673.19999999998981
 20
-472.35000000000849
 30
0.0
 11
-673.69999999999754
 21
-472.35000000000849
 31
0.0
  0
LINE
  8
DETAIL
  6
CONTINUOUS
 62
     5
 10
-663.49999999999318
 20
-473.30000000000558
 30
0.0
 11
-665.19999999999072
 21
-473.30000000000558
 31
0.0
  0
LINE
  8
DETAIL
  6
CONTINUOUS
 62
     5
 10
-673.19999999998981
 20
-473.30000000000558
 30
0.0
 11
-674.89999999999463
 21
-473.30000000000558
 31
0.0
  0
LINE
  8
DETAIL
  6
CONTINUOUS
 62
     5
 10
-665.19999999999072
 20
-490.90000000001152
 30
0.0
 11
-673.19999999998981
 21
-490.90000000001152
 31
0.0
  0
LINE
  8
DETAIL
  6
CONTINUOUS
 62
     5
 10
-678.0335652699946
 20
-462.87395994600502
 30
0.0
 11
-672.89999999999463
 21
-465.40000000000418
 31
0.0
  0
ARC
  8
DETAIL
  6
CONTINUOUS
 62
     5
 10
-724.19999999999482
 20
-289.10000000000849
 30
0.0
 40
1.1999999999999991
 50
90.0
 51
180.0
  0
ARC
  8
DETAIL
  6
CONTINUOUS
 62
     5
 10
-689.39999999999509
 20
-462.30000000001291
 30
0.0
 40
2.9999999999999978
 50
270.0
 51
0.0
  0
ARC
  8
DETAIL
  6
CONTINUOUS
 62
     5
 10
-695.39999999999418
 20
-462.30000000001291
 30
0.0
 40
2.9999999999999978
 50
270.0
 51
0.0
  0
ARC
  8
DETAIL
  6
CONTINUOUS
 62
     5
 10
-715.39999999999463
 20
-462.30000000001291
 30
0.0
 40
2.9999999999999978
 50
180.0
 51
270.0
  0
ARC
  8
DETAIL
  6
CONTINUOUS
 62
     5
 10
-722.59999999998854
 20
-460.70000000000709
 30
0.0
 40
1.6000000000000001
 50
180.0
 51
270.0
  0
ARC
  8
DETAIL
  6
CONTINUOUS
 62
     5
 10
-659.19999999999027
 20
-462.30000000001291
 30
0.0
 40
1.3
 50
209.40091419706729
 51
231.31781254654359
  0
ARC
  8
DETAIL
  6
CONTINUOUS
 62
     5
 10
-679.19999999998981
 20
-462.30000000001291
 30
0.0
 40
1.3
 50
308.68218745345638
 51
333.79988515869007
  0
ARC
  8
DETAIL
  6
CONTINUOUS
 62
     5
 10
-678.699999999998
 20
-462.80000000000558
 30
0.0
 40
0.5000000000000004
 50
90.0
 51
180.0
  0
ARC
  8
DETAIL
  6
CONTINUOUS
 62
     5
 10
-659.69999999999072
 20
-462.80000000000558
 30
0.0
 40
0.5000000000000004
 50
0.0
 51
90.0
  0
ARC
  8
DETAIL
  6
CONTINUOUS
 62
     5
 10
-659.69999999999072
 20
-462.92449980000953
 30
0.0
 40
0.5000000000000004
 50
231.31781254654359
 51
0.0
  0
ARC
  8
DETAIL
  6
CONTINUOUS
 62
     5
 10
-678.699999999998
 20
-462.92449980000953
 30
0.0
 40
0.5000000000000004
 50
180.0
 51
308.68218745345638
  0
LINE
  8
DETAIL
  6
CONTINUOUS
 62
     5
 10
608.20000000000528
 20
565.69999999999982
 30
0.0
 11
-606.29999999999427
 21
565.69999999999982
 31
0.0
  0
LINE
  8
DETAIL
  6
CONTINUOUS
 62
     5
 10
608.20000000000528
 20
-565.69999999999982
 30
0.0
 11
-606.30000000000382
 21
-565.69999999998527
 31
0.0
  0
LINE
  8
BASIS
  6
DASHDOT
 62
     6
 10
458.50000000000182
 20
-674.74386575860262
 30
0.0
 11
458.50000000000182
 21
-545.33333358710934
 31
0.0
  0
LINE
  8
BASIS
  6
DASHDOT
 62
     6
 10
707.25273722293787
 20
406.99999999899268
 30
0.0
 11
587.82118770838133
 21
406.99999999899268
 31
0.0
  0
LINE
  8
BASIS
  6
DASHDOT
 62
     6
 10
-707.25273722293605
 20
406.99999999899268
 30
0.0
 11
-587.82118770837951
 21
406.99999999899268
 31
0.0
  0
LINE
  8
SERVICESPACE
  6
DASHDOT
 62
     2
 10
-616.2329146088
 20
-572.40000006385799
 30
0.0
 11
-1315.5000146439611
 21
-572.40000006385799
 31
0.0
  0
LINE
  8
SERVICESPACE
  6
DASHDOT
 62
     2
 10
-616.23291460879955
 20
571.99999999998818
 30
0.0
 11
-1315.5000146439611
 21
571.99999999998818
 31
0.0
  0
LINE
  8
SERVICESPACE
  6
DASHDOT
 62
     2
 10
-1315.5000146439611
 20
-572.40000006385799
 30
0.0
 11
-1315.5000146439611
 21
571.99999999998818
 31
0.0
  0
LINE
  8
BASIS
  6
DASHDOT
 62
     6
 10
638.99999999999636
 20
-616.43427874097688
 30
0.0
 11
638.99999999999636
 21
-514.56572125902312
 31
0.0
  0
LINE
  8
BASIS
  6
DASHDOT
 62
     6
 10
689.9342787409787
 20
-565.5
 30
0.0
 11
588.06572125902858
 21
-565.5
 31
0.0
  0
LINE
  8
SIZE
  6
CONTINUOUS
 62
    30
 10
621.50000000001751
 20
571.9999999999884
 30
0.0
 11
1115.3274130333059
 21
571.99999999998852
 31
0.0
  0
LINE
  8
SIZE
  6
CONTINUOUS
 62
    30
 10
621.50000000000023
 20
-572.00000000000296
 30
0.0
 11
1115.3274130333059
 21
-572.00000000000284
 31
0.0
  0
LINE
  8
SIZE
  6
CONTINUOUS
 62
    30
 10
1095.3274130333059
 20
559.99999999998852
 30
0.0
 11
1095.3274130333059
 21
-560.00000000000284
 31
0.0
  0
CIRCLE
  8
SIZE
  6
CONTINUOUS
 62
    30
 10
1095.3274130333059
 20
571.99999999998852
 30
0.0
 40
6.0
  0
LINE
  8
SIZE
  6
CONTINUOUS
 62
    30
 10
1095.3274130333059
 20
571.99999999998852
 30
0.0
 11
1095.3274130333059
 21
559.99999999998852
 31
0.0
  0
CIRCLE
  8
SIZE
  6
CONTINUOUS
 62
    30
 10
1095.3274130333059
 20
-572.00000000000284
 30
0.0
 40
6.0
  0
LINE
  8
SIZE
  6
CONTINUOUS
 62
    30
 10
1095.3274130333059
 20
-572.00000000000284
 30
0.0
 11
1095.3274130333059
 21
-560.00000000000284
 31
0.0
  0
TEXT
  8
SIZE
  6
CONTINUOUS
 62
    30
 10
1070.3274130333059
 20
-96.768000000007476
 30
0.0
 40
64.0
  1
1144
 50
90.0
 41
0.9
 51
0.0
  7
STANDARD
 71
     0
 72
     1
 11
1070.3274130333059
 21
-0.0000000000074517
 31
0.0
210
0.0
220
0.0
230
1.0
  0
POINT
  8
DEFPOINTS
  6
CONTINUOUS
 62
    30
 10
601.50000000001751
 20
571.9999999999884
 30
0.0
  0
POINT
  8
DEFPOINTS
  6
CONTINUOUS
 62
    30
 10
601.50000000000023
 20
-572.00000000000296
 30
0.0
  0
POINT
  8
DEFPOINTS
  6
CONTINUOUS
 62
    30
 10
1095.3274130333059
 20
-572.00000000000284
 30
0.0
  0
LINE
  8
SIZE
  6
CONTINUOUS
 62
    30
 10
599.49983178000389
 20
-651.00000000000023
 30
0.0
 11
1115.327413033302
 21
-651.00000000000011
 31
0.0
  0
LINE
  8
SIZE
  6
CONTINUOUS
 62
    30
 10
621.50000000000023
 20
-572.00000000000296
 30
0.0
 11
1115.327413033302
 21
-572.00000000000284
 31
0.0
  0
LINE
  8
SIZE
  6
CONTINUOUS
 62
    30
 10
1095.327413033302
 20
-584.00000000000284
 30
0.0
 11
1095.327413033302
 21
-639.00000000000011
 31
0.0
  0
LINE
  8
SIZE
  6
CONTINUOUS
 62
    30
 10
1095.327413033302
 20
-651.00000000000011
 30
0.0
 11
1095.327413033302
 21
-803.5142857142871
 31
0.0
  0
CIRCLE
  8
SIZE
  6
CONTINUOUS
 62
    30
 10
1095.327413033302
 20
-572.00000000000284
 30
0.0
 40
6.0
  0
LINE
  8
SIZE
  6
CONTINUOUS
 62
    30
 10
1095.327413033302
 20
-572.00000000000284
 30
0.0
 11
1095.327413033302
 21
-584.00000000000284
 31
0.0
  0
CIRCLE
  8
SIZE
  6
CONTINUOUS
 62
    30
 10
1095.327413033302
 20
-651.00000000000011
 30
0.0
 40
6.0
  0
LINE
  8
SIZE
  6
CONTINUOUS
 62
    30
 10
1095.327413033302
 20
-651.00000000000011
 30
0.0
 11
1095.327413033302
 21
-639.00000000000011
 31
0.0
  0
TEXT
  8
SIZE
  6
CONTINUOUS
 62
    30
 10
1070.3274130333009
 20
-786.82514285714433
 30
0.0
 40
64.0
  1
79
 50
90.0
 41
0.9
 51
0.0
  7
STANDARD
 71
     0
 72
     1
 11
1070.3274130333009
 21
-733.25714285714434
 31
0.0
210
0.0
220
0.0
230
1.0
  0
POINT
  8
DEFPOINTS
  6
CONTINUOUS
 62
    30
 10
579.49983178000389
 20
-651.00000000000023
 30
0.0
  0
POINT
  8
DEFPOINTS
  6
CONTINUOUS
 62
    30
 10
601.50000000000023
 20
-572.00000000000296
 30
0.0
  0
POINT
  8
DEFPOINTS
  6
CONTINUOUS
 62
    30
 10
1095.327413033302
 20
-572.00000000000284
 30
0.0
  0
LINE
  8
SIZE
  6
CONTINUOUS
 62
    30
 10
615.5
 20
577.99999999999318
 30
0.0
 11
615.5
 21
969.45607935798216
 31
0.0
  0
LINE
  8
SIZE
  6
CONTINUOUS
 62
    30
 10
-615.49999999999818
 20
577.99999999998545
 30
0.0
 11
-615.49999999999818
 21
969.45607935798216
 31
0.0
  0
LINE
  8
SIZE
  6
CONTINUOUS
 62
    30
 10
603.5
 20
949.45607935798216
 30
0.0
 11
-603.49999999999818
 21
949.45607935798216
 31
0.0
  0
CIRCLE
  8
SIZE
  6
CONTINUOUS
 62
    30
 10
615.5
 20
949.45607935798216
 30
0.0
 40
6.0
  0
LINE
  8
SIZE
  6
CONTINUOUS
 62
    30
 10
615.5
 20
949.45607935798216
 30
0.0
 11
603.5
 21
949.45607935798216
 31
0.0
  0
CIRCLE
  8
SIZE
  6
CONTINUOUS
 62
    30
 10
-615.49999999999818
 20
949.45607935798216
 30
0.0
 40
6.0
  0
LINE
  8
SIZE
  6
CONTINUOUS
 62
    30
 10
-615.49999999999818
 20
949.45607935798216
 30
0.0
 11
-603.49999999999818
 21
949.45607935798216
 31
0.0
  0
TEXT
  8
SIZE
  6
CONTINUOUS
 62
    30
 10
-95.615999999999104
 20
974.45607935798216
 30
0.0
 40
64.0
  1
1231
 50
0.0
 41
0.9
 51
0.0
  7
STANDARD
 71
     0
 72
     1
 11
0.0000000000009095
 21
974.45607935798216
 31
0.0
210
0.0
220
0.0
230
1.0
  0
POINT
  8
DEFPOINTS
  6
CONTINUOUS
 62
    30
 10
615.5
 20
557.99999999999318
 30
0.0
  0
POINT
  8
DEFPOINTS
  6
CONTINUOUS
 62
    30
 10
-615.49999999999818
 20
557.99999999998545
 30
0.0
  0
POINT
  8
DEFPOINTS
  6
CONTINUOUS
 62
    30
 10
-615.49999999999818
 20
949.45607935798216
 30
0.0
  0
LINE
  8
DETAIL
  6
CONTINUOUS
 62
     5
 10
329.49999999999733
 20
573.70000000000709
 30
0.0
 11
337.50000000000551
 21
643.0
 31
0.0
  0
LINE
  8
DETAIL
  6
CONTINUOUS
 62
     5
 10
329.49999999999733
 20
572.00000000000273
 30
0.0
 11
329.49999999999733
 21
573.70000000000709
 31
0.0
  0
LINE
  8
DETAIL
  6
CONTINUOUS
 62
     5
 10
337.50000000000551
 20
643.0
 30
0.0
 11
337.50000000000551
 21
651.0
 31
0.0
  0
LINE
  8
DETAIL
  6
CONTINUOUS
 62
     5
 10
329.49999999999733
 20
573.70000000000709
 30
0.0
 11
587.50000000000546
 21
573.70000000000709
 31
0.0
  0
LINE
  8
DETAIL
  6
CONTINUOUS
 62
     5
 10
337.50000000000551
 20
643.0
 30
0.0
 11
579.49999999999818
 21
643.0
 31
0.0
  0
LINE
  8
DETAIL
  6
CONTINUOUS
 62
     5
 10
337.50000000000551
 20
651.0
 30
0.0
 11
579.49999999999818
 21
651.0
 31
0.0
  0
LINE
  8
DETAIL
  6
CONTINUOUS
 62
     5
 10
579.49999999999818
 20
643.0
 30
0.0
 11
579.49999999999818
 21
651.0
 31
0.0
  0
LINE
  8
DETAIL
  6
CONTINUOUS
 62
     5
 10
587.50000000000546
 20
573.70000001010612
 30
0.0
 11
579.49999999999818
 21
643.0
 31
0.0
  0
LINE
  8
DETAIL
  6
CONTINUOUS
 62
     5
 10
587.50000000000546
 20
572.00000000000273
 30
0.0
 11
587.50000000000546
 21
573.70000001010612
 31
0.0
  0
LINE
  8
BASIS
  6
DASHDOT
 62
     6
 10
458.50000000000182
 20
674.74386575860262
 30
0.0
 11
458.50000000000182
 21
545.33333358710934
 31
0.0
  0
LINE
  8
SIZE
  6
CONTINUOUS
 62
    30
 10
599.49983178000389
 20
651.00000000000023
 30
0.0
 11
1115.3274130333009
 21
651.00000000000034
 31
0.0
  0
LINE
  8
SIZE
  6
CONTINUOUS
 62
    30
 10
621.50000000000114
 20
572.00000000000296
 30
0.0
 11
1115.3274130333009
 21
572.00000000000307
 31
0.0
  0
LINE
  8
SIZE
  6
CONTINUOUS
 62
    30
 10
1095.3274130333009
 20
584.00000000000307
 30
0.0
 11
1095.3274130333009
 21
639.00000000000034
 31
0.0
  0
LINE
  8
SIZE
  6
CONTINUOUS
 62
    30
 10
1095.3274130333009
 20
651.00000000000034
 30
0.0
 11
1095.3274130333009
 21
803.51428571428619
 31
0.0
  0
CIRCLE
  8
SIZE
  6
CONTINUOUS
 62
    30
 10
1095.3274130333009
 20
572.00000000000307
 30
0.0
 40
6.0
  0
LINE
  8
SIZE
  6
CONTINUOUS
 62
    30
 10
1095.3274130333009
 20
572.00000000000307
 30
0.0
 11
1095.3274130333009
 21
584.00000000000307
 31
0.0
  0
CIRCLE
  8
SIZE
  6
CONTINUOUS
 62
    30
 10
1095.3274130333009
 20
651.00000000000034
 30
0.0
 40
6.0
  0
LINE
  8
SIZE
  6
CONTINUOUS
 62
    30
 10
1095.3274130333009
 20
651.00000000000034
 30
0.0
 11
1095.3274130333009
 21
639.00000000000034
 31
0.0
  0
TEXT
  8
SIZE
  6
CONTINUOUS
 62
    30
 10
1070.3274130333009
 20
679.68914285714277
 30
0.0
 40
64.0
  1
79
 50
90.0
 41
0.9
 51
0.0
  7
STANDARD
 71
     0
 72
     1
 11
1070.3274130333009
 21
733.25714285714275
 31
0.0
210
0.0
220
0.0
230
1.0
  0
POINT
  8
DEFPOINTS
  6
CONTINUOUS
 62
    30
 10
579.49983178000389
 20
651.00000000000023
 30
0.0
  0
POINT
  8
DEFPOINTS
  6
CONTINUOUS
 62
    30
 10
601.50000000000114
 20
572.00000000000296
 30
0.0
  0
POINT
  8
DEFPOINTS
  6
CONTINUOUS
 62
    30
 10
1095.3274130333009
 20
572.00000000000307
 30
0.0
  0
LINE
  8
DETAIL
  6
CONTINUOUS
 62
     5
 10
-329.49999999999733
 20
-573.70000000000709
 30
0.0
 11
-337.500000000005
 21
-643.0
 31
0.0
  0
LINE
  8
DETAIL
  6
CONTINUOUS
 62
     5
 10
-329.49999999999733
 20
-572.00000000000273
 30
0.0
 11
-329.49999999999733
 21
-573.70000000000709
 31
0.0
  0
LINE
  8
DETAIL
  6
CONTINUOUS
 62
     5
 10
-337.500000000005
 20
-643.0
 30
0.0
 11
-337.500000000005
 21
-651.0
 31
0.0
  0
LINE
  8
DETAIL
  6
CONTINUOUS
 62
     5
 10
-329.49999999999733
 20
-573.70000000000709
 30
0.0
 11
-587.500000000005
 21
-573.70000000000709
 31
0.0
  0
LINE
  8
DETAIL
  6
CONTINUOUS
 62
     5
 10
-337.500000000005
 20
-643.0
 30
0.0
 11
-579.49999999999773
 21
-643.0
 31
0.0
  0
LINE
  8
DETAIL
  6
CONTINUOUS
 62
     5
 10
-337.500000000005
 20
-651.0
 30
0.0
 11
-579.49999999999773
 21
-651.0
 31
0.0
  0
LINE
  8
DETAIL
  6
CONTINUOUS
 62
     5
 10
-579.49999999999773
 20
-643.0
 30
0.0
 11
-579.49999999999773
 21
-651.0
 31
0.0
  0
LINE
  8
DETAIL
  6
CONTINUOUS
 62
     5
 10
-587.500000000005
 20
-573.70000001010612
 30
0.0
 11
-579.49999999999773
 21
-643.0
 31
0.0
  0
LINE
  8
DETAIL
  6
CONTINUOUS
 62
     5
 10
-587.500000000005
 20
-572.00000000000273
 30
0.0
 11
-587.500000000005
 21
-573.70000001010612
 31
0.0
  0
LINE
  8
BASIS
  6
DASHDOT
 62
     6
 10
-458.50000000000182
 20
-674.74386575860262
 30
0.0
 11
-458.50000000000182
 21
-545.33333358710934
 31
0.0
  0
LINE
  8
DETAIL
  6
CONTINUOUS
 62
     5
 10
-329.49999999999682
 20
573.70000000000709
 30
0.0
 11
-337.50000000000449
 21
643.0
 31
0.0
  0
LINE
  8
DETAIL
  6
CONTINUOUS
 62
     5
 10
-329.49999999999682
 20
572.00000000000273
 30
0.0
 11
-329.49999999999682
 21
573.70000000000709
 31
0.0
  0
LINE
  8
DETAIL
  6
CONTINUOUS
 62
     5
 10
-337.50000000000449
 20
643.0
 30
0.0
 11
-337.50000000000449
 21
651.0
 31
0.0
  0
LINE
  8
DETAIL
  6
CONTINUOUS
 62
     5
 10
-329.49999999999682
 20
573.70000000000709
 30
0.0
 11
-587.50000000000455
 21
573.70000000000709
 31
0.0
  0
LINE
  8
DETAIL
  6
CONTINUOUS
 62
     5
 10
-337.50000000000449
 20
643.0
 30
0.0
 11
-579.49999999999727
 21
643.0
 31
0.0
  0
LINE
  8
DETAIL
  6
CONTINUOUS
 62
     5
 10
-337.50000000000449
 20
651.0
 30
0.0
 11
-579.49999999999727
 21
651.0
 31
0.0
  0
LINE
  8
DETAIL
  6
CONTINUOUS
 62
     5
 10
-579.49999999999727
 20
643.0
 30
0.0
 11
-579.49999999999727
 21
651.0
 31
0.0
  0
LINE
  8
DETAIL
  6
CONTINUOUS
 62
     5
 10
-587.50000000000455
 20
573.70000001010612
 30
0.0
 11
-579.49999999999727
 21
643.0
 31
0.0
  0
LINE
  8
DETAIL
  6
CONTINUOUS
 62
     5
 10
-587.50000000000455
 20
572.00000000000273
 30
0.0
 11
-587.50000000000455
 21
573.70000001010612
 31
0.0
  0
LINE
  8
BASIS
  6
DASHDOT
 62
     6
 10
-458.50000000000142
 20
674.74386575860262
 30
0.0
 11
-458.50000000000182
 21
545.33333358710934
 31
0.0
  0
LINE
  8
SIZE
  6
CONTINUOUS
 62
    30
 10
-458.50000000000142
 20
694.74386575860262
 30
0.0
 11
-458.50000000000142
 21
828.0421609025525
 31
0.0
  0
LINE
  8
SIZE
  6
CONTINUOUS
 62
    30
 10
458.50000000000182
 20
694.74386575860262
 30
0.0
 11
458.50000000000182
 21
828.0421609025525
 31
0.0
  0
LINE
  8
SIZE
  6
CONTINUOUS
 62
    30
 10
-446.50000000000142
 20
808.0421609025525
 30
0.0
 11
446.50000000000182
 21
808.0421609025525
 31
0.0
  0
CIRCLE
  8
SIZE
  6
CONTINUOUS
 62
    30
 10
-458.50000000000142
 20
808.0421609025525
 30
0.0
 40
6.0
  0
LINE
  8
SIZE
  6
CONTINUOUS
 62
    30
 10
-458.50000000000142
 20
808.0421609025525
 30
0.0
 11
-446.50000000000142
 21
808.0421609025525
 31
0.0
  0
CIRCLE
  8
SIZE
  6
CONTINUOUS
 62
    30
 10
458.50000000000182
 20
808.0421609025525
 30
0.0
 40
6.0
  0
LINE
  8
SIZE
  6
CONTINUOUS
 62
    30
 10
458.50000000000182
 20
808.0421609025525
 30
0.0
 11
446.50000000000182
 21
808.0421609025525
 31
0.0
  0
TEXT
  8
SIZE
  6
CONTINUOUS
 62
    30
 10
-74.591999999999786
 20
833.0421609025525
 30
0.0
 40
64.0
  1
917
 50
0.0
 41
0.9
 51
0.0
  7
STANDARD
 71
     0
 72
     1
 11
0.0000000000002274
 21
833.0421609025525
 31
0.0
210
0.0
220
0.0
230
1.0
  0
POINT
  8
DEFPOINTS
  6
CONTINUOUS
 62
    30
 10
-458.50000000000142
 20
674.74386575860262
 30
0.0
  0
POINT
  8
DEFPOINTS
  6
CONTINUOUS
 62
    30
 10
458.50000000000182
 20
674.74386575860262
 30
0.0
  0
POINT
  8
DEFPOINTS
  6
CONTINUOUS
 62
    30
 10
458.50000000000182
 20
808.0421609025525
 30
0.0
  0
LINE
  8
SIZE
  6
CONTINUOUS
 62
    30
 10
337.50000000000449
 20
-671.0
 30
0.0
 11
337.50000000000449
 21
-923.72680795990891
 31
0.0
  0
LINE
  8
SIZE
  6
CONTINUOUS
 62
    30
 10
579.49999999999727
 20
-671.0
 30
0.0
 11
579.49999999999727
 21
-923.72680795990891
 31
0.0
  0
LINE
  8
SIZE
  6
CONTINUOUS
 62
    30
 10
325.50000000000449
 20
-903.72680795990891
 30
0.0
 11
313.50000000000449
 21
-903.72680795990891
 31
0.0
  0
LINE
  8
SIZE
  6
CONTINUOUS
 62
    30
 10
591.49999999999727
 20
-903.72680795990891
 30
0.0
 11
603.49999999999727
 21
-903.72680795990891
 31
0.0
  0
LINE
  8
SIZE
  6
CONTINUOUS
 62
    30
 10
337.50000000000449
 20
-903.72680795990891
 30
0.0
 11
579.49999999999727
 21
-903.72680795990891
 31
0.0
  0
CIRCLE
  8
SIZE
  6
CONTINUOUS
 62
    30
 10
337.50000000000449
 20
-903.72680795990891
 30
0.0
 40
6.0
  0
LINE
  8
SIZE
  6
CONTINUOUS
 62
    30
 10
337.50000000000449
 20
-903.72680795990891
 30
0.0
 11
325.50000000000449
 21
-903.72680795990891
 31
0.0
  0
CIRCLE
  8
SIZE
  6
CONTINUOUS
 62
    30
 10
579.49999999999727
 20
-903.72680795990891
 30
0.0
 40
6.0
  0
LINE
  8
SIZE
  6
CONTINUOUS
 62
    30
 10
579.49999999999727
 20
-903.72680795990891
 30
0.0
 11
591.49999999999727
 21
-903.72680795990891
 31
0.0
  0
TEXT
  8
SIZE
  6
CONTINUOUS
 62
    30
 10
343.01200000000091
 20
-878.72680795990891
 30
0.0
 40
64.0
  1
φ242
 50
0.0
 41
0.9
 51
0.0
  7
STANDARD
 71
     0
 72
     1
 11
458.50000000000091
 21
-878.72680795990891
 31
0.0
210
0.0
220
0.0
230
1.0
  0
POINT
  8
DEFPOINTS
  6
CONTINUOUS
 62
    30
 10
337.50000000000449
 20
-651.0
 30
0.0
  0
POINT
  8
DEFPOINTS
  6
CONTINUOUS
 62
    30
 10
579.49999999999727
 20
-651.0
 30
0.0
  0
POINT
  8
DEFPOINTS
  6
CONTINUOUS
 62
    30
 10
579.49999999999727
 20
-903.72680795990891
 30
0.0
  0
LINE
  8
SIZE
  6
CONTINUOUS
 62
    30
 10
329.49999999999733
 20
-593.70000000000709
 30
0.0
 11
329.49999999999721
 21
-1064.2563493458731
 31
0.0
  0
LINE
  8
SIZE
  6
CONTINUOUS
 62
    30
 10
587.50000000000455
 20
-593.70000001010612
 30
0.0
 11
587.50000000000455
 21
-1064.2563493458731
 31
0.0
  0
LINE
  8
SIZE
  6
CONTINUOUS
 62
    30
 10
341.49999999999721
 20
-1044.2563493458731
 30
0.0
 11
575.50000000000455
 21
-1044.2563493458731
 31
0.0
  0
CIRCLE
  8
SIZE
  6
CONTINUOUS
 62
    30
 10
329.49999999999721
 20
-1044.2563493458731
 30
0.0
 40
6.0
  0
LINE
  8
SIZE
  6
CONTINUOUS
 62
    30
 10
329.49999999999721
 20
-1044.2563493458731
 30
0.0
 11
341.49999999999721
 21
-1044.2563493458731
 31
0.0
  0
CIRCLE
  8
SIZE
  6
CONTINUOUS
 62
    30
 10
587.50000000000455
 20
-1044.2563493458731
 30
0.0
 40
6.0
  0
LINE
  8
SIZE
  6
CONTINUOUS
 62
    30
 10
587.50000000000455
 20
-1044.2563493458731
 30
0.0
 11
575.50000000000455
 21
-1044.2563493458731
 31
0.0
  0
TEXT
  8
SIZE
  6
CONTINUOUS
 62
    30
 10
343.58800000000087
 20
-1019.2563493458729
 30
0.0
 40
64.0
  1
φ258
 50
0.0
 41
0.9
 51
0.0
  7
STANDARD
 71
     0
 72
     1
 11
458.50000000000091
 21
-1019.2563493458729
 31
0.0
210
0.0
220
0.0
230
1.0
  0
POINT
  8
DEFPOINTS
  6
CONTINUOUS
 62
    30
 10
329.49999999999733
 20
-573.70000000000709
 30
0.0
  0
POINT
  8
DEFPOINTS
  6
CONTINUOUS
 62
    30
 10
587.50000000000455
 20
-573.70000001010612
 30
0.0
  0
POINT
  8
DEFPOINTS
  6
CONTINUOUS
 62
    30
 10
587.50000000000455
 20
-1044.2563493458731
 30
0.0
  0
LINE
  8
SIZE
  6
CONTINUOUS
 62
    30
 10
638.99999999999636
 20
-636.43427874097688
 30
0.0
 11
638.99999999999636
 21
-1235.9870670318801
 31
0.0
  0
LINE
  8
SIZE
  6
CONTINUOUS
 62
    30
 10
-638.99999999999727
 20
-636.43427874097688
 30
0.0
 11
-638.99999999999727
 21
-1235.9870670318801
 31
0.0
  0
LINE
  8
SIZE
  6
CONTINUOUS
 62
    30
 10
626.99999999999636
 20
-1215.9870670318801
 30
0.0
 11
-626.99999999999727
 21
-1215.9870670318801
 31
0.0
  0
CIRCLE
  8
SIZE
  6
CONTINUOUS
 62
    30
 10
638.99999999999636
 20
-1215.9870670318801
 30
0.0
 40
6.0
  0
LINE
  8
SIZE
  6
CONTINUOUS
 62
    30
 10
638.99999999999636
 20
-1215.9870670318801
 30
0.0
 11
626.99999999999636
 21
-1215.9870670318801
 31
0.0
  0
CIRCLE
  8
SIZE
  6
CONTINUOUS
 62
    30
 10
-638.99999999999727
 20
-1215.9870670318801
 30
0.0
 40
6.0
  0
LINE
  8
SIZE
  6
CONTINUOUS
 62
    30
 10
-638.99999999999727
 20
-1215.9870670318801
 30
0.0
 11
-626.99999999999727
 21
-1215.9870670318801
 31
0.0
  0
TEXT
  8
SIZE
  6
CONTINUOUS
 62
    30
 10
-101.37600000000047
 20
-1190.9870670318801
 30
0.0
 40
64.0
  1
1278
 50
0.0
 41
0.9
 51
0.0
  7
STANDARD
 71
     0
 72
     1
 11
-0.0000000000004547
 21
-1190.9870670318801
 31
0.0
210
0.0
220
0.0
230
1.0
  0
POINT
  8
DEFPOINTS
  6
CONTINUOUS
 62
    30
 10
638.99999999999636
 20
-616.43427874097688
 30
0.0
  0
POINT
  8
DEFPOINTS
  6
CONTINUOUS
 62
    30
 10
-638.99999999999727
 20
-616.43427874097688
 30
0.0
  0
POINT
  8
DEFPOINTS
  6
CONTINUOUS
 62
    30
 10
-638.99999999999727
 20
-1215.9870670318801
 30
0.0
  0
LINE
  8
SIZE
  6
CONTINUOUS
 62
    30
 10
709.93427874097893
 20
-565.50000000000023
 30
0.0
 11
989.18709221168115
 21
-565.50000000000011
 31
0.0
  0
LINE
  8
SIZE
  6
CONTINUOUS
 62
    30
 10
709.93427874097893
 20
565.50000000000023
 30
0.0
 11
989.18709221168092
 21
565.50000000000034
 31
0.0
  0
LINE
  8
SIZE
  6
CONTINUOUS
 62
    30
 10
969.18709221168115
 20
-553.50000000000011
 30
0.0
 11
969.18709221168092
 21
553.50000000000034
 31
0.0
  0
CIRCLE
  8
SIZE
  6
CONTINUOUS
 62
    30
 10
969.18709221168115
 20
-565.50000000000011
 30
0.0
 40
6.0
  0
LINE
  8
SIZE
  6
CONTINUOUS
 62
    30
 10
969.18709221168115
 20
-565.50000000000011
 30
0.0
 11
969.18709221168115
 21
-553.50000000000011
 31
0.0
  0
CIRCLE
  8
SIZE
  6
CONTINUOUS
 62
    30
 10
969.18709221168092
 20
565.50000000000034
 30
0.0
 40
6.0
  0
LINE
  8
SIZE
  6
CONTINUOUS
 62
    30
 10
969.18709221168092
 20
565.50000000000034
 30
0.0
 11
969.18709221168092
 21
553.50000000000034
 31
0.0
  0
TEXT
  8
SIZE
  6
CONTINUOUS
 62
    30
 10
944.18709221168081
 20
-89.856000000000165
 30
0.0
 40
64.0
  1
1131
 50
90.0
 41
0.9
 51
0.0
  7
STANDARD
 71
     0
 72
     1
 11
944.18709221168081
 21
-0.0000000000001681
 31
0.0
210
0.0
220
0.0
230
1.0
  0
POINT
  8
DEFPOINTS
  6
CONTINUOUS
 62
    30
 10
689.93427874097893
 20
-565.50000000000023
 30
0.0
  0
POINT
  8
DEFPOINTS
  6
CONTINUOUS
 62
    30
 10
689.93427874097893
 20
565.50000000000023
 30
0.0
  0
POINT
  8
DEFPOINTS
  6
CONTINUOUS
 62
    30
 10
969.18709221168092
 20
565.50000000000034
 30
0.0
  0
LINE
  8
DETAIL
  6
CONTINUOUS
 62
     5
 10
615.5
 20
540.50000000000728
 30
0.0
 11
659.00000000000546
 21
540.50000000000728
 31
0.0
  0
LINE
  8
DETAIL
  6
CONTINUOUS
 62
     5
 10
639.00000000000364
 20
559.00000000000728
 30
0.0
 11
659.00000000000546
 21
559.00000000000728
 31
0.0
  0
LINE
  8
DETAIL
  6
CONTINUOUS
 62
     5
 10
639.00000000000364
 20
572.0
 30
0.0
 11
659.00000000000546
 21
572.0
 31
0.0
  0
LINE
  8
DETAIL
  6
CONTINUOUS
 62
     5
 10
609.20000000000346
 20
584.00000000000728
 30
0.0
 11
659.00000000000546
 21
584.00000000000728
 31
0.0
  0
LINE
  8
DETAIL
  6
CONTINUOUS
 62
     5
 10
655.79999999999927
 20
540.50000000000728
 30
0.0
 11
655.79999999999927
 21
559.00000000000728
 31
0.0
  0
LINE
  8
DETAIL
  6
CONTINUOUS
 62
     5
 10
659.00000000000546
 20
540.50000000000728
 30
0.0
 11
659.00000000000546
 21
559.00000000000728
 31
0.0
  0
LINE
  8
DETAIL
  6
CONTINUOUS
 62
     5
 10
659.00000000000546
 20
572.0
 30
0.0
 11
659.00000000000546
 21
584.00000000000728
 31
0.0
  0
ARC
  8
DETAIL
  6
CONTINUOUS
 62
     5
 10
639.00000000000364
 20
565.5
 30
0.0
 40
6.4999999999999956
 50
90.0
 51
270.0
  0
LINE
  8
BASIS
  6
DASHDOT
 62
     6
 10
638.99999999999727
 20
616.43427874097688
 30
0.0
 11
638.99999999999727
 21
514.56572125902312
 31
0.0
  0
LINE
  8
BASIS
  6
DASHDOT
 62
     6
 10
689.9342787409787
 20
565.5
 30
0.0
 11
588.06572125902858
 21
565.5
 31
0.0
  0
LINE
  8
DETAIL
  6
CONTINUOUS
 62
     5
 10
-615.5
 20
-540.50000000000728
 30
0.0
 11
-659.000000000005
 21
-540.50000000000728
 31
0.0
  0
LINE
  8
DETAIL
  6
CONTINUOUS
 62
     5
 10
-639.00000000000318
 20
-559.00000000000728
 30
0.0
 11
-659.000000000005
 21
-559.00000000000728
 31
0.0
  0
LINE
  8
DETAIL
  6
CONTINUOUS
 62
     5
 10
-639.00000000000318
 20
-572.0
 30
0.0
 11
-659.000000000005
 21
-572.0
 31
0.0
  0
LINE
  8
DETAIL
  6
CONTINUOUS
 62
     5
 10
-609.20000000000346
 20
-584.00000000000728
 30
0.0
 11
-659.000000000005
 21
-584.00000000000728
 31
0.0
  0
LINE
  8
DETAIL
  6
CONTINUOUS
 62
     5
 10
-609.20000000000346
 20
-584.00000000000728
 30
0.0
 11
-609.20000000000346
 21
584.00000000000728
 31
0.0
  0
LINE
  8
DETAIL
  6
CONTINUOUS
 62
     5
 10
-655.79999999999927
 20
-540.50000000000728
 30
0.0
 11
-655.79999999999927
 21
-559.00000000000728
 31
0.0
  0
LINE
  8
DETAIL
  6
CONTINUOUS
 62
     5
 10
-659.000000000005
 20
-540.50000000000728
 30
0.0
 11
-659.000000000005
 21
-559.00000000000728
 31
0.0
  0
LINE
  8
DETAIL
  6
CONTINUOUS
 62
     5
 10
-659.000000000005
 20
-572.0
 30
0.0
 11
-659.000000000005
 21
-584.00000000000728
 31
0.0
  0
ARC
  8
DETAIL
  6
CONTINUOUS
 62
     5
 10
-639.00000000000318
 20
-565.5
 30
0.0
 40
6.4999999999999956
 50
270.0
 51
90.0
  0
LINE
  8
BASIS
  6
DASHDOT
 62
     6
 10
-638.99999999999727
 20
-616.43427874097688
 30
0.0
 11
-638.99999999999682
 21
-514.56572125902312
 31
0.0
  0
LINE
  8
BASIS
  6
DASHDOT
 62
     6
 10
-689.9342787409787
 20
-565.5
 30
0.0
 11
-588.06572125902812
 21
-565.5
 31
0.0
  0
LINE
  8
DETAIL
  6
CONTINUOUS
 62
     5
 10
-615.5
 20
540.50000000000728
 30
0.0
 11
-659.00000000000455
 21
540.50000000000728
 31
0.0
  0
LINE
  8
DETAIL
  6
CONTINUOUS
 62
     5
 10
-639.00000000000318
 20
559.00000000000728
 30
0.0
 11
-659.00000000000455
 21
559.00000000000728
 31
0.0
  0
LINE
  8
DETAIL
  6
CONTINUOUS
 62
     5
 10
-639.00000000000318
 20
572.0
 30
0.0
 11
-659.00000000000455
 21
572.0
 31
0.0
  0
LINE
  8
DETAIL
  6
CONTINUOUS
 62
     5
 10
-609.20000000000346
 20
584.00000000000728
 30
0.0
 11
-659.00000000000455
 21
584.00000000000728
 31
0.0
  0
LINE
  8
DETAIL
  6
CONTINUOUS
 62
     5
 10
-655.79999999999882
 20
540.50000000000728
 30
0.0
 11
-655.79999999999882
 21
559.00000000000728
 31
0.0
  0
LINE
  8
DETAIL
  6
CONTINUOUS
 62
     5
 10
-659.00000000000455
 20
540.50000000000728
 30
0.0
 11
-659.00000000000455
 21
559.00000000000728
 31
0.0
  0
LINE
  8
DETAIL
  6
CONTINUOUS
 62
     5
 10
-659.00000000000455
 20
572.0
 30
0.0
 11
-659.00000000000455
 21
584.00000000000728
 31
0.0
  0
ARC
  8
DETAIL
  6
CONTINUOUS
 62
     5
 10
-639.00000000000318
 20
565.5
 30
0.0
 40
6.4999999999999956
 50
270.0
 51
90.0
  0
LINE
  8
BASIS
  6
DASHDOT
 62
     6
 10
-638.99999999999682
 20
616.43427874097688
 30
0.0
 11
-638.99999999999682
 21
514.56572125902312
 31
0.0
  0
LINE
  8
BASIS
  6
DASHDOT
 62
     6
 10
-689.93427874097824
 20
565.5
 30
0.0
 11
-588.06572125902812
 21
565.5
 31
0.0
  0
LINE
  8
SIZE
  6
CONTINUOUS
 62
    30
 10
-638.99999999999727
 20
-636.43427874097688
 30
0.0
 11
-638.99999999999727
 21
-1235.987067031879
 31
0.0
  0
LINE
  8
SIZE
  6
CONTINUOUS
 62
    30
 10
-659.000000000005
 20
-604.00000000000728
 30
0.0
 11
-659.000000000005
 21
-1235.987067031879
 31
0.0
  0
LINE
  8
SIZE
  6
CONTINUOUS
 62
    30
 10
-626.99999999999727
 20
-1215.987067031879
 30
0.0
 11
-614.99999999999727
 21
-1215.987067031879
 31
0.0
  0
LINE
  8
SIZE
  6
CONTINUOUS
 62
    30
 10
-671.000000000005
 20
-1215.987067031879
 30
0.0
 11
-826.25714285714969
 21
-1215.987067031879
 31
0.0
  0
LINE
  8
SIZE
  6
CONTINUOUS
 62
    30
 10
-638.99999999999727
 20
-1215.987067031879
 30
0.0
 11
-659.000000000005
 21
-1215.987067031879
 31
0.0
  0
CIRCLE
  8
SIZE
  6
CONTINUOUS
 62
    30
 10
-638.99999999999727
 20
-1215.987067031879
 30
0.0
 40
6.0
  0
LINE
  8
SIZE
  6
CONTINUOUS
 62
    30
 10
-638.99999999999727
 20
-1215.987067031879
 30
0.0
 11
-626.99999999999727
 21
-1215.987067031879
 31
0.0
  0
CIRCLE
  8
SIZE
  6
CONTINUOUS
 62
    30
 10
-659.000000000005
 20
-1215.987067031879
 30
0.0
 40
6.0
  0
LINE
  8
SIZE
  6
CONTINUOUS
 62
    30
 10
-659.000000000005
 20
-1215.987067031879
 30
0.0
 11
-671.000000000005
 21
-1215.987067031879
 31
0.0
  0
TEXT
  8
SIZE
  6
CONTINUOUS
 62
    30
 10
-808.7725714285782
 20
-1190.987067031879
 30
0.0
 40
64.0
  1
20
 50
0.0
 41
0.9
 51
0.0
  7
STANDARD
 71
     0
 72
     1
 11
-754.6285714285782
 21
-1190.987067031879
 31
0.0
210
0.0
220
0.0
230
1.0
  0
POINT
  8
DEFPOINTS
  6
CONTINUOUS
 62
    30
 10
-638.99999999999727
 20
-616.43427874097688
 30
0.0
  0
POINT
  8
DEFPOINTS
  6
CONTINUOUS
 62
    30
 10
-659.000000000005
 20
-584.00000000000728
 30
0.0
  0
POINT
  8
DEFPOINTS
  6
CONTINUOUS
 62
    30
 10
-659.000000000005
 20
-1215.987067031879
 30
0.0
  0
LINE
  8
SIZE
  6
CONTINUOUS
 62
    30
 10
-724.19999999999482
 20
-480.70000000000709
 30
0.0
 11
-724.19999999999482
 21
-1064.2563493458699
 31
0.0
  0
LINE
  8
SIZE
  6
CONTINUOUS
 62
    30
 10
-609.20000000000346
 20
-604.00000000000728
 30
0.0
 11
-609.20000000000346
 21
-1064.2563493458699
 31
0.0
  0
LINE
  8
SIZE
  6
CONTINUOUS
 62
    30
 10
-621.20000000000346
 20
-1044.2563493458699
 30
0.0
 11
-712.19999999999482
 21
-1044.2563493458699
 31
0.0
  0
LINE
  8
SIZE
  6
CONTINUOUS
 62
    30
 10
-724.19999999999482
 20
-1044.2563493458699
 30
0.0
 11
-912.57142857142514
 21
-1044.2563493458699
 31
0.0
  0
CIRCLE
  8
SIZE
  6
CONTINUOUS
 62
    30
 10
-609.20000000000346
 20
-1044.2563493458699
 30
0.0
 40
6.0
  0
LINE
  8
SIZE
  6
CONTINUOUS
 62
    30
 10
-609.20000000000346
 20
-1044.2563493458699
 30
0.0
 11
-621.20000000000346
 21
-1044.2563493458699
 31
0.0
  0
CIRCLE
  8
SIZE
  6
CONTINUOUS
 62
    30
 10
-724.19999999999482
 20
-1044.2563493458699
 30
0.0
 40
6.0
  0
LINE
  8
SIZE
  6
CONTINUOUS
 62
    30
 10
-724.19999999999482
 20
-1044.2563493458699
 30
0.0
 11
-712.19999999999482
 21
-1044.2563493458699
 31
0.0
  0
TEXT
  8
SIZE
  6
CONTINUOUS
 62
    30
 10
-893.31771428571085
 20
-1019.2563493458701
 30
0.0
 40
64.0
  1
115
 50
0.0
 41
0.9
 51
0.0
  7
STANDARD
 71
     0
 72
     1
 11
-824.48571428571086
 21
-1019.2563493458701
 31
0.0
210
0.0
220
0.0
230
1.0
  0
POINT
  8
DEFPOINTS
  6
CONTINUOUS
 62
    30
 10
-724.19999999999482
 20
-460.70000000000709
 30
0.0
  0
POINT
  8
DEFPOINTS
  6
CONTINUOUS
 62
    30
 10
-609.20000000000346
 20
-584.00000000000728
 30
0.0
  0
POINT
  8
DEFPOINTS
  6
CONTINUOUS
 62
    30
 10
-609.20000000000346
 20
-1044.2563493458699
 30
0.0
  0
LINE
  8
SIZE
  6
CONTINUOUS
 62
    30
 10
-765.50001461701004
 20
245.29999997876709
 30
0.0
 11
-765.50001461701004
 21
828.04216090255341
 31
0.0
  0
LINE
  8
SIZE
  6
CONTINUOUS
 62
    30
 10
-615.49999999999818
 20
577.99999999998545
 30
0.0
 11
-615.49999999999818
 21
828.04216090255341
 31
0.0
  0
LINE
  8
SIZE
  6
CONTINUOUS
 62
    30
 10
-627.49999999999818
 20
808.04216090255341
 30
0.0
 11
-753.50001461701004
 21
808.04216090255341
 31
0.0
  0
LINE
  8
SIZE
  6
CONTINUOUS
 62
    30
 10
-765.50001461701004
 20
808.04216090255341
 30
0.0
 11
-1288.848586045583
 21
808.04216090255341
 31
0.0
  0
CIRCLE
  8
SIZE
  6
CONTINUOUS
 62
    30
 10
-615.49999999999818
 20
808.04216090255341
 30
0.0
 40
6.0
  0
LINE
  8
SIZE
  6
CONTINUOUS
 62
    30
 10
-615.49999999999818
 20
808.04216090255341
 30
0.0
 11
-627.49999999999818
 21
808.04216090255341
 31
0.0
  0
CIRCLE
  8
SIZE
  6
CONTINUOUS
 62
    30
 10
-765.50001461701004
 20
808.04216090255341
 30
0.0
 40
6.0
  0
LINE
  8
SIZE
  6
CONTINUOUS
 62
    30
 10
-765.50001461701004
 20
808.04216090255341
 30
0.0
 11
-753.50001461701004
 21
808.04216090255341
 31
0.0
  0
TEXT
  8
SIZE
  6
CONTINUOUS
 62
    30
 10
-1269.0463003312971
 20
833.04216090255341
 30
0.0
 40
64.0
  1
150 to 250
 50
0.0
 41
0.9
 51
0.0
  7
STANDARD
 71
     0
 72
     1
 11
-1033.174300331297
 21
833.04216090255341
 31
0.0
210
0.0
220
0.0
230
1.0
  0
POINT
  8
DEFPOINTS
  6
CONTINUOUS
 62
    30
 10
-765.50001461701004
 20
225.29999997876709
 30
0.0
  0
POINT
  8
DEFPOINTS
  6
CONTINUOUS
 62
    30
 10
-615.49999999999818
 20
557.99999999998545
 30
0.0
  0
POINT
  8
DEFPOINTS
  6
CONTINUOUS
 62
    30
 10
-615.49999999999818
 20
808.04216090255341
 30
0.0
  0
LINE
  8
SIZE
  6
CONTINUOUS
 62
    30
 10
-615.49999999999818
 20
577.99999999998545
 30
0.0
 11
-615.49999999999818
 21
969.45607935797443
 31
0.0
  0
LINE
  8
SIZE
  6
CONTINUOUS
 62
    30
 10
-1315.5000146439611
 20
591.99999999998818
 30
0.0
 11
-1315.5000146439611
 21
969.45607935797443
 31
0.0
  0
LINE
  8
SIZE
  6
CONTINUOUS
 62
    30
 10
-627.49999999999818
 20
949.45607935797443
 30
0.0
 11
-1303.5000146439611
 21
949.45607935797443
 31
0.0
  0
CIRCLE
  8
SIZE
  6
CONTINUOUS
 62
    30
 10
-615.49999999999818
 20
949.45607935797443
 30
0.0
 40
6.0
  0
LINE
  8
SIZE
  6
CONTINUOUS
 62
    30
 10
-615.49999999999818
 20
949.45607935797443
 30
0.0
 11
-627.49999999999818
 21
949.45607935797443
 31
0.0
  0
CIRCLE
  8
SIZE
  6
CONTINUOUS
 62
    30
 10
-1315.5000146439611
 20
949.45607935797443
 30
0.0
 40
6.0
  0
LINE
  8
SIZE
  6
CONTINUOUS
 62
    30
 10
-1315.5000146439611
 20
949.45607935797443
 30
0.0
 11
-1303.5000146439611
 21
949.45607935797443
 31
0.0
  0
TEXT
  8
SIZE
  6
CONTINUOUS
 62
    30
 10
-1286.9080073219793
 20
974.45607935797398
 30
0.0
 40
64.0
  1
more than 600
 50
0.0
 41
0.9
 51
0.0
  7
STANDARD
 71
     0
 72
     1
 11
-965.50000732197941
 21
974.45607935797398
 31
0.0
210
0.0
220
0.0
230
1.0
  0
POINT
  8
DEFPOINTS
  6
CONTINUOUS
 62
    30
 10
-615.49999999999818
 20
557.99999999998545
 30
0.0
  0
POINT
  8
DEFPOINTS
  6
CONTINUOUS
 62
    30
 10
-1315.5000146439611
 20
571.99999999998818
 30
0.0
  0
POINT
  8
DEFPOINTS
  6
CONTINUOUS
 62
    30
 10
-1315.5000146439611
 20
949.45607935797443
 30
0.0
  0
LINE
  8
SIZE
  6
CONTINUOUS
 62
    30
 10
621.50000000001751
 20
571.9999999999884
 30
0.0
 11
865.87434783886067
 21
571.99999999998852
 31
0.0
  0
LINE
  8
SIZE
  6
CONTINUOUS
 62
    30
 10
727.25273722293809
 20
406.99999999899302
 30
0.0
 11
865.87434783886067
 21
406.99999999899302
 31
0.0
  0
LINE
  8
SIZE
  6
CONTINUOUS
 62
    30
 10
845.87434783886067
 20
418.99999999899302
 30
0.0
 11
845.87434783886067
 21
559.99999999998852
 31
0.0
  0
LINE
  8
SIZE
  6
CONTINUOUS
 62
    30
 10
845.87434783886067
 20
571.99999999998852
 30
0.0
 11
845.87434783886056
 21
839.3035376882159
 31
0.0
  0
CIRCLE
  8
SIZE
  6
CONTINUOUS
 62
    30
 10
845.87434783886067
 20
406.99999999899302
 30
0.0
 40
6.0
  0
LINE
  8
SIZE
  6
CONTINUOUS
 62
    30
 10
845.87434783886067
 20
406.99999999899302
 30
0.0
 11
845.87434783886067
 21
418.99999999899302
 31
0.0
  0
CIRCLE
  8
SIZE
  6
CONTINUOUS
 62
    30
 10
845.87434783886067
 20
571.99999999998852
 30
0.0
 40
6.0
  0
LINE
  8
SIZE
  6
CONTINUOUS
 62
    30
 10
845.87434783886067
 20
571.99999999998852
 30
0.0
 11
845.87434783886067
 21
559.99999999998852
 31
0.0
  0
TEXT
  8
SIZE
  6
CONTINUOUS
 62
    30
 10
820.87434783886056
 20
671.1401091167869
 30
0.0
 40
64.0
  1
165
 50
90.0
 41
0.9
 51
0.0
  7
STANDARD
 71
     0
 72
     1
 11
820.87434783886056
 21
745.73210911678689
 31
0.0
210
0.0
220
0.0
230
1.0
  0
POINT
  8
DEFPOINTS
  6
CONTINUOUS
 62
    30
 10
601.50000000001751
 20
571.9999999999884
 30
0.0
  0
POINT
  8
DEFPOINTS
  6
CONTINUOUS
 62
    30
 10
707.25273722293809
 20
406.99999999899302
 30
0.0
  0
POINT
  8
DEFPOINTS
  6
CONTINUOUS
 62
    30
 10
845.87434783886067
 20
406.99999999899302
 30
0.0
  0
LINE
  8
SIZE
  6
CONTINUOUS
 62
    30
 10
-621.5000000000075
 20
571.9999999999884
 30
0.0
 11
-903.13408911156546
 21
571.99999999998829
 31
0.0
  0
LINE
  8
SIZE
  6
CONTINUOUS
 62
    30
 10
-727.25273722293628
 20
406.99999999899302
 30
0.0
 11
-903.13408911156546
 21
406.99999999899291
 31
0.0
  0
LINE
  8
SIZE
  6
CONTINUOUS
 62
    30
 10
-883.13408911156546
 20
418.99999999899302
 30
0.0
 11
-883.13408911156546
 21
559.99999999998829
 31
0.0
  0
LINE
  8
SIZE
  6
CONTINUOUS
 62
    30
 10
-883.13408911156546
 20
571.99999999998829
 30
0.0
 11
-883.13408911156557
 21
771.14285714284563
 31
0.0
  0
CIRCLE
  8
SIZE
  6
CONTINUOUS
 62
    30
 10
-883.13408911156546
 20
406.99999999899302
 30
0.0
 40
6.0
  0
LINE
  8
SIZE
  6
CONTINUOUS
 62
    30
 10
-883.13408911156546
 20
406.99999999899302
 30
0.0
 11
-883.13408911156546
 21
418.99999999899302
 31
0.0
  0
CIRCLE
  8
SIZE
  6
CONTINUOUS
 62
    30
 10
-883.13408911156546
 20
571.99999999998829
 30
0.0
 40
6.0
  0
LINE
  8
SIZE
  6
CONTINUOUS
 62
    30
 10
-883.13408911156546
 20
571.99999999998829
 30
0.0
 11
-883.13408911156546
 21
559.99999999998829
 31
0.0
  0
TEXT
  8
SIZE
  6
CONTINUOUS
 62
    30
 10
-908.13408911156512
 20
602.9794285714172
 30
0.0
 40
64.0
  1
165
 50
90.0
 41
0.9
 51
0.0
  7
STANDARD
 71
     0
 72
     1
 11
-908.13408911156512
 21
677.57142857141719
 31
0.0
210
0.0
220
0.0
230
1.0
  0
POINT
  8
DEFPOINTS
  6
CONTINUOUS
 62
    30
 10
-601.5000000000075
 20
571.9999999999884
 30
0.0
  0
POINT
  8
DEFPOINTS
  6
CONTINUOUS
 62
    30
 10
-707.25273722293628
 20
406.99999999899302
 30
0.0
  0
POINT
  8
DEFPOINTS
  6
CONTINUOUS
 62
    30
 10
-883.13408911156546
 20
406.99999999899302
 30
0.0
  0
CIRCLE
  8
FIX
  6
CONTINUOUS
 62
    11
 10
-639.00000000000318
 20
-565.50000000000364
 30
0.0
 40
6.5
  0
CIRCLE
  8
FIX
  6
CONTINUOUS
 62
    11
 10
638.99999999999636
 20
-565.50000000000364
 30
0.0
 40
6.5
  0
CIRCLE
  8
FIX
  6
CONTINUOUS
 62
    11
 10
638.99999999999727
 20
565.49999999999636
 30
0.0
 40
6.5
  0
CIRCLE
  8
FIX
  6
CONTINUOUS
 62
    11
 10
-639.00000000000318
 20
565.49999999999636
 30
0.0
 40
6.5
  0
POINT
  8
ARRANGE
  6
CONTINUOUS
 62
     1
 10
0.0
 20
0.0
 30
0.0
 50
270.0
  0
CIRCLE
  8
ARRANGE
  6
CONTINUOUS
 62
     1
 10
0.0
 20
0.0
 30
0.0
 40
40.0
  0
LINE
  8
SERVICESPACE
  6
DASHDOT
 62
     2
 10
-1215.50001461701
 20
-224.70000002123291
 30
0.0
 11
-1215.50001461701
 21
225.29999997876709
 31
0.0
  0
LINE
  8
SERVICESPACE
  6
DASHDOT
 62
     2
 10
-1215.50001461701
 20
225.29999997876709
 30
0.0
 11
-765.50001461700958
 21
225.29999997876709
 31
0.0
  0
LINE
  8
SERVICESPACE
  6
DASHDOT
 62
     2
 10
-765.50001461700958
 20
225.29999997876709
 30
0.0
 11
-765.50001461700958
 21
-224.70000002123291
 31
0.0
  0
LINE
  8
SERVICESPACE
  6
DASHDOT
 62
     2
 10
-765.50001461700958
 20
-224.70000002123291
 30
0.0
 11
-1215.50001461701
 21
-224.70000002123291
 31
0.0
  0
TEXT
  8
NOTE
  6
CONTINUOUS
 62
     4
 10
-1208.5160146170151
 20
126.6999999787671
 30
0.0
 40
64.0
  1
Inspection
 50
0.0
 41
0.9
 51
0.0
  7
STANDARD
 71
     0
 72
     1
 11
-990.50001461701504
 21
126.6999999787671
 31
0.0
210
0.0
220
0.0
230
1.0
  0
TEXT
  8
NOTE
  6
CONTINUOUS
 62
     4
 10
-1156.1000146170149
 20
21.099999978767102
 30
0.0
 40
64.0
  1
opening
 50
0.0
 41
0.9
 51
0.0
  7
STANDARD
 71
     0
 72
     1
 11
-990.50001461701493
 21
21.099999978767102
 31
0.0
210
0.0
220
0.0
230
1.0
  0
TEXT
  8
NOTE
  6
CONTINUOUS
 62
     4
 10
-1180.868014617015
 20
-84.500000021232893
 30
0.0
 40
64.0
  1
450X450
 50
0.0
 41
0.9
 51
0.0
  7
STANDARD
 71
     0
 72
     1
 11
-990.50001461701493
 21
-84.500000021232893
 31
0.0
210
0.0
220
0.0
230
1.0
  0
TEXT
  8
NOTE
  6
CONTINUOUS
 62
     4
 10
-1159.8440146170151
 20
-190.10000002123289
 30
0.0
 40
64.0
  1
or more
 50
0.0
 41
0.9
 51
0.0
  7
STANDARD
 71
     0
 72
     1
 11
-990.50001461701504
 21
-190.10000002123289
 31
0.0
210
0.0
220
0.0
230
1.0
  0
LINE
  8
OUTLINE
  6
CONTINUOUS
 62
     3
 10
615.50000000000273
 20
-540.50000000001455
 30
0.0
 11
659.00000000000455
 21
-540.50000000000455
 31
0.0
  0
LINE
  8
OUTLINE
  6
CONTINUOUS
 62
     3
 10
659.00000000000455
 20
-540.50000000000455
 30
0.0
 11
659.00000000000455
 21
-559.00000000000728
 31
0.0
  0
LINE
  8
OUTLINE
  6
CONTINUOUS
 62
     3
 10
659.00000000000455
 20
-559.00000000000728
 30
0.0
 11
638.99999999999545
 21
-559.00000000001455
 31
0.0
  0
ARC
  8
OUTLINE
  6
CONTINUOUS
 62
     3
 10
638.99999999999545
 20
-565.50000000001455
 30
0.0
 40
6.5
 50
90.0
 51
270.0
  0
LINE
  8
OUTLINE
  6
CONTINUOUS
 62
     3
 10
638.99999999999545
 20
-572.00000000001455
 30
0.0
 11
659.00000000000455
 21
-572.00000000001455
 31
0.0
  0
LINE
  8
OUTLINE
  6
CONTINUOUS
 62
     3
 10
659.00000000000455
 20
-572.00000000001455
 30
0.0
 11
659.00000000000455
 21
-584.00000000000728
 31
0.0
  0
LINE
  8
OUTLINE
  6
CONTINUOUS
 62
     3
 10
659.00000000000455
 20
-584.00000000000728
 30
0.0
 11
609.199999999998
 21
-584.00000000001182
 31
0.0
  0
LINE
  8
OUTLINE
  6
CONTINUOUS
 62
     3
 10
609.199999999998
 20
-584.00000000001182
 30
0.0
 11
609.19990295946354
 21
-572.07507912478604
 31
0.0
  0
ARC
  8
OUTLINE
  6
CONTINUOUS
 62
     3
 10
605.99955554955341
 20
-572.10044792531448
 30
0.0
 40
3.2004479561709926
 50
0.4541678049920961
 51
89.992043259170202
  0
LINE
  8
OUTLINE
  6
CONTINUOUS
 62
     3
 10
606.00000000000091
 20
-568.90000000000418
 30
0.0
 11
604.60000000000309
 21
-568.89999999998236
 31
0.0
  0
LINE
  8
OUTLINE
  6
CONTINUOUS
 62
     3
 10
604.60000000000309
 20
-568.89999999998236
 30
0.0
 11
601.50000000000091
 21
-572.00000000000273
 31
0.0
  0
LINE
  8
OUTLINE
  6
CONTINUOUS
 62
     3
 10
601.50000000000091
 20
-572.00000000000273
 30
0.0
 11
587.50000000117598
 21
-571.99999999999545
 31
0.0
  0
LINE
  8
OUTLINE
  6
CONTINUOUS
 62
     3
 10
587.50000000117598
 20
-571.99999999999545
 30
0.0
 11
587.49999999978627
 21
-573.70000000000164
 31
0.0
  0
LINE
  8
OUTLINE
  6
CONTINUOUS
 62
     3
 10
587.49999999978627
 20
-573.70000000000164
 30
0.0
 11
579.50000000000455
 21
-642.99999999999272
 31
0.0
  0
LINE
  8
OUTLINE
  6
CONTINUOUS
 62
     3
 10
579.50000000000455
 20
-642.99999999999272
 30
0.0
 11
579.49983178000275
 21
-650.99999999999272
 31
0.0
  0
LINE
  8
OUTLINE
  6
CONTINUOUS
 62
     3
 10
579.49983178000275
 20
-650.99999999999272
 30
0.0
 11
337.50016821999913
 21
-650.99999999999272
 31
0.0
  0
LINE
  8
OUTLINE
  6
CONTINUOUS
 62
     3
 10
337.50016821999913
 20
-650.99999999999272
 30
0.0
 11
337.50000000000449
 21
-642.99999999999272
 31
0.0
  0
LINE
  8
OUTLINE
  6
CONTINUOUS
 62
     3
 10
337.50000000000449
 20
-642.99999999999272
 30
0.0
 11
329.50000000000819
 21
-573.69999999999982
 31
0.0
  0
LINE
  8
OUTLINE
  6
CONTINUOUS
 62
     3
 10
329.50000000000819
 20
-573.69999999999982
 30
0.0
 11
329.50000000000449
 21
-571.99999999999545
 31
0.0
  0
LINE
  8
OUTLINE
  6
CONTINUOUS
 62
     3
 10
329.50000000000449
 20
-571.99999999999545
 30
0.0
 11
-329.49999999999773
 21
-572.00000000002501
 31
0.0
  0
LINE
  8
OUTLINE
  6
CONTINUOUS
 62
     3
 10
-329.49999999999773
 20
-572.00000000002501
 30
0.0
 11
-329.49999999905913
 21
-573.70000000002528
 31
0.0
  0
LINE
  8
OUTLINE
  6
CONTINUOUS
 62
     3
 10
-329.49999999905913
 20
-573.70000000002528
 30
0.0
 11
-337.49999999999773
 21
-642.99999999999272
 31
0.0
  0
LINE
  8
OUTLINE
  6
CONTINUOUS
 62
     3
 10
-337.49999999999773
 20
-642.99999999999272
 30
0.0
 11
-337.49999999999773
 21
-650.99999999999272
 31
0.0
  0
LINE
  8
OUTLINE
  6
CONTINUOUS
 62
     3
 10
-337.49999999999773
 20
-650.99999999999272
 30
0.0
 11
-579.49999999999773
 21
-650.99999999999272
 31
0.0
  0
LINE
  8
OUTLINE
  6
CONTINUOUS
 62
     3
 10
-579.49999999999773
 20
-650.99999999999272
 30
0.0
 11
-579.49999999999773
 21
-642.99999999999272
 31
0.0
  0
LINE
  8
OUTLINE
  6
CONTINUOUS
 62
     3
 10
-579.49999999999773
 20
-642.99999999999272
 30
0.0
 11
-587.50000000000682
 21
-573.70000000000118
 31
0.0
  0
LINE
  8
OUTLINE
  6
CONTINUOUS
 62
     3
 10
-587.50000000000682
 20
-573.70000000000118
 30
0.0
 11
-587.50000000000682
 21
-571.99999999999545
 31
0.0
  0
LINE
  8
OUTLINE
  6
CONTINUOUS
 62
     3
 10
-587.50000000000682
 20
-571.99999999999545
 30
0.0
 11
-601.50000000000955
 21
-572.00000000001819
 31
0.0
  0
LINE
  8
OUTLINE
  6
CONTINUOUS
 62
     3
 10
-601.50000000000955
 20
-572.00000000001819
 30
0.0
 11
-602.80000000000155
 21
-570.69999999999982
 31
0.0
  0
LINE
  8
OUTLINE
  6
CONTINUOUS
 62
     3
 10
-602.80000000000155
 20
-570.69999999999982
 30
0.0
 11
-604.69999999999845
 21
-570.70000000000709
 31
0.0
  0
LINE
  8
OUTLINE
  6
CONTINUOUS
 62
     3
 10
-604.69999999999845
 20
-570.70000000000709
 30
0.0
 11
-606.00000000000136
 21
-569.40000000001601
 31
0.0
  0
ARC
  8
OUTLINE
  6
CONTINUOUS
 62
     3
 10
-606.00000000000171
 20
-572.6000000000156
 30
0.0
 40
3.1999999999996063
 50
90.0
 51
179.5537889356815
  0
LINE
  8
OUTLINE
  6
CONTINUOUS
 62
     3
 10
-609.199902959464
 20
-572.57507912478877
 30
0.0
 11
-609.19999999999845
 21
-584.00000000000728
 31
0.0
  0
LINE
  8
OUTLINE
  6
CONTINUOUS
 62
     3
 10
-609.19999999999845
 20
-584.00000000000728
 30
0.0
 11
-659.000000000005
 21
-584.00000000000728
 31
0.0
  0
LINE
  8
OUTLINE
  6
CONTINUOUS
 62
     3
 10
-659.000000000005
 20
-584.00000000000728
 30
0.0
 11
-659.000000000005
 21
-572.00000000000819
 31
0.0
  0
LINE
  8
OUTLINE
  6
CONTINUOUS
 62
     3
 10
-659.000000000005
 20
-572.00000000000819
 30
0.0
 11
-639.000000000005
 21
-572.00000000000728
 31
0.0
  0
ARC
  8
OUTLINE
  6
CONTINUOUS
 62
     3
 10
-639.000000000005
 20
-565.50000000000728
 30
0.0
 40
6.5
 50
270.0
 51
90.0
  0
LINE
  8
OUTLINE
  6
CONTINUOUS
 62
     3
 10
-639.000000000005
 20
-559.00000000000728
 30
0.0
 11
-659.000000000005
 21
-559.00000000000637
 31
0.0
  0
LINE
  8
OUTLINE
  6
CONTINUOUS
 62
     3
 10
-659.000000000005
 20
-559.00000000000637
 30
0.0
 11
-659.000000000005
 21
-540.50000000001455
 31
0.0
  0
LINE
  8
OUTLINE
  6
CONTINUOUS
 62
     3
 10
-659.000000000005
 20
-540.50000000001455
 30
0.0
 11
-615.500000000005
 21
-540.50000000001455
 31
0.0
  0
LINE
  8
OUTLINE
  6
CONTINUOUS
 62
     3
 10
-615.500000000005
 20
-540.50000000001455
 30
0.0
 11
-615.50000000000136
 21
-462.30000000001291
 31
0.0
  0
LINE
  8
OUTLINE
  6
CONTINUOUS
 62
     3
 10
-615.50000000000136
 20
-462.30000000001291
 30
0.0
 11
-659.69000000000369
 21
-462.30010001003711
 31
0.0
  0
ARC
  8
OUTLINE
  6
CONTINUOUS
 62
     3
 10
-659.69000000000369
 20
-462.80010001003711
 30
0.0
 40
0.4999999999999902
 50
0.0
 51
90.0
  0
LINE
  8
OUTLINE
  6
CONTINUOUS
 62
     3
 10
-659.19000000000369
 20
-462.80010001003711
 30
0.0
 11
-659.19000000000369
 21
-462.9245998100464
 31
0.0
  0
ARC
  8
OUTLINE
  6
CONTINUOUS
 62
     3
 10
-659.69000000000403
 20
-462.9245998098865
 30
0.0
 40
0.5000000000003736
 50
231.31781256422187
 51
0.0
  0
ARC
  8
OUTLINE
  6
CONTINUOUS
 62
     3
 10
-659.19000000000369
 20
-462.30010001004808
 30
0.0
 40
1.2999999999994991
 50
209.4009141882002
 51
231.31781255327166
  0
LINE
  8
OUTLINE
  6
CONTINUOUS
 62
     3
 10
-660.32256777185603
 20
-462.9382929606204
 30
0.0
 11
-665.50000000000136
 21
-465.84943100201639
 31
0.0
  0
LINE
  8
OUTLINE
  6
CONTINUOUS
 62
     3
 10
-665.50000000000136
 20
-465.84943100201639
 30
0.0
 11
-665.50000000000136
 21
-469.44943100201141
 31
0.0
  0
LINE
  8
OUTLINE
  6
CONTINUOUS
 62
     3
 10
-665.50000000000136
 20
-469.44943100201141
 30
0.0
 11
-663.49999999999773
 21
-469.44943100201141
 31
0.0
  0
LINE
  8
OUTLINE
  6
CONTINUOUS
 62
     3
 10
-663.49999999999773
 20
-469.44943100201141
 30
0.0
 11
-663.49999999999773
 21
-473.29943100201348
 31
0.0
  0
LINE
  8
OUTLINE
  6
CONTINUOUS
 62
     3
 10
-663.49999999999773
 20
-473.29943100201348
 30
0.0
 11
-665.19999999999845
 21
-473.29943100201348
 31
0.0
  0
LINE
  8
OUTLINE
  6
CONTINUOUS
 62
     3
 10
-665.19999999999845
 20
-473.29943100201348
 30
0.0
 11
-665.19999999999845
 21
-490.89943100201617
 31
0.0
  0
LINE
  8
OUTLINE
  6
CONTINUOUS
 62
     3
 10
-665.19999999999845
 20
-490.89943100201617
 30
0.0
 11
-673.19999999999845
 21
-490.89943100201617
 31
0.0
  0
LINE
  8
OUTLINE
  6
CONTINUOUS
 62
     3
 10
-673.19999999999845
 20
-490.89943100201617
 30
0.0
 11
-673.19999999999845
 21
-473.29943100201348
 31
0.0
  0
LINE
  8
OUTLINE
  6
CONTINUOUS
 62
     3
 10
-673.19999999999845
 20
-473.29943100201348
 30
0.0
 11
-674.89999999999554
 21
-473.29943100201348
 31
0.0
  0
LINE
  8
OUTLINE
  6
CONTINUOUS
 62
     3
 10
-674.89999999999554
 20
-473.29943100201348
 30
0.0
 11
-674.89999999999554
 21
-469.69943100201141
 31
0.0
  0
LINE
  8
OUTLINE
  6
CONTINUOUS
 62
     3
 10
-674.89999999999554
 20
-469.69943100201141
 30
0.0
 11
-672.90000000000282
 21
-469.69943100201141
 31
0.0
  0
LINE
  8
OUTLINE
  6
CONTINUOUS
 62
     3
 10
-672.90000000000282
 20
-469.69943100201141
 30
0.0
 11
-672.90000000000282
 21
-465.39943100201248
 31
0.0
  0
LINE
  8
OUTLINE
  6
CONTINUOUS
 62
     3
 10
-672.90000000000282
 20
-465.39943100201248
 30
0.0
 11
-678.03356526977541
 21
-462.87339094910789
 31
0.0
  0
ARC
  8
OUTLINE
  6
CONTINUOUS
 62
     3
 10
-679.20000000002074
 20
-462.29943100270026
 30
0.0
 40
1.3000000000010892
 50
308.68274796756214
 51
333.79988516739331
  0
ARC
  8
OUTLINE
  6
CONTINUOUS
 62
     3
 10
-678.70000000000334
 20
-462.9239308026543
 30
0.0
 40
0.5000000000005866
 50
180.0
 51
308.68364479670117
  0
LINE
  8
OUTLINE
  6
CONTINUOUS
 62
     3
 10
-679.20000000000391
 20
-462.92393080265452
 30
0.0
 11
-679.20000000000391
 21
-462.79943100265427
 31
0.0
  0
ARC
  8
OUTLINE
  6
CONTINUOUS
 62
     3
 10
-678.70000000000414
 20
-462.79943100265405
 30
0.0
 40
0.4999999999997962
 50
90.0
 51
180.0
  0
LINE
  8
OUTLINE
  6
CONTINUOUS
 62
     3
 10
-678.70000000000391
 20
-462.29943100265427
 30
0.0
 11
-686.40000000001919
 21
-462.30000000000149
 31
0.0
  0
ARC
  8
OUTLINE
  6
CONTINUOUS
 62
     3
 10
-689.40000000001908
 20
-462.30000000000155
 30
0.0
 40
2.9999999999999418
 50
270.0
 51
0.0
  0
LINE
  8
OUTLINE
  6
CONTINUOUS
 62
     3
 10
-689.40000000001919
 20
-465.30000000000149
 30
0.0
 11
-715.40000000001919
 21
-465.30000000000149
 31
0.0
  0
ARC
  8
OUTLINE
  6
CONTINUOUS
 62
     3
 10
-715.40000000001885
 20
-462.30000000000115
 30
0.0
 40
3.00000000000033
 50
180.0
 51
270.0
  0
LINE
  8
OUTLINE
  6
CONTINUOUS
 62
     3
 10
-718.40000000001919
 20
-462.30000000000149
 30
0.0
 11
-722.60000000000537
 21
-462.299999999997
 31
0.0
  0
ARC
  8
OUTLINE
  6
CONTINUOUS
 62
     3
 10
-722.60000000000457
 20
-460.69999999999771
 30
0.0
 40
1.5999999999993086
 50
180.0
 51
270.0
  0
LINE
  8
OUTLINE
  6
CONTINUOUS
 62
     3
 10
-724.20000000000391
 20
-460.69999999999709
 30
0.0
 11
-724.20000000000755
 21
-458.29999999999842
 31
0.0
  0
LINE
  8
OUTLINE
  6
CONTINUOUS
 62
     3
 10
-724.20000000000755
 20
-458.29999999999842
 30
0.0
 11
-724.80000000000246
 21
-458.29999999999842
 31
0.0
  0
LINE
  8
OUTLINE
  6
CONTINUOUS
 62
     3
 10
-724.80000000000246
 20
-458.29999999999842
 30
0.0
 11
-724.799999999997
 21
-300.50000000000142
 31
0.0
  0
LINE
  8
OUTLINE
  6
CONTINUOUS
 62
     3
 10
-724.799999999997
 20
-300.50000000000142
 30
0.0
 11
-725.39999999999918
 21
-300.50000000000142
 31
0.0
  0
LINE
  8
OUTLINE
  6
CONTINUOUS
 62
     3
 10
-725.39999999999918
 20
-300.50000000000142
 30
0.0
 11
-725.40000000000282
 21
-289.100000000004
 31
0.0
  0
ARC
  8
OUTLINE
  6
CONTINUOUS
 62
     3
 10
-724.20000000000266
 20
-289.1000000000044
 30
0.0
 40
1.20000000000021
 50
90.0
 51
180.0
  0
LINE
  8
OUTLINE
  6
CONTINUOUS
 62
     3
 10
-724.20000000000209
 20
-287.90000000000418
 30
0.0
 11
-615.49999999998681
 21
-287.90000000000418
 31
0.0
  0
LINE
  8
OUTLINE
  6
CONTINUOUS
 62
     3
 10
-615.49999999998681
 20
-287.90000000000418
 30
0.0
 11
-615.50000000000136
 21
-227.50000000001
 31
0.0
  0
LINE
  8
OUTLINE
  6
CONTINUOUS
 62
     3
 10
-615.50000000000136
 20
-227.50000000001
 30
0.0
 11
-627.19999999999845
 21
-227.50000000001589
 31
0.0
  0
ARC
  8
OUTLINE
  6
CONTINUOUS
 62
     3
 10
-627.19999999999879
 20
-225.10000000001577
 30
0.0
 40
2.4000000000001251
 50
157.96421970719143
 51
270.0
  0
LINE
  8
OUTLINE
  6
CONTINUOUS
 62
     3
 10
-629.42467937119318
 20
-224.19955472384251
 30
0.0
 11
-645.0999999999899
 21
-224.2000000000013
 31
0.0
  0
ARC
  8
OUTLINE
  6
CONTINUOUS
 62
     3
 10
-645.0999999999899
 20
-223.60000000000275
 30
0.0
 40
0.5999999999985448
 50
90.0
 51
270.0
  0
LINE
  8
OUTLINE
  6
CONTINUOUS
 62
     3
 10
-645.0999999999899
 20
-223.00000000000421
 30
0.0
 11
-628.4803220359986
 21
-223.00000000002461
 31
0.0
  0
LINE
  8
OUTLINE
  6
CONTINUOUS
 62
     3
 10
-628.4803220359986
 20
-223.00000000002461
 30
0.0
 11
-625.19999999999527
 21
-219.8322298320081
 31
0.0
  0
LINE
  8
OUTLINE
  6
CONTINUOUS
 62
     3
 10
-625.19999999999527
 20
-219.8322298320081
 30
0.0
 11
-625.19999999999527
 21
221.999999999995
 31
0.0
  0
LINE
  8
OUTLINE
  6
CONTINUOUS
 62
     3
 10
-625.19999999999527
 20
221.999999999995
 30
0.0
 11
-631.19999999999163
 21
221.99999999999139
 31
0.0
  0
ARC
  8
OUTLINE
  6
CONTINUOUS
 62
     3
 10
-631.19999999999845
 20
221.00000000000185
 30
0.0
 40
0.9999999999895487
 50
90.0
 51
180.0
  0
LINE
  8
OUTLINE
  6
CONTINUOUS
 62
     3
 10
-632.19999999998799
 20
220.99999999999179
 30
0.0
 11
-632.19999999998799
 21
220.49999999999361
 31
0.0
  0
LINE
  8
OUTLINE
  6
CONTINUOUS
 62
     3
 10
-632.19999999998799
 20
220.49999999999361
 30
0.0
 11
-633.29999999999382
 21
220.49999999999179
 31
0.0
  0
LINE
  8
OUTLINE
  6
CONTINUOUS
 62
     3
 10
-633.29999999999382
 20
220.49999999999179
 30
0.0
 11
-633.29999999999382
 21
216.99999999999551
 31
0.0
  0
LINE
  8
OUTLINE
  6
CONTINUOUS
 62
     3
 10
-633.29999999999382
 20
216.99999999999551
 30
0.0
 11
-636.29999999999018
 21
216.99999999999551
 31
0.0
  0
LINE
  8
OUTLINE
  6
CONTINUOUS
 62
     3
 10
-636.29999999999018
 20
216.99999999999551
 30
0.0
 11
-636.29999999999018
 21
220.49999999999179
 31
0.0
  0
LINE
  8
OUTLINE
  6
CONTINUOUS
 62
     3
 10
-636.29999999999018
 20
220.49999999999179
 30
0.0
 11
-637.39999999999054
 21
220.49999999999361
 31
0.0
  0
LINE
  8
OUTLINE
  6
CONTINUOUS
 62
     3
 10
-637.39999999999054
 20
220.49999999999361
 30
0.0
 11
-637.39999999999054
 21
220.99999999999361
 31
0.0
  0
ARC
  8
OUTLINE
  6
CONTINUOUS
 62
     3
 10
-638.39999999998531
 20
220.99999999999659
 30
0.0
 40
0.999999999994789
 50
0.0
 51
90.0
  0
LINE
  8
OUTLINE
  6
CONTINUOUS
 62
     3
 10
-638.39999999999236
 20
221.99999999999139
 30
0.0
 11
-643.72660374199586
 21
221.99999999999551
 31
0.0
  0
LINE
  8
OUTLINE
  6
CONTINUOUS
 62
     3
 10
-643.72660374199586
 20
221.99999999999551
 30
0.0
 11
-635.95809641199412
 21
210.90542174199351
 31
0.0
  0
ARC
  8
OUTLINE
  6
CONTINUOUS
 62
     3
 10
-639.0708741784706
 20
208.72583128389135
 30
0.0
 40
3.7999999984894943
 50
334.99999996806832
 51
35.000000015361479
  0
LINE
  8
OUTLINE
  6
CONTINUOUS
 62
     3
 10
-635.62690458999532
 20
207.11988188799569
 30
0.0
 11
-644.80028585625769
 21
187.44750228008661
 31
0.0
  0
ARC
  8
OUTLINE
  6
CONTINUOUS
 62
     3
 10
-645.79722435946974
 20
187.91238250241864
 30
0.0
 40
1.1000000001373875
 50
155.00000772349256
 51
334.99999227814396
  0
LINE
  8
OUTLINE
  6
CONTINUOUS
 62
     3
 10
-646.79416298800061
 20
188.37726245600379
 30
0.0
 11
-637.62078172199654
 21
208.04964206399291
 31
0.0
  0
ARC
  8
OUTLINE
  6
CONTINUOUS
 62
     3
 10
-639.0708741832392
 20
208.7258312815479
 30
0.0
 40
1.6000000012782292
 50
335.00000006994946
 51
34.999999987748083
  0
LINE
  8
OUTLINE
  6
CONTINUOUS
 62
     3
 10
-637.76023091113348
 20
209.64355358016249
 30
0.0
 11
-641.29999999999382
 21
214.6988677519939
 31
0.0
  0
LINE
  8
OUTLINE
  6
CONTINUOUS
 62
     3
 10
-641.29999999999382
 20
214.6988677519939
 30
0.0
 11
-641.29999999999382
 21
212.99999999999551
 31
0.0
  0
LINE
  8
OUTLINE
  6
CONTINUOUS
 62
     3
 10
-641.29999999999382
 20
212.99999999999551
 30
0.0
 11
-646.79999999999382
 21
212.99999999999551
 31
0.0
  0
LINE
  8
OUTLINE
  6
CONTINUOUS
 62
     3
 10
-646.79999999999382
 20
212.99999999999551
 30
0.0
 11
-646.79999999999018
 21
211.8999999999983
 31
0.0
  0
LINE
  8
OUTLINE
  6
CONTINUOUS
 62
     3
 10
-646.79999999999018
 20
211.8999999999983
 30
0.0
 11
-647.29999999998654
 21
211.8999999999983
 31
0.0
  0
ARC
  8
OUTLINE
  6
CONTINUOUS
 62
     3
 10
-647.29999999998563
 20
210.89999999999372
 30
0.0
 40
1.0000000000045897
 50
90.0
 51
180.0
  0
LINE
  8
OUTLINE
  6
CONTINUOUS
 62
     3
 10
-648.29999999999018
 20
210.89999999999151
 30
0.0
 11
-648.29999999999563
 21
207.99999999999679
 31
0.0
  0
LINE
  8
OUTLINE
  6
CONTINUOUS
 62
     3
 10
-648.29999999999563
 20
207.99999999999679
 30
0.0
 11
-653.29999999999018
 21
207.9999999999973
 31
0.0
  0
ARC
  8
OUTLINE
  6
CONTINUOUS
 62
     3
 10
-653.29999999999029
 20
210.99999999999724
 30
0.0
 40
2.9999999999999418
 50
180.0
 51
270.0
  0
LINE
  8
OUTLINE
  6
CONTINUOUS
 62
     3
 10
-656.29999999999018
 20
210.9999999999973
 30
0.0
 11
-656.29999999999018
 21
217.99999999999821
 31
0.0
  0
ARC
  8
OUTLINE
  6
CONTINUOUS
 62
     3
 10
-653.29999999999006
 20
217.99999999999761
 30
0.0
 40
3.000000000000087
 50
90.0
 51
180.0
  0
LINE
  8
OUTLINE
  6
CONTINUOUS
 62
     3
 10
-653.29999999999018
 20
220.9999999999977
 30
0.0
 11
-649.29999999999018
 21
220.999999999995
 31
0.0
  0
ARC
  8
OUTLINE
  6
CONTINUOUS
 62
     3
 10
-647.29999999999598
 20
221.00000000000134
 30
0.0
 40
1.9999999999941873
 50
90.0
 51
180.0
  0
LINE
  8
OUTLINE
  6
CONTINUOUS
 62
     3
 10
-647.29999999999382
 20
222.99999999999551
 30
0.0
 11
-646.81357814799276
 21
222.99999999999551
 31
0.0
  0
ARC
  8
OUTLINE
  6
CONTINUOUS
 62
     3
 10
-643.14546899555125
 20
223.95956844160941
 30
0.0
 40
3.7915427398838797
 50
94.926186227701805
 51
194.65992092294755
  0
LINE
  8
OUTLINE
  6
CONTINUOUS
 62
     3
 10
-643.4710574144392
 20
227.73710580474059
 30
0.0
 11
-615.49999999999818
 21
230.1842562359916
 31
0.0
  0
LINE
  8
OUTLINE
  6
CONTINUOUS
 62
     3
 10
-615.49999999999818
 20
230.1842562359916
 30
0.0
 11
-615.500000000005
 21
540.49999999999272
 31
0.0
  0
LINE
  8
OUTLINE
  6
CONTINUOUS
 62
     3
 10
-615.500000000005
 20
540.49999999999272
 30
0.0
 11
-659.000000000005
 21
540.50000000000318
 31
0.0
  0
LINE
  8
OUTLINE
  6
CONTINUOUS
 62
     3
 10
-659.000000000005
 20
540.50000000000318
 30
0.0
 11
-659.000000000005
 21
558.99999999999227
 31
0.0
  0
LINE
  8
OUTLINE
  6
CONTINUOUS
 62
     3
 10
-659.000000000005
 20
558.99999999999227
 30
0.0
 11
-639.000000000005
 21
558.99999999999409
 31
0.0
  0
ARC
  8
OUTLINE
  6
CONTINUOUS
 62
     3
 10
-639.000000000005
 20
565.49999999999409
 30
0.0
 40
6.5
 50
270.0
 51
90.0
  0
LINE
  8
OUTLINE
  6
CONTINUOUS
 62
     3
 10
-639.000000000005
 20
571.99999999999409
 30
0.0
 11
-659.000000000005
 21
571.99999999999272
 31
0.0
  0
LINE
  8
OUTLINE
  6
CONTINUOUS
 62
     3
 10
-659.000000000005
 20
571.99999999999272
 30
0.0
 11
-659.000000000005
 21
583.99999999999272
 31
0.0
  0
LINE
  8
OUTLINE
  6
CONTINUOUS
 62
     3
 10
-659.000000000005
 20
583.99999999999272
 30
0.0
 11
-609.20000000000755
 21
584.0
 31
0.0
  0
LINE
  8
OUTLINE
  6
CONTINUOUS
 62
     3
 10
-609.20000000000755
 20
584.0
 30
0.0
 11
-609.19990295946081
 21
572.57507912476422
 31
0.0
  0
ARC
  8
OUTLINE
  6
CONTINUOUS
 62
     3
 10
-605.99999999999773
 20
572.59999999999434
 30
0.0
 40
3.2000000000004127
 50
180.44621106437739
 51
270.0
  0
LINE
  8
OUTLINE
  6
CONTINUOUS
 62
     3
 10
-605.99999999999818
 20
569.39999999999395
 30
0.0
 11
-604.69999999999845
 21
570.69999999999254
 31
0.0
  0
LINE
  8
OUTLINE
  6
CONTINUOUS
 62
     3
 10
-604.69999999999845
 20
570.69999999999254
 30
0.0
 11
-602.80000000000155
 21
570.69999999999254
 31
0.0
  0
LINE
  8
OUTLINE
  6
CONTINUOUS
 62
     3
 10
-602.80000000000155
 20
570.69999999999254
 30
0.0
 11
-601.50000000000819
 21
571.99999999998772
 31
0.0
  0
LINE
  8
OUTLINE
  6
CONTINUOUS
 62
     3
 10
-601.50000000000819
 20
571.99999999998772
 30
0.0
 11
-587.50000000000682
 21
571.9999999999809
 31
0.0
  0
LINE
  8
OUTLINE
  6
CONTINUOUS
 62
     3
 10
-587.50000000000682
 20
571.9999999999809
 30
0.0
 11
-587.50000000000682
 21
573.69999999997799
 31
0.0
  0
LINE
  8
OUTLINE
  6
CONTINUOUS
 62
     3
 10
-587.50000000000682
 20
573.69999999997799
 30
0.0
 11
-579.49999999999773
 21
642.99999999997817
 31
0.0
  0
LINE
  8
OUTLINE
  6
CONTINUOUS
 62
     3
 10
-579.49999999999773
 20
642.99999999997817
 30
0.0
 11
-579.49999999999773
 21
650.99999999997817
 31
0.0
  0
LINE
  8
OUTLINE
  6
CONTINUOUS
 62
     3
 10
-579.49999999999773
 20
650.99999999997817
 30
0.0
 11
-337.50016821999952
 21
650.99999999997817
 31
0.0
  0
LINE
  8
OUTLINE
  6
CONTINUOUS
 62
     3
 10
-337.50016821999952
 20
650.99999999997817
 30
0.0
 11
-337.49999999999773
 21
642.99999999997817
 31
0.0
  0
LINE
  8
OUTLINE
  6
CONTINUOUS
 62
     3
 10
-337.49999999999773
 20
642.99999999997817
 30
0.0
 11
-329.49999999906822
 21
573.69999999997435
 31
0.0
  0
LINE
  8
OUTLINE
  6
CONTINUOUS
 62
     3
 10
-329.49999999906822
 20
573.69999999997435
 30
0.0
 11
-329.49999999999773
 21
571.99999999996999
 31
0.0
  0
LINE
  8
OUTLINE
  6
CONTINUOUS
 62
     3
 10
-329.49999999999773
 20
571.99999999996999
 30
0.0
 11
329.50000000000091
 21
571.99999999998909
 31
0.0
  0
LINE
  8
OUTLINE
  6
CONTINUOUS
 62
     3
 10
329.50000000000091
 20
571.99999999998909
 30
0.0
 11
329.50000000000091
 21
573.69999999999982
 31
0.0
  0
LINE
  8
OUTLINE
  6
CONTINUOUS
 62
     3
 10
329.50000000000091
 20
573.69999999999982
 30
0.0
 11
337.50000000000449
 21
642.99999999997817
 31
0.0
  0
LINE
  8
OUTLINE
  6
CONTINUOUS
 62
     3
 10
337.50000000000449
 20
642.99999999997817
 30
0.0
 11
337.50016821999913
 21
650.99999999997817
 31
0.0
  0
LINE
  8
OUTLINE
  6
CONTINUOUS
 62
     3
 10
337.50016821999913
 20
650.99999999997817
 30
0.0
 11
579.50000000000455
 21
650.99999999997817
 31
0.0
  0
LINE
  8
OUTLINE
  6
CONTINUOUS
 62
     3
 10
579.50000000000455
 20
650.99999999997817
 30
0.0
 11
579.50000000000455
 21
642.99999999997817
 31
0.0
  0
LINE
  8
OUTLINE
  6
CONTINUOUS
 62
     3
 10
579.50000000000455
 20
642.99999999997817
 30
0.0
 11
587.50000000117598
 21
573.69999999999254
 31
0.0
  0
LINE
  8
OUTLINE
  6
CONTINUOUS
 62
     3
 10
587.50000000117598
 20
573.69999999999254
 30
0.0
 11
587.50000000117598
 21
571.9999999999809
 31
0.0
  0
LINE
  8
OUTLINE
  6
CONTINUOUS
 62
     3
 10
587.50000000117598
 20
571.9999999999809
 30
0.0
 11
601.50000000001728
 21
571.99999999998818
 31
0.0
  0
LINE
  8
OUTLINE
  6
CONTINUOUS
 62
     3
 10
601.50000000001728
 20
571.99999999998818
 30
0.0
 11
604.60000000000582
 21
568.89999999999691
 31
0.0
  0
LINE
  8
OUTLINE
  6
CONTINUOUS
 62
     3
 10
604.60000000000582
 20
568.89999999999691
 30
0.0
 11
606.00000000000091
 21
568.89999999998963
 31
0.0
  0
ARC
  8
OUTLINE
  6
CONTINUOUS
 62
     3
 10
606.000000000005
 20
572.09999999998581
 30
0.0
 40
3.1999999999962188
 50
270.0
 51
359.55378893501734
  0
LINE
  8
OUTLINE
  6
CONTINUOUS
 62
     3
 10
609.19990295946354
 20
572.07507912472192
 30
0.0
 11
609.1999999999889
 21
583.99999999999545
 31
0.0
  0
LINE
  8
OUTLINE
  6
CONTINUOUS
 62
     3
 10
609.1999999999889
 20
583.99999999999545
 30
0.0
 11
658.99999999999545
 21
583.99999999999545
 31
0.0
  0
LINE
  8
OUTLINE
  6
CONTINUOUS
 62
     3
 10
658.99999999999545
 20
583.99999999999545
 30
0.0
 11
658.99999999999545
 21
571.99999999999272
 31
0.0
  0
LINE
  8
OUTLINE
  6
CONTINUOUS
 62
     3
 10
658.99999999999545
 20
571.99999999999272
 30
0.0
 11
638.99999999999727
 21
571.99999999999409
 31
0.0
  0
ARC
  8
OUTLINE
  6
CONTINUOUS
 62
     3
 10
638.99999999999727
 20
565.49999999999409
 30
0.0
 40
6.5
 50
90.0
 51
270.0
  0
LINE
  8
OUTLINE
  6
CONTINUOUS
 62
     3
 10
638.99999999999727
 20
558.99999999999409
 30
0.0
 11
658.99999999999545
 21
558.99999999999227
 31
0.0
  0
LINE
  8
OUTLINE
  6
CONTINUOUS
 62
     3
 10
658.99999999999545
 20
558.99999999999227
 30
0.0
 11
658.99999999999545
 21
540.50000000000318
 31
0.0
  0
LINE
  8
OUTLINE
  6
CONTINUOUS
 62
     3
 10
658.99999999999545
 20
540.50000000000318
 30
0.0
 11
615.49999999999
 21
540.50000000000637
 31
0.0
  0
LINE
  8
OUTLINE
  6
CONTINUOUS
 62
     3
 10
615.49999999999
 20
540.50000000000637
 30
0.0
 11
615.50000000000273
 21
-540.50000000001455
 31
0.0
  0
TEXT
  8
ETC
  6
CONTINUOUS
 62
    61
 10
1110.084625209905
 20
1420.7593857714469
 30
0.0
 40
64.065641025638456
  1
LGH-100RVX3-E_6
 41
0.9
  0
TEXT
  8
ETC
  6
CONTINUOUS
 62
    61
 10
1105.894337882725
 20
1302.6830959514771
 30
0.0
 40
64.065641025638456
  1
LOSSNAY
 41
0.9
  0
TEXT
  8
ETC
  6
CONTINUOUS
 62
    61
 10
1156.647737565379
 20
1194.4234012469108
 30
0.0
 40
40.041025641024042
  1
LGH-100RVX3-E
 50
0.0
 41
0.9
 51
0.0
  7
STANDARD
 71
     0
 11
0.0
 21
0.0
 31
0.0
210
0.0
220
0.0
230
1.0
  0
TEXT
  8
NOTE
  6
CONTINUOUS
 62
     4
 10
-507.99484445889362
 20
-733.19710950487115
 30
0.0
 40
64.065641025638456
  1
SA
 41
0.9
  0
TEXT
  8
NOTE
  6
CONTINUOUS
 62
     4
 10
407.74153129461411
 20
-733.19710950487115
 30
0.0
 40
64.065641025638456
  1
RA
 41
0.9
  0
TEXT
  8
NOTE
  6
CONTINUOUS
 62
     4
 10
-507.99484445889362
 20
669.13146847923281
 30
0.0
 40
64.065641025638456
  1
OA
 41
0.9
  0
TEXT
  8
NOTE
  6
CONTINUOUS
 62
     4
 10
412.93836515875961
 20
669.13146847923281
 30
0.0
 40
64.065641025638456
  1
EA
 41
0.9
  0
TEXT
  8
NOTE
  6
CONTINUOUS
 62
     4
 10
780.50886546632046
 20
1015.00919048072
 30
0.0
 40
69.0
  1
Ceiling suspension fixture
 50
0.0
 41
0.9
 51
0.0
  7
STANDARD
 71
     0
 11
0.0
 21
0.0
 31
0.0
210
0.0
220
0.0
230
1.0
  0
TEXT
  8
NOTE
  6
CONTINUOUS
 62
     4
 10
780.50886546632046
 20
901.15919048071999
 30
0.0
 40
69.0
  1
(4-13X20 oval)
 50
0.0
 41
0.9
 51
0.0
  7
STANDARD
 71
     0
 11
0.0
 21
0.0
 31
0.0
210
0.0
220
0.0
230
1.0
  0
LINE
  8
NOTE
  6
CONTINUOUS
 62
     4
 10
770.50886546632046
 20
863.86633333786222
 30
0.0
 11
1987.023151180606
 21
863.86633333786222
 31
0.0
  0
LINE
  8
NOTE
  6
CONTINUOUS
 62
     4
 10
660.88654267292634
 20
594.37784738480821
 30
0.0
 11
638.99999247460892
 21
565.49999266048644
 31
0.0
  0
LINE
  8
NOTE
  6
CONTINUOUS
 62
     4
 10
638.99999247460892
 20
565.49999266048644
 30
0.0
 11
643.51531940740006
 21
601.4522303620887
 31
0.0
  0
LINE
  8
NOTE
  6
CONTINUOUS
 62
     4
 10
638.99999247460892
 20
565.49999266048644
 30
0.0
 11
665.40186960571748
 21
630.33008508641046
 31
0.0
  0
LINE
  8
NOTE
  6
CONTINUOUS
 62
     4
 10
665.40186960571737
 20
630.33008508641046
 30
0.0
 11
760.50886546632046
 21
863.86633333786222
 31
0.0
  0
LINE
  8
NOTE
  6
CONTINUOUS
 62
     4
 10
760.50886546632046
 20
863.86633333786222
 30
0.0
 11
770.50886546632046
 21
863.86633333786222
 31
0.0
  0
TEXT
  8
NOTE
  6
CONTINUOUS
 62
     4
 10
-1425.1541472796089
 20
-697.88941534896685
 30
0.0
 40
69.0
  1
Power supply
 50
0.0
 41
0.9
 51
0.0
  7
STANDARD
 71
     0
 72
     2
 11
-820.9211472796087
 21
-697.88941534896685
 31
0.0
210
0.0
220
0.0
230
1.0
  0
TEXT
  8
NOTE
  6
CONTINUOUS
 62
     4
 10
-1453.0991472796088
 20
-811.73941534896687
 30
0.0
 40
69.0
  1
cable opening
 50
0.0
 41
0.9
 51
0.0
  7
STANDARD
 71
     0
 72
     2
 11
-820.9211472796087
 21
-811.73941534896687
 31
0.0
210
0.0
220
0.0
230
1.0
  0
LINE
  8
NOTE
  6
CONTINUOUS
 62
     4
 10
-810.9211472796087
 20
-835.88941534896685
 30
0.0
 11
-1462.621147279609
 21
-835.88941534896685
 31
0.0
  0
LINE
  8
NOTE
  6
CONTINUOUS
 62
     4
 10
-720.45582936729807
 20
-496.71557892069342
 30
0.0
 11
-702.40000000001965
 21
-465.30000000000149
 31
0.0
  0
LINE
  8
NOTE
  6
CONTINUOUS
 62
     4
 10
-702.40000000001965
 20
-465.30000000000149
 30
0.0
 11
-702.32896285462436
 21
-501.53460399654705
 31
0.0
  0
LINE
  8
NOTE
  6
CONTINUOUS
 62
     4
 10
-702.40000000001965
 20
-465.30000000000149
 30
0.0
 11
-720.38479222190279
 21
-532.95018291723898
 31
0.0
  0
LINE
  8
NOTE
  6
CONTINUOUS
 62
     4
 10
-720.38479222190279
 20
-532.95018291723909
 30
0.0
 11
-800.9211472796087
 21
-835.88941534896685
 31
0.0
  0
LINE
  8
NOTE
  6
CONTINUOUS
 62
     4
 10
-800.9211472796087
 20
-835.88941534896685
 30
0.0
 11
-810.9211472796087
 21
-835.88941534896685
 31
0.0
  0
ENDSEC
  0
EOF
