  0
SECTION
  2
HEADER
  9
$ACADVER
  1
AC1009
  9
$DWGCODEPAGE
  3
dos932
  9
$INSBASE
 10
0.0
 20
0.0
 30
0.0
  9
$EXTMIN
 10
-1070.878585033211
 20
-628.05174632003946
 30
-0.0015258207003583
  9
$EXTMAX
 10
1869.8455936040771
 20
842.7429282371213
 30
0.0000000349246037
  9
$LIMMIN
 10
-2970.0
 20
-2100.0
  9
$LIMMAX
 10
2970.0
 20
2100.0
  9
$ORTHOMODE
 70
     1
  9
$REGENMODE
 70
     1
  9
$FILLMODE
 70
     1
  9
$QTEXTMODE
 70
     0
  9
$MIRRTEXT
 70
     0
  9
$LTSCALE
 40
20.0
  9
$ATTMODE
 70
     1
  9
$TEXTSIZE
 40
64.0
  9
$TRACEWID
 40
0.05
  9
$TEXTSTYLE
  7
STANDARD
  9
$CLAYER
  8
SIZE
  9
$CELTYPE
  6
CONTINUOUS
  9
$CECOLOR
 62
     7
  9
$DIMSCALE
 40
1.0
  9
$DIMASZ
 40
12.0
  9
$DIMEXO
 40
20.0
  9
$DIMDLI
 40
200.0
  9
$DIMRND
 40
0.0
  9
$DIMDLE
 40
0.0
  9
$DIMEXE
 40
20.0
  9
$DIMTP
 40
0.0
  9
$DIMTM
 40
0.0
  9
$DIMTXT
 40
64.0
  9
$DIMCEN
 40
0.09
  9
$DIMTSZ
 40
0.0
  9
$DIMTOL
 70
     0
  9
$DIMLIM
 70
     0
  9
$DIMTIH
 70
     0
  9
$DIMTOH
 70
     0
  9
$DIMSE1
 70
     0
  9
$DIMSE2
 70
     0
  9
$DIMTAD
 70
     1
  9
$DIMZIN
 70
     8
  9
$DIMBLK
  1

  9
$DIMASO
 70
     1
  9
$DIMSHO
 70
     0
  9
$DIMPOST
  1

  9
$DIMAPOST
  1

  9
$DIMALT
 70
     0
  9
$DIMALTD
 70
     2
  9
$DIMALTF
 40
25.399999999999999
  9
$DIMLFAC
 40
1.0
  9
$DIMTOFL
 70
     1
  9
$DIMTVP
 40
0.0
  9
$DIMTIX
 70
     1
  9
$DIMSOXD
 70
     0
  9
$DIMSAH
 70
     0
  9
$DIMBLK1
  1

  9
$DIMBLK2
  1

  9
$DIMSTYLE
  2
STANDARD
  9
$DIMCLRD
 70
     7
  9
$DIMCLRE
 70
     7
  9
$DIMCLRT
 70
     7
  9
$DIMTFAC
 40
1.0
  9
$DIMGAP
 40
25.0
  9
$LUNITS
 70
     2
  9
$LUPREC
 70
     4
  9
$SKETCHINC
 40
0.1
  9
$FILLETRAD
 40
3.0
  9
$AUNITS
 70
     1
  9
$AUPREC
 70
     3
  9
$MENU
  1
ACAD
  9
$ELEVATION
 40
0.0
  9
$PELEVATION
 40
0.0
  9
$THICKNESS
 40
0.0
  9
$LIMCHECK
 70
     0
  9
$CHAMFERA
 40
0.0
  9
$CHAMFERB
 40
0.0
  9
$SKPOLY
 70
     0
  9
$TDCREATE
 40
2453019.62301037
  9
$TDUPDATE
 40
2460045.429316007
  9
$TDINDWG
 40
1.723326169
  9
$TDUSRTIMER
 40
1.723326169
  9
$USRTIMER
 70
     1
  9
$ANGBASE
 50
0.0
  9
$ANGDIR
 70
     0
  9
$PDMODE
 70
     3
  9
$PDSIZE
 40
-2.0
  9
$PLINEWID
 40
0.0
  9
$SPLFRAME
 70
     0
  9
$SPLINETYPE
 70
     6
  9
$SPLINESEGS
 70
     8
  9
$SURFTAB1
 70
     6
  9
$SURFTAB2
 70
     6
  9
$SURFTYPE
 70
     6
  9
$SURFU
 70
     6
  9
$SURFV
 70
     6
  9
$UCSNAME
  2

  9
$UCSORG
 10
0.0
 20
0.0
 30
0.0
  9
$UCSXDIR
 10
1.0
 20
0.0
 30
0.0
  9
$UCSYDIR
 10
0.0
 20
1.0
 30
0.0
  9
$PUCSNAME
  2

  9
$PUCSORG
 10
0.0
 20
0.0
 30
0.0
  9
$PUCSXDIR
 10
1.0
 20
0.0
 30
0.0
  9
$PUCSYDIR
 10
0.0
 20
1.0
 30
0.0
  9
$USERI1
 70
     0
  9
$USERI2
 70
     0
  9
$USERI3
 70
     0
  9
$USERI4
 70
     0
  9
$USERI5
 70
     0
  9
$USERR1
 40
20.0
  9
$USERR2
 40
0.0
  9
$USERR3
 40
0.0
  9
$USERR4
 40
0.0
  9
$USERR5
 40
0.0
  9
$WORLDVIEW
 70
     1
  9
$SHADEDGE
 70
     3
  9
$SHADEDIF
 70
    70
  9
$TILEMODE
 70
     1
  9
$MAXACTVP
 70
    48
  9
$PINSBASE
 10
0.0
 20
0.0
 30
0.0
  9
$PLIMCHECK
 70
     0
  9
$PEXTMIN
 10
-100000000000000000000.0
 20
-100000000000000000000.0
 30
-100000000000000000000.0
  9
$PEXTMAX
 10
100000000000000000000.0
 20
100000000000000000000.0
 30
100000000000000000000.0
  9
$PLIMMIN
 10
0.0
 20
0.0
  9
$PLIMMAX
 10
12.0
 20
9.0
  9
$UNITMODE
 70
     0
  9
$VISRETAIN
 70
     0
  9
$PLINEGEN
 70
     0
  9
$PSLTSCALE
 70
     0
  9
$TREEDEPTH
 70
  3020
  9
$ATTDIA
 70
     0
  9
$ATTREQ
 70
     1
  9
$BLIPMODE
 70
     1
  9
$COORDS
 70
     1
  9
$DRAGMODE
 70
     2
  9
$OSMODE
 70
     0
  9
$HANDLING
 70
     0
  9
$HANDSEED
  5
FCA1
  0
ENDSEC
  0
SECTION
  2
TABLES
  0
TABLE
  2
LTYPE
 70
     3
  0
LTYPE
  2
CONTINUOUS
 70
     0
  3
実線
 72
    65
 73
     0
 40
0.0
  0
LTYPE
  2
DASHDOT
 70
     0
  3
____ _ ____ _ ____ _ ____ _ ____ _ ____ _ ____
 72
    65
 73
     4
 40
5.5
 49
4.0
 49
-0.6
 49
0.3
 49
-0.6
  0
LTYPE
  2
DASHED
 70
     0
  3
-- -- -- -- -- -- -- -- -- -- -- -- -- -- --
 72
    65
 73
     2
 40
0.75
 49
0.5
 49
-0.25
  0
ENDTAB
  0
TABLE
  2
LAYER
 70
    12
  0
LAYER
  2
0
 70
     0
 62
     7
  6
CONTINUOUS
  0
LAYER
  2
BASIS
 70
     0
 62
     6
  6
DASHDOT
  0
LAYER
  2
OUTLINE
 70
     0
 62
     3
  6
CONTINUOUS
  0
LAYER
  2
DETAIL
 70
     0
 62
     5
  6
CONTINUOUS
  0
LAYER
  2
SIZE
 70
     0
 62
    30
  6
CONTINUOUS
  0
LAYER
  2
ARRANGE
 70
     0
 62
     1
  6
CONTINUOUS
  0
LAYER
  2
DEFPOINTS
 70
     0
 62
     7
  6
CONTINUOUS
  0
LAYER
  2
ETC
 70
     0
 62
    61
  6
CONTINUOUS
  0
LAYER
  2
FIX
 70
     0
 62
    11
  6
CONTINUOUS
  0
LAYER
  2
NOTE
 70
     0
 62
     4
  6
CONTINUOUS
  0
LAYER
  2
SERVICESPACE
 70
    64
 62
     2
  6
DASHDOT
  0
LAYER
  2
SYMBOLLINE
 70
    64
 62
    15
  6
CONTINUOUS
  0
ENDTAB
  0
TABLE
  2
STYLE
 70
     1
  0
STYLE
  2
STANDARD
 70
     0
 40
64.0
 41
0.9
 50
0.0
 71
     0
 42
64.0
  3
SIMPLEX.shx
  4
BIGFONT.shx
  0
ENDTAB
  0
TABLE
  2
APPID
 70
    23
  0
APPID
  2
ACAD
 70
     0
  0
APPID
  2
AUTOCAD_POSTSCRIPT_FIGURE
 70
     0
  0
APPID
  2
ACAD_EXEMPT_FROM_CAD_STANDARDS
 70
     0
  0
APPID
  2
ACAD_PSEXT
 70
     0
  0
APPID
  2
ACAUTHENVIRON
 70
     0
  0
APPID
  2
GENIUS_GENOENT_13
 70
     0
  0
APPID
  2
GENIUS_GENCFG_13
 70
     0
  0
APPID
  2
GENIUS_GENCFG0_13
 70
     0
  0
APPID
  2
GENIUS_GENCFG1_13
 70
     0
  0
APPID
  2
GENIUS_GENCFG2_13
 70
     0
  0
APPID
  2
GENIUS_GENCFG3_13
 70
     0
  0
APPID
  2
GENIUS_GENCFG4_13
 70
     0
  0
APPID
  2
GENIUS_GEVCFG0_13
 70
     0
  0
APPID
  2
CONTENTBLOCKICON
 70
     0
  0
APPID
  2
CONTENTBLOCKDESCRIPTION
 70
     0
  0
APPID
  2
ACAD_NAV_VCDISPLAY
 70
     0
  0
APPID
  2
ACAD_MLEADERVER
 70
     0
  0
APPID
  2
ACDBDYNAMICBLOCKTRUENAME
 70
     0
  0
APPID
  2
ACDBDYNAMICBLOCKGUID
 70
     0
  0
APPID
  2
ACAD_DSTYLE_DIMRADIAL_EXTENSION
 70
     0
  0
APPID
  2
GENIUS_GENODEF_13
 70
     0
  0
APPID
  2
GENIUS_GENOBJ-N-CEN_13
 70
     0
  0
APPID
  2
GENIUS_GENCEN_19
 70
     0
  0
ENDTAB
  0
TABLE
  2
DIMSTYLE
 70
     1
  0
DIMSTYLE
  2
STANDARD
 70
     0
  3

  4

  5
_ORIGIN
  6

  7

 40
1.0
 41
12.0
 42
20.0
 43
200.0
 44
20.0
 45
0.0
 46
0.0
 47
0.0
 48
0.0
140
64.0
141
0.09
142
0.0
143
25.399999999999999
144
1.0
145
0.0
146
1.0
147
25.0
 71
     0
 72
     0
 73
     0
 74
     0
 75
     0
 76
     0
 77
     1
 78
     8
170
     0
171
     2
172
     1
173
     0
174
     1
175
     0
176
     7
177
     7
178
     7
  0
ENDTAB
  0
TABLE
  2
VIEW
 70
     1
  0
VIEW
  2
ALL
 70
     0
 40
4282.6198079999986
 10
0.0
 20
41.309904000000003
 41
5940.0
 11
0.0
 21
0.0
 31
1.0
 12
0.0
 22
0.0
 32
0.0
 42
50.0
 43
0.0
 44
0.0
 50
0.0
 71
     0
  0
ENDTAB
  0
TABLE
  2
UCS
 70
     0
  0
ENDTAB
  0
TABLE
  2
VPORT
 70
     1
  0
VPORT
  2
*ACTIVE
 70
     0
 10
0.0
 20
0.0
 11
1.0
 21
1.0
 12
399.4835042854329
 22
107.3455909585409
 13
0.0
 23
0.0
 14
1.0
 24
1.0
 15
0.0
 25
0.0
 16
0.0
 26
0.0
 36
1.0
 17
0.0
 27
0.0
 37
0.0
 40
1657.1624006555071
 41
1.781285231116122
 42
50.0
 43
0.0
 44
0.0
 50
0.0
 51
0.0
 71
     0
 72
  1000
 73
     1
 74
     3
 75
     0
 76
     0
 77
     0
 78
     0
  0
ENDTAB
  0
ENDSEC
  0
SECTION
  2
BLOCKS
  0
BLOCK
  8
0
  2
_ORIGIN
 70
     0
 10
0.0
 20
0.0
 30
0.0
  3
_ORIGIN
  1
_ORIGIN
  0
CIRCLE
  8
0
  6
CONTINUOUS
 62
     7
 10
0.0
 20
0.0
 30
0.0
 40
0.5
  0
LINE
  8
0
  6
CONTINUOUS
 62
     7
 10
0.0
 20
0.0
 30
0.0
 11
-1.0
 21
0.0
 31
0.0
  0
ENDBLK
  8
0
  0
ENDSEC
  0
SECTION
  2
ENTITIES
  0
LINE
  8
DETAIL
  6
CONTINUOUS
 62
     5
 10
-584.19999999999254
 20
-122.0000000000032
 30
0.0
 11
-584.19999999999254
 21
-77.000000000003183
 31
0.0
  0
LINE
  8
DETAIL
  6
CONTINUOUS
 62
     5
 10
-572.19999999997799
 20
-84.000000000003183
 30
0.0
 11
-572.19999999997799
 21
-77.000000000003183
 31
0.0
  0
LINE
  8
DETAIL
  6
CONTINUOUS
 62
     5
 10
-570.69999999999254
 20
-403.20000000000249
 30
0.0
 11
-570.69999999999254
 21
-402.70000000000249
 31
0.0
  0
LINE
  8
DETAIL
  6
CONTINUOUS
 62
     5
 10
-570.69999999999254
 20
-1.3000000000029099
 30
0.0
 11
-570.69999999999254
 21
-0.8000000000029104
 31
0.0
  0
LINE
  8
DETAIL
  6
CONTINUOUS
 62
     5
 10
-566.49999999998818
 20
-378.22000234400872
 30
0.0
 11
-566.49999999998818
 21
-127.0000000000027
 31
0.0
  0
LINE
  8
DETAIL
  6
CONTINUOUS
 62
     5
 10
-566.19999999999254
 20
-401.20000000000249
 30
0.0
 11
-566.19999999999254
 21
-100.0000000000032
 31
0.0
  0
LINE
  8
DETAIL
  6
CONTINUOUS
 62
     5
 10
-566.19999999999254
 20
-77.000000000003183
 30
0.0
 11
-566.19999999999254
 21
-2.8000000000029099
 31
0.0
  0
LINE
  8
DETAIL
  6
CONTINUOUS
 62
     5
 10
-565.69999999999982
 20
-402.20000000000249
 30
0.0
 11
-565.69999999999982
 21
-401.20000000000249
 31
0.0
  0
LINE
  8
DETAIL
  6
CONTINUOUS
 62
     5
 10
-565.69999999999982
 20
-2.8000000000029099
 30
0.0
 11
-565.69999999999982
 21
-1.8000000000029099
 31
0.0
  0
LINE
  8
DETAIL
  6
CONTINUOUS
 62
     5
 10
-565.19999999999982
 20
-1.8000000000029099
 30
0.0
 11
-565.19999999999982
 21
-2.8000000000029099
 31
0.0
  0
LINE
  8
DETAIL
  6
CONTINUOUS
 62
     5
 10
-565.19999999999982
 20
-401.20000000000249
 30
0.0
 11
-565.19999999999982
 21
-402.20000000000249
 31
0.0
  0
LINE
  8
DETAIL
  6
CONTINUOUS
 62
     5
 10
-564.19999999999982
 20
-0.8000000000029104
 30
0.0
 11
-564.19999999999982
 21
-2.8000000000029099
 31
0.0
  0
LINE
  8
DETAIL
  6
CONTINUOUS
 62
     5
 10
-564.19999999999982
 20
-403.20000000000249
 30
0.0
 11
-564.19999999999982
 21
-401.20000000000249
 31
0.0
  0
LINE
  8
DETAIL
  6
CONTINUOUS
 62
     5
 10
-562.84708539199619
 20
0.0
 30
0.0
 11
-562.84708539199619
 21
-0.8000000000029104
 31
0.0
  0
LINE
  8
DETAIL
  6
CONTINUOUS
 62
     5
 10
-562.79999999999836
 20
-403.99999999999091
 30
0.0
 11
-562.79999999999836
 21
-403.20000000000249
 31
0.0
  0
LINE
  8
DETAIL
  6
CONTINUOUS
 62
     5
 10
-559.19999999999982
 20
-73.200000000000273
 30
0.0
 11
-559.19999999999982
 21
-80.200000000000273
 31
0.0
  0
LINE
  8
DETAIL
  6
CONTINUOUS
 62
     5
 10
-541.99999999999682
 20
-172.0000000000023
 30
0.0
 11
-541.99999999999682
 21
-312.00000000000227
 31
0.0
  0
LINE
  8
DETAIL
  6
CONTINUOUS
 62
     5
 10
-540.69999999999254
 20
-95.000000000003183
 30
0.0
 11
-540.69999999999254
 21
-73.200000000000273
 31
0.0
  0
LINE
  8
DETAIL
  6
CONTINUOUS
 62
     5
 10
-564.84734603999368
 20
-401.20000000000249
 30
0.0
 11
-565.08343350400082
 21
-402.53891854199719
 31
0.0
  0
LINE
  8
DETAIL
  6
CONTINUOUS
 62
     5
 10
-564.19999999999982
 20
-402.13573456878612
 30
0.0
 11
-564.29558729998371
 21
-402.67783708399469
 31
0.0
  0
LINE
  8
DETAIL
  6
CONTINUOUS
 62
     5
 10
-565.08343350400082
 20
-1.4610814580082661
 30
0.0
 11
-564.84734603999368
 21
-2.8000000000029099
 31
0.0
  0
LINE
  8
DETAIL
  6
CONTINUOUS
 62
     5
 10
-564.29558729998371
 20
-1.322162915996159
 30
0.0
 11
-564.19999999999982
 21
-1.864265431238437
 31
0.0
  0
LINE
  8
DETAIL
  6
CONTINUOUS
 62
     5
 10
-541.99999999999682
 20
-312.00000000000227
 30
0.0
 11
-476.99999999999682
 21
-377.00000000000227
 31
0.0
  0
LINE
  8
DETAIL
  6
CONTINUOUS
 62
     5
 10
-476.99999999999682
 20
-107.0000000000027
 30
0.0
 11
-541.99999999999682
 21
-172.0000000000023
 31
0.0
  0
LINE
  8
DETAIL
  6
CONTINUOUS
 62
     5
 10
-271.99999999999682
 20
-312.00000000000227
 30
0.0
 11
-271.99999999999682
 21
-172.0000000000023
 31
0.0
  0
LINE
  8
DETAIL
  6
CONTINUOUS
 62
     5
 10
-234.63397459599491
 20
-209.55000000000251
 30
0.0
 11
-234.63397459599491
 21
-221.94999999999661
 31
0.0
  0
LINE
  8
DETAIL
  6
CONTINUOUS
 62
     5
 10
-234.63397459599491
 20
-194.55000000000251
 30
0.0
 11
-234.63397459599491
 21
-182.1500000000087
 31
0.0
  0
LINE
  8
DETAIL
  6
CONTINUOUS
 62
     5
 10
-231.27696573999401
 20
-209.55000000000251
 30
0.0
 11
-231.27696573999401
 21
-221.94999999999661
 31
0.0
  0
LINE
  8
DETAIL
  6
CONTINUOUS
 62
     5
 10
-231.27696573999401
 20
-194.55000000000251
 30
0.0
 11
-231.27696573999401
 21
-182.1500000000087
 31
0.0
  0
LINE
  8
DETAIL
  6
CONTINUOUS
 62
     5
 10
-227.90000000001149
 20
-237.2299517020142
 30
0.0
 11
-227.90000000001149
 21
-231.57004829800229
 31
0.0
  0
LINE
  8
DETAIL
  6
CONTINUOUS
 62
     5
 10
-227.7230342619832
 20
-209.55000000000251
 30
0.0
 11
-227.7230342619832
 21
-221.94999999999661
 31
0.0
  0
LINE
  8
DETAIL
  6
CONTINUOUS
 62
     5
 10
-227.7230342619832
 20
-194.55000000000251
 30
0.0
 11
-227.7230342619832
 21
-182.1500000000087
 31
0.0
  0
LINE
  8
DETAIL
  6
CONTINUOUS
 62
     5
 10
-224.9999999999809
 20
-238.4000000000083
 30
0.0
 11
-224.9999999999809
 21
-230.4000000000083
 31
0.0
  0
LINE
  8
DETAIL
  6
CONTINUOUS
 62
     5
 10
-224.36602540398869
 20
-209.55000000000251
 30
0.0
 11
-224.36602540398869
 21
-221.94999999999661
 31
0.0
  0
LINE
  8
DETAIL
  6
CONTINUOUS
 62
     5
 10
-224.36602540398869
 20
-194.55000000000251
 30
0.0
 11
-224.36602540398869
 21
-182.1500000000087
 31
0.0
  0
LINE
  8
DETAIL
  6
CONTINUOUS
 62
     5
 10
-224.19999999999251
 20
-4.3000000000033651
 30
0.0
 11
-224.19999999999251
 21
-177.30000000000251
 31
0.0
  0
LINE
  8
DETAIL
  6
CONTINUOUS
 62
     5
 10
-224.19999999999251
 20
-179.5000000000141
 30
0.0
 11
-224.19999999999251
 21
-224.70000000001161
 31
0.0
  0
LINE
  8
DETAIL
  6
CONTINUOUS
 62
     5
 10
-224.19999999999251
 20
-226.9000000000087
 30
0.0
 11
-224.19999999999251
 21
-399.79999999999382
 31
0.0
  0
LINE
  8
DETAIL
  6
CONTINUOUS
 62
     5
 10
-222.9999999999882
 20
-3.0999999999912689
 30
0.0
 11
-222.9999999999882
 21
-177.30000000000251
 31
0.0
  0
LINE
  8
DETAIL
  6
CONTINUOUS
 62
     5
 10
-222.9999999999882
 20
-179.5000000000141
 30
0.0
 11
-222.9999999999882
 21
-224.70000000001161
 31
0.0
  0
LINE
  8
DETAIL
  6
CONTINUOUS
 62
     5
 10
-222.9999999999882
 20
-401.00000000000551
 30
0.0
 11
-222.9999999999882
 21
-226.9000000000087
 31
0.0
  0
LINE
  8
DETAIL
  6
CONTINUOUS
 62
     5
 10
-222.0000000000027
 20
-214.4000000000087
 30
0.0
 11
-222.0000000000027
 21
-224.70000000001161
 31
0.0
  0
LINE
  8
DETAIL
  6
CONTINUOUS
 62
     5
 10
-222.0000000000027
 20
-226.9000000000087
 30
0.0
 11
-222.0000000000027
 21
-228.4000000000083
 31
0.0
  0
LINE
  8
DETAIL
  6
CONTINUOUS
 62
     5
 10
-222.0000000000027
 20
-254.4000000000083
 30
0.0
 11
-222.0000000000027
 21
-246.20000000001161
 31
0.0
  0
LINE
  8
DETAIL
  6
CONTINUOUS
 62
     5
 10
-559.26730091799573
 20
-403.99999999999091
 30
0.0
 11
-557.167300918004
 21
-401.90000000001419
 31
0.0
  0
LINE
  8
DETAIL
  6
CONTINUOUS
 62
     5
 10
-559.3143863099931
 20
0.0
 30
0.0
 11
-557.21438630998728
 21
-2.1000000000058212
 31
0.0
  0
LINE
  8
DETAIL
  6
CONTINUOUS
 62
     5
 10
-221.0000000000027
 20
-246.20000000001161
 30
0.0
 11
-221.0000000000027
 21
-248.19999999999661
 31
0.0
  0
LINE
  8
DETAIL
  6
CONTINUOUS
 62
     5
 10
-221.0000000000027
 20
-228.4000000000083
 30
0.0
 11
-221.0000000000027
 21
-217.3999999999937
 31
0.0
  0
LINE
  8
DETAIL
  6
CONTINUOUS
 62
     5
 10
-214.9999999999809
 20
-248.19999999999661
 30
0.0
 11
-214.9999999999809
 21
-251.3999999999937
 31
0.0
  0
LINE
  8
DETAIL
  6
CONTINUOUS
 62
     5
 10
-207.9999999999809
 20
-217.3999999999937
 30
0.0
 11
-207.9999999999809
 21
-248.19999999999661
 31
0.0
  0
LINE
  8
DETAIL
  6
CONTINUOUS
 62
     5
 10
-188.9123823699947
 20
-182.30000000000291
 30
0.0
 11
-188.9123823699947
 21
-221.89998952001
 31
0.0
  0
LINE
  8
DETAIL
  6
CONTINUOUS
 62
     5
 10
-186.71238236999031
 20
-182.30000000000291
 30
0.0
 11
-186.71238236999031
 21
-221.89998952001
 31
0.0
  0
LINE
  8
DETAIL
  6
CONTINUOUS
 62
     5
 10
570.94999999999982
 20
-403.99999999999091
 30
0.0
 11
565.87127970400161
 21
-403.99999999999091
 31
0.0
  0
LINE
  8
DETAIL
  6
CONTINUOUS
 62
     5
 10
-570.94999999998527
 20
-403.99999999999091
 30
0.0
 11
-565.8712797060025
 21
-403.99999999999091
 31
0.0
  0
LINE
  8
DETAIL
  6
CONTINUOUS
 62
     5
 10
-562.79999999999836
 20
-403.99999999999091
 30
0.0
 11
562.80000000001291
 21
-403.99999999999091
 31
0.0
  0
LINE
  8
DETAIL
  6
CONTINUOUS
 62
     5
 10
570.94999999999982
 20
-403.20000000000249
 30
0.0
 11
565.87127970400161
 21
-403.20000000000249
 31
0.0
  0
LINE
  8
DETAIL
  6
CONTINUOUS
 62
     5
 10
-558.46730091800055
 20
-403.20000000000249
 30
0.0
 11
-564.19999999999982
 21
-403.20000000000249
 31
0.0
  0
LINE
  8
DETAIL
  6
CONTINUOUS
 62
     5
 10
-570.94999999998527
 20
-403.20000000000249
 30
0.0
 11
-565.8712797060025
 21
-403.20000000000249
 31
0.0
  0
LINE
  8
DETAIL
  6
CONTINUOUS
 62
     5
 10
558.46730091800873
 20
-403.20000000000249
 30
0.0
 11
564.19999999999982
 21
-403.20000000000249
 31
0.0
  0
LINE
  8
DETAIL
  6
CONTINUOUS
 62
     5
 10
566.19999999999982
 20
-402.70000000000249
 30
0.0
 11
570.94999999999982
 21
-402.70000000000249
 31
0.0
  0
LINE
  8
DETAIL
  6
CONTINUOUS
 62
     5
 10
-566.19999999999254
 20
-401.20000000000249
 30
0.0
 11
-564.19999999999982
 21
-401.20000000000249
 31
0.0
  0
LINE
  8
DETAIL
  6
CONTINUOUS
 62
     5
 10
564.19999999999982
 20
-401.20000000000249
 30
0.0
 11
566.19999999999982
 21
-401.20000000000249
 31
0.0
  0
LINE
  8
DETAIL
  6
CONTINUOUS
 62
     5
 10
223.00000000001
 20
-401.00000000000551
 30
0.0
 11
-222.9999999999882
 21
-401.00000000000551
 31
0.0
  0
LINE
  8
DETAIL
  6
CONTINUOUS
 62
     5
 10
224.20000000000709
 20
-399.79999999999382
 30
0.0
 11
-224.199999999993
 21
-399.79999999999382
 31
0.0
  0
LINE
  8
DETAIL
  6
CONTINUOUS
 62
     5
 10
566.50000000002456
 20
-384.55000000000251
 30
0.0
 11
566.19999999999982
 21
-384.55000000000251
 31
0.0
  0
LINE
  8
DETAIL
  6
CONTINUOUS
 62
     5
 10
-566.19999999999254
 20
-378.22000234400872
 30
0.0
 11
-566.49999999998818
 21
-378.22000234400872
 31
0.0
  0
LINE
  8
DETAIL
  6
CONTINUOUS
 62
     5
 10
-476.99999999999682
 20
-377.00000000000227
 30
0.0
 11
-336.99999999999682
 21
-377.00000000000227
 31
0.0
  0
LINE
  8
DETAIL
  6
CONTINUOUS
 62
     5
 10
-271.99999999999682
 20
-172.0000000000023
 30
0.0
 11
-336.99999999999682
 21
-107.0000000000027
 31
0.0
  0
LINE
  8
DETAIL
  6
CONTINUOUS
 62
     5
 10
-336.99999999999682
 20
-377.00000000000227
 30
0.0
 11
-271.99999999999682
 21
-312.00000000000227
 31
0.0
  0
LINE
  8
DETAIL
  6
CONTINUOUS
 62
     5
 10
222.43068047600809
 20
-316.49999999999949
 30
0.0
 11
221.2201435300112
 21
-316.49999999999949
 31
0.0
  0
LINE
  8
DETAIL
  6
CONTINUOUS
 62
     5
 10
223.00000000001
 20
-314.5000000000141
 30
0.0
 11
221.56747271601029
 21
-314.5000000000141
 31
0.0
  0
LINE
  8
DETAIL
  6
CONTINUOUS
 62
     5
 10
224.20000000000709
 20
-314.5000000000141
 30
0.0
 11
241.30000000001289
 21
-314.5000000000141
 31
0.0
  0
LINE
  8
DETAIL
  6
CONTINUOUS
 62
     5
 10
223.00000000001
 20
-268.49999999999949
 30
0.0
 11
221.56747271601029
 21
-268.49999999999949
 31
0.0
  0
LINE
  8
DETAIL
  6
CONTINUOUS
 62
     5
 10
224.20000000000709
 20
-268.49999999999949
 30
0.0
 11
241.30000000001289
 21
-268.49999999999949
 31
0.0
  0
LINE
  8
DETAIL
  6
CONTINUOUS
 62
     5
 10
222.43068047600809
 20
-266.49999999999949
 30
0.0
 11
221.2201435300112
 21
-266.49999999999949
 31
0.0
  0
LINE
  8
DETAIL
  6
CONTINUOUS
 62
     5
 10
-222.9999999999882
 20
-254.4000000000083
 30
0.0
 11
-217.9999999999882
 21
-254.4000000000083
 31
0.0
  0
LINE
  8
DETAIL
  6
CONTINUOUS
 62
     5
 10
-207.9999999999809
 20
-248.19999999999661
 30
0.0
 11
-221.0000000000027
 21
-248.19999999999661
 31
0.0
  0
LINE
  8
DETAIL
  6
CONTINUOUS
 62
     5
 10
-221.0000000000027
 20
-247.20000000001119
 30
0.0
 11
-207.9999999999809
 21
-247.20000000001119
 31
0.0
  0
LINE
  8
DETAIL
  6
CONTINUOUS
 62
     5
 10
-221.0000000000027
 20
-246.20000000001161
 30
0.0
 11
-222.9999999999882
 21
-246.20000000001161
 31
0.0
  0
LINE
  8
DETAIL
  6
CONTINUOUS
 62
     5
 10
-224.9999999999809
 20
-238.4000000000083
 30
0.0
 11
-226.9871557439719
 21
-238.226146400018
 31
0.0
  0
LINE
  8
BASIS
  6
DASHDOT
 62
     6
 10
0.0
 20
23.881601094962662
 30
0.0
 11
0.0
 21
-428.0816010949743
 31
0.0
  0
LINE
  8
DETAIL
  6
CONTINUOUS
 62
     5
 10
-224.9999999999809
 20
-230.4000000000083
 30
0.0
 11
-226.9871557439719
 21
-230.5738535999985
 31
0.0
  0
LINE
  8
DETAIL
  6
CONTINUOUS
 62
     5
 10
-224.9999999999809
 20
-236.9000000000087
 30
0.0
 11
-224.19999999999251
 21
-236.9000000000087
 31
0.0
  0
LINE
  8
DETAIL
  6
CONTINUOUS
 62
     5
 10
-224.9999999999809
 20
-231.9000000000087
 30
0.0
 11
-224.19999999999251
 21
-231.9000000000087
 31
0.0
  0
LINE
  8
DETAIL
  6
CONTINUOUS
 62
     5
 10
-221.0000000000027
 20
-228.4000000000083
 30
0.0
 11
-222.9999999999882
 21
-228.4000000000083
 31
0.0
  0
LINE
  8
DETAIL
  6
CONTINUOUS
 62
     5
 10
-191.34697727999719
 20
-226.9000000000087
 30
0.0
 11
-207.9999999999809
 21
-226.9000000000087
 31
0.0
  0
LINE
  8
DETAIL
  6
CONTINUOUS
 62
     5
 10
-221.0000000000027
 20
-226.9000000000087
 30
0.0
 11
-229.0600931279869
 21
-226.9000000000087
 31
0.0
  0
LINE
  8
DETAIL
  6
CONTINUOUS
 62
     5
 10
-191.34697727999719
 20
-224.70000000001161
 30
0.0
 11
-207.9999999999809
 21
-224.70000000001161
 31
0.0
  0
LINE
  8
DETAIL
  6
CONTINUOUS
 62
     5
 10
-221.0000000000027
 20
-224.70000000001161
 30
0.0
 11
-229.0600931279869
 21
-224.70000000001161
 31
0.0
  0
LINE
  8
DETAIL
  6
CONTINUOUS
 62
     5
 10
-234.63397459599491
 20
-221.94999999999661
 30
0.0
 11
-224.36602540398869
 21
-221.94999999999661
 31
0.0
  0
LINE
  8
DETAIL
  6
CONTINUOUS
 62
     5
 10
-211.0000000000027
 20
-214.4000000000087
 30
0.0
 11
-222.9999999999882
 21
-214.4000000000087
 31
0.0
  0
LINE
  8
BASIS
  6
DASHDOT
 62
     6
 10
695.6936764516322
 20
-202.00000000000591
 30
0.0
 11
-695.6936764516322
 21
-202.00000000000591
 31
0.0
  0
LINE
  8
DETAIL
  6
CONTINUOUS
 62
     5
 10
-234.63397459599491
 20
-182.1500000000087
 30
0.0
 11
-224.36602540398869
 21
-182.1500000000087
 31
0.0
  0
LINE
  8
DETAIL
  6
CONTINUOUS
 62
     5
 10
-229.0600931279869
 20
-179.5000000000141
 30
0.0
 11
-191.34697727999719
 21
-179.5000000000141
 31
0.0
  0
LINE
  8
DETAIL
  6
CONTINUOUS
 62
     5
 10
-229.0600931279869
 20
-177.30000000000251
 30
0.0
 11
-191.34697727999719
 21
-177.30000000000251
 31
0.0
  0
LINE
  8
DETAIL
  6
CONTINUOUS
 62
     5
 10
-566.19999999999254
 20
-127.0000000000027
 30
0.0
 11
-579.19999999999982
 21
-127.0000000000027
 31
0.0
  0
LINE
  8
DETAIL
  6
CONTINUOUS
 62
     5
 10
566.19999999999982
 20
-127.0000000000027
 30
0.0
 11
579.69999999999982
 21
-127.0000000000027
 31
0.0
  0
LINE
  8
DETAIL
  6
CONTINUOUS
 62
     5
 10
222.43068047600809
 20
-126.5
 30
0.0
 11
221.2201435300112
 21
-126.5
 31
0.0
  0
LINE
  8
DETAIL
  6
CONTINUOUS
 62
     5
 10
223.00000000001
 20
-124.50000000001459
 30
0.0
 11
221.56747271601029
 21
-124.50000000001459
 31
0.0
  0
LINE
  8
DETAIL
  6
CONTINUOUS
 62
     5
 10
224.20000000000709
 20
-124.50000000001459
 30
0.0
 11
241.30000000001289
 21
-124.50000000001459
 31
0.0
  0
LINE
  8
DETAIL
  6
CONTINUOUS
 62
     5
 10
-336.99999999999682
 20
-107.0000000000027
 30
0.0
 11
-476.99999999999682
 21
-107.0000000000027
 31
0.0
  0
LINE
  8
DETAIL
  6
CONTINUOUS
 62
     5
 10
-566.19999999999254
 20
-106.0000000000032
 30
0.0
 11
-569.099999999994
 21
-106.0000000000032
 31
0.0
  0
LINE
  8
DETAIL
  6
CONTINUOUS
 62
     5
 10
566.2264151080044
 20
-106.0000000000032
 30
0.0
 11
569.60000000000855
 21
-106.0000000000032
 31
0.0
  0
LINE
  8
DETAIL
  6
CONTINUOUS
 62
     5
 10
-545.69999999999254
 20
-100.0000000000032
 30
0.0
 11
-569.099999999994
 21
-100.0000000000032
 31
0.0
  0
LINE
  8
DETAIL
  6
CONTINUOUS
 62
     5
 10
546.19999999999982
 20
-100.0000000000032
 30
0.0
 11
569.60000000000855
 21
-100.0000000000032
 31
0.0
  0
LINE
  8
DETAIL
  6
CONTINUOUS
 62
     5
 10
555.20000000000709
 20
-95.000000000003183
 30
0.0
 11
553.20000000002165
 21
-95.000000000003183
 31
0.0
  0
LINE
  8
DETAIL
  6
CONTINUOUS
 62
     5
 10
-554.69999999997799
 20
-95.000000000003183
 30
0.0
 11
-552.69999999999254
 21
-95.000000000003183
 31
0.0
  0
LINE
  8
DETAIL
  6
CONTINUOUS
 62
     5
 10
-552.69999999999254
 20
-89.000000000003183
 30
0.0
 11
-554.69999999997799
 21
-89.000000000003183
 31
0.0
  0
LINE
  8
DETAIL
  6
CONTINUOUS
 62
     5
 10
553.20000000002165
 20
-89.000000000003183
 30
0.0
 11
555.20000000000709
 21
-89.000000000003183
 31
0.0
  0
LINE
  8
DETAIL
  6
CONTINUOUS
 62
     5
 10
581.69999999999982
 20
-87.000000000003183
 30
0.0
 11
575.70000000001437
 21
-87.000000000003183
 31
0.0
  0
LINE
  8
DETAIL
  6
CONTINUOUS
 62
     5
 10
-581.19999999999982
 20
-87.000000000003183
 30
0.0
 11
-575.19999999999982
 21
-87.000000000003183
 31
0.0
  0
LINE
  8
DETAIL
  6
CONTINUOUS
 62
     5
 10
-572.19999999997799
 20
-80.200000000000273
 30
0.0
 11
-540.69999999999254
 21
-80.200000000000273
 31
0.0
  0
LINE
  8
DETAIL
  6
CONTINUOUS
 62
     5
 10
541.19999999999982
 20
-80.200000000000273
 30
0.0
 11
572.70000000000709
 21
-80.200000000000273
 31
0.0
  0
LINE
  8
DETAIL
  6
CONTINUOUS
 62
     5
 10
223.00000000001
 20
-78.5
 30
0.0
 11
221.56747271601029
 21
-78.5
 31
0.0
  0
LINE
  8
DETAIL
  6
CONTINUOUS
 62
     5
 10
224.20000000000709
 20
-78.5
 30
0.0
 11
241.30000000001289
 21
-78.5
 31
0.0
  0
LINE
  8
DETAIL
  6
CONTINUOUS
 62
     5
 10
-559.19999999999982
 20
-77.000000000003183
 30
0.0
 11
-584.19999999999254
 21
-77.000000000003183
 31
0.0
  0
LINE
  8
DETAIL
  6
CONTINUOUS
 62
     5
 10
559.69999999999982
 20
-77.000000000003183
 30
0.0
 11
584.70000000000709
 21
-77.000000000003183
 31
0.0
  0
LINE
  8
DETAIL
  6
CONTINUOUS
 62
     5
 10
222.43068047600809
 20
-76.5
 30
0.0
 11
221.2201435300112
 21
-76.5
 31
0.0
  0
LINE
  8
DETAIL
  6
CONTINUOUS
 62
     5
 10
-543.69999999999982
 20
-70.199999999999818
 30
0.0
 11
-556.19999999999254
 21
-70.199999999999818
 31
0.0
  0
LINE
  8
DETAIL
  6
CONTINUOUS
 62
     5
 10
544.20000000000709
 20
-70.199999999999818
 30
0.0
 11
556.70000000000709
 21
-70.199999999999818
 31
0.0
  0
LINE
  8
DETAIL
  6
CONTINUOUS
 62
     5
 10
219.13616841801101
 20
-313.49999999999949
 30
0.0
 11
219.13616841801101
 21
-269.5000000000141
 31
0.0
  0
LINE
  8
DETAIL
  6
CONTINUOUS
 62
     5
 10
219.13616841801101
 20
-123.4999999999995
 30
0.0
 11
219.13616841801101
 21
-79.500000000014552
 31
0.0
  0
LINE
  8
DETAIL
  6
CONTINUOUS
 62
     5
 10
221.56747271601029
 20
-76.5
 30
0.0
 11
221.56747271601029
 21
-78.5
 31
0.0
  0
LINE
  8
DETAIL
  6
CONTINUOUS
 62
     5
 10
221.56747271601029
 20
-266.49999999999949
 30
0.0
 11
221.56747271601029
 21
-268.49999999999949
 31
0.0
  0
LINE
  8
DETAIL
  6
CONTINUOUS
 62
     5
 10
221.56747271601029
 20
-316.49999999999949
 30
0.0
 11
221.56747271601029
 21
-314.5000000000141
 31
0.0
  0
LINE
  8
DETAIL
  6
CONTINUOUS
 62
     5
 10
221.56747271601029
 20
-126.5
 30
0.0
 11
221.56747271601029
 21
-124.50000000001459
 31
0.0
  0
LINE
  8
DETAIL
  6
CONTINUOUS
 62
     5
 10
222.43068047600809
 20
-76.5
 30
0.0
 11
222.43068047600809
 21
-78.5
 31
0.0
  0
LINE
  8
DETAIL
  6
CONTINUOUS
 62
     5
 10
222.43068047600809
 20
-266.49999999999949
 30
0.0
 11
222.43068047600809
 21
-268.49999999999949
 31
0.0
  0
LINE
  8
DETAIL
  6
CONTINUOUS
 62
     5
 10
222.43068047600809
 20
-316.49999999999949
 30
0.0
 11
222.43068047600809
 21
-314.5000000000141
 31
0.0
  0
LINE
  8
DETAIL
  6
CONTINUOUS
 62
     5
 10
222.43068047600809
 20
-126.5
 30
0.0
 11
222.43068047600809
 21
-124.50000000001459
 31
0.0
  0
LINE
  8
DETAIL
  6
CONTINUOUS
 62
     5
 10
223.00000000001
 20
-401.00000000000551
 30
0.0
 11
223.00000000001
 21
-3.0999999999912689
 31
0.0
  0
LINE
  8
DETAIL
  6
CONTINUOUS
 62
     5
 10
224.20000000000709
 20
-399.79999999999382
 30
0.0
 11
224.20000000000709
 21
-4.3000000000033651
 31
0.0
  0
LINE
  8
DETAIL
  6
CONTINUOUS
 62
     5
 10
227.49999999999551
 20
-314.5000000000141
 30
0.0
 11
227.49999999999551
 21
-268.49999999999949
 31
0.0
  0
LINE
  8
DETAIL
  6
CONTINUOUS
 62
     5
 10
227.49999999999551
 20
-124.50000000001459
 30
0.0
 11
227.49999999999551
 21
-78.5
 31
0.0
  0
LINE
  8
DETAIL
  6
CONTINUOUS
 62
     5
 10
-224.19999999999209
 20
-4.3000000000033651
 30
0.0
 11
224.20000000000709
 21
-4.3000000000033651
 31
0.0
  0
LINE
  8
DETAIL
  6
CONTINUOUS
 62
     5
 10
-222.9999999999882
 20
-3.0999999999912689
 30
0.0
 11
223.00000000001
 21
-3.0999999999912689
 31
0.0
  0
LINE
  8
DETAIL
  6
CONTINUOUS
 62
     5
 10
-566.19999999999254
 20
-2.8000000000029099
 30
0.0
 11
-564.19999999999982
 21
-2.8000000000029099
 31
0.0
  0
LINE
  8
DETAIL
  6
CONTINUOUS
 62
     5
 10
564.19999999999982
 20
-2.8000000000029099
 30
0.0
 11
566.19999999999982
 21
-2.8000000000029099
 31
0.0
  0
LINE
  8
DETAIL
  6
CONTINUOUS
 62
     5
 10
566.19999999999982
 20
-1.3000000000029099
 30
0.0
 11
570.94999999999982
 21
-1.3000000000029099
 31
0.0
  0
LINE
  8
DETAIL
  6
CONTINUOUS
 62
     5
 10
-570.94999999998527
 20
-0.8000000000029104
 30
0.0
 11
-565.8712797060025
 21
-0.8000000000029104
 31
0.0
  0
LINE
  8
DETAIL
  6
CONTINUOUS
 62
     5
 10
-564.19999999999982
 20
-0.8000000000029104
 30
0.0
 11
-558.51438630999064
 21
-0.8000000000029104
 31
0.0
  0
LINE
  8
DETAIL
  6
CONTINUOUS
 62
     5
 10
558.51438631000383
 20
-0.8000000000033651
 30
0.0
 11
564.19999999999982
 21
-0.8000000000029104
 31
0.0
  0
LINE
  8
DETAIL
  6
CONTINUOUS
 62
     5
 10
565.87127970400161
 20
-0.8000000000029104
 30
0.0
 11
570.94999999999982
 21
-0.8000000000029104
 31
0.0
  0
LINE
  8
DETAIL
  6
CONTINUOUS
 62
     5
 10
-570.94999999998527
 20
0.0
 30
0.0
 11
-565.8712797060025
 21
0.0
 31
0.0
  0
LINE
  8
DETAIL
  6
CONTINUOUS
 62
     5
 10
-562.84708539199619
 20
0.0
 30
0.0
 11
562.84708539200346
 21
0.0
 31
0.0
  0
LINE
  8
DETAIL
  6
CONTINUOUS
 62
     5
 10
565.87127970400161
 20
0.0
 30
0.0
 11
570.94999999999982
 21
0.0
 31
0.0
  0
LINE
  8
DETAIL
  6
CONTINUOUS
 62
     5
 10
241.30000000001289
 20
-314.5000000000141
 30
0.0
 11
241.30000000001289
 21
-268.49999999999949
 31
0.0
  0
LINE
  8
DETAIL
  6
CONTINUOUS
 62
     5
 10
241.30000000001289
 20
-124.50000000001459
 30
0.0
 11
241.30000000001289
 21
-78.5
 31
0.0
  0
LINE
  8
DETAIL
  6
CONTINUOUS
 62
     5
 10
559.31438631000765
 20
0.0
 30
0.0
 11
557.21438631000183
 21
-2.1000000000058212
 31
0.0
  0
LINE
  8
DETAIL
  6
CONTINUOUS
 62
     5
 10
559.26730091800255
 20
-403.99999999999091
 30
0.0
 11
557.16730091801128
 21
-401.90000000001419
 31
0.0
  0
LINE
  8
DETAIL
  6
CONTINUOUS
 62
     5
 10
541.19999999999982
 20
-95.000000000003183
 30
0.0
 11
541.19999999999982
 21
-73.200000000000273
 31
0.0
  0
LINE
  8
DETAIL
  6
CONTINUOUS
 62
     5
 10
564.19999999999982
 20
-1.8642654312820921
 30
0.0
 11
564.29558729999098
 21
-1.322162915996159
 31
0.0
  0
LINE
  8
DETAIL
  6
CONTINUOUS
 62
     5
 10
564.84734603799279
 20
-2.8000000000029099
 30
0.0
 11
565.08343350199993
 21
-1.4610814580082661
 31
0.0
  0
LINE
  8
DETAIL
  6
CONTINUOUS
 62
     5
 10
564.29558729999098
 20
-402.67783708399469
 30
0.0
 11
564.19999999999982
 21
-402.1357345687461
 31
0.0
  0
LINE
  8
DETAIL
  6
CONTINUOUS
 62
     5
 10
565.08343350199993
 20
-402.53891854199719
 30
0.0
 11
564.84734603799279
 21
-401.20000000000249
 31
0.0
  0
LINE
  8
DETAIL
  6
CONTINUOUS
 62
     5
 10
559.69999999999982
 20
-73.200000000000273
 30
0.0
 11
559.69999999999982
 21
-80.200000000000273
 31
0.0
  0
LINE
  8
DETAIL
  6
CONTINUOUS
 62
     5
 10
562.80000000001291
 20
-403.99999999999091
 30
0.0
 11
562.80000000001291
 21
-403.20000000000249
 31
0.0
  0
LINE
  8
DETAIL
  6
CONTINUOUS
 62
     5
 10
562.84708539200346
 20
0.0
 30
0.0
 11
562.84708539200346
 21
-0.8000000000029104
 31
0.0
  0
LINE
  8
DETAIL
  6
CONTINUOUS
 62
     5
 10
564.19999999999982
 20
-403.20000000000249
 30
0.0
 11
564.19999999999982
 21
-401.20000000000249
 31
0.0
  0
LINE
  8
DETAIL
  6
CONTINUOUS
 62
     5
 10
564.19999999999982
 20
-2.8000000000029099
 30
0.0
 11
564.19999999999982
 21
-0.8000000000029104
 31
0.0
  0
LINE
  8
DETAIL
  6
CONTINUOUS
 62
     5
 10
565.20000000000709
 20
-402.20000000000249
 30
0.0
 11
565.20000000000709
 21
-401.20000000000249
 31
0.0
  0
LINE
  8
DETAIL
  6
CONTINUOUS
 62
     5
 10
565.20000000000709
 20
-2.8000000000029099
 30
0.0
 11
565.20000000000709
 21
-1.8000000000029099
 31
0.0
  0
LINE
  8
DETAIL
  6
CONTINUOUS
 62
     5
 10
565.70000000001437
 20
-1.8000000000029099
 30
0.0
 11
565.70000000001437
 21
-2.8000000000029099
 31
0.0
  0
LINE
  8
DETAIL
  6
CONTINUOUS
 62
     5
 10
565.70000000001437
 20
-401.20000000000249
 30
0.0
 11
565.70000000001437
 21
-402.20000000000249
 31
0.0
  0
LINE
  8
DETAIL
  6
CONTINUOUS
 62
     5
 10
566.19999999999982
 20
-401.20000000000249
 30
0.0
 11
566.19999999999982
 21
-100.0000000000032
 31
0.0
  0
LINE
  8
DETAIL
  6
CONTINUOUS
 62
     5
 10
566.19999999999982
 20
-77.000000000003183
 30
0.0
 11
566.19999999999982
 21
-2.8000000000029099
 31
0.0
  0
LINE
  8
DETAIL
  6
CONTINUOUS
 62
     5
 10
566.50000000002456
 20
-127.0000000000027
 30
0.0
 11
566.50000000002456
 21
-384.54889544400748
 31
0.0
  0
LINE
  8
DETAIL
  6
CONTINUOUS
 62
     5
 10
570.70000000001437
 20
-0.8000000000029104
 30
0.0
 11
570.70000000001437
 21
-1.3000000000029099
 31
0.0
  0
LINE
  8
DETAIL
  6
CONTINUOUS
 62
     5
 10
570.70000000001437
 20
-402.70000000000249
 30
0.0
 11
570.70000000001437
 21
-403.20000000000249
 31
0.0
  0
LINE
  8
DETAIL
  6
CONTINUOUS
 62
     5
 10
572.70000000000709
 20
-84.000000000003183
 30
0.0
 11
572.70000000000709
 21
-77.000000000003183
 31
0.0
  0
LINE
  8
DETAIL
  6
CONTINUOUS
 62
     5
 10
584.70000000000709
 20
-122.0000000000032
 30
0.0
 11
584.70000000000709
 21
-77.000000000003183
 31
0.0
  0
ARC
  8
DETAIL
  6
CONTINUOUS
 62
     5
 10
-229.5000000000027
 20
-209.55000000000251
 30
0.0
 40
5.1339745959999989
 50
0.0
 51
180.0
  0
CIRCLE
  8
DETAIL
  6
CONTINUOUS
 62
     5
 10
-503.8736290239799
 20
-338.87362902201357
 30
0.0
 40
4.6999999999999957
  0
CIRCLE
  8
DETAIL
  6
CONTINUOUS
 62
     5
 10
-310.12637097799279
 20
-338.87362902201357
 30
0.0
 40
4.6999999999999957
  0
CIRCLE
  8
DETAIL
  6
CONTINUOUS
 62
     5
 10
-214.5000000000027
 20
-220.9000000000087
 30
0.0
 40
4.6999999999999957
  0
ARC
  8
DETAIL
  6
CONTINUOUS
 62
     5
 10
-217.9999999999882
 20
-251.3999999999937
 30
0.0
 40
2.9999999999999978
 50
270.0
 51
0.0
  0
ARC
  8
DETAIL
  6
CONTINUOUS
 62
     5
 10
-217.9999999999882
 20
-217.3999999999937
 30
0.0
 40
2.9999999999999978
 50
90.0
 51
180.0
  0
ARC
  8
DETAIL
  6
CONTINUOUS
 62
     5
 10
-211.0000000000027
 20
-217.3999999999937
 30
0.0
 40
2.9999999999999978
 50
0.0
 51
90.0
  0
ARC
  8
DETAIL
  6
CONTINUOUS
 62
     5
 10
-222.40526315797891
 20
-224.4000000000083
 30
0.0
 40
2.5947368420000001
 50
133.84961891521289
 51
186.65105007010339
  0
ARC
  8
DETAIL
  6
CONTINUOUS
 62
     5
 10
-222.40526315797891
 20
-244.4000000000083
 30
0.0
 40
2.5947368420000001
 50
133.84961891650281
 51
226.15038108349719
  0
ARC
  8
DETAIL
  6
CONTINUOUS
 62
     5
 10
-229.5000000000027
 20
-226.94999999999661
 30
0.0
 40
1.95
 50
115.8832527379919
 51
1.476210342295877
  0
ARC
  8
DETAIL
  6
CONTINUOUS
 62
     5
 10
-229.5000000000027
 20
-209.55000000000251
 30
0.0
 40
1.776965739999999
 50
0.0
 51
180.0
  0
ARC
  8
DETAIL
  6
CONTINUOUS
 62
     5
 10
-565.8712797060025
 20
-402.39999999999958
 30
0.0
 40
1.6000000000000001
 50
270.0
 51
349.99999999999488
  0
ARC
  8
DETAIL
  6
CONTINUOUS
 62
     5
 10
-226.89999999999691
 20
-231.57004829800229
 30
0.0
 40
0.9999999999999993
 50
95.000000008081457
 51
180.0
  0
ARC
  8
DETAIL
  6
CONTINUOUS
 62
     5
 10
-226.89999999999691
 20
-237.2299517020142
 30
0.0
 40
0.9999999999999993
 50
180.0
 51
264.99999999191863
  0
ARC
  8
DETAIL
  6
CONTINUOUS
 62
     5
 10
-566.19999999999254
 20
-402.20000000000249
 30
0.0
 40
0.9999999999999993
 50
270.00000000005213
 51
0.0
  0
ARC
  8
DETAIL
  6
CONTINUOUS
 62
     5
 10
-565.8712797060025
 20
-402.39999999999958
 30
0.0
 40
0.7999999999999998
 50
270.0
 51
349.99999999999488
  0
ARC
  8
DETAIL
  6
CONTINUOUS
 62
     5
 10
-566.19999999999254
 20
-402.20000000000249
 30
0.0
 40
0.5000000000000004
 50
270.0
 51
0.0
  0
ARC
  8
DETAIL
  6
CONTINUOUS
 62
     5
 10
-229.5000000000027
 20
-194.55000000000251
 30
0.0
 40
5.1339745959999989
 50
180.0
 51
0.0
  0
ARC
  8
DETAIL
  6
CONTINUOUS
 62
     5
 10
-545.69999999999254
 20
-95.000000000003183
 30
0.0
 40
4.9999999999999956
 50
270.0
 51
0.0
  0
ARC
  8
DETAIL
  6
CONTINUOUS
 62
     5
 10
-579.19999999999982
 20
-122.0000000000032
 30
0.0
 40
4.9999999999999956
 50
180.0
 51
270.0
  0
CIRCLE
  8
DETAIL
  6
CONTINUOUS
 62
     5
 10
-310.12637097799279
 20
-145.1263709780055
 30
0.0
 40
4.6999999999999957
  0
CIRCLE
  8
DETAIL
  6
CONTINUOUS
 62
     5
 10
-503.8736290239799
 20
-145.1263709780055
 30
0.0
 40
4.6999999999999957
  0
ARC
  8
DETAIL
  6
CONTINUOUS
 62
     5
 10
-569.099999999994
 20
-103.0000000000027
 30
0.0
 40
2.9999999999999978
 50
90.0
 51
270.0
  0
ARC
  8
DETAIL
  6
CONTINUOUS
 62
     5
 10
-552.69999999999254
 20
-92.000000000003183
 30
0.0
 40
2.9999999999999978
 50
270.0
 51
90.0
  0
ARC
  8
DETAIL
  6
CONTINUOUS
 62
     5
 10
-543.69999999999982
 20
-73.200000000000273
 30
0.0
 40
2.9999999999999978
 50
0.0
 51
90.0
  0
ARC
  8
DETAIL
  6
CONTINUOUS
 62
     5
 10
-556.19999999999254
 20
-73.200000000000273
 30
0.0
 40
2.9999999999999978
 50
90.0
 51
180.0
  0
ARC
  8
DETAIL
  6
CONTINUOUS
 62
     5
 10
-554.69999999997799
 20
-92.000000000003183
 30
0.0
 40
2.9999999999999978
 50
90.0
 51
270.0
  0
ARC
  8
DETAIL
  6
CONTINUOUS
 62
     5
 10
-575.19999999999982
 20
-84.000000000003183
 30
0.0
 40
2.9999999999999978
 50
270.0
 51
0.0
  0
ARC
  8
DETAIL
  6
CONTINUOUS
 62
     5
 10
-581.19999999999982
 20
-84.000000000003183
 30
0.0
 40
2.9999999999999978
 50
180.0
 51
270.0
  0
CIRCLE
  8
DETAIL
  6
CONTINUOUS
 62
     5
 10
-553.69999999999254
 20
-92.000000000003183
 30
0.0
 40
2.4999999999999991
  0
ARC
  8
DETAIL
  6
CONTINUOUS
 62
     5
 10
-229.5000000000027
 20
-177.1500000000087
 30
0.0
 40
1.95
 50
355.58605125340318
 51
244.51141259291489
  0
ARC
  8
DETAIL
  6
CONTINUOUS
 62
     5
 10
-229.5000000000027
 20
-194.55000000000251
 30
0.0
 40
1.776965739999999
 50
180.0
 51
0.0
  0
ARC
  8
DETAIL
  6
CONTINUOUS
 62
     5
 10
-565.8712797060025
 20
-1.5999999999912691
 30
0.0
 40
1.6000000000000001
 50
10.00000000000502
 51
90.0
  0
ARC
  8
DETAIL
  6
CONTINUOUS
 62
     5
 10
-570.94999999998527
 20
-1.0500000000029099
 30
0.0
 40
1.05
 50
90.0
 51
270.00000112386078
  0
ARC
  8
DETAIL
  6
CONTINUOUS
 62
     5
 10
-566.19999999999254
 20
-1.8000000000029099
 30
0.0
 40
0.9999999999999993
 50
0.0
 51
89.999999999817618
  0
ARC
  8
DETAIL
  6
CONTINUOUS
 62
     5
 10
-565.8712797060025
 20
-1.5999999999912691
 30
0.0
 40
0.7999999999999998
 50
10.00000000000502
 51
90.0
  0
ARC
  8
DETAIL
  6
CONTINUOUS
 62
     5
 10
-566.19999999999254
 20
-1.8000000000029099
 30
0.0
 40
0.5000000000000004
 50
0.0
 51
90.0
  0
ARC
  8
DETAIL
  6
CONTINUOUS
 62
     5
 10
-570.94999999998527
 20
-1.0500000000029099
 30
0.0
 40
0.2500000000000002
 50
90.0
 51
270.00000112386078
  0
CIRCLE
  8
DETAIL
  6
CONTINUOUS
 62
     5
 10
234.30000000001289
 20
-308.99999999999949
 30
0.0
 40
4.6999999999999957
  0
CIRCLE
  8
DETAIL
  6
CONTINUOUS
 62
     5
 10
234.30000000001289
 20
-283.99999999999949
 30
0.0
 40
4.6999999999999957
  0
ARC
  8
DETAIL
  6
CONTINUOUS
 62
     5
 10
565.87127970400161
 20
-402.39999999999958
 30
0.0
 40
1.6000000000000001
 50
190.000000000005
 51
270.0
  0
ARC
  8
DETAIL
  6
CONTINUOUS
 62
     5
 10
570.94999999999982
 20
-402.95000000000249
 30
0.0
 40
1.05
 50
270.0
 51
89.999963675954262
  0
ARC
  8
DETAIL
  6
CONTINUOUS
 62
     5
 10
566.19999999999982
 20
-402.20000000000249
 30
0.0
 40
0.9999999999999993
 50
180.0
 51
269.99999999981759
  0
ARC
  8
DETAIL
  6
CONTINUOUS
 62
     5
 10
565.87127970400161
 20
-402.39999999999958
 30
0.0
 40
0.7999999999999998
 50
190.000000000005
 51
270.0
  0
ARC
  8
DETAIL
  6
CONTINUOUS
 62
     5
 10
566.19999999999982
 20
-402.20000000000249
 30
0.0
 40
0.5000000000000004
 50
180.0
 51
270.0
  0
ARC
  8
DETAIL
  6
CONTINUOUS
 62
     5
 10
570.94999999999982
 20
-402.95000000000249
 30
0.0
 40
0.2500000000000002
 50
270.0
 51
89.999963675954262
  0
CIRCLE
  8
DETAIL
  6
CONTINUOUS
 62
     5
 10
234.30000000001289
 20
-118.9999999999995
 30
0.0
 40
4.6999999999999957
  0
CIRCLE
  8
DETAIL
  6
CONTINUOUS
 62
     5
 10
234.30000000001289
 20
-94.0
 30
0.0
 40
4.6999999999999957
  0
ARC
  8
DETAIL
  6
CONTINUOUS
 62
     5
 10
579.69999999999982
 20
-122.0000000000032
 30
0.0
 40
4.9999999999999956
 50
270.0
 51
0.0
  0
ARC
  8
DETAIL
  6
CONTINUOUS
 62
     5
 10
569.60000000000855
 20
-103.0000000000027
 30
0.0
 40
2.9999999999999978
 50
270.0
 51
90.0
  0
ARC
  8
DETAIL
  6
CONTINUOUS
 62
     5
 10
546.19999999999982
 20
-95.000000000003183
 30
0.0
 40
4.9999999999999956
 50
180.0
 51
270.0
  0
ARC
  8
DETAIL
  6
CONTINUOUS
 62
     5
 10
553.20000000002165
 20
-92.000000000003183
 30
0.0
 40
2.9999999999999978
 50
90.0
 51
270.0
  0
ARC
  8
DETAIL
  6
CONTINUOUS
 62
     5
 10
544.20000000000709
 20
-73.200000000000273
 30
0.0
 40
2.9999999999999978
 50
90.0
 51
180.0
  0
ARC
  8
DETAIL
  6
CONTINUOUS
 62
     5
 10
556.70000000000709
 20
-73.200000000000273
 30
0.0
 40
2.9999999999999978
 50
0.0
 51
90.0
  0
ARC
  8
DETAIL
  6
CONTINUOUS
 62
     5
 10
555.20000000000709
 20
-92.000000000003183
 30
0.0
 40
2.9999999999999978
 50
270.0
 51
90.0
  0
ARC
  8
DETAIL
  6
CONTINUOUS
 62
     5
 10
575.70000000001437
 20
-84.000000000003183
 30
0.0
 40
2.9999999999999978
 50
180.0
 51
270.0
  0
ARC
  8
DETAIL
  6
CONTINUOUS
 62
     5
 10
581.69999999999982
 20
-84.000000000003183
 30
0.0
 40
2.9999999999999978
 50
270.0
 51
0.0
  0
CIRCLE
  8
DETAIL
  6
CONTINUOUS
 62
     5
 10
553.69999999999982
 20
-92.000000000003183
 30
0.0
 40
2.4999999999999991
  0
ARC
  8
DETAIL
  6
CONTINUOUS
 62
     5
 10
565.87127970400161
 20
-1.5999999999912691
 30
0.0
 40
1.6000000000000001
 50
90.0
 51
169.999999999995
  0
ARC
  8
DETAIL
  6
CONTINUOUS
 62
     5
 10
566.19999999999982
 20
-1.8000000000029099
 30
0.0
 40
0.9999999999999993
 50
90.000000000052125
 51
180.0
  0
ARC
  8
DETAIL
  6
CONTINUOUS
 62
     5
 10
565.87127970400161
 20
-1.5999999999912691
 30
0.0
 40
0.7999999999999998
 50
90.0
 51
169.999999999995
  0
ARC
  8
DETAIL
  6
CONTINUOUS
 62
     5
 10
566.19999999999982
 20
-1.8000000000029099
 30
0.0
 40
0.5000000000000004
 50
90.0
 51
180.0
  0
LINE
  8
DETAIL
  6
CONTINUOUS
 62
     5
 10
221.2201435300112
 20
-266.49999999999949
 30
0.0
 11
220.8226319669395
 21
-266.55683629796033
 31
0.0
  0
LINE
  8
DETAIL
  6
CONTINUOUS
 62
     5
 10
220.8226319669395
 20
-266.55683629796033
 30
0.0
 11
220.44864502343327
 21
-266.71337297437134
 31
0.0
  0
LINE
  8
DETAIL
  6
CONTINUOUS
 62
     5
 10
220.44864502343327
 20
-266.71337297437134
 30
0.0
 11
220.12213598663178
 21
-266.94876480602761
 31
0.0
  0
LINE
  8
DETAIL
  6
CONTINUOUS
 62
     5
 10
220.12213598663178
 20
-266.94876480602761
 30
0.0
 11
219.84712387046312
 21
-267.24273198943337
 31
0.0
  0
LINE
  8
DETAIL
  6
CONTINUOUS
 62
     5
 10
219.84712387046312
 20
-267.24273198943337
 30
0.0
 11
219.62138026608025
 21
-267.57559720945267
 31
0.0
  0
LINE
  8
DETAIL
  6
CONTINUOUS
 62
     5
 10
219.62138026608025
 20
-267.57559720945267
 30
0.0
 11
219.4421750371443
 21
-267.934580920131
 31
0.0
  0
LINE
  8
DETAIL
  6
CONTINUOUS
 62
     5
 10
219.4421750371443
 20
-267.934580920131
 30
0.0
 11
219.30637311994741
 21
-268.31249324749291
 31
0.0
  0
LINE
  8
DETAIL
  6
CONTINUOUS
 62
     5
 10
219.30637311994741
 20
-268.31249324749291
 30
0.0
 11
219.21107302992988
 21
-268.70261705074307
 31
0.0
  0
LINE
  8
DETAIL
  6
CONTINUOUS
 62
     5
 10
219.21107302992988
 20
-268.70261705074307
 30
0.0
 11
219.15470913076987
 21
-269.09993368156921
 31
0.0
  0
LINE
  8
DETAIL
  6
CONTINUOUS
 62
     5
 10
219.15470913076987
 20
-269.09993368156921
 30
0.0
 11
219.13616841801101
 21
-269.5000000000141
 31
0.0
  0
LINE
  8
DETAIL
  6
CONTINUOUS
 62
     5
 10
219.13616841801101
 20
-313.49999999999949
 30
0.0
 11
219.15470913076979
 21
-313.90006631730586
 31
0.0
  0
LINE
  8
DETAIL
  6
CONTINUOUS
 62
     5
 10
219.15470913076979
 20
-313.90006631730586
 30
0.0
 11
219.21107302992985
 21
-314.29738294828576
 31
0.0
  0
LINE
  8
DETAIL
  6
CONTINUOUS
 62
     5
 10
219.21107302992985
 20
-314.29738294828576
 30
0.0
 11
219.30637311994738
 21
-314.68750675209947
 31
0.0
  0
LINE
  8
DETAIL
  6
CONTINUOUS
 62
     5
 10
219.30637311994738
 20
-314.68750675209947
 30
0.0
 11
219.44217503714432
 21
-315.0654190797809
 31
0.0
  0
LINE
  8
DETAIL
  6
CONTINUOUS
 62
     5
 10
219.44217503714432
 20
-315.0654190797809
 30
0.0
 11
219.62138026608025
 21
-315.42440279055268
 31
0.0
  0
LINE
  8
DETAIL
  6
CONTINUOUS
 62
     5
 10
219.62138026608025
 20
-315.42440279055268
 30
0.0
 11
219.84712387046309
 21
-315.75726801057925
 31
0.0
  0
LINE
  8
DETAIL
  6
CONTINUOUS
 62
     5
 10
219.84712387046309
 20
-315.75726801057925
 30
0.0
 11
220.12213598663183
 21
-316.05123519398501
 31
0.0
  0
LINE
  8
DETAIL
  6
CONTINUOUS
 62
     5
 10
220.12213598663183
 20
-316.05123519398501
 30
0.0
 11
220.4486450234333
 21
-316.28662702563787
 31
0.0
  0
LINE
  8
DETAIL
  6
CONTINUOUS
 62
     5
 10
220.4486450234333
 20
-316.28662702563787
 30
0.0
 11
220.82263196693944
 21
-316.44316370204234
 31
0.0
  0
LINE
  8
DETAIL
  6
CONTINUOUS
 62
     5
 10
220.82263196693944
 20
-316.44316370204234
 30
0.0
 11
221.2201435300112
 21
-316.49999999999949
 31
0.0
  0
LINE
  8
DETAIL
  6
CONTINUOUS
 62
     5
 10
221.2201435300112
 20
-76.5
 30
0.0
 11
220.8226319669395
 21
-76.556836297960686
 31
0.0
  0
LINE
  8
DETAIL
  6
CONTINUOUS
 62
     5
 10
220.8226319669395
 20
-76.556836297960686
 30
0.0
 11
220.44864502343327
 21
-76.713372974371524
 31
0.0
  0
LINE
  8
DETAIL
  6
CONTINUOUS
 62
     5
 10
220.44864502343327
 20
-76.713372974371524
 30
0.0
 11
220.12213598663178
 21
-76.94876480602781
 31
0.0
  0
LINE
  8
DETAIL
  6
CONTINUOUS
 62
     5
 10
220.12213598663178
 20
-76.94876480602781
 30
0.0
 11
219.84712387046312
 21
-77.242731989433636
 31
0.0
  0
LINE
  8
DETAIL
  6
CONTINUOUS
 62
     5
 10
219.84712387046312
 20
-77.242731989433636
 30
0.0
 11
219.62138026608025
 21
-77.575597209452951
 31
0.0
  0
LINE
  8
DETAIL
  6
CONTINUOUS
 62
     5
 10
219.62138026608025
 20
-77.575597209452951
 30
0.0
 11
219.4421750371443
 21
-77.934580920131225
 31
0.0
  0
LINE
  8
DETAIL
  6
CONTINUOUS
 62
     5
 10
219.4421750371443
 20
-77.934580920131225
 30
0.0
 11
219.30637311994741
 21
-78.312493247493165
 31
0.0
  0
LINE
  8
DETAIL
  6
CONTINUOUS
 62
     5
 10
219.30637311994741
 20
-78.312493247493165
 30
0.0
 11
219.21107302992988
 21
-78.702617050743299
 31
0.0
  0
LINE
  8
DETAIL
  6
CONTINUOUS
 62
     5
 10
219.21107302992988
 20
-78.702617050743299
 30
0.0
 11
219.15470913076987
 21
-79.099933681569595
 31
0.0
  0
LINE
  8
DETAIL
  6
CONTINUOUS
 62
     5
 10
219.15470913076987
 20
-79.099933681569595
 30
0.0
 11
219.13616841801101
 21
-79.500000000014552
 31
0.0
  0
LINE
  8
DETAIL
  6
CONTINUOUS
 62
     5
 10
219.13616841801101
 20
-123.4999999999995
 30
0.0
 11
219.15470913076979
 21
-123.900066317306
 31
0.0
  0
LINE
  8
DETAIL
  6
CONTINUOUS
 62
     5
 10
219.15470913076979
 20
-123.900066317306
 30
0.0
 11
219.21107302992985
 21
-124.297382948286
 31
0.0
  0
LINE
  8
DETAIL
  6
CONTINUOUS
 62
     5
 10
219.21107302992985
 20
-124.297382948286
 30
0.0
 11
219.30637311994738
 21
-124.68750675209986
 31
0.0
  0
LINE
  8
DETAIL
  6
CONTINUOUS
 62
     5
 10
219.30637311994738
 20
-124.68750675209986
 30
0.0
 11
219.44217503714432
 21
-125.06541907978136
 31
0.0
  0
LINE
  8
DETAIL
  6
CONTINUOUS
 62
     5
 10
219.44217503714432
 20
-125.06541907978136
 30
0.0
 11
219.62138026608025
 21
-125.4244027905531
 31
0.0
  0
LINE
  8
DETAIL
  6
CONTINUOUS
 62
     5
 10
219.62138026608025
 20
-125.4244027905531
 30
0.0
 11
219.84712387046309
 21
-125.75726801057965
 31
0.0
  0
LINE
  8
DETAIL
  6
CONTINUOUS
 62
     5
 10
219.84712387046309
 20
-125.75726801057965
 30
0.0
 11
220.12213598663183
 21
-126.05123519398545
 31
0.0
  0
LINE
  8
DETAIL
  6
CONTINUOUS
 62
     5
 10
220.12213598663183
 20
-126.05123519398545
 30
0.0
 11
220.4486450234333
 21
-126.28662702563825
 31
0.0
  0
LINE
  8
DETAIL
  6
CONTINUOUS
 62
     5
 10
220.4486450234333
 20
-126.28662702563825
 30
0.0
 11
220.82263196693944
 21
-126.44316370204284
 31
0.0
  0
LINE
  8
DETAIL
  6
CONTINUOUS
 62
     5
 10
220.82263196693944
 20
-126.44316370204284
 30
0.0
 11
221.2201435300112
 21
-126.5
 31
0.0
  0
LINE
  8
DETAIL
  6
CONTINUOUS
 62
     5
 10
-186.71238236999031
 20
-221.9000000000083
 30
0.0
 11
-186.76533132356315
 21
-222.65205315271618
 31
0.0
  0
LINE
  8
DETAIL
  6
CONTINUOUS
 62
     5
 10
-186.76533132356315
 20
-222.65205315271618
 30
0.0
 11
-186.92341260499197
 21
-223.39200987101555
 31
0.0
  0
LINE
  8
DETAIL
  6
CONTINUOUS
 62
     5
 10
-186.92341260499197
 20
-223.39200987101555
 30
0.0
 11
-187.18541541956296
 21
-224.10216521645822
 31
0.0
  0
LINE
  8
DETAIL
  6
CONTINUOUS
 62
     5
 10
-187.18541541956296
 20
-224.10216521645822
 30
0.0
 11
-187.54811416406983
 21
-224.76567635926622
 31
0.0
  0
LINE
  8
DETAIL
  6
CONTINUOUS
 62
     5
 10
-187.54811416406983
 20
-224.76567635926622
 30
0.0
 11
-188.00588259445215
 21
-225.36672767066037
 31
0.0
  0
LINE
  8
DETAIL
  6
CONTINUOUS
 62
     5
 10
-188.00588259445215
 20
-225.36672767066037
 30
0.0
 11
-188.55207888738843
 21
-225.88953021022007
 31
0.0
  0
LINE
  8
DETAIL
  6
CONTINUOUS
 62
     5
 10
-188.55207888738843
 20
-225.88953021022007
 30
0.0
 11
-189.17541165336419
 21
-226.3181177531564
 31
0.0
  0
LINE
  8
DETAIL
  6
CONTINUOUS
 62
     5
 10
-189.17541165336419
 20
-226.3181177531564
 30
0.0
 11
-189.86286463667153
 21
-226.6365882347817
 31
0.0
  0
LINE
  8
DETAIL
  6
CONTINUOUS
 62
     5
 10
-189.86286463667153
 20
-226.6365882347817
 30
0.0
 11
-190.59542857609748
 21
-226.83297752727802
 31
0.0
  0
LINE
  8
DETAIL
  6
CONTINUOUS
 62
     5
 10
-190.59542857609748
 20
-226.83297752727802
 30
0.0
 11
-191.3469754059943
 21
-226.9000000000087
 31
0.0
  0
LINE
  8
DETAIL
  6
CONTINUOUS
 62
     5
 10
-188.9123823699947
 20
-221.9000000000083
 30
0.0
 11
-188.95226140208399
 21
-222.40433526498595
 31
0.0
  0
LINE
  8
DETAIL
  6
CONTINUOUS
 62
     5
 10
-188.95226140208399
 20
-222.40433526498595
 30
0.0
 11
-189.07280995924449
 21
-222.90216604647105
 31
0.0
  0
LINE
  8
DETAIL
  6
CONTINUOUS
 62
     5
 10
-189.07280995924449
 20
-222.90216604647105
 30
0.0
 11
-189.2753952665156
 21
-223.374609421732
 31
0.0
  0
LINE
  8
DETAIL
  6
CONTINUOUS
 62
     5
 10
-189.2753952665156
 20
-223.374609421732
 30
0.0
 11
-189.56138454893676
 21
-223.80278246803724
 31
0.0
  0
LINE
  8
DETAIL
  6
CONTINUOUS
 62
     5
 10
-189.56138454893676
 20
-223.80278246803724
 30
0.0
 11
-189.93051338361585
 21
-224.16783854993045
 31
0.0
  0
LINE
  8
DETAIL
  6
CONTINUOUS
 62
     5
 10
-189.93051338361585
 20
-224.16783854993045
 30
0.0
 11
-190.36717782812264
 21
-224.45127217746898
 31
0.0
  0
LINE
  8
DETAIL
  6
CONTINUOUS
 62
     5
 10
-190.36717782812264
 20
-224.45127217746898
 30
0.0
 11
-190.84736584371467
 21
-224.63476485381145
 31
0.0
  0
LINE
  8
DETAIL
  6
CONTINUOUS
 62
     5
 10
-190.84736584371467
 20
-224.63476485381145
 30
0.0
 11
-191.34697915400011
 21
-224.70000000001161
 31
0.0
  0
LINE
  8
DETAIL
  6
CONTINUOUS
 62
     5
 10
-191.3469754059943
 20
-177.30000000000251
 30
0.0
 11
-190.59542875739427
 21
-177.36702245346441
 31
0.0
  0
LINE
  8
DETAIL
  6
CONTINUOUS
 62
     5
 10
-190.59542875739427
 20
-177.36702245346441
 30
0.0
 11
-189.86286501100673
 21
-177.56341168756424
 31
0.0
  0
LINE
  8
DETAIL
  6
CONTINUOUS
 62
     5
 10
-189.86286501100673
 20
-177.56341168756424
 30
0.0
 11
-189.17541215248704
 21
-177.88188206070797
 31
0.0
  0
LINE
  8
DETAIL
  6
CONTINUOUS
 62
     5
 10
-189.17541215248704
 20
-177.88188206070797
 30
0.0
 11
-188.55207938524558
 21
-178.31046942723842
 31
0.0
  0
LINE
  8
DETAIL
  6
CONTINUOUS
 62
     5
 10
-188.55207938524558
 20
-178.31046942723842
 30
0.0
 11
-188.00588305896994
 21
-178.83327178623554
 31
0.0
  0
LINE
  8
DETAIL
  6
CONTINUOUS
 62
     5
 10
-188.00588305896994
 20
-178.83327178623554
 30
0.0
 11
-187.54811464093433
 21
-179.43432295503234
 31
0.0
  0
LINE
  8
DETAIL
  6
CONTINUOUS
 62
     5
 10
-187.54811464093433
 20
-179.43432295503234
 30
0.0
 11
-187.18541589375198
 21
-180.09783394700997
 31
0.0
  0
LINE
  8
DETAIL
  6
CONTINUOUS
 62
     5
 10
-187.18541589375198
 20
-180.09783394700997
 30
0.0
 11
-186.92341297878932
 21
-180.80798907913405
 31
0.0
  0
LINE
  8
DETAIL
  6
CONTINUOUS
 62
     5
 10
-186.92341297878932
 20
-180.80798907913405
 30
0.0
 11
-186.7653315235948
 21
-181.54794555326836
 31
0.0
  0
LINE
  8
DETAIL
  6
CONTINUOUS
 62
     5
 10
-186.7653315235948
 20
-181.54794555326836
 30
0.0
 11
-186.71238236999031
 21
-182.2999985060014
 31
0.0
  0
LINE
  8
DETAIL
  6
CONTINUOUS
 62
     5
 10
-191.34697915400011
 20
-179.5000000000141
 30
0.0
 11
-190.8473659240392
 21
-179.56523510505778
 31
0.0
  0
LINE
  8
DETAIL
  6
CONTINUOUS
 62
     5
 10
-190.8473659240392
 20
-179.56523510505778
 30
0.0
 11
-190.36717796569224
 21
-179.74872767910065
 31
0.0
  0
LINE
  8
DETAIL
  6
CONTINUOUS
 62
     5
 10
-190.36717796569224
 20
-179.74872767910065
 30
0.0
 11
-189.93051355541377
 21
-180.03216117010172
 31
0.0
  0
LINE
  8
DETAIL
  6
CONTINUOUS
 62
     5
 10
-189.93051355541377
 20
-180.03216117010172
 30
0.0
 11
-189.56138473258324
 21
-180.39721710804625
 31
0.0
  0
LINE
  8
DETAIL
  6
CONTINUOUS
 62
     5
 10
-189.56138473258324
 20
-180.39721710804625
 30
0.0
 11
-189.27539544734751
 21
-180.82539002105037
 31
0.0
  0
LINE
  8
DETAIL
  6
CONTINUOUS
 62
     5
 10
-189.27539544734751
 20
-180.82539002105037
 30
0.0
 11
-189.07281011619682
 21
-181.29783327511987
 31
0.0
  0
LINE
  8
DETAIL
  6
CONTINUOUS
 62
     5
 10
-189.07281011619682
 20
-181.29783327511987
 30
0.0
 11
-188.95226150259225
 21
-181.79566394713976
 31
0.0
  0
LINE
  8
DETAIL
  6
CONTINUOUS
 62
     5
 10
-188.95226150259225
 20
-181.79566394713976
 30
0.0
 11
-188.9123823699947
 21
-182.299999113995
 31
0.0
  0
LINE
  8
DETAIL
  6
CONTINUOUS
 62
     5
 10
-228.29973986799001
 20
-182.14978400000791
 30
0.0
 11
-228.29724494170551
 21
-181.81812980148763
 31
0.0
  0
LINE
  8
DETAIL
  6
CONTINUOUS
 62
     5
 10
-228.29724494170551
 20
-181.81812980148763
 30
0.0
 11
-228.29225623984172
 21
-181.4864804908141
 31
0.0
  0
LINE
  8
DETAIL
  6
CONTINUOUS
 62
     5
 10
-228.29225623984172
 20
-181.4864804908141
 30
0.0
 11
-228.28500105547027
 21
-181.1547858697441
 31
0.0
  0
LINE
  8
DETAIL
  6
CONTINUOUS
 62
     5
 10
-228.28500105547027
 20
-181.1547858697441
 30
0.0
 11
-228.27503245086589
 21
-180.82310695934424
 31
0.0
  0
LINE
  8
DETAIL
  6
CONTINUOUS
 62
     5
 10
-228.27503245086589
 20
-180.82310695934424
 30
0.0
 11
-228.26154110991564
 21
-180.49156455765143
 31
0.0
  0
LINE
  8
DETAIL
  6
CONTINUOUS
 62
     5
 10
-228.26154110991564
 20
-180.49156455765143
 30
0.0
 11
-228.24371423632022
 21
-180.1602800367846
 31
0.0
  0
LINE
  8
DETAIL
  6
CONTINUOUS
 62
     5
 10
-228.24371423632022
 20
-180.1602800367846
 30
0.0
 11
-228.22073903378055
 21
-179.82937476886283
 31
0.0
  0
LINE
  8
DETAIL
  6
CONTINUOUS
 62
     5
 10
-228.22073903378055
 20
-179.82937476886283
 30
0.0
 11
-228.19180270599739
 21
-179.4989701260051
 31
0.0
  0
LINE
  8
DETAIL
  6
CONTINUOUS
 62
     5
 10
-230.49975373600591
 20
-182.15015747000831
 30
0.0
 11
-230.49589742236515
 21
-181.69172461456083
 31
0.0
  0
LINE
  8
DETAIL
  6
CONTINUOUS
 62
     5
 10
-230.49589742236515
 20
-181.69172461456083
 30
0.0
 11
-230.48719743174456
 21
-181.23335256536237
 31
0.0
  0
LINE
  8
DETAIL
  6
CONTINUOUS
 62
     5
 10
-230.48719743174456
 20
-181.23335256536237
 30
0.0
 11
-230.47343930623146
 21
-180.77505703398043
 31
0.0
  0
LINE
  8
DETAIL
  6
CONTINUOUS
 62
     5
 10
-230.47343930623146
 20
-180.77505703398043
 30
0.0
 11
-230.45439462984751
 21
-180.31685589630965
 31
0.0
  0
LINE
  8
DETAIL
  6
CONTINUOUS
 62
     5
 10
-230.45439462984751
 20
-180.31685589630965
 30
0.0
 11
-230.42868812158761
 21
-179.85894486028965
 31
0.0
  0
LINE
  8
DETAIL
  6
CONTINUOUS
 62
     5
 10
-230.42868812158761
 20
-179.85894486028965
 30
0.0
 11
-230.39296160620336
 21
-179.40182709997842
 31
0.0
  0
LINE
  8
DETAIL
  6
CONTINUOUS
 62
     5
 10
-230.39296160620336
 20
-179.40182709997842
 30
0.0
 11
-230.34359714667232
 21
-178.94604863550353
 31
0.0
  0
LINE
  8
DETAIL
  6
CONTINUOUS
 62
     5
 10
-230.34359714667232
 20
-178.94604863550353
 30
0.0
 11
-230.27160604509027
 21
-178.49321663831708
 31
0.0
  0
LINE
  8
DETAIL
  6
CONTINUOUS
 62
     5
 10
-230.27160604509027
 20
-178.49321663831708
 30
0.0
 11
-230.14197107593193
 21
-178.05323837734136
 31
0.0
  0
LINE
  8
DETAIL
  6
CONTINUOUS
 62
     5
 10
-230.14197107593193
 20
-178.05323837734136
 30
0.0
 11
-229.89432962597203
 21
-177.66485217581021
 31
0.0
  0
LINE
  8
DETAIL
  6
CONTINUOUS
 62
     5
 10
-229.89432962597203
 20
-177.66485217581021
 30
0.0
 11
-229.51354032316982
 21
-177.3973966356495
 31
0.0
  0
LINE
  8
DETAIL
  6
CONTINUOUS
 62
     5
 10
-229.51354032316982
 20
-177.3973966356495
 30
0.0
 11
-229.0601126259817
 21
-177.30000000000251
 31
0.0
  0
LINE
  8
DETAIL
  6
CONTINUOUS
 62
     5
 10
-228.19188871200001
 20
-224.70012354600431
 30
0.0
 11
-228.22114194685946
 21
-224.35727492951781
 31
0.0
  0
LINE
  8
DETAIL
  6
CONTINUOUS
 62
     5
 10
-228.22114194685946
 20
-224.35727492951781
 30
0.0
 11
-228.24400619421021
 21
-224.01391049668163
 31
0.0
  0
LINE
  8
DETAIL
  6
CONTINUOUS
 62
     5
 10
-228.24400619421021
 20
-224.01391049668163
 30
0.0
 11
-228.26231229324713
 21
-223.67026607418248
 31
0.0
  0
LINE
  8
DETAIL
  6
CONTINUOUS
 62
     5
 10
-228.26231229324713
 20
-223.67026607418248
 30
0.0
 11
-228.27653508199515
 21
-223.32641166884144
 31
0.0
  0
LINE
  8
DETAIL
  6
CONTINUOUS
 62
     5
 10
-228.27653508199515
 20
-223.32641166884144
 30
0.0
 11
-228.28704345764839
 21
-222.98240433240659
 31
0.0
  0
LINE
  8
DETAIL
  6
CONTINUOUS
 62
     5
 10
-228.28704345764839
 20
-222.98240433240659
 30
0.0
 11
-228.29420631740086
 21
-222.638301116626
 31
0.0
  0
LINE
  8
DETAIL
  6
CONTINUOUS
 62
     5
 10
-228.29420631740086
 20
-222.638301116626
 30
0.0
 11
-228.29839255844655
 21
-222.29415907324761
 31
0.0
  0
LINE
  8
DETAIL
  6
CONTINUOUS
 62
     5
 10
-228.29839255844655
 20
-222.29415907324761
 30
0.0
 11
-228.29997107797951
 21
-221.95003525401941
 31
0.0
  0
LINE
  8
DETAIL
  6
CONTINUOUS
 62
     5
 10
-229.0601126259817
 20
-226.9000000000087
 30
0.0
 11
-229.52139703341001
 21
-226.7988282688155
 31
0.0
  0
LINE
  8
DETAIL
  6
CONTINUOUS
 62
     5
 10
-229.52139703341001
 20
-226.7988282688155
 30
0.0
 11
-229.90600457509689
 21
-226.52223923428841
 31
0.0
  0
LINE
  8
DETAIL
  6
CONTINUOUS
 62
     5
 10
-229.90600457509689
 20
-226.52223923428841
 30
0.0
 11
-230.15183989771288
 21
-226.12304213451017
 31
0.0
  0
LINE
  8
DETAIL
  6
CONTINUOUS
 62
     5
 10
-230.15183989771288
 20
-226.12304213451017
 30
0.0
 11
-230.2782110265068
 21
-225.67358464293346
 31
0.0
  0
LINE
  8
DETAIL
  6
CONTINUOUS
 62
     5
 10
-230.2782110265068
 20
-225.67358464293346
 30
0.0
 11
-230.34879538351214
 21
-225.21219621580002
 31
0.0
  0
LINE
  8
DETAIL
  6
CONTINUOUS
 62
     5
 10
-230.34879538351214
 20
-225.21219621580002
 30
0.0
 11
-230.39743363670593
 21
-224.74804484810772
 31
0.0
  0
LINE
  8
DETAIL
  6
CONTINUOUS
 62
     5
 10
-230.39743363670593
 20
-224.74804484810772
 30
0.0
 11
-230.43252832098739
 21
-224.282604583617
 31
0.0
  0
LINE
  8
DETAIL
  6
CONTINUOUS
 62
     5
 10
-230.43252832098739
 20
-224.282604583617
 30
0.0
 11
-230.4576321419604
 21
-223.81640092946577
 31
0.0
  0
LINE
  8
DETAIL
  6
CONTINUOUS
 62
     5
 10
-230.4576321419604
 20
-223.81640092946577
 30
0.0
 11
-230.47605324721582
 21
-223.34992059383873
 31
0.0
  0
LINE
  8
DETAIL
  6
CONTINUOUS
 62
     5
 10
-230.47605324721582
 20
-223.34992059383873
 30
0.0
 11
-230.48912189251277
 21
-222.88335296054518
 31
0.0
  0
LINE
  8
DETAIL
  6
CONTINUOUS
 62
     5
 10
-230.48912189251277
 20
-222.88335296054518
 30
0.0
 11
-230.49703412035205
 21
-222.41671691405622
 31
0.0
  0
LINE
  8
DETAIL
  6
CONTINUOUS
 62
     5
 10
-230.49703412035205
 20
-222.41671691405622
 30
0.0
 11
-230.49997252998861
 21
-221.95002931800221
 31
0.0
  0
LINE
  8
DETAIL
  6
CONTINUOUS
 62
     5
 10
289.09999998952122
 20
-357.90000001050379
 30
0.0
 11
300.49999998950813
 21
-357.90000001050379
 31
0.0
  0
LINE
  8
DETAIL
  6
CONTINUOUS
 62
     5
 10
289.09999998952122
 20
-357.3000000105053
 30
0.0
 11
458.29999998951831
 21
-357.3000000105053
 31
0.0
  0
LINE
  8
DETAIL
  6
CONTINUOUS
 62
     5
 10
286.49999998951529
 20
-356.70000001050681
 30
0.0
 11
297.49999998951529
 21
-356.70000001050681
 31
0.0
  0
LINE
  8
DETAIL
  6
CONTINUOUS
 62
     5
 10
460.69999998950522
 20
-355.95000001050681
 30
0.0
 11
458.29999998951831
 21
-355.95000001050681
 31
0.0
  0
LINE
  8
DETAIL
  6
CONTINUOUS
 62
     5
 10
462.29999998951098
 20
-354.35000001050821
 30
0.0
 11
477.29999998951098
 21
-354.35000001050821
 31
0.0
  0
LINE
  8
DETAIL
  6
CONTINUOUS
 62
     5
 10
457.29999998951098
 20
-305.10000001050821
 30
0.0
 11
457.09999998950661
 21
-305.10000001050821
 31
0.0
  0
LINE
  8
DETAIL
  6
CONTINUOUS
 62
     5
 10
457.29999998951098
 20
-290.10000001050872
 30
0.0
 11
457.09999998950661
 21
-290.10000001050872
 31
0.0
  0
LINE
  8
DETAIL
  6
CONTINUOUS
 62
     5
 10
477.29999998951098
 20
-272.10000001050821
 30
0.0
 11
469.49999998950813
 21
-272.10000001050821
 31
0.0
  0
LINE
  8
DETAIL
  6
CONTINUOUS
 62
     5
 10
275.49999998951529
 20
-199.10000001050821
 30
0.0
 11
280.49999998950813
 21
-199.10000001050821
 31
0.0
  0
LINE
  8
DETAIL
  6
CONTINUOUS
 62
     5
 10
275.49999998951529
 20
-171.10000001050821
 30
0.0
 11
280.49999998950813
 21
-171.10000001050821
 31
0.0
  0
LINE
  8
DETAIL
  6
CONTINUOUS
 62
     5
 10
457.29999998951098
 20
-164.10000001050869
 30
0.0
 11
457.09999998950661
 21
-164.10000001050869
 31
0.0
  0
LINE
  8
DETAIL
  6
CONTINUOUS
 62
     5
 10
472.09999998950661
 20
-161.7655069425123
 30
0.0
 11
470.89999998950952
 21
-161.7655069425123
 31
0.0
  0
LINE
  8
DETAIL
  6
CONTINUOUS
 62
     5
 10
457.29999998951098
 20
-149.10000001050869
 30
0.0
 11
457.09999998950661
 21
-149.10000001050869
 31
0.0
  0
LINE
  8
DETAIL
  6
CONTINUOUS
 62
     5
 10
477.29999998951098
 20
-147.10000001050869
 30
0.0
 11
472.09999998950661
 21
-147.10000001050869
 31
0.0
  0
LINE
  8
DETAIL
  6
CONTINUOUS
 62
     5
 10
470.89999998950952
 20
-147.10000001050869
 30
0.0
 11
469.49999998950813
 21
-147.10000001050869
 31
0.0
  0
LINE
  8
DETAIL
  6
CONTINUOUS
 62
     5
 10
465.29999998951831
 20
-138.10000001050821
 30
0.0
 11
473.29999998951098
 21
-138.10000001050821
 31
0.0
  0
LINE
  8
DETAIL
  6
CONTINUOUS
 62
     5
 10
473.29999998951098
 20
-129.300000010513
 30
0.0
 11
480.89999998950952
 21
-129.300000010513
 31
0.0
  0
LINE
  8
DETAIL
  6
CONTINUOUS
 62
     5
 10
465.29999998951831
 20
-128.10000001050869
 30
0.0
 11
480.89999998950952
 21
-128.10000001050869
 31
0.0
  0
LINE
  8
DETAIL
  6
CONTINUOUS
 62
     5
 10
462.29999998951098
 20
-99.850000010508666
 30
0.0
 11
477.29999998951098
 21
-99.850000010508666
 31
0.0
  0
LINE
  8
DETAIL
  6
CONTINUOUS
 62
     5
 10
458.29999998951831
 20
-98.250000010510121
 30
0.0
 11
460.69999998950522
 21
-98.250000010510121
 31
0.0
  0
LINE
  8
DETAIL
  6
CONTINUOUS
 62
     5
 10
286.49999998951529
 20
-97.500000010510121
 30
0.0
 11
297.49999998951529
 21
-97.500000010510121
 31
0.0
  0
LINE
  8
DETAIL
  6
CONTINUOUS
 62
     5
 10
458.29999998951831
 20
-96.900000010511576
 30
0.0
 11
289.09999998952122
 21
-96.900000010511576
 31
0.0
  0
LINE
  8
DETAIL
  6
CONTINUOUS
 62
     5
 10
289.09999998952122
 20
-96.300000010513031
 30
0.0
 11
300.49999998950813
 21
-96.300000010513031
 31
0.0
  0
LINE
  8
DETAIL
  6
CONTINUOUS
 62
     5
 10
283.76794918150699
 20
-276.56410162651082
 30
0.0
 11
285.49999998950813
 21
-279.56410162651042
 31
0.0
  0
LINE
  8
DETAIL
  6
CONTINUOUS
 62
     5
 10
272.49999998950813
 20
-174.10000001050821
 30
0.0
 11
272.49999998950813
 21
-196.10000001050821
 31
0.0
  0
LINE
  8
DETAIL
  6
CONTINUOUS
 62
     5
 10
285.49999998950813
 20
-236.6358983945133
 30
0.0
 11
283.76794918150699
 21
-239.63589839450611
 31
0.0
  0
LINE
  8
DETAIL
  6
CONTINUOUS
 62
     5
 10
283.76794918150699
 20
-220.56410162651079
 30
0.0
 11
285.49999998950813
 21
-223.56410162651039
 31
0.0
  0
LINE
  8
DETAIL
  6
CONTINUOUS
 62
     5
 10
283.49999998951529
 20
-100.50000001051011
 30
0.0
 11
283.49999998951529
 21
-168.10000001050821
 31
0.0
  0
LINE
  8
DETAIL
  6
CONTINUOUS
 62
     5
 10
283.49999998951529
 20
-353.70000001050721
 30
0.0
 11
283.49999998951529
 21
-296.63589839451328
 31
0.0
  0
LINE
  8
DETAIL
  6
CONTINUOUS
 62
     5
 10
283.49999998951529
 20
-275.56410162651042
 30
0.0
 11
283.49999998951529
 21
-240.63589839450611
 31
0.0
  0
LINE
  8
DETAIL
  6
CONTINUOUS
 62
     5
 10
283.49999998951529
 20
-219.56410162651039
 30
0.0
 11
283.49999998951529
 21
-202.10000001050821
 31
0.0
  0
LINE
  8
DETAIL
  6
CONTINUOUS
 62
     5
 10
285.49999998950813
 20
-223.56410162651039
 30
0.0
 11
285.49999998950813
 21
-236.6358983945133
 31
0.0
  0
LINE
  8
DETAIL
  6
CONTINUOUS
 62
     5
 10
285.49999998950813
 20
-279.56410162651042
 30
0.0
 11
285.49999998950813
 21
-292.63589839450611
 31
0.0
  0
LINE
  8
DETAIL
  6
CONTINUOUS
 62
     5
 10
287.89999998950952
 20
-356.70000001050681
 30
0.0
 11
287.89999998950952
 21
-97.500000010510121
 31
0.0
  0
LINE
  8
DETAIL
  6
CONTINUOUS
 62
     5
 10
289.09999998952122
 20
-356.70000001050681
 30
0.0
 11
289.09999998952122
 21
-357.3000000105053
 31
0.0
  0
LINE
  8
DETAIL
  6
CONTINUOUS
 62
     5
 10
289.09999998952122
 20
-97.500000010510121
 30
0.0
 11
289.09999998952122
 21
-96.900000010511576
 31
0.0
  0
LINE
  8
DETAIL
  6
CONTINUOUS
 62
     5
 10
300.49999998950813
 20
-100.50000001051011
 30
0.0
 11
300.49999998950813
 21
-353.70000001050721
 31
0.0
  0
LINE
  8
DETAIL
  6
CONTINUOUS
 62
     5
 10
300.49999998950813
 20
-357.3000000105053
 30
0.0
 11
300.49999998950813
 21
-357.90000001050379
 31
0.0
  0
LINE
  8
DETAIL
  6
CONTINUOUS
 62
     5
 10
300.49999998950813
 20
-96.900000010511576
 30
0.0
 11
300.49999998950813
 21
-96.300000010513031
 31
0.0
  0
LINE
  8
DETAIL
  6
CONTINUOUS
 62
     5
 10
285.49999998950813
 20
-292.63589839450611
 30
0.0
 11
283.76794918150699
 21
-295.63589839450611
 31
0.0
  0
LINE
  8
DETAIL
  6
CONTINUOUS
 62
     5
 10
477.29999998951098
 20
-147.10000001050869
 30
0.0
 11
480.29999998951831
 21
-144.10000001050869
 31
0.0
  0
LINE
  8
DETAIL
  6
CONTINUOUS
 62
     5
 10
480.29999998951831
 20
-275.10000001050872
 30
0.0
 11
477.29999998951098
 21
-272.10000001050821
 31
0.0
  0
LINE
  8
DETAIL
  6
CONTINUOUS
 62
     5
 10
457.09999998950661
 20
-305.10000001050821
 30
0.0
 11
457.09999998950661
 21
-290.10000001050872
 31
0.0
  0
LINE
  8
DETAIL
  6
CONTINUOUS
 62
     5
 10
457.09999998950661
 20
-164.10000001050869
 30
0.0
 11
457.09999998950661
 21
-149.10000001050869
 31
0.0
  0
LINE
  8
DETAIL
  6
CONTINUOUS
 62
     5
 10
458.29999998951831
 20
-357.3000000105053
 30
0.0
 11
458.29999998951831
 21
-306.10000001050821
 31
0.0
  0
LINE
  8
DETAIL
  6
CONTINUOUS
 62
     5
 10
458.29999998951831
 20
-289.10000001050821
 30
0.0
 11
458.29999998951831
 21
-165.10000001050869
 31
0.0
  0
LINE
  8
DETAIL
  6
CONTINUOUS
 62
     5
 10
458.29999998951831
 20
-148.10000001050869
 30
0.0
 11
458.29999998951831
 21
-96.900000010511576
 31
0.0
  0
LINE
  8
DETAIL
  6
CONTINUOUS
 62
     5
 10
462.29999998951098
 20
-354.35000001050821
 30
0.0
 11
462.29999998951098
 21
-99.850000010508666
 31
0.0
  0
LINE
  8
DETAIL
  6
CONTINUOUS
 62
     5
 10
463.42449978751392
 20
-132.47036715050851
 30
0.0
 11
463.42449978751392
 21
-131.0296328705044
 31
0.0
  0
LINE
  8
DETAIL
  6
CONTINUOUS
 62
     5
 10
465.29999998951831
 20
-108.25000001051011
 30
0.0
 11
465.29999998951831
 21
-128.25000001051009
 31
0.0
  0
LINE
  8
DETAIL
  6
CONTINUOUS
 62
     5
 10
465.29999998951831
 20
-135.25000001051009
 30
0.0
 11
465.29999998951831
 21
-155.25000001050969
 31
0.0
  0
LINE
  8
DETAIL
  6
CONTINUOUS
 62
     5
 10
465.29999998951831
 20
-305.95000001050721
 30
0.0
 11
465.29999998951831
 21
-325.95000001050681
 31
0.0
  0
LINE
  8
DETAIL
  6
CONTINUOUS
 62
     5
 10
465.3999999895168
 20
-128.10000001050869
 30
0.0
 11
465.3999999895168
 21
-138.10000001050821
 31
0.0
  0
LINE
  8
DETAIL
  6
CONTINUOUS
 62
     5
 10
466.49999998951529
 20
-269.10000001050821
 30
0.0
 11
466.49999998951529
 21
-150.10000001050869
 31
0.0
  0
LINE
  8
DETAIL
  6
CONTINUOUS
 62
     5
 10
469.69999998951238
 20
-138.10000001050821
 30
0.0
 11
469.69999998951238
 21
-128.10000001050869
 31
0.0
  0
LINE
  8
DETAIL
  6
CONTINUOUS
 62
     5
 10
470.89999998950952
 20
-119.300000010513
 30
0.0
 11
470.89999998950952
 21
-128.10000001050869
 31
0.0
  0
LINE
  8
DETAIL
  6
CONTINUOUS
 62
     5
 10
470.89999998950952
 20
-161.7655069425123
 30
0.0
 11
470.89999998950952
 21
-138.10000001050821
 31
0.0
  0
LINE
  8
DETAIL
  6
CONTINUOUS
 62
     5
 10
472.09999998950661
 20
-119.300000010513
 30
0.0
 11
472.09999998950661
 21
-128.10000001050869
 31
0.0
  0
LINE
  8
DETAIL
  6
CONTINUOUS
 62
     5
 10
472.09999998950661
 20
-138.10000001050821
 30
0.0
 11
472.09999998950661
 21
-161.7655069425123
 31
0.0
  0
LINE
  8
DETAIL
  6
CONTINUOUS
 62
     5
 10
473.29999998951098
 20
-128.10000001050869
 30
0.0
 11
473.29999998951098
 21
-138.10000001050821
 31
0.0
  0
LINE
  8
DETAIL
  6
CONTINUOUS
 62
     5
 10
480.29999998951831
 20
-102.85000001050869
 30
0.0
 11
480.29999998951831
 21
-109.3287305225131
 31
0.0
  0
LINE
  8
DETAIL
  6
CONTINUOUS
 62
     5
 10
480.29999998951831
 20
-110.53232992451009
 30
0.0
 11
480.29999998951831
 21
-128.10000001050869
 31
0.0
  0
LINE
  8
DETAIL
  6
CONTINUOUS
 62
     5
 10
480.29999998951831
 20
-129.300000010513
 30
0.0
 11
480.29999998951831
 21
-144.10000001050869
 31
0.0
  0
LINE
  8
DETAIL
  6
CONTINUOUS
 62
     5
 10
480.29999998951831
 20
-275.10000001050872
 30
0.0
 11
480.29999998951831
 21
-351.35000001050821
 31
0.0
  0
LINE
  8
DETAIL
  6
CONTINUOUS
 62
     5
 10
477.29999998951098
 20
-354.35000001050821
 30
0.0
 11
480.29999998951831
 21
-351.35000001050821
 31
0.0
  0
LINE
  8
DETAIL
  6
CONTINUOUS
 62
     5
 10
480.29999998951831
 20
-102.85000001050869
 30
0.0
 11
477.29999998951098
 21
-99.850000010508666
 31
0.0
  0
ARC
  8
DETAIL
  6
CONTINUOUS
 62
     5
 10
286.49999998951529
 20
-353.70000001050721
 30
0.0
 40
2.9999999999999978
 50
180.0
 51
270.0
  0
ARC
  8
DETAIL
  6
CONTINUOUS
 62
     5
 10
297.49999998951529
 20
-353.70000001050721
 30
0.0
 40
2.9999999999999978
 50
270.0
 51
0.0
  0
ARC
  8
DETAIL
  6
CONTINUOUS
 62
     5
 10
289.09999998952122
 20
-356.70000001050681
 30
0.0
 40
1.1999999999999991
 50
180.0
 51
270.0
  0
ARC
  8
DETAIL
  6
CONTINUOUS
 62
     5
 10
289.09999998952122
 20
-356.70000001050681
 30
0.0
 40
0.6000000000000002
 50
180.0
 51
270.0
  0
ARC
  8
DETAIL
  6
CONTINUOUS
 62
     5
 10
285.49999998950813
 20
-275.56410162651042
 30
0.0
 40
1.9999999999999989
 50
180.0
 51
209.99999999993909
  0
ARC
  8
DETAIL
  6
CONTINUOUS
 62
     5
 10
285.49999998950813
 20
-240.63589839450611
 30
0.0
 40
1.9999999999999989
 50
150.00000000006091
 51
180.0
  0
ARC
  8
DETAIL
  6
CONTINUOUS
 62
     5
 10
285.49999998950813
 20
-219.56410162651039
 30
0.0
 40
1.9999999999999989
 50
180.0
 51
209.99999999993909
  0
ARC
  8
DETAIL
  6
CONTINUOUS
 62
     5
 10
285.49999998950813
 20
-296.63589839451328
 30
0.0
 40
1.9999999999999989
 50
150.00000000006091
 51
180.0
  0
CIRCLE
  8
DETAIL
  6
CONTINUOUS
 62
     5
 10
472.29999998951098
 20
-327.10000001050821
 30
0.0
 40
4.6999999999999957
  0
CIRCLE
  8
DETAIL
  6
CONTINUOUS
 62
     5
 10
451.49999998950813
 20
-332.10000001050821
 30
0.0
 40
4.6999999999999957
  0
ARC
  8
DETAIL
  6
CONTINUOUS
 62
     5
 10
462.29999998951098
 20
-325.95000001050681
 30
0.0
 40
2.9999999999999978
 50
270.0
 51
0.0
  0
ARC
  8
DETAIL
  6
CONTINUOUS
 62
     5
 10
460.69999998950522
 20
-354.35000001050821
 30
0.0
 40
1.6000000000000001
 50
270.0
 51
0.0
  0
ARC
  8
DETAIL
  6
CONTINUOUS
 62
     5
 10
462.29999998951098
 20
-305.95000001050721
 30
0.0
 40
2.9999999999999978
 50
0.0
 51
90.0
  0
ARC
  8
DETAIL
  6
CONTINUOUS
 62
     5
 10
469.49999998950813
 20
-269.10000001050821
 30
0.0
 40
2.9999999999999978
 50
180.0
 51
270.0
  0
ARC
  8
DETAIL
  6
CONTINUOUS
 62
     5
 10
457.29999998951098
 20
-289.10000001050821
 30
0.0
 40
0.9999999999999993
 50
270.0
 51
0.0
  0
ARC
  8
DETAIL
  6
CONTINUOUS
 62
     5
 10
457.29999998951098
 20
-306.10000001050821
 30
0.0
 40
0.9999999999999993
 50
0.0
 51
90.0
  0
CIRCLE
  8
DETAIL
  6
CONTINUOUS
 62
     5
 10
278.79999998951098
 20
-185.10000001050821
 30
0.0
 40
4.6999999999999957
  0
ARC
  8
DETAIL
  6
CONTINUOUS
 62
     5
 10
275.49999998951529
 20
-196.10000001050821
 30
0.0
 40
2.9999999999999978
 50
180.0
 51
270.0
  0
ARC
  8
DETAIL
  6
CONTINUOUS
 62
     5
 10
275.49999998951529
 20
-174.10000001050821
 30
0.0
 40
2.9999999999999978
 50
90.0
 51
180.0
  0
ARC
  8
DETAIL
  6
CONTINUOUS
 62
     5
 10
280.49999998950813
 20
-168.10000001050821
 30
0.0
 40
2.9999999999999978
 50
270.0
 51
0.0
  0
ARC
  8
DETAIL
  6
CONTINUOUS
 62
     5
 10
280.49999998950813
 20
-202.10000001050821
 30
0.0
 40
2.9999999999999978
 50
0.0
 51
90.0
  0
ARC
  8
DETAIL
  6
CONTINUOUS
 62
     5
 10
286.49999998951529
 20
-100.50000001051011
 30
0.0
 40
2.9999999999999978
 50
90.0
 51
180.0
  0
ARC
  8
DETAIL
  6
CONTINUOUS
 62
     5
 10
297.49999998951529
 20
-100.50000001051011
 30
0.0
 40
2.9999999999999978
 50
0.0
 51
90.0
  0
ARC
  8
DETAIL
  6
CONTINUOUS
 62
     5
 10
289.09999998952122
 20
-97.500000010510121
 30
0.0
 40
1.1999999999999991
 50
90.0
 51
180.0
  0
ARC
  8
DETAIL
  6
CONTINUOUS
 62
     5
 10
289.09999998952122
 20
-97.500000010510121
 30
0.0
 40
0.6000000000000002
 50
90.0
 51
180.0
  0
ARC
  8
DETAIL
  6
CONTINUOUS
 62
     5
 10
462.29999998951098
 20
-155.25000001050969
 30
0.0
 40
2.9999999999999978
 50
270.0
 51
0.0
  0
ARC
  8
DETAIL
  6
CONTINUOUS
 62
     5
 10
469.49999998950813
 20
-150.10000001050869
 30
0.0
 40
2.9999999999999978
 50
90.0
 51
180.0
  0
ARC
  8
DETAIL
  6
CONTINUOUS
 62
     5
 10
457.29999998951098
 20
-148.10000001050869
 30
0.0
 40
0.9999999999999993
 50
270.0
 51
0.0
  0
ARC
  8
DETAIL
  6
CONTINUOUS
 62
     5
 10
457.29999998951098
 20
-165.10000001050869
 30
0.0
 40
0.9999999999999993
 50
0.0
 51
90.0
  0
ARC
  8
DETAIL
  6
CONTINUOUS
 62
     5
 10
480.89999998950952
 20
-119.300000010513
 30
0.0
 40
9.9999999999999947
 50
270.0
 51
180.0
  0
ARC
  8
DETAIL
  6
CONTINUOUS
 62
     5
 10
480.89999998950952
 20
-119.300000010513
 30
0.0
 40
8.7999999999999972
 50
270.0
 51
180.0
  0
ARC
  8
DETAIL
  6
CONTINUOUS
 62
     5
 10
472.29999998951098
 20
-119.1000000105082
 30
0.0
 40
5.4999999999999956
 50
131.97416068467871
 51
255.24000878676969
  0
ARC
  8
DETAIL
  6
CONTINUOUS
 62
     5
 10
472.29999998951098
 20
-119.1000000105082
 30
0.0
 40
5.4999999999999956
 50
267.91752440258438
 51
48.025839315321313
  0
ARC
  8
DETAIL
  6
CONTINUOUS
 62
     5
 10
472.29999998951098
 20
-112.10000001050869
 30
0.0
 40
4.6999999999999957
 50
22.833675615687341
 51
257.24802663447008
  0
ARC
  8
DETAIL
  6
CONTINUOUS
 62
     5
 10
472.29999998951098
 20
-112.10000001050869
 30
0.0
 40
4.6999999999999957
 50
272.24859668198121
 51
7.89241666071295
  0
CIRCLE
  8
DETAIL
  6
CONTINUOUS
 62
     5
 10
451.49999998950813
 20
-122.10000001050869
 30
0.0
 40
4.6999999999999957
  0
ARC
  8
DETAIL
  6
CONTINUOUS
 62
     5
 10
462.29999998951098
 20
-135.25000001051009
 30
0.0
 40
2.9999999999999978
 50
0.0
 51
90.0
  0
ARC
  8
DETAIL
  6
CONTINUOUS
 62
     5
 10
462.29999998951098
 20
-108.25000001051011
 30
0.0
 40
2.9999999999999978
 50
0.0
 51
90.0
  0
ARC
  8
DETAIL
  6
CONTINUOUS
 62
     5
 10
462.29999998951098
 20
-128.25000001051009
 30
0.0
 40
2.9999999999999978
 50
270.0
 51
0.0
  0
ARC
  8
DETAIL
  6
CONTINUOUS
 62
     5
 10
460.69999998950522
 20
-99.850000010508666
 30
0.0
 40
1.6000000000000001
 50
0.0
 51
90.0
  0
ARC
  8
DETAIL
  6
CONTINUOUS
 62
     5
 10
570.94999999999982
 20
-1.0500000000029099
 30
0.0
 40
1.05
 50
270.0
 51
89.999963675954262
  0
ARC
  8
DETAIL
  6
CONTINUOUS
 62
     5
 10
570.94999999999982
 20
-1.0500000000029099
 30
0.0
 40
0.2500000000000002
 50
270.0
 51
89.999963675954262
  0
LINE
  8
DETAIL
  6
CONTINUOUS
 62
     5
 10
567.70000000000709
 20
-1.3000000000029099
 30
0.0
 11
567.70000000000709
 21
-2.1000000000058212
 31
0.0
  0
LINE
  8
DETAIL
  6
CONTINUOUS
 62
     5
 10
567.70000000000709
 20
-2.1000000000058212
 30
0.0
 11
570.94999999999982
 21
-2.1000000000058212
 31
0.0
  0
LINE
  8
DETAIL
  6
CONTINUOUS
 62
     5
 10
557.21438631000183
 20
-2.1000000000058212
 30
0.0
 11
-557.21438630998728
 21
-2.1000000000058212
 31
0.0
  0
LINE
  8
DETAIL
  6
CONTINUOUS
 62
     5
 10
-570.94999999998527
 20
-1.3000000000029099
 30
0.0
 11
-566.19999999999254
 21
-1.3000000000029099
 31
0.0
  0
LINE
  8
DETAIL
  6
CONTINUOUS
 62
     5
 10
-570.94999999998527
 20
-2.1000000000058212
 30
0.0
 11
-567.69999999999982
 21
-2.1000000000058212
 31
0.0
  0
LINE
  8
DETAIL
  6
CONTINUOUS
 62
     5
 10
-567.69999999999982
 20
-1.3000000000029099
 30
0.0
 11
-567.69999999999982
 21
-2.1000000000058212
 31
0.0
  0
LINE
  8
DETAIL
  6
CONTINUOUS
 62
     5
 10
-570.94999999998527
 20
-402.70000000000249
 30
0.0
 11
-566.19999999999254
 21
-402.70000000000249
 31
0.0
  0
ARC
  8
DETAIL
  6
CONTINUOUS
 62
     5
 10
-570.94999999998527
 20
-402.95000000000249
 30
0.0
 40
1.05
 50
90.0
 51
270.00000112386078
  0
ARC
  8
DETAIL
  6
CONTINUOUS
 62
     5
 10
-570.94999999998527
 20
-402.95000000000249
 30
0.0
 40
0.2500000000000002
 50
90.0
 51
270.00000112386078
  0
LINE
  8
DETAIL
  6
CONTINUOUS
 62
     5
 10
-570.94999999998527
 20
-401.90000000001419
 30
0.0
 11
-567.69999999999982
 21
-401.90000000001419
 31
0.0
  0
LINE
  8
DETAIL
  6
CONTINUOUS
 62
     5
 10
-567.69999999999982
 20
-402.70000000000249
 30
0.0
 11
-567.69999999999982
 21
-401.90000000001419
 31
0.0
  0
LINE
  8
DETAIL
  6
CONTINUOUS
 62
     5
 10
-557.167300918004
 20
-401.90000000001419
 30
0.0
 11
557.16730091801128
 21
-401.90000000001419
 31
0.0
  0
LINE
  8
DETAIL
  6
CONTINUOUS
 62
     5
 10
570.94999999999982
 20
-401.90000000001419
 30
0.0
 11
567.70000000000709
 21
-401.90000000001419
 31
0.0
  0
LINE
  8
DETAIL
  6
CONTINUOUS
 62
     5
 10
567.70000000000709
 20
-401.90000000001419
 30
0.0
 11
567.70000000000709
 21
-402.70000000000249
 31
0.0
  0
CIRCLE
  8
DETAIL
  6
DASHED
 62
     5
 10
-406.99999999999682
 20
-242.0000000000023
 30
0.0
 40
130.0000000095109
  0
LINE
  8
BASIS
  6
DASHDOT
 62
     6
 10
-260.57719159756789
 20
-242.0000000000023
 30
0.0
 11
-692.21222329392913
 21
-242.0000000000023
 31
0.0
1001
GENIUS_GENODEF_13
1002
{
1000
HIER
1070
     0
1002
}
1002
{
1000
MANEDIT
1070
     0
1002
}
1002
{
1000
NOSEL
1070
     0
1002
}
1002
{
1000
BEHIND
1070
     0
1002
}
1002
{
1000
OTHER
1070
     0
1002
}
1002
{
1000
REACTOR
1002
}
1001
GENIUS_GENOBJ-N-CEN_13
1002
{
1000
OWNER
1000
GEN
1002
}
1001
GENIUS_GENCEN_19
1002
{
1040
5.0
1002
}
  0
LINE
  8
BASIS
  6
DASHDOT
 62
     6
 10
-406.99999999999682
 20
-88.824642958597906
 30
0.0
 11
-406.99999999999682
 21
-395.17535704140761
 31
0.0
1001
GENIUS_GENODEF_13
1002
{
1000
HIER
1070
     0
1002
}
1002
{
1000
MANEDIT
1070
     0
1002
}
1002
{
1000
NOSEL
1070
     0
1002
}
1002
{
1000
BEHIND
1070
     0
1002
}
1002
{
1000
OTHER
1070
     0
1002
}
1002
{
1000
REACTOR
1002
}
1001
GENIUS_GENOBJ-N-CEN_13
1002
{
1000
OWNER
1000
GEN
1002
}
1001
GENIUS_GENCEN_19
1002
{
1040
5.0
1002
}
  0
LINE
  8
BASIS
  6
DASHDOT
 62
     6
 10
682.32954395189881
 20
-242.0000000000023
 30
0.0
 11
545.34328263856423
 21
-242.0000000000023
 31
0.0
1001
GENIUS_GENODEF_13
1002
{
1000
HIER
1070
     0
1002
}
1002
{
1000
MANEDIT
1070
     0
1002
}
1002
{
1000
NOSEL
1070
     0
1002
}
1002
{
1000
BEHIND
1070
     0
1002
}
1002
{
1000
OTHER
1070
     0
1002
}
1002
{
1000
REACTOR
1002
}
1001
GENIUS_GENOBJ-N-CEN_13
1002
{
1000
OWNER
1000
GEN
1002
}
1001
GENIUS_GENCEN_19
1002
{
1040
5.0
1002
}
  0
LINE
  8
SIZE
  6
CONTINUOUS
 62
    30
 10
-571.99999999998545
 20
18.949999989699339
 30
0.0
 11
-571.99999999998545
 21
264.59082929909482
 31
0.0
  0
LINE
  8
SIZE
  6
CONTINUOUS
 62
    30
 10
572.0
 20
18.949999667160679
 30
0.0
 11
572.0
 21
264.59082929909482
 31
0.0
  0
LINE
  8
SIZE
  6
CONTINUOUS
 62
    30
 10
-559.99999999998545
 20
244.59082929909479
 30
0.0
 11
560.0
 21
244.59082929909479
 31
0.0
  0
CIRCLE
  8
SIZE
  6
CONTINUOUS
 62
    30
 10
-571.99999999998545
 20
244.59082929909479
 30
0.0
 40
6.0
  0
LINE
  8
SIZE
  6
CONTINUOUS
 62
    30
 10
-571.99999999998545
 20
244.59082929909479
 30
0.0
 11
-559.99999999998545
 21
244.59082929909479
 31
0.0
  0
CIRCLE
  8
SIZE
  6
CONTINUOUS
 62
    30
 10
572.0
 20
244.59082929909479
 30
0.0
 40
6.0
  0
LINE
  8
SIZE
  6
CONTINUOUS
 62
    30
 10
572.0
 20
244.59082929909479
 30
0.0
 11
560.0
 21
244.59082929909479
 31
0.0
  0
TEXT
  8
SIZE
  6
CONTINUOUS
 62
    30
 10
-96.767999999992739
 20
269.59082929909482
 30
0.0
 40
64.0
  1
1144
 50
0.0
 41
0.9
 51
0.0
  7
STANDARD
 71
     0
 72
     1
 11
0.000000000007276
 21
269.59082929909482
 31
0.0
210
0.0
220
0.0
230
1.0
  0
POINT
  8
DEFPOINTS
  6
CONTINUOUS
 62
    30
 10
-571.99999999998545
 20
-1.0500000103006639
 30
0.0
  0
POINT
  8
DEFPOINTS
  6
CONTINUOUS
 62
    30
 10
572.0
 20
-1.0500003328393179
 30
0.0
  0
POINT
  8
DEFPOINTS
  6
CONTINUOUS
 62
    30
 10
572.0
 20
244.59082929909479
 30
0.0
  0
LINE
  8
SIZE
  6
CONTINUOUS
 62
    30
 10
651.00000000001455
 20
-101.0501682200115
 30
0.0
 11
651.00000000001455
 21
264.59082929909482
 31
0.0
  0
LINE
  8
SIZE
  6
CONTINUOUS
 62
    30
 10
572.0
 20
18.949999667160679
 30
0.0
 11
572.0
 21
264.59082929909482
 31
0.0
  0
LINE
  8
SIZE
  6
CONTINUOUS
 62
    30
 10
663.00000000001455
 20
244.59082929909479
 30
0.0
 11
675.00000000001455
 21
244.59082929909479
 31
0.0
  0
LINE
  8
SIZE
  6
CONTINUOUS
 62
    30
 10
560.0
 20
244.59082929909479
 30
0.0
 11
548.0
 21
244.59082929909479
 31
0.0
  0
LINE
  8
SIZE
  6
CONTINUOUS
 62
    30
 10
651.00000000001455
 20
244.59082929909479
 30
0.0
 11
572.0
 21
244.59082929909479
 31
0.0
  0
CIRCLE
  8
SIZE
  6
CONTINUOUS
 62
    30
 10
651.00000000001455
 20
244.59082929909479
 30
0.0
 40
6.0
  0
LINE
  8
SIZE
  6
CONTINUOUS
 62
    30
 10
651.00000000001455
 20
244.59082929909479
 30
0.0
 11
663.00000000001455
 21
244.59082929909479
 31
0.0
  0
CIRCLE
  8
SIZE
  6
CONTINUOUS
 62
    30
 10
572.0
 20
244.59082929909479
 30
0.0
 40
6.0
  0
LINE
  8
SIZE
  6
CONTINUOUS
 62
    30
 10
572.0
 20
244.59082929909479
 30
0.0
 11
560.0
 21
244.59082929909479
 31
0.0
  0
TEXT
  8
SIZE
  6
CONTINUOUS
 62
    30
 10
557.93200000000729
 20
269.59082929909482
 30
0.0
 40
64.0
  1
79
 50
0.0
 41
0.9
 51
0.0
  7
STANDARD
 71
     0
 72
     1
 11
611.50000000000728
 21
269.59082929909482
 31
0.0
210
0.0
220
0.0
230
1.0
  0
POINT
  8
DEFPOINTS
  6
CONTINUOUS
 62
    30
 10
651.00000000001455
 20
-121.0501682200115
 30
0.0
  0
POINT
  8
DEFPOINTS
  6
CONTINUOUS
 62
    30
 10
572.0
 20
-1.0500003328393179
 30
0.0
  0
POINT
  8
DEFPOINTS
  6
CONTINUOUS
 62
    30
 10
572.0
 20
244.59082929909479
 30
0.0
  0
LINE
  8
SIZE
  6
CONTINUOUS
 62
    30
 10
-651.00000000000091
 20
-101.0000000000059
 30
0.0
 11
-651.00000000000091
 21
264.59082929909482
 31
0.0
  0
LINE
  8
SIZE
  6
CONTINUOUS
 62
    30
 10
-571.99999999998545
 20
18.949999989699339
 30
0.0
 11
-571.99999999998545
 21
264.59082929909482
 31
0.0
  0
LINE
  8
SIZE
  6
CONTINUOUS
 62
    30
 10
-663.00000000000091
 20
244.59082929909479
 30
0.0
 11
-675.00000000000091
 21
244.59082929909479
 31
0.0
  0
LINE
  8
SIZE
  6
CONTINUOUS
 62
    30
 10
-559.99999999998545
 20
244.59082929909479
 30
0.0
 11
-547.99999999998545
 21
244.59082929909479
 31
0.0
  0
LINE
  8
SIZE
  6
CONTINUOUS
 62
    30
 10
-651.00000000000091
 20
244.59082929909479
 30
0.0
 11
-571.99999999998545
 21
244.59082929909479
 31
0.0
  0
CIRCLE
  8
SIZE
  6
CONTINUOUS
 62
    30
 10
-651.00000000000091
 20
244.59082929909479
 30
0.0
 40
6.0
  0
LINE
  8
SIZE
  6
CONTINUOUS
 62
    30
 10
-651.00000000000091
 20
244.59082929909479
 30
0.0
 11
-663.00000000000091
 21
244.59082929909479
 31
0.0
  0
CIRCLE
  8
SIZE
  6
CONTINUOUS
 62
    30
 10
-571.99999999998545
 20
244.59082929909479
 30
0.0
 40
6.0
  0
LINE
  8
SIZE
  6
CONTINUOUS
 62
    30
 10
-571.99999999998545
 20
244.59082929909479
 30
0.0
 11
-559.99999999998545
 21
244.59082929909479
 31
0.0
  0
TEXT
  8
SIZE
  6
CONTINUOUS
 62
    30
 10
-665.06799999999316
 20
269.59082929909482
 30
0.0
 40
64.0
  1
79
 50
0.0
 41
0.9
 51
0.0
  7
STANDARD
 71
     0
 72
     1
 11
-611.49999999999318
 21
269.59082929909482
 31
0.0
210
0.0
220
0.0
230
1.0
  0
POINT
  8
DEFPOINTS
  6
CONTINUOUS
 62
    30
 10
-651.00000000000091
 20
-121.0000000000059
 30
0.0
  0
POINT
  8
DEFPOINTS
  6
CONTINUOUS
 62
    30
 10
-571.99999999998545
 20
-1.0500000103006639
 30
0.0
  0
POINT
  8
DEFPOINTS
  6
CONTINUOUS
 62
    30
 10
-571.99999999998545
 20
244.59082929909479
 30
0.0
  0
LINE
  8
SIZE
  6
CONTINUOUS
 62
    30
 10
-590.94999999998549
 20
0.0000000000004515
 30
0.0
 11
-1001.50312023352
 21
0.0000000000003855
 31
0.0
  0
LINE
  8
SIZE
  6
CONTINUOUS
 62
    30
 10
-590.94999999998549
 20
-403.99999999999108
 30
0.0
 11
-1001.50312023352
 21
-403.99999999999119
 31
0.0
  0
LINE
  8
SIZE
  6
CONTINUOUS
 62
    30
 10
-981.50312023352024
 20
-11.999999999999609
 30
0.0
 11
-981.50312023352012
 21
-391.99999999999119
 31
0.0
  0
CIRCLE
  8
SIZE
  6
CONTINUOUS
 62
    30
 10
-981.50312023352024
 20
0.0000000000003887
 30
0.0
 40
6.0
  0
LINE
  8
SIZE
  6
CONTINUOUS
 62
    30
 10
-981.50312023352024
 20
0.0000000000003887
 30
0.0
 11
-981.50312023352024
 21
-11.999999999999611
 31
0.0
  0
CIRCLE
  8
SIZE
  6
CONTINUOUS
 62
    30
 10
-981.50312023352012
 20
-403.99999999999119
 30
0.0
 40
6.0
  0
LINE
  8
SIZE
  6
CONTINUOUS
 62
    30
 10
-981.50312023352012
 20
-403.99999999999119
 30
0.0
 11
-981.50312023352012
 21
-391.99999999999119
 31
0.0
  0
TEXT
  8
SIZE
  6
CONTINUOUS
 62
    30
 10
-1006.5031202335199
 20
-284.07999999999504
 30
0.0
 40
64.0
  1
404
 50
90.0
 41
0.9
 51
0.0
  7
STANDARD
 71
     0
 72
     1
 11
-1006.5031202335199
 21
-201.99999999999511
 31
0.0
210
0.0
220
0.0
230
1.0
  0
POINT
  8
DEFPOINTS
  6
CONTINUOUS
 62
    30
 10
-570.94999999998549
 20
0.0000000000004547
 30
0.0
  0
POINT
  8
DEFPOINTS
  6
CONTINUOUS
 62
    30
 10
-570.94999999998549
 20
-403.99999999999108
 30
0.0
  0
POINT
  8
DEFPOINTS
  6
CONTINUOUS
 62
    30
 10
-981.50312023352012
 20
-403.99999999999119
 30
0.0
  0
LINE
  8
SIZE
  6
CONTINUOUS
 62
    30
 10
-712.21222329392936
 20
-242.00000000000239
 30
0.0
 11
-878.4491864274429
 21
-242.00000000000239
 31
0.0
  0
LINE
  8
SIZE
  6
CONTINUOUS
 62
    30
 10
-715.69367645163243
 20
-202.00000000000611
 30
0.0
 11
-878.4491864274429
 21
-202.00000000000611
 31
0.0
  0
LINE
  8
SIZE
  6
CONTINUOUS
 62
    30
 10
-858.4491864274429
 20
-254.00000000000239
 30
0.0
 11
-858.44918642744278
 21
-266.00000000000239
 31
0.0
  0
LINE
  8
SIZE
  6
CONTINUOUS
 62
    30
 10
-858.4491864274429
 20
-190.00000000000611
 30
0.0
 11
-858.4491864274429
 21
-178.00000000000611
 31
0.0
  0
LINE
  8
SIZE
  6
CONTINUOUS
 62
    30
 10
-858.4491864274429
 20
-242.00000000000239
 30
0.0
 11
-858.4491864274429
 21
-202.00000000000611
 31
0.0
  0
CIRCLE
  8
SIZE
  6
CONTINUOUS
 62
    30
 10
-858.4491864274429
 20
-242.00000000000239
 30
0.0
 40
6.0
  0
LINE
  8
SIZE
  6
CONTINUOUS
 62
    30
 10
-858.4491864274429
 20
-242.00000000000239
 30
0.0
 11
-858.4491864274429
 21
-254.00000000000239
 31
0.0
  0
CIRCLE
  8
SIZE
  6
CONTINUOUS
 62
    30
 10
-858.4491864274429
 20
-202.00000000000611
 30
0.0
 40
6.0
  0
LINE
  8
SIZE
  6
CONTINUOUS
 62
    30
 10
-858.4491864274429
 20
-202.00000000000611
 30
0.0
 11
-858.4491864274429
 21
-190.00000000000611
 31
0.0
  0
TEXT
  8
SIZE
  6
CONTINUOUS
 62
    30
 10
-883.44918642744267
 20
-276.72000000000401
 30
0.0
 40
64.0
  1
40
 50
90.0
 41
0.9
 51
0.0
  7
STANDARD
 71
     0
 72
     1
 11
-883.44918642744267
 21
-222.00000000000401
 31
0.0
210
0.0
220
0.0
230
1.0
  0
POINT
  8
DEFPOINTS
  6
CONTINUOUS
 62
    30
 10
-692.21222329392936
 20
-242.00000000000239
 30
0.0
  0
POINT
  8
DEFPOINTS
  6
CONTINUOUS
 62
    30
 10
-695.69367645163243
 20
-202.000000000006
 30
0.0
  0
POINT
  8
DEFPOINTS
  6
CONTINUOUS
 62
    30
 10
-858.4491864274429
 20
-202.00000000000611
 30
0.0
  0
LINE
  8
DETAIL
  6
CONTINUOUS
 62
     5
 10
-584.199999999993
 20
-114.2121212121197
 30
0.0
 11
-643.00000000000091
 21
-121.0000000000059
 31
0.0
  0
LINE
  8
DETAIL
  6
CONTINUOUS
 62
     5
 10
-643.00000000000091
 20
-121.0000000000059
 30
0.0
 11
-651.00000000000091
 21
-121.0000000000059
 31
0.0
  0
LINE
  8
DETAIL
  6
CONTINUOUS
 62
     5
 10
-573.70000000000846
 20
-127.0000000000027
 30
0.0
 11
-573.700000000008
 21
-371.00000000000591
 31
0.0
  0
LINE
  8
DETAIL
  6
CONTINUOUS
 62
     5
 10
-643.00000000000091
 20
-121.0000000000059
 30
0.0
 11
-643.00000000000091
 21
-362.99999999999858
 31
0.0
  0
LINE
  8
DETAIL
  6
CONTINUOUS
 62
     5
 10
-651.00000000000091
 20
-121.0000000000059
 30
0.0
 11
-651.00000000000091
 21
-362.99999999999858
 31
0.0
  0
LINE
  8
DETAIL
  6
CONTINUOUS
 62
     5
 10
-643.00000000000091
 20
-362.99999999999858
 30
0.0
 11
-651.00000000000091
 21
-362.99999999999858
 31
0.0
  0
LINE
  8
DETAIL
  6
CONTINUOUS
 62
     5
 10
-573.70000001010703
 20
-371.00000000000591
 30
0.0
 11
-643.00000000000091
 21
-362.99999999999858
 31
0.0
  0
LINE
  8
DETAIL
  6
CONTINUOUS
 62
     5
 10
-566.49999999998772
 20
-371.00000000000591
 30
0.0
 11
-573.70000001010703
 21
-371.00000000000591
 31
0.0
  0
LINE
  8
SIZE
  6
CONTINUOUS
 62
    30
 10
-636.43427874097756
 20
-77.000000000009578
 30
0.0
 11
-878.44918642745165
 21
-77.000000000009621
 31
0.0
  0
LINE
  8
SIZE
  6
CONTINUOUS
 62
    30
 10
-590.94999999998549
 20
-0.0000000000000032
 30
0.0
 11
-878.44918642745165
 21
-0.0000000000000494
 31
0.0
  0
LINE
  8
SIZE
  6
CONTINUOUS
 62
    30
 10
-858.44918642745165
 20
-65.000000000009607
 30
0.0
 11
-858.44918642745165
 21
-12.00000000000005
 31
0.0
  0
LINE
  8
SIZE
  6
CONTINUOUS
 62
    30
 10
-858.44918642745165
 20
-0.0000000000000462
 30
0.0
 11
-858.44918642745165
 21
155.25714285714281
 31
0.0
  0
CIRCLE
  8
SIZE
  6
CONTINUOUS
 62
    30
 10
-858.44918642745165
 20
-77.000000000009607
 30
0.0
 40
6.0
  0
LINE
  8
SIZE
  6
CONTINUOUS
 62
    30
 10
-858.44918642745165
 20
-77.000000000009607
 30
0.0
 11
-858.44918642745165
 21
-65.000000000009607
 31
0.0
  0
CIRCLE
  8
SIZE
  6
CONTINUOUS
 62
    30
 10
-858.44918642745165
 20
-0.0000000000000462
 30
0.0
 40
6.0
  0
LINE
  8
SIZE
  6
CONTINUOUS
 62
    30
 10
-858.44918642745165
 20
-0.0000000000000462
 30
0.0
 11
-858.44918642745165
 21
-12.000000000000046
 31
0.0
  0
TEXT
  8
SIZE
  6
CONTINUOUS
 62
    30
 10
-883.44918642745142
 20
30.060571428571649
 30
0.0
 40
64.0
  1
77
 50
90.0
 41
0.9
 51
0.0
  7
STANDARD
 71
     0
 72
     1
 11
-883.44918642745142
 21
83.628571428571632
 31
0.0
210
0.0
220
0.0
230
1.0
  0
POINT
  8
DEFPOINTS
  6
CONTINUOUS
 62
    30
 10
-616.43427874097756
 20
-77.000000000009578
 30
0.0
  0
POINT
  8
DEFPOINTS
  6
CONTINUOUS
 62
    30
 10
-570.94999999998549
 20
0.0
 30
0.0
  0
POINT
  8
DEFPOINTS
  6
CONTINUOUS
 62
    30
 10
-858.44918642745165
 20
-0.0000000000000462
 30
0.0
  0
LINE
  8
SIZE
  6
CONTINUOUS
 62
    30
 10
590.95000000000005
 20
0.0000000000000032
 30
0.0
 11
929.94605274161972
 21
0.0000000000000577
 31
0.0
  0
LINE
  8
SIZE
  6
CONTINUOUS
 62
    30
 10
636.43427874097711
 20
-77.000000000010488
 30
0.0
 11
929.94605274161972
 21
-77.000000000010431
 31
0.0
  0
LINE
  8
SIZE
  6
CONTINUOUS
 62
    30
 10
909.94605274161972
 20
-65.000000000010445
 30
0.0
 11
909.94605274161972
 21
-11.99999999999995
 31
0.0
  0
LINE
  8
SIZE
  6
CONTINUOUS
 62
    30
 10
909.94605274161972
 20
0.0000000000000545
 30
0.0
 11
909.94605274161972
 21
155.25714285714301
 31
0.0
  0
CIRCLE
  8
SIZE
  6
CONTINUOUS
 62
    30
 10
909.94605274161972
 20
-77.000000000010445
 30
0.0
 40
6.0
  0
LINE
  8
SIZE
  6
CONTINUOUS
 62
    30
 10
909.94605274161972
 20
-77.000000000010445
 30
0.0
 11
909.94605274161972
 21
-65.000000000010445
 31
0.0
  0
CIRCLE
  8
SIZE
  6
CONTINUOUS
 62
    30
 10
909.94605274161972
 20
0.0000000000000545
 30
0.0
 40
6.0
  0
LINE
  8
SIZE
  6
CONTINUOUS
 62
    30
 10
909.94605274161972
 20
0.0000000000000545
 30
0.0
 11
909.94605274161972
 21
-11.999999999999945
 31
0.0
  0
TEXT
  8
SIZE
  6
CONTINUOUS
 62
    30
 10
884.9460527416195
 20
30.060571428571251
 30
0.0
 40
64.0
  1
77
 50
90.0
 41
0.9
 51
0.0
  7
STANDARD
 71
     0
 72
     1
 11
884.9460527416195
 21
83.628571428571234
 31
0.0
210
0.0
220
0.0
230
1.0
  0
POINT
  8
DEFPOINTS
  6
CONTINUOUS
 62
    30
 10
570.95000000000005
 20
0.0
 30
0.0
  0
POINT
  8
DEFPOINTS
  6
CONTINUOUS
 62
    30
 10
616.43427874097711
 20
-77.000000000010488
 30
0.0
  0
POINT
  8
DEFPOINTS
  6
CONTINUOUS
 62
    30
 10
909.94605274161972
 20
-77.000000000010445
 30
0.0
  0
LINE
  8
DETAIL
  6
CONTINUOUS
 62
     5
 10
584.70000000000709
 20
-114.269841269841
 30
0.0
 11
643.00000000000091
 21
-121.0000000000059
 31
0.0
  0
LINE
  8
DETAIL
  6
CONTINUOUS
 62
     5
 10
643.00000000000091
 20
-121.0000000000059
 30
0.0
 11
651.00000000000091
 21
-121.0000000000059
 31
0.0
  0
LINE
  8
DETAIL
  6
CONTINUOUS
 62
     5
 10
573.700000000008
 20
-127.0000000000027
 30
0.0
 11
573.700000000008
 21
-371.00000000000591
 31
0.0
  0
LINE
  8
DETAIL
  6
CONTINUOUS
 62
     5
 10
643.00000000000091
 20
-121.0000000000059
 30
0.0
 11
643.00000000000091
 21
-362.99999999999858
 31
0.0
  0
LINE
  8
DETAIL
  6
CONTINUOUS
 62
     5
 10
651.00000000000091
 20
-121.0000000000059
 30
0.0
 11
651.00000000000091
 21
-362.99999999999858
 31
0.0
  0
LINE
  8
DETAIL
  6
CONTINUOUS
 62
     5
 10
643.00000000000091
 20
-362.99999999999858
 30
0.0
 11
651.00000000000091
 21
-362.99999999999858
 31
0.0
  0
LINE
  8
DETAIL
  6
CONTINUOUS
 62
     5
 10
573.70000001010703
 20
-371.00000000000591
 30
0.0
 11
643.00000000000091
 21
-362.99999999999858
 31
0.0
  0
LINE
  8
DETAIL
  6
CONTINUOUS
 62
     5
 10
566.49999999998727
 20
-371.00000000000591
 30
0.0
 11
573.70000001010703
 21
-371.00000000000591
 31
0.0
  0
LINE
  8
SIZE
  6
CONTINUOUS
 62
    30
 10
671.00000000000114
 20
-121.000000000006
 30
0.0
 11
929.94605274162848
 21
-121.0000000000059
 31
0.0
  0
LINE
  8
SIZE
  6
CONTINUOUS
 62
    30
 10
671.00000000000114
 20
-362.99999999999869
 30
0.0
 11
929.94605274162859
 21
-362.99999999999869
 31
0.0
  0
LINE
  8
SIZE
  6
CONTINUOUS
 62
    30
 10
909.94605274162848
 20
-109.0000000000059
 30
0.0
 11
909.94605274162848
 21
-97.000000000005926
 31
0.0
  0
LINE
  8
SIZE
  6
CONTINUOUS
 62
    30
 10
909.94605274162859
 20
-374.99999999999869
 30
0.0
 11
909.94605274162859
 21
-386.99999999999869
 31
0.0
  0
LINE
  8
SIZE
  6
CONTINUOUS
 62
    30
 10
909.94605274162848
 20
-121.0000000000059
 30
0.0
 11
909.94605274162859
 21
-362.99999999999869
 31
0.0
  0
CIRCLE
  8
SIZE
  6
CONTINUOUS
 62
    30
 10
909.94605274162848
 20
-121.0000000000059
 30
0.0
 40
6.0
  0
LINE
  8
SIZE
  6
CONTINUOUS
 62
    30
 10
909.94605274162848
 20
-121.0000000000059
 30
0.0
 11
909.94605274162848
 21
-109.0000000000059
 31
0.0
  0
CIRCLE
  8
SIZE
  6
CONTINUOUS
 62
    30
 10
909.94605274162859
 20
-362.99999999999869
 30
0.0
 40
6.0
  0
LINE
  8
SIZE
  6
CONTINUOUS
 62
    30
 10
909.94605274162859
 20
-362.99999999999869
 30
0.0
 11
909.94605274162859
 21
-374.99999999999869
 31
0.0
  0
TEXT
  8
SIZE
  6
CONTINUOUS
 62
    30
 10
884.94605274162825
 20
-357.48800000000244
 30
0.0
 40
64.0
  1
φ242
 50
90.0
 41
0.9
 51
0.0
  7
STANDARD
 71
     0
 72
     1
 11
884.94605274162825
 21
-242.00000000000239
 31
0.0
210
0.0
220
0.0
230
1.0
  0
POINT
  8
DEFPOINTS
  6
CONTINUOUS
 62
    30
 10
651.00000000000114
 20
-121.000000000006
 30
0.0
  0
POINT
  8
DEFPOINTS
  6
CONTINUOUS
 62
    30
 10
651.00000000000114
 20
-362.99999999999869
 30
0.0
  0
POINT
  8
DEFPOINTS
  6
CONTINUOUS
 62
    30
 10
909.94605274162859
 20
-362.99999999999869
 30
0.0
  0
LINE
  8
SIZE
  6
CONTINUOUS
 62
    30
 10
593.70000001010726
 20
-371.00000000000603
 30
0.0
 11
1056.3879834203219
 21
-371.00000000000603
 31
0.0
  0
LINE
  8
SIZE
  6
CONTINUOUS
 62
    30
 10
593.70000001010726
 20
-113.000000000006
 30
0.0
 11
1056.3879834203219
 21
-113.0000000000059
 31
0.0
  0
LINE
  8
SIZE
  6
CONTINUOUS
 62
    30
 10
1036.3879834203219
 20
-359.00000000000591
 30
0.0
 11
1036.3879834203219
 21
-125.0000000000059
 31
0.0
  0
CIRCLE
  8
SIZE
  6
CONTINUOUS
 62
    30
 10
1036.3879834203219
 20
-371.00000000000591
 30
0.0
 40
6.0
  0
LINE
  8
SIZE
  6
CONTINUOUS
 62
    30
 10
1036.3879834203219
 20
-371.00000000000591
 30
0.0
 11
1036.3879834203219
 21
-359.00000000000591
 31
0.0
  0
CIRCLE
  8
SIZE
  6
CONTINUOUS
 62
    30
 10
1036.3879834203219
 20
-113.0000000000059
 30
0.0
 40
6.0
  0
LINE
  8
SIZE
  6
CONTINUOUS
 62
    30
 10
1036.3879834203219
 20
-113.0000000000059
 30
0.0
 11
1036.3879834203219
 21
-125.0000000000059
 31
0.0
  0
TEXT
  8
SIZE
  6
CONTINUOUS
 62
    30
 10
1011.3879834203215
 20
-356.91200000000617
 30
0.0
 40
64.0
  1
φ258
 50
90.0
 41
0.9
 51
0.0
  7
STANDARD
 71
     0
 72
     1
 11
1011.3879834203215
 21
-242.00000000000611
 31
0.0
210
0.0
220
0.0
230
1.0
  0
POINT
  8
DEFPOINTS
  6
CONTINUOUS
 62
    30
 10
573.70000001010726
 20
-371.00000000000603
 30
0.0
  0
POINT
  8
DEFPOINTS
  6
CONTINUOUS
 62
    30
 10
573.70000001010726
 20
-113.000000000006
 30
0.0
  0
POINT
  8
DEFPOINTS
  6
CONTINUOUS
 62
    30
 10
1036.3879834203219
 20
-113.0000000000059
 30
0.0
  0
LINE
  8
SIZE
  6
CONTINUOUS
 62
    30
 10
-571.99999999998545
 20
-422.9500000103003
 30
0.0
 11
-571.99999999998545
 21
-599.41973429428481
 31
0.0
  0
LINE
  8
SIZE
  6
CONTINUOUS
 62
    30
 10
-406.99999999999682
 20
-415.17535704140761
 30
0.0
 11
-406.99999999999682
 21
-599.41973429428481
 31
0.0
  0
LINE
  8
SIZE
  6
CONTINUOUS
 62
    30
 10
-418.99999999999682
 20
-579.41973429428481
 30
0.0
 11
-559.99999999998545
 21
-579.41973429428481
 31
0.0
  0
LINE
  8
SIZE
  6
CONTINUOUS
 62
    30
 10
-571.99999999998545
 20
-579.41973429428481
 30
0.0
 11
-771.14285714284256
 21
-579.41973429428481
 31
0.0
  0
CIRCLE
  8
SIZE
  6
CONTINUOUS
 62
    30
 10
-406.99999999999682
 20
-579.41973429428481
 30
0.0
 40
6.0
  0
LINE
  8
SIZE
  6
CONTINUOUS
 62
    30
 10
-406.99999999999682
 20
-579.41973429428481
 30
0.0
 11
-418.99999999999682
 21
-579.41973429428481
 31
0.0
  0
CIRCLE
  8
SIZE
  6
CONTINUOUS
 62
    30
 10
-571.99999999998545
 20
-579.41973429428481
 30
0.0
 40
6.0
  0
LINE
  8
SIZE
  6
CONTINUOUS
 62
    30
 10
-571.99999999998545
 20
-579.41973429428481
 30
0.0
 11
-559.99999999998545
 21
-579.41973429428481
 31
0.0
  0
TEXT
  8
SIZE
  6
CONTINUOUS
 62
    30
 10
-752.16342857141399
 20
-554.41973429428481
 30
0.0
 40
64.0
  1
165
 50
0.0
 41
0.9
 51
0.0
  7
STANDARD
 71
     0
 72
     1
 11
-677.571428571414
 21
-554.41973429428481
 31
0.0
210
0.0
220
0.0
230
1.0
  0
POINT
  8
DEFPOINTS
  6
CONTINUOUS
 62
    30
 10
-571.99999999998545
 20
-402.9500000103003
 30
0.0
  0
POINT
  8
DEFPOINTS
  6
CONTINUOUS
 62
    30
 10
-406.99999999999682
 20
-395.17535704140761
 30
0.0
  0
POINT
  8
DEFPOINTS
  6
CONTINUOUS
 62
    30
 10
-406.99999999999682
 20
-579.41973429428481
 30
0.0
  0
POINT
  8
ARRANGE
  6
CONTINUOUS
 62
     1
 10
0.0
 20
0.0
 30
0.0
  0
CIRCLE
  8
ARRANGE
  6
CONTINUOUS
 62
     1
 10
0.0
 20
0.0
 30
0.0
 40
40.0
  0
LINE
  8
OUTLINE
  6
CONTINUOUS
 62
     3
 10
-566.49999999998818
 20
-378.22000234400872
 30
0.0
 11
-566.49999999998772
 21
-371.00000000000591
 31
0.0
  0
LINE
  8
OUTLINE
  6
CONTINUOUS
 62
     3
 10
-566.49999999998772
 20
-371.00000000000591
 30
0.0
 11
-573.69999999995207
 21
-371.00000000000591
 31
0.0
  0
LINE
  8
OUTLINE
  6
CONTINUOUS
 62
     3
 10
-573.69999999995207
 20
-371.00000000000591
 30
0.0
 11
-642.99999999993679
 21
-362.99999999999773
 31
0.0
  0
LINE
  8
OUTLINE
  6
CONTINUOUS
 62
     3
 10
-642.99999999993679
 20
-362.99999999999773
 30
0.0
 11
-650.99999999993679
 21
-362.99999999999773
 31
0.0
  0
LINE
  8
OUTLINE
  6
CONTINUOUS
 62
     3
 10
-650.99999999993679
 20
-362.99999999999773
 30
0.0
 11
-650.99999999993679
 21
-120.9999999999977
 31
0.0
  0
LINE
  8
OUTLINE
  6
CONTINUOUS
 62
     3
 10
-650.99999999993679
 20
-120.9999999999977
 30
0.0
 11
-642.99999999993679
 21
-120.9999999999977
 31
0.0
  0
LINE
  8
OUTLINE
  6
CONTINUOUS
 62
     3
 10
-642.99999999993679
 20
-120.9999999999977
 30
0.0
 11
-584.19999999995571
 21
-114.2121212121197
 31
0.0
  0
LINE
  8
OUTLINE
  6
CONTINUOUS
 62
     3
 10
-584.19999999995571
 20
-114.2121212121197
 30
0.0
 11
-584.20000000000709
 21
-77.000000000002728
 31
0.0
  0
LINE
  8
OUTLINE
  6
CONTINUOUS
 62
     3
 10
-584.20000000000709
 20
-77.000000000002728
 30
0.0
 11
-566.19999999999254
 21
-77.000000000002728
 31
0.0
  0
LINE
  8
OUTLINE
  6
CONTINUOUS
 62
     3
 10
-566.19999999999254
 20
-77.000000000002728
 30
0.0
 11
-566.19999999999254
 21
-2.8000000000024561
 31
0.0
  0
LINE
  8
OUTLINE
  6
CONTINUOUS
 62
     3
 10
-566.19999999999254
 20
-2.8000000000024561
 30
0.0
 11
-565.70000000000709
 21
-2.8000000000024561
 31
0.0
  0
LINE
  8
OUTLINE
  6
CONTINUOUS
 62
     3
 10
-565.70000000000709
 20
-2.8000000000024561
 30
0.0
 11
-565.70000000000709
 21
-1.8000000000024561
 31
0.0
  0
ARC
  8
OUTLINE
  6
CONTINUOUS
 62
     3
 10
-566.19999999998208
 20
-1.7999999999774106
 30
0.0
 40
0.4999999999749545
 50
0.0
 51
90.0
  0
LINE
  8
OUTLINE
  6
CONTINUOUS
 62
     3
 10
-566.19999999999254
 20
-1.3000000000024561
 30
0.0
 11
-567.70000000001437
 21
-1.3000000000142791
 31
0.0
  0
LINE
  8
OUTLINE
  6
CONTINUOUS
 62
     3
 10
-567.70000000001437
 20
-1.3000000000142791
 30
0.0
 11
-567.70000000000709
 21
-2.100000000005366
 31
0.0
  0
LINE
  8
OUTLINE
  6
CONTINUOUS
 62
     3
 10
-567.70000000000709
 20
-2.100000000005366
 30
0.0
 11
-570.92500000001291
 21
-2.100000000005366
 31
0.0
  0
ARC
  8
OUTLINE
  6
CONTINUOUS
 62
     3
 10
-570.94985294114576
 20
-1.0501470588254673
 30
0.0
 40
1.0501470691227184
 50
90.008023495662655
 51
271.35609728877341
  0
LINE
  8
OUTLINE
  6
CONTINUOUS
 62
     3
 10
-570.94999999997799
 20
0.0000000000004547
 30
0.0
 11
-565.87127970599522
 21
0.0000000000004547
 31
0.0
  0
ARC
  8
OUTLINE
  6
CONTINUOUS
 62
     3
 10
-565.87127970597646
 20
-1.5999999999797951
 30
0.0
 40
1.5999999999802499
 50
9.9999999997553459
 51
90.0
  0
LINE
  8
OUTLINE
  6
CONTINUOUS
 62
     3
 10
-564.29558730117515
 20
-1.322162915722856
 30
0.0
 11
-564.20000000000709
 21
-1.8642654312766349
 31
0.0
  0
LINE
  8
OUTLINE
  6
CONTINUOUS
 62
     3
 10
-564.20000000000709
 20
-1.8642654312766349
 30
0.0
 11
-564.20000000000709
 21
-0.8000000000015461
 31
0.0
  0
LINE
  8
OUTLINE
  6
CONTINUOUS
 62
     3
 10
-564.20000000000709
 20
-0.8000000000015461
 30
0.0
 11
-562.84708539201074
 21
-0.8000000000015461
 31
0.0
  0
LINE
  8
OUTLINE
  6
CONTINUOUS
 62
     3
 10
-562.84708539201074
 20
-0.8000000000015461
 30
0.0
 11
-562.84708539201074
 21
0.0000000000004547
 31
0.0
  0
LINE
  8
OUTLINE
  6
CONTINUOUS
 62
     3
 10
-562.84708539201074
 20
0.0000000000004547
 30
0.0
 11
562.84708539201256
 21
0.0000000000004547
 31
0.0
  0
LINE
  8
OUTLINE
  6
CONTINUOUS
 62
     3
 10
562.84708539201256
 20
0.0000000000004547
 30
0.0
 11
562.84708539201256
 21
-0.8000000000015461
 31
0.0
  0
LINE
  8
OUTLINE
  6
CONTINUOUS
 62
     3
 10
562.84708539201256
 20
-0.8000000000015461
 30
0.0
 11
564.19999999999436
 21
-0.8000000000015461
 31
0.0
  0
LINE
  8
OUTLINE
  6
CONTINUOUS
 62
     3
 10
564.19999999999436
 20
-0.8000000000015461
 30
0.0
 11
564.19999999999436
 21
-1.8642654312611739
 31
0.0
  0
LINE
  8
OUTLINE
  6
CONTINUOUS
 62
     3
 10
564.19999999999436
 20
-1.8642654312611739
 30
0.0
 11
564.29558730000008
 21
-1.3221629159957049
 31
0.0
  0
ARC
  8
OUTLINE
  6
CONTINUOUS
 62
     3
 10
565.87127970329698
 20
-1.5999999981296344
 30
0.0
 40
1.5999999981300888
 50
90.0
 51
170.00000006575942
  0
LINE
  8
OUTLINE
  6
CONTINUOUS
 62
     3
 10
565.87127970398888
 20
0.0000000000004547
 30
0.0
 11
570.94999999999436
 21
0.0000000000004547
 31
0.0
  0
ARC
  8
OUTLINE
  6
CONTINUOUS
 62
     3
 10
570.94999999999436
 20
-1.0500000000024559
 30
0.0
 40
1.0500000000029106
 50
270.0
 51
90.0
  0
LINE
  8
OUTLINE
  6
CONTINUOUS
 62
     3
 10
570.94999999999436
 20
-2.100000000005366
 30
0.0
 11
567.69999999999436
 21
-2.100000000005366
 31
0.0
  0
LINE
  8
OUTLINE
  6
CONTINUOUS
 62
     3
 10
567.69999999999436
 20
-2.100000000005366
 30
0.0
 11
567.69999999999436
 21
-1.3000000000056391
 31
0.0
  0
LINE
  8
OUTLINE
  6
CONTINUOUS
 62
     3
 10
567.69999999999436
 20
-1.3000000000056391
 30
0.0
 11
566.20000000000891
 21
-1.3000000000024561
 31
0.0
  0
ARC
  8
OUTLINE
  6
CONTINUOUS
 62
     3
 10
566.1999999999905
 20
-1.7999999999785743
 30
0.0
 40
0.4999999999761183
 50
90.0
 51
180.0
  0
LINE
  8
OUTLINE
  6
CONTINUOUS
 62
     3
 10
565.70000000001437
 20
-1.8000000000029099
 30
0.0
 11
565.70000000001437
 21
-2.8000000000029099
 31
0.0
  0
LINE
  8
OUTLINE
  6
CONTINUOUS
 62
     3
 10
565.70000000001437
 20
-2.8000000000029099
 30
0.0
 11
566.20000000000891
 21
-2.8000000000024561
 31
0.0
  0
LINE
  8
OUTLINE
  6
CONTINUOUS
 62
     3
 10
566.20000000000891
 20
-2.8000000000024561
 30
0.0
 11
566.20000000000891
 21
-77.000000000002728
 31
0.0
  0
LINE
  8
OUTLINE
  6
CONTINUOUS
 62
     3
 10
566.20000000000891
 20
-77.000000000002728
 30
0.0
 11
584.70000000000891
 21
-77.000000000002728
 31
0.0
  0
LINE
  8
OUTLINE
  6
CONTINUOUS
 62
     3
 10
584.70000000000891
 20
-77.000000000002728
 30
0.0
 11
584.70000000000709
 21
-114.269841269841
 31
0.0
  0
LINE
  8
OUTLINE
  6
CONTINUOUS
 62
     3
 10
584.70000000000709
 20
-114.269841269841
 30
0.0
 11
642.99999999997362
 21
-120.9999999999977
 31
0.0
  0
LINE
  8
OUTLINE
  6
CONTINUOUS
 62
     3
 10
642.99999999997362
 20
-120.9999999999977
 30
0.0
 11
650.99999999997362
 21
-120.9999999999977
 31
0.0
  0
LINE
  8
OUTLINE
  6
CONTINUOUS
 62
     3
 10
650.99999999997362
 20
-120.9999999999977
 30
0.0
 11
650.99999999997362
 21
-362.99999999999773
 31
0.0
  0
LINE
  8
OUTLINE
  6
CONTINUOUS
 62
     3
 10
650.99999999997362
 20
-362.99999999999773
 30
0.0
 11
642.99999999997362
 21
-362.99999999999773
 31
0.0
  0
LINE
  8
OUTLINE
  6
CONTINUOUS
 62
     3
 10
642.99999999997362
 20
-362.99999999999773
 30
0.0
 11
573.6999999999889
 21
-371.00000000000591
 31
0.0
  0
LINE
  8
OUTLINE
  6
CONTINUOUS
 62
     3
 10
573.6999999999889
 20
-371.00000000000591
 30
0.0
 11
566.50000000002456
 21
-371.00000000000591
 31
0.0
  0
LINE
  8
OUTLINE
  6
CONTINUOUS
 62
     3
 10
566.50000000002456
 20
-371.00000000000591
 30
0.0
 11
566.50000000002456
 21
-384.55000000000251
 31
0.0
  0
LINE
  8
OUTLINE
  6
CONTINUOUS
 62
     3
 10
566.50000000002456
 20
-384.55000000000251
 30
0.0
 11
566.20000000000709
 21
-384.55110455599828
 31
0.0
  0
LINE
  8
OUTLINE
  6
CONTINUOUS
 62
     3
 10
566.20000000000709
 20
-384.55110455599828
 30
0.0
 11
566.20000000000891
 21
-401.20000000000442
 31
0.0
  0
LINE
  8
OUTLINE
  6
CONTINUOUS
 62
     3
 10
566.20000000000891
 20
-401.20000000000442
 30
0.0
 11
565.70000000002346
 21
-401.20000000000442
 31
0.0
  0
LINE
  8
OUTLINE
  6
CONTINUOUS
 62
     3
 10
565.70000000002346
 20
-401.20000000000442
 30
0.0
 11
565.70000000000891
 21
-402.20000000000249
 31
0.0
  0
ARC
  8
OUTLINE
  6
CONTINUOUS
 62
     3
 10
566.20000000000994
 20
-402.20000000000243
 30
0.0
 40
0.5000000000010576
 50
180.0
 51
270.0
  0
LINE
  8
OUTLINE
  6
CONTINUOUS
 62
     3
 10
566.20000000000891
 20
-402.70000000000351
 30
0.0
 11
567.69999999999436
 21
-402.70000000003353
 31
0.0
  0
LINE
  8
OUTLINE
  6
CONTINUOUS
 62
     3
 10
567.69999999999436
 20
-402.70000000003353
 30
0.0
 11
567.69999999999436
 21
-401.9000000000151
 31
0.0
  0
LINE
  8
OUTLINE
  6
CONTINUOUS
 62
     3
 10
567.69999999999436
 20
-401.9000000000151
 30
0.0
 11
570.94999999999436
 21
-401.9000000000151
 31
0.0
  0
ARC
  8
OUTLINE
  6
CONTINUOUS
 62
     3
 10
570.94999999999436
 20
-402.950000000003
 30
0.0
 40
1.0499999999879037
 50
270.0
 51
90.0
  0
LINE
  8
OUTLINE
  6
CONTINUOUS
 62
     3
 10
570.94999999999436
 20
-403.99999999999091
 30
0.0
 11
565.87127970398888
 21
-404.00000000000051
 31
0.0
  0
ARC
  8
OUTLINE
  6
CONTINUOUS
 62
     3
 10
565.87127970331562
 20
-402.40000000185006
 30
0.0
 40
1.5999999981504784
 50
189.9999999345381
 51
270.0
  0
LINE
  8
OUTLINE
  6
CONTINUOUS
 62
     3
 10
564.29558730000008
 20
-402.67783708399571
 30
0.0
 11
564.19999999999436
 21
-402.13573456875571
 31
0.0
  0
LINE
  8
OUTLINE
  6
CONTINUOUS
 62
     3
 10
564.19999999999436
 20
-402.13573456875571
 30
0.0
 11
564.19999999999436
 21
-403.20000000000351
 31
0.0
  0
LINE
  8
OUTLINE
  6
CONTINUOUS
 62
     3
 10
564.19999999999436
 20
-403.20000000000351
 30
0.0
 11
562.80000000001473
 21
-403.20000000000351
 31
0.0
  0
LINE
  8
OUTLINE
  6
CONTINUOUS
 62
     3
 10
562.80000000001473
 20
-403.20000000000351
 30
0.0
 11
562.80000000001473
 21
-403.99999999999091
 31
0.0
  0
LINE
  8
OUTLINE
  6
CONTINUOUS
 62
     3
 10
562.80000000001473
 20
-403.99999999999091
 30
0.0
 11
-562.79999999999836
 21
-403.99999999999091
 31
0.0
  0
LINE
  8
OUTLINE
  6
CONTINUOUS
 62
     3
 10
-562.79999999999836
 20
-403.99999999999091
 30
0.0
 11
-562.79999999999836
 21
-403.20000000000351
 31
0.0
  0
LINE
  8
OUTLINE
  6
CONTINUOUS
 62
     3
 10
-562.79999999999836
 20
-403.20000000000351
 30
0.0
 11
-564.20000000000709
 21
-403.20000000000351
 31
0.0
  0
LINE
  8
OUTLINE
  6
CONTINUOUS
 62
     3
 10
-564.20000000000709
 20
-403.20000000000351
 30
0.0
 11
-564.20000000000709
 21
-402.13573456874252
 31
0.0
  0
LINE
  8
OUTLINE
  6
CONTINUOUS
 62
     3
 10
-564.20000000000709
 20
-402.13573456874252
 30
0.0
 11
-564.29558729999826
 21
-402.67783708399571
 31
0.0
  0
ARC
  8
OUTLINE
  6
CONTINUOUS
 62
     3
 10
-565.87127970684151
 20
-402.39999999763421
 30
0.0
 40
1.6000000023567025
 50
270.0
 51
349.99999993872291
  0
LINE
  8
OUTLINE
  6
CONTINUOUS
 62
     3
 10
-565.87127970599522
 20
-403.99999999999091
 30
0.0
 11
-570.94999999997799
 21
-403.99999999999091
 31
0.0
  0
ARC
  8
OUTLINE
  6
CONTINUOUS
 62
     3
 10
-570.94985294117453
 20
-402.94985294119039
 30
0.0
 40
1.0501470690973391
 50
88.643902709624115
 51
269.99197650590645
  0
LINE
  8
OUTLINE
  6
CONTINUOUS
 62
     3
 10
-570.92500000001291
 20
-401.90000000003653
 30
0.0
 11
-567.70000000000709
 21
-401.9000000000151
 31
0.0
  0
LINE
  8
OUTLINE
  6
CONTINUOUS
 62
     3
 10
-567.70000000000709
 20
-401.9000000000151
 30
0.0
 11
-567.70000000001073
 21
-402.70000000003211
 31
0.0
  0
LINE
  8
OUTLINE
  6
CONTINUOUS
 62
     3
 10
-567.70000000001073
 20
-402.70000000003211
 30
0.0
 11
-566.20000000001073
 21
-402.70000000003262
 31
0.0
  0
ARC
  8
OUTLINE
  6
CONTINUOUS
 62
     3
 10
-566.2000000000105
 20
-402.20000000003284
 30
0.0
 40
0.4999999999997962
 50
270.0
 51
0.0
  0
LINE
  8
OUTLINE
  6
CONTINUOUS
 62
     3
 10
-565.70000000001073
 20
-402.20000000003262
 30
0.0
 11
-565.70000000001073
 21
-401.20000000000442
 31
0.0
  0
LINE
  8
OUTLINE
  6
CONTINUOUS
 62
     3
 10
-565.70000000001073
 20
-401.20000000000442
 30
0.0
 11
-566.19999999999254
 21
-401.20000000000442
 31
0.0
  0
LINE
  8
OUTLINE
  6
CONTINUOUS
 62
     3
 10
-566.19999999999254
 20
-401.20000000000442
 30
0.0
 11
-566.19999999998527
 21
-378.22000234400872
 31
0.0
  0
LINE
  8
OUTLINE
  6
CONTINUOUS
 62
     3
 10
-566.19999999998527
 20
-378.22000234400872
 30
0.0
 11
-566.49999999998818
 21
-378.22000234400872
 31
0.0
  0
LINE
  8
BASIS
  6
DASHDOT
 62
     6
 10
616.43427874097688
 20
-77.000000000010459
 30
0.0
 11
514.56572125902312
 21
-77.000000000010459
 31
0.0
  0
LINE
  8
BASIS
  6
DASHDOT
 62
     6
 10
565.5
 20
-26.06572125902812
 30
0.0
 11
565.5
 21
-127.9342787409782
 31
0.0
  0
LINE
  8
SIZE
  6
CONTINUOUS
 62
    30
 10
565.5
 20
-6.0657212590281233
 30
0.0
 11
565.5
 21
146.7281622948253
 31
0.0
  0
LINE
  8
SIZE
  6
CONTINUOUS
 62
    30
 10
-565.50000000000045
 20
-6.0657212590281233
 30
0.0
 11
-565.50000000000045
 21
146.7281622948253
 31
0.0
  0
LINE
  8
SIZE
  6
CONTINUOUS
 62
    30
 10
553.5
 20
126.7281622948253
 30
0.0
 11
-553.50000000000045
 21
126.7281622948253
 31
0.0
  0
CIRCLE
  8
SIZE
  6
CONTINUOUS
 62
    30
 10
565.5
 20
126.7281622948253
 30
0.0
 40
6.0
  0
LINE
  8
SIZE
  6
CONTINUOUS
 62
    30
 10
565.5
 20
126.7281622948253
 30
0.0
 11
553.5
 21
126.7281622948253
 31
0.0
  0
CIRCLE
  8
SIZE
  6
CONTINUOUS
 62
    30
 10
-565.50000000000045
 20
126.7281622948253
 30
0.0
 40
6.0
  0
LINE
  8
SIZE
  6
CONTINUOUS
 62
    30
 10
-565.50000000000045
 20
126.7281622948253
 30
0.0
 11
-553.50000000000045
 21
126.7281622948253
 31
0.0
  0
TEXT
  8
SIZE
  6
CONTINUOUS
 62
    30
 10
-89.856000000000236
 20
151.7281622948253
 30
0.0
 40
64.0
  1
1131
 50
0.0
 41
0.9
 51
0.0
  7
STANDARD
 71
     0
 72
     1
 11
-0.0000000000002274
 21
151.7281622948253
 31
0.0
210
0.0
220
0.0
230
1.0
  0
POINT
  8
DEFPOINTS
  6
CONTINUOUS
 62
    30
 10
565.5
 20
-26.06572125902812
 30
0.0
  0
POINT
  8
DEFPOINTS
  6
CONTINUOUS
 62
    30
 10
-565.50000000000045
 20
-26.06572125902812
 30
0.0
  0
POINT
  8
DEFPOINTS
  6
CONTINUOUS
 62
    30
 10
-565.50000000000045
 20
126.7281622948253
 30
0.0
  0
LINE
  8
BASIS
  6
DASHDOT
 62
     6
 10
-616.43427874097733
 20
-77.00000000000955
 30
0.0
 11
-514.56572125902358
 21
-77.00000000000955
 31
0.0
  0
LINE
  8
BASIS
  6
DASHDOT
 62
     6
 10
-565.50000000000045
 20
-26.06572125902812
 30
0.0
 11
-565.50000000000045
 21
-127.9342787409782
 31
0.0
  0
CIRCLE
  8
FIX
  6
CONTINUOUS
 62
    11
 10
565.50000000000364
 20
-77.000000000010459
 30
0.0
 40
6.5
  0
CIRCLE
  8
FIX
  6
CONTINUOUS
 62
    11
 10
-565.49999999999682
 20
-77.00000000000955
 30
0.0
 40
6.5
  0
TEXT
  8
NOTE
  6
CONTINUOUS
 62
     4
 10
703.04924656985713
 20
-270.22484275560191
 30
0.0
 40
64.065641025638456
  1
SA
 41
0.9
  0
TEXT
  8
NOTE
  6
CONTINUOUS
 62
     4
 10
-801.89337843798512
 20
-270.22484275560191
 30
0.0
 40
64.065641025638456
  1
OA
 41
0.9
  0
TEXT
  8
ETC
  6
CONTINUOUS
 62
    61
 10
912.30999512459312
 20
778.39943370898936
 30
0.0
 40
64.065641025638456
  1
LGH-100RVX3-E_5
 41
0.9
  0
TEXT
  8
ETC
  6
CONTINUOUS
 62
    61
 10
908.11970779741387
 20
660.32314388901887
 30
0.0
 40
64.065641025638456
  1
LOSSNAY
 41
0.9
  0
TEXT
  8
ETC
  6
CONTINUOUS
 62
    61
 10
958.87310748006712
 20
552.06344918445268
 30
0.0
 40
40.041025641024042
  1
LGH-100RVX3-E
 50
0.0
 41
0.9
 51
0.0
  7
STANDARD
 71
     0
 11
0.0
 21
0.0
 31
0.0
210
0.0
220
0.0
230
1.0
  0
TEXT
  8
NOTE
  6
CONTINUOUS
 62
     4
 10
634.2271321340213
 20
-489.83198059298547
 30
0.0
 40
69.0
  1
Power supply
 50
0.0
 41
0.9
 51
0.0
  7
STANDARD
 71
     0
 11
0.0
 21
0.0
 31
0.0
210
0.0
220
0.0
230
1.0
  0
TEXT
  8
NOTE
  6
CONTINUOUS
 62
     4
 10
634.2271321340213
 20
-603.6819805929855
 30
0.0
 40
69.0
  1
cable opening
 50
0.0
 41
0.9
 51
0.0
  7
STANDARD
 71
     0
 11
0.0
 21
0.0
 31
0.0
210
0.0
220
0.0
230
1.0
  0
LINE
  8
NOTE
  6
CONTINUOUS
 62
     4
 10
624.2271321340213
 20
-627.83198059298547
 30
0.0
 11
1275.9271321340209
 21
-627.83198059298547
 31
0.0
  0
LINE
  8
NOTE
  6
CONTINUOUS
 62
     4
 10
471.91875696988592
 20
-351.5750446640979
 30
0.0
 11
465.29999537412908
 21
-315.95000335884419
 31
0.0
  0
LINE
  8
NOTE
  6
CONTINUOUS
 62
     4
 10
465.29999537412908
 20
-315.95000335884419
 30
0.0
 11
488.84457321571244
 21
-343.49277786186258
 31
0.0
  0
LINE
  8
NOTE
  6
CONTINUOUS
 62
     4
 10
465.29999537412908
 20
-315.95000335884419
 30
0.0
 11
495.46333481146934
 21
-379.11781916711629
 31
0.0
  0
LINE
  8
NOTE
  6
CONTINUOUS
 62
     4
 10
495.46333481146939
 20
-379.11781916711641
 30
0.0
 11
614.2271321340213
 21
-627.83198059298547
 31
0.0
  0
LINE
  8
NOTE
  6
CONTINUOUS
 62
     4
 10
614.2271321340213
 20
-627.83198059298547
 30
0.0
 11
624.2271321340213
 21
-627.83198059298547
 31
0.0
  0
TEXT
  8
NOTE
  6
CONTINUOUS
 62
     4
 10
707.00887299171154
 20
372.50919782022271
 30
0.0
 40
69.0
  1
Ceiling suspension fixture
 50
0.0
 41
0.9
 51
0.0
  7
STANDARD
 71
     0
 11
0.0
 21
0.0
 31
0.0
210
0.0
220
0.0
230
1.0
  0
TEXT
  8
NOTE
  6
CONTINUOUS
 62
     4
 10
707.00887299171154
 20
258.65919782022274
 30
0.0
 40
69.0
  1
(4-13X20 oval)
 50
0.0
 41
0.9
 51
0.0
  7
STANDARD
 71
     0
 11
0.0
 21
0.0
 31
0.0
210
0.0
220
0.0
230
1.0
  0
LINE
  8
NOTE
  6
CONTINUOUS
 62
     4
 10
697.00887299171154
 20
221.36634067736529
 30
0.0
 11
1913.523158705997
 21
221.36634067736529
 31
0.0
  0
LINE
  8
NOTE
  6
CONTINUOUS
 62
     4
 10
587.38655019832072
 20
-48.122145275688467
 30
0.0
 11
565.50000000000364
 21
-77.000000000010459
 31
0.0
  0
LINE
  8
NOTE
  6
CONTINUOUS
 62
     4
 10
565.50000000000364
 20
-77.000000000010459
 30
0.0
 11
570.01532693279432
 21
-41.047762298408145
 31
0.0
  0
LINE
  8
NOTE
  6
CONTINUOUS
 62
     4
 10
565.50000000000364
 20
-77.000000000010459
 30
0.0
 11
591.90187713111141
 21
-12.169907574086153
 31
0.0
  0
LINE
  8
NOTE
  6
CONTINUOUS
 62
     4
 10
591.90187713111141
 20
-12.16990757408615
 30
0.0
 11
687.00887299171154
 21
221.36634067736529
 31
0.0
  0
LINE
  8
NOTE
  6
CONTINUOUS
 62
     4
 10
687.00887299171154
 20
221.36634067736529
 30
0.0
 11
697.00887299171154
 21
221.36634067736529
 31
0.0
  0
ENDSEC
  0
EOF
