  0
SECTION
  2
HEADER
  9
$ACADVER
  1
AC1009
  9
$DWGCODEPAGE
  3
dos932
  9
$INSBASE
 10
0.0
 20
0.0
 30
0.0
  9
$EXTMIN
 10
-1069.51902692616
 20
-599.53306952902676
 30
-0.0000000349181948
  9
$EXTMAX
 10
1869.8455936040771
 20
842.7429282371213
 30
0.0000000814935746
  9
$LIMMIN
 10
-2970.0
 20
-2100.0
  9
$LIMMAX
 10
2970.0
 20
2100.0
  9
$ORTHOMODE
 70
     1
  9
$REGENMODE
 70
     1
  9
$FILLMODE
 70
     1
  9
$QTEXTMODE
 70
     0
  9
$MIRRTEXT
 70
     0
  9
$LTSCALE
 40
20.0
  9
$ATTMODE
 70
     1
  9
$TEXTSIZE
 40
64.0
  9
$TRACEWID
 40
0.05
  9
$TEXTSTYLE
  7
STANDARD
  9
$CLAYER
  8
SIZE
  9
$CELTYPE
  6
CONTINUOUS
  9
$CECOLOR
 62
     7
  9
$DIMSCALE
 40
1.0
  9
$DIMASZ
 40
12.0
  9
$DIMEXO
 40
20.0
  9
$DIMDLI
 40
200.0
  9
$DIMRND
 40
0.0
  9
$DIMDLE
 40
0.0
  9
$DIMEXE
 40
20.0
  9
$DIMTP
 40
0.0
  9
$DIMTM
 40
0.0
  9
$DIMTXT
 40
64.0
  9
$DIMCEN
 40
0.09
  9
$DIMTSZ
 40
0.0
  9
$DIMTOL
 70
     0
  9
$DIMLIM
 70
     0
  9
$DIMTIH
 70
     0
  9
$DIMTOH
 70
     0
  9
$DIMSE1
 70
     0
  9
$DIMSE2
 70
     0
  9
$DIMTAD
 70
     1
  9
$DIMZIN
 70
     8
  9
$DIMBLK
  1

  9
$DIMASO
 70
     1
  9
$DIMSHO
 70
     0
  9
$DIMPOST
  1

  9
$DIMAPOST
  1

  9
$DIMALT
 70
     0
  9
$DIMALTD
 70
     2
  9
$DIMALTF
 40
25.399999999999999
  9
$DIMLFAC
 40
1.0
  9
$DIMTOFL
 70
     1
  9
$DIMTVP
 40
0.0
  9
$DIMTIX
 70
     1
  9
$DIMSOXD
 70
     0
  9
$DIMSAH
 70
     0
  9
$DIMBLK1
  1

  9
$DIMBLK2
  1

  9
$DIMSTYLE
  2
STANDARD
  9
$DIMCLRD
 70
     7
  9
$DIMCLRE
 70
     7
  9
$DIMCLRT
 70
     7
  9
$DIMTFAC
 40
1.0
  9
$DIMGAP
 40
25.0
  9
$LUNITS
 70
     2
  9
$LUPREC
 70
     4
  9
$SKETCHINC
 40
0.1
  9
$FILLETRAD
 40
3.0
  9
$AUNITS
 70
     1
  9
$AUPREC
 70
     3
  9
$MENU
  1
ACAD
  9
$ELEVATION
 40
0.0
  9
$PELEVATION
 40
0.0
  9
$THICKNESS
 40
0.0
  9
$LIMCHECK
 70
     0
  9
$CHAMFERA
 40
0.0
  9
$CHAMFERB
 40
0.0
  9
$SKPOLY
 70
     0
  9
$TDCREATE
 40
2453019.62301037
  9
$TDUPDATE
 40
2460045.429263391
  9
$TDINDWG
 40
1.7274696875
  9
$TDUSRTIMER
 40
1.7274696875
  9
$USRTIMER
 70
     1
  9
$ANGBASE
 50
0.0
  9
$ANGDIR
 70
     0
  9
$PDMODE
 70
     3
  9
$PDSIZE
 40
-2.0
  9
$PLINEWID
 40
0.0
  9
$SPLFRAME
 70
     0
  9
$SPLINETYPE
 70
     6
  9
$SPLINESEGS
 70
     8
  9
$SURFTAB1
 70
     6
  9
$SURFTAB2
 70
     6
  9
$SURFTYPE
 70
     6
  9
$SURFU
 70
     6
  9
$SURFV
 70
     6
  9
$UCSNAME
  2

  9
$UCSORG
 10
0.0
 20
0.0
 30
0.0
  9
$UCSXDIR
 10
1.0
 20
0.0
 30
0.0
  9
$UCSYDIR
 10
0.0
 20
1.0
 30
0.0
  9
$PUCSNAME
  2

  9
$PUCSORG
 10
0.0
 20
0.0
 30
0.0
  9
$PUCSXDIR
 10
1.0
 20
0.0
 30
0.0
  9
$PUCSYDIR
 10
0.0
 20
1.0
 30
0.0
  9
$USERI1
 70
     0
  9
$USERI2
 70
     0
  9
$USERI3
 70
     0
  9
$USERI4
 70
     0
  9
$USERI5
 70
     0
  9
$USERR1
 40
20.0
  9
$USERR2
 40
0.0
  9
$USERR3
 40
0.0
  9
$USERR4
 40
0.0
  9
$USERR5
 40
0.0
  9
$WORLDVIEW
 70
     1
  9
$SHADEDGE
 70
     3
  9
$SHADEDIF
 70
    70
  9
$TILEMODE
 70
     1
  9
$MAXACTVP
 70
    48
  9
$PINSBASE
 10
0.0
 20
0.0
 30
0.0
  9
$PLIMCHECK
 70
     0
  9
$PEXTMIN
 10
1.049999952316284
 20
0.7999999523162842
 30
0.0
  9
$PEXTMAX
 10
9.4499995708465594
 20
7.1999995708465594
 30
0.0
  9
$PLIMMIN
 10
-0.2500002402958907
 20
-0.2499999962453767
  9
$PLIMMAX
 10
10.74999951940822
 20
8.2499997634587334
  9
$UNITMODE
 70
     0
  9
$VISRETAIN
 70
     0
  9
$PLINEGEN
 70
     0
  9
$PSLTSCALE
 70
     0
  9
$TREEDEPTH
 70
  3020
  9
$ATTDIA
 70
     0
  9
$ATTREQ
 70
     1
  9
$BLIPMODE
 70
     1
  9
$COORDS
 70
     1
  9
$DRAGMODE
 70
     2
  9
$OSMODE
 70
     0
  9
$HANDLING
 70
     0
  9
$HANDSEED
  5
FE2B
  0
ENDSEC
  0
SECTION
  2
TABLES
  0
TABLE
  2
LTYPE
 70
     3
  0
LTYPE
  2
CONTINUOUS
 70
     0
  3
実線
 72
    65
 73
     0
 40
0.0
  0
LTYPE
  2
DASHDOT
 70
     0
  3
____ _ ____ _ ____ _ ____ _ ____ _ ____ _ ____
 72
    65
 73
     4
 40
5.5
 49
4.0
 49
-0.6
 49
0.3
 49
-0.6
  0
LTYPE
  2
DASHED
 70
     0
  3
-- -- -- -- -- -- -- -- -- -- -- -- -- -- --
 72
    65
 73
     2
 40
0.75
 49
0.5
 49
-0.25
  0
ENDTAB
  0
TABLE
  2
LAYER
 70
    12
  0
LAYER
  2
0
 70
     0
 62
     7
  6
CONTINUOUS
  0
LAYER
  2
BASIS
 70
     0
 62
     6
  6
DASHDOT
  0
LAYER
  2
OUTLINE
 70
     0
 62
     3
  6
CONTINUOUS
  0
LAYER
  2
DETAIL
 70
     0
 62
     5
  6
CONTINUOUS
  0
LAYER
  2
SIZE
 70
     0
 62
    30
  6
CONTINUOUS
  0
LAYER
  2
ARRANGE
 70
     0
 62
     1
  6
CONTINUOUS
  0
LAYER
  2
DEFPOINTS
 70
     0
 62
     7
  6
CONTINUOUS
  0
LAYER
  2
ETC
 70
     0
 62
    61
  6
CONTINUOUS
  0
LAYER
  2
FIX
 70
     0
 62
    11
  6
CONTINUOUS
  0
LAYER
  2
NOTE
 70
     0
 62
     4
  6
CONTINUOUS
  0
LAYER
  2
SERVICESPACE
 70
    64
 62
     2
  6
DASHDOT
  0
LAYER
  2
SYMBOLLINE
 70
    64
 62
    15
  6
CONTINUOUS
  0
ENDTAB
  0
TABLE
  2
STYLE
 70
     1
  0
STYLE
  2
STANDARD
 70
     0
 40
64.0
 41
0.9
 50
0.0
 71
     0
 42
64.0
  3
SIMPLEX.shx
  4
BIGFONT.shx
  0
ENDTAB
  0
TABLE
  2
APPID
 70
    23
  0
APPID
  2
ACAD
 70
     0
  0
APPID
  2
AUTOCAD_POSTSCRIPT_FIGURE
 70
     0
  0
APPID
  2
ACAD_EXEMPT_FROM_CAD_STANDARDS
 70
     0
  0
APPID
  2
ACAD_PSEXT
 70
     0
  0
APPID
  2
ACAUTHENVIRON
 70
     0
  0
APPID
  2
GENIUS_GENOENT_13
 70
     0
  0
APPID
  2
GENIUS_GENCFG_13
 70
     0
  0
APPID
  2
GENIUS_GENCFG0_13
 70
     0
  0
APPID
  2
GENIUS_GENCFG1_13
 70
     0
  0
APPID
  2
GENIUS_GENCFG2_13
 70
     0
  0
APPID
  2
GENIUS_GENCFG3_13
 70
     0
  0
APPID
  2
GENIUS_GENCFG4_13
 70
     0
  0
APPID
  2
GENIUS_GEVCFG0_13
 70
     0
  0
APPID
  2
CONTENTBLOCKICON
 70
     0
  0
APPID
  2
CONTENTBLOCKDESCRIPTION
 70
     0
  0
APPID
  2
ACAD_NAV_VCDISPLAY
 70
     0
  0
APPID
  2
ACAD_MLEADERVER
 70
     0
  0
APPID
  2
ACDBDYNAMICBLOCKTRUENAME
 70
     0
  0
APPID
  2
ACDBDYNAMICBLOCKGUID
 70
     0
  0
APPID
  2
ACAD_DSTYLE_DIMRADIAL_EXTENSION
 70
     0
  0
APPID
  2
GENIUS_GENODEF_13
 70
     0
  0
APPID
  2
GENIUS_GENOBJ-N-CEN_13
 70
     0
  0
APPID
  2
GENIUS_GENCEN_19
 70
     0
  0
ENDTAB
  0
TABLE
  2
DIMSTYLE
 70
     1
  0
DIMSTYLE
  2
STANDARD
 70
     0
  3

  4

  5
_ORIGIN
  6

  7

 40
1.0
 41
12.0
 42
20.0
 43
200.0
 44
20.0
 45
0.0
 46
0.0
 47
0.0
 48
0.0
140
64.0
141
0.09
142
0.0
143
25.399999999999999
144
1.0
145
0.0
146
1.0
147
25.0
 71
     0
 72
     0
 73
     0
 74
     0
 75
     0
 76
     0
 77
     1
 78
     8
170
     0
171
     2
172
     1
173
     0
174
     1
175
     0
176
     7
177
     7
178
     7
  0
ENDTAB
  0
TABLE
  2
VIEW
 70
     1
  0
VIEW
  2
ALL
 70
     0
 40
4282.6198079999986
 10
0.0
 20
41.309904000000003
 41
5940.0
 11
0.0
 21
0.0
 31
1.0
 12
0.0
 22
0.0
 32
0.0
 42
50.0
 43
0.0
 44
0.0
 50
0.0
 71
     0
  0
ENDTAB
  0
TABLE
  2
UCS
 70
     0
  0
ENDTAB
  0
TABLE
  2
VPORT
 70
     1
  0
VPORT
  2
*ACTIVE
 70
     0
 10
0.0
 20
0.0
 11
1.0
 21
1.0
 12
400.16328333895848
 22
121.6049293540473
 13
0.0
 23
0.0
 14
1.0
 24
1.0
 15
0.0
 25
0.0
 16
0.0
 26
0.0
 36
1.0
 17
0.0
 27
0.0
 37
0.0
 40
1656.396259922936
 41
1.781285231116122
 42
50.0
 43
0.0
 44
0.0
 50
0.0
 51
0.0
 71
     0
 72
  1000
 73
     1
 74
     3
 75
     0
 76
     0
 77
     0
 78
     0
  0
ENDTAB
  0
ENDSEC
  0
SECTION
  2
BLOCKS
  0
BLOCK
  8
0
  2
_ORIGIN
 70
     0
 10
0.0
 20
0.0
 30
0.0
  3
_ORIGIN
  1
_ORIGIN
  0
CIRCLE
  8
0
  6
CONTINUOUS
 62
     7
 10
0.0
 20
0.0
 30
0.0
 40
0.5
  0
LINE
  8
0
  6
CONTINUOUS
 62
     7
 10
0.0
 20
0.0
 30
0.0
 11
-1.0
 21
0.0
 31
0.0
  0
ENDBLK
  8
0
  0
ENDSEC
  0
SECTION
  2
ENTITIES
  0
LINE
  8
DETAIL
  6
CONTINUOUS
 62
     5
 10
584.19999999999254
 20
-122.0000000000032
 30
0.0
 11
584.19999999999254
 21
-77.000000000003183
 31
0.0
  0
LINE
  8
DETAIL
  6
CONTINUOUS
 62
     5
 10
572.19999999997799
 20
-84.000000000003183
 30
0.0
 11
572.19999999997799
 21
-77.000000000003183
 31
0.0
  0
LINE
  8
DETAIL
  6
CONTINUOUS
 62
     5
 10
570.69999999999254
 20
-403.20000000000249
 30
0.0
 11
570.69999999999254
 21
-402.70000000000249
 31
0.0
  0
LINE
  8
DETAIL
  6
CONTINUOUS
 62
     5
 10
570.69999999999254
 20
-1.3000000000029099
 30
0.0
 11
570.69999999999254
 21
-0.8000000000029104
 31
0.0
  0
LINE
  8
DETAIL
  6
CONTINUOUS
 62
     5
 10
566.49999999998818
 20
-378.22000234400872
 30
0.0
 11
566.49999999998818
 21
-127.0000000000027
 31
0.0
  0
LINE
  8
DETAIL
  6
CONTINUOUS
 62
     5
 10
566.19999999999254
 20
-401.20000000000249
 30
0.0
 11
566.19999999999254
 21
-100.0000000000032
 31
0.0
  0
LINE
  8
DETAIL
  6
CONTINUOUS
 62
     5
 10
566.19999999999254
 20
-77.000000000003183
 30
0.0
 11
566.19999999999254
 21
-2.8000000000029099
 31
0.0
  0
LINE
  8
DETAIL
  6
CONTINUOUS
 62
     5
 10
565.69999999999982
 20
-402.20000000000249
 30
0.0
 11
565.69999999999982
 21
-401.20000000000249
 31
0.0
  0
LINE
  8
DETAIL
  6
CONTINUOUS
 62
     5
 10
565.69999999999982
 20
-2.8000000000029099
 30
0.0
 11
565.69999999999982
 21
-1.8000000000029099
 31
0.0
  0
LINE
  8
DETAIL
  6
CONTINUOUS
 62
     5
 10
565.19999999999982
 20
-1.8000000000029099
 30
0.0
 11
565.19999999999982
 21
-2.8000000000029099
 31
0.0
  0
LINE
  8
DETAIL
  6
CONTINUOUS
 62
     5
 10
565.19999999999982
 20
-401.20000000000249
 30
0.0
 11
565.19999999999982
 21
-402.20000000000249
 31
0.0
  0
LINE
  8
DETAIL
  6
CONTINUOUS
 62
     5
 10
564.19999999999982
 20
-0.8000000000029104
 30
0.0
 11
564.19999999999982
 21
-2.8000000000029099
 31
0.0
  0
LINE
  8
DETAIL
  6
CONTINUOUS
 62
     5
 10
564.19999999999982
 20
-403.20000000000249
 30
0.0
 11
564.19999999999982
 21
-401.20000000000249
 31
0.0
  0
LINE
  8
DETAIL
  6
CONTINUOUS
 62
     5
 10
562.84708539199619
 20
0.0
 30
0.0
 11
562.84708539199619
 21
-0.8000000000029104
 31
0.0
  0
LINE
  8
DETAIL
  6
CONTINUOUS
 62
     5
 10
562.79999999999836
 20
-403.99999999999091
 30
0.0
 11
562.79999999999836
 21
-403.20000000000249
 31
0.0
  0
LINE
  8
DETAIL
  6
CONTINUOUS
 62
     5
 10
559.19999999999982
 20
-73.200000000000273
 30
0.0
 11
559.19999999999982
 21
-80.200000000000273
 31
0.0
  0
LINE
  8
DETAIL
  6
CONTINUOUS
 62
     5
 10
541.99999999999682
 20
-172.0000000000023
 30
0.0
 11
541.99999999999682
 21
-312.00000000000227
 31
0.0
  0
LINE
  8
DETAIL
  6
CONTINUOUS
 62
     5
 10
540.69999999999254
 20
-95.000000000003183
 30
0.0
 11
540.69999999999254
 21
-73.200000000000273
 31
0.0
  0
LINE
  8
DETAIL
  6
CONTINUOUS
 62
     5
 10
564.84734603999368
 20
-401.20000000000249
 30
0.0
 11
565.08343350400082
 21
-402.53891854199719
 31
0.0
  0
LINE
  8
DETAIL
  6
CONTINUOUS
 62
     5
 10
564.19999999999982
 20
-402.13573456878612
 30
0.0
 11
564.29558729998371
 21
-402.67783708399469
 31
0.0
  0
LINE
  8
DETAIL
  6
CONTINUOUS
 62
     5
 10
565.08343350400082
 20
-1.4610814580082661
 30
0.0
 11
564.84734603999368
 21
-2.8000000000029099
 31
0.0
  0
LINE
  8
DETAIL
  6
CONTINUOUS
 62
     5
 10
564.29558729998371
 20
-1.322162915996159
 30
0.0
 11
564.19999999999982
 21
-1.864265431238437
 31
0.0
  0
LINE
  8
DETAIL
  6
CONTINUOUS
 62
     5
 10
541.99999999999682
 20
-312.00000000000227
 30
0.0
 11
476.99999999999682
 21
-377.00000000000227
 31
0.0
  0
LINE
  8
DETAIL
  6
CONTINUOUS
 62
     5
 10
476.99999999999682
 20
-107.0000000000027
 30
0.0
 11
541.99999999999682
 21
-172.0000000000023
 31
0.0
  0
LINE
  8
DETAIL
  6
CONTINUOUS
 62
     5
 10
271.99999999999682
 20
-312.00000000000227
 30
0.0
 11
271.99999999999682
 21
-172.0000000000023
 31
0.0
  0
LINE
  8
DETAIL
  6
CONTINUOUS
 62
     5
 10
559.26730091799573
 20
-403.99999999999091
 30
0.0
 11
557.167300918004
 21
-401.90000000001419
 31
0.0
  0
LINE
  8
DETAIL
  6
CONTINUOUS
 62
     5
 10
559.3143863099931
 20
0.0
 30
0.0
 11
557.21438630998728
 21
-2.1000000000058212
 31
0.0
  0
LINE
  8
DETAIL
  6
CONTINUOUS
 62
     5
 10
-570.94999999999982
 20
-403.99999999999091
 30
0.0
 11
-565.87127970400161
 21
-403.99999999999091
 31
0.0
  0
LINE
  8
DETAIL
  6
CONTINUOUS
 62
     5
 10
570.94999999998527
 20
-403.99999999999091
 30
0.0
 11
565.8712797060025
 21
-403.99999999999091
 31
0.0
  0
LINE
  8
DETAIL
  6
CONTINUOUS
 62
     5
 10
562.79999999999836
 20
-403.99999999999091
 30
0.0
 11
-562.80000000001291
 21
-403.99999999999091
 31
0.0
  0
LINE
  8
DETAIL
  6
CONTINUOUS
 62
     5
 10
-570.94999999999982
 20
-403.20000000000249
 30
0.0
 11
-565.87127970400161
 21
-403.20000000000249
 31
0.0
  0
LINE
  8
DETAIL
  6
CONTINUOUS
 62
     5
 10
558.46730091800055
 20
-403.20000000000249
 30
0.0
 11
564.19999999999982
 21
-403.20000000000249
 31
0.0
  0
LINE
  8
DETAIL
  6
CONTINUOUS
 62
     5
 10
570.94999999998527
 20
-403.20000000000249
 30
0.0
 11
565.8712797060025
 21
-403.20000000000249
 31
0.0
  0
LINE
  8
DETAIL
  6
CONTINUOUS
 62
     5
 10
-558.46730091800873
 20
-403.20000000000249
 30
0.0
 11
-564.19999999999982
 21
-403.20000000000249
 31
0.0
  0
LINE
  8
DETAIL
  6
CONTINUOUS
 62
     5
 10
-566.19999999999982
 20
-402.70000000000249
 30
0.0
 11
-570.94999999999982
 21
-402.70000000000249
 31
0.0
  0
LINE
  8
DETAIL
  6
CONTINUOUS
 62
     5
 10
566.19999999999254
 20
-401.20000000000249
 30
0.0
 11
564.19999999999982
 21
-401.20000000000249
 31
0.0
  0
LINE
  8
DETAIL
  6
CONTINUOUS
 62
     5
 10
-564.19999999999982
 20
-401.20000000000249
 30
0.0
 11
-566.19999999999982
 21
-401.20000000000249
 31
0.0
  0
LINE
  8
DETAIL
  6
CONTINUOUS
 62
     5
 10
-566.50000000002456
 20
-384.55000000000251
 30
0.0
 11
-566.19999999999982
 21
-384.55000000000251
 31
0.0
  0
LINE
  8
DETAIL
  6
CONTINUOUS
 62
     5
 10
566.19999999999254
 20
-378.22000234400872
 30
0.0
 11
566.49999999998818
 21
-378.22000234400872
 31
0.0
  0
LINE
  8
DETAIL
  6
CONTINUOUS
 62
     5
 10
476.99999999999682
 20
-377.00000000000227
 30
0.0
 11
336.99999999999682
 21
-377.00000000000227
 31
0.0
  0
LINE
  8
DETAIL
  6
CONTINUOUS
 62
     5
 10
271.99999999999682
 20
-172.0000000000023
 30
0.0
 11
336.99999999999682
 21
-107.0000000000027
 31
0.0
  0
LINE
  8
DETAIL
  6
CONTINUOUS
 62
     5
 10
336.99999999999682
 20
-377.00000000000227
 30
0.0
 11
271.99999999999682
 21
-312.00000000000227
 31
0.0
  0
LINE
  8
BASIS
  6
DASHDOT
 62
     6
 10
0.0
 20
23.881601094962662
 30
0.0
 11
0.0
 21
-428.0816010949743
 31
0.0
  0
LINE
  8
BASIS
  6
DASHDOT
 62
     6
 10
-695.6936764516322
 20
-202.00000000000591
 30
0.0
 11
695.6936764516322
 21
-202.00000000000591
 31
0.0
  0
LINE
  8
DETAIL
  6
CONTINUOUS
 62
     5
 10
566.19999999999254
 20
-127.0000000000027
 30
0.0
 11
579.19999999999982
 21
-127.0000000000027
 31
0.0
  0
LINE
  8
DETAIL
  6
CONTINUOUS
 62
     5
 10
-566.19999999999982
 20
-127.0000000000027
 30
0.0
 11
-579.69999999999982
 21
-127.0000000000027
 31
0.0
  0
LINE
  8
DETAIL
  6
CONTINUOUS
 62
     5
 10
336.99999999999682
 20
-107.0000000000027
 30
0.0
 11
476.99999999999682
 21
-107.0000000000027
 31
0.0
  0
LINE
  8
DETAIL
  6
CONTINUOUS
 62
     5
 10
566.19999999999254
 20
-106.0000000000032
 30
0.0
 11
569.099999999994
 21
-106.0000000000032
 31
0.0
  0
LINE
  8
DETAIL
  6
CONTINUOUS
 62
     5
 10
-566.2264151080044
 20
-106.0000000000032
 30
0.0
 11
-569.60000000000855
 21
-106.0000000000032
 31
0.0
  0
LINE
  8
DETAIL
  6
CONTINUOUS
 62
     5
 10
545.69999999999254
 20
-100.0000000000032
 30
0.0
 11
569.099999999994
 21
-100.0000000000032
 31
0.0
  0
LINE
  8
DETAIL
  6
CONTINUOUS
 62
     5
 10
-546.19999999999982
 20
-100.0000000000032
 30
0.0
 11
-569.60000000000855
 21
-100.0000000000032
 31
0.0
  0
LINE
  8
DETAIL
  6
CONTINUOUS
 62
     5
 10
-555.20000000000709
 20
-95.000000000003183
 30
0.0
 11
-553.20000000002165
 21
-95.000000000003183
 31
0.0
  0
LINE
  8
DETAIL
  6
CONTINUOUS
 62
     5
 10
554.69999999997799
 20
-95.000000000003183
 30
0.0
 11
552.69999999999254
 21
-95.000000000003183
 31
0.0
  0
LINE
  8
DETAIL
  6
CONTINUOUS
 62
     5
 10
552.69999999999254
 20
-89.000000000003183
 30
0.0
 11
554.69999999997799
 21
-89.000000000003183
 31
0.0
  0
LINE
  8
DETAIL
  6
CONTINUOUS
 62
     5
 10
-553.20000000002165
 20
-89.000000000003183
 30
0.0
 11
-555.20000000000709
 21
-89.000000000003183
 31
0.0
  0
LINE
  8
DETAIL
  6
CONTINUOUS
 62
     5
 10
-581.69999999999982
 20
-87.000000000003183
 30
0.0
 11
-575.70000000001437
 21
-87.000000000003183
 31
0.0
  0
LINE
  8
DETAIL
  6
CONTINUOUS
 62
     5
 10
581.19999999999982
 20
-87.000000000003183
 30
0.0
 11
575.19999999999982
 21
-87.000000000003183
 31
0.0
  0
LINE
  8
DETAIL
  6
CONTINUOUS
 62
     5
 10
572.19999999997799
 20
-80.200000000000273
 30
0.0
 11
540.69999999999254
 21
-80.200000000000273
 31
0.0
  0
LINE
  8
DETAIL
  6
CONTINUOUS
 62
     5
 10
-541.19999999999982
 20
-80.200000000000273
 30
0.0
 11
-572.70000000000709
 21
-80.200000000000273
 31
0.0
  0
LINE
  8
DETAIL
  6
CONTINUOUS
 62
     5
 10
559.19999999999982
 20
-77.000000000003183
 30
0.0
 11
584.19999999999254
 21
-77.000000000003183
 31
0.0
  0
LINE
  8
DETAIL
  6
CONTINUOUS
 62
     5
 10
-559.69999999999982
 20
-77.000000000003183
 30
0.0
 11
-584.70000000000709
 21
-77.000000000003183
 31
0.0
  0
LINE
  8
DETAIL
  6
CONTINUOUS
 62
     5
 10
543.69999999999982
 20
-70.199999999999818
 30
0.0
 11
556.19999999999254
 21
-70.199999999999818
 31
0.0
  0
LINE
  8
DETAIL
  6
CONTINUOUS
 62
     5
 10
-544.20000000000709
 20
-70.199999999999818
 30
0.0
 11
-556.70000000000709
 21
-70.199999999999818
 31
0.0
  0
LINE
  8
DETAIL
  6
CONTINUOUS
 62
     5
 10
566.19999999999254
 20
-2.8000000000029099
 30
0.0
 11
564.19999999999982
 21
-2.8000000000029099
 31
0.0
  0
LINE
  8
DETAIL
  6
CONTINUOUS
 62
     5
 10
-564.19999999999982
 20
-2.8000000000029099
 30
0.0
 11
-566.19999999999982
 21
-2.8000000000029099
 31
0.0
  0
LINE
  8
DETAIL
  6
CONTINUOUS
 62
     5
 10
-566.19999999999982
 20
-1.3000000000029099
 30
0.0
 11
-570.94999999999982
 21
-1.3000000000029099
 31
0.0
  0
LINE
  8
DETAIL
  6
CONTINUOUS
 62
     5
 10
570.94999999998527
 20
-0.8000000000029104
 30
0.0
 11
565.8712797060025
 21
-0.8000000000029104
 31
0.0
  0
LINE
  8
DETAIL
  6
CONTINUOUS
 62
     5
 10
564.19999999999982
 20
-0.8000000000029104
 30
0.0
 11
558.51438630999064
 21
-0.8000000000029104
 31
0.0
  0
LINE
  8
DETAIL
  6
CONTINUOUS
 62
     5
 10
-558.51438631000383
 20
-0.8000000000033651
 30
0.0
 11
-564.19999999999982
 21
-0.8000000000029104
 31
0.0
  0
LINE
  8
DETAIL
  6
CONTINUOUS
 62
     5
 10
-565.87127970400161
 20
-0.8000000000029104
 30
0.0
 11
-570.94999999999982
 21
-0.8000000000029104
 31
0.0
  0
LINE
  8
DETAIL
  6
CONTINUOUS
 62
     5
 10
570.94999999998527
 20
0.0
 30
0.0
 11
565.8712797060025
 21
0.0
 31
0.0
  0
LINE
  8
DETAIL
  6
CONTINUOUS
 62
     5
 10
562.84708539199619
 20
0.0
 30
0.0
 11
-562.84708539200346
 21
0.0
 31
0.0
  0
LINE
  8
DETAIL
  6
CONTINUOUS
 62
     5
 10
-565.87127970400161
 20
0.0
 30
0.0
 11
-570.94999999999982
 21
0.0
 31
0.0
  0
LINE
  8
DETAIL
  6
CONTINUOUS
 62
     5
 10
-559.31438631000765
 20
0.0
 30
0.0
 11
-557.21438631000183
 21
-2.1000000000058212
 31
0.0
  0
LINE
  8
DETAIL
  6
CONTINUOUS
 62
     5
 10
-559.26730091800255
 20
-403.99999999999091
 30
0.0
 11
-557.16730091801128
 21
-401.90000000001419
 31
0.0
  0
LINE
  8
DETAIL
  6
CONTINUOUS
 62
     5
 10
-541.19999999999982
 20
-95.000000000003183
 30
0.0
 11
-541.19999999999982
 21
-73.200000000000273
 31
0.0
  0
LINE
  8
DETAIL
  6
CONTINUOUS
 62
     5
 10
-564.19999999999982
 20
-1.8642654312820921
 30
0.0
 11
-564.29558729999098
 21
-1.322162915996159
 31
0.0
  0
LINE
  8
DETAIL
  6
CONTINUOUS
 62
     5
 10
-564.84734603799279
 20
-2.8000000000029099
 30
0.0
 11
-565.08343350199993
 21
-1.4610814580082661
 31
0.0
  0
LINE
  8
DETAIL
  6
CONTINUOUS
 62
     5
 10
-564.29558729999098
 20
-402.67783708399469
 30
0.0
 11
-564.19999999999982
 21
-402.1357345687461
 31
0.0
  0
LINE
  8
DETAIL
  6
CONTINUOUS
 62
     5
 10
-565.08343350199993
 20
-402.53891854199719
 30
0.0
 11
-564.84734603799279
 21
-401.20000000000249
 31
0.0
  0
LINE
  8
DETAIL
  6
CONTINUOUS
 62
     5
 10
-559.69999999999982
 20
-73.200000000000273
 30
0.0
 11
-559.69999999999982
 21
-80.200000000000273
 31
0.0
  0
LINE
  8
DETAIL
  6
CONTINUOUS
 62
     5
 10
-562.80000000001291
 20
-403.99999999999091
 30
0.0
 11
-562.80000000001291
 21
-403.20000000000249
 31
0.0
  0
LINE
  8
DETAIL
  6
CONTINUOUS
 62
     5
 10
-562.84708539200346
 20
0.0
 30
0.0
 11
-562.84708539200346
 21
-0.8000000000029104
 31
0.0
  0
LINE
  8
DETAIL
  6
CONTINUOUS
 62
     5
 10
-564.19999999999982
 20
-403.20000000000249
 30
0.0
 11
-564.19999999999982
 21
-401.20000000000249
 31
0.0
  0
LINE
  8
DETAIL
  6
CONTINUOUS
 62
     5
 10
-564.19999999999982
 20
-2.8000000000029099
 30
0.0
 11
-564.19999999999982
 21
-0.8000000000029104
 31
0.0
  0
LINE
  8
DETAIL
  6
CONTINUOUS
 62
     5
 10
-565.20000000000709
 20
-402.20000000000249
 30
0.0
 11
-565.20000000000709
 21
-401.20000000000249
 31
0.0
  0
LINE
  8
DETAIL
  6
CONTINUOUS
 62
     5
 10
-565.20000000000709
 20
-2.8000000000029099
 30
0.0
 11
-565.20000000000709
 21
-1.8000000000029099
 31
0.0
  0
LINE
  8
DETAIL
  6
CONTINUOUS
 62
     5
 10
-565.70000000001437
 20
-1.8000000000029099
 30
0.0
 11
-565.70000000001437
 21
-2.8000000000029099
 31
0.0
  0
LINE
  8
DETAIL
  6
CONTINUOUS
 62
     5
 10
-565.70000000001437
 20
-401.20000000000249
 30
0.0
 11
-565.70000000001437
 21
-402.20000000000249
 31
0.0
  0
LINE
  8
DETAIL
  6
CONTINUOUS
 62
     5
 10
-566.19999999999982
 20
-401.20000000000249
 30
0.0
 11
-566.19999999999982
 21
-100.0000000000032
 31
0.0
  0
LINE
  8
DETAIL
  6
CONTINUOUS
 62
     5
 10
-566.19999999999982
 20
-77.000000000003183
 30
0.0
 11
-566.19999999999982
 21
-2.8000000000029099
 31
0.0
  0
LINE
  8
DETAIL
  6
CONTINUOUS
 62
     5
 10
-566.50000000002456
 20
-127.0000000000027
 30
0.0
 11
-566.50000000002456
 21
-384.54889544400748
 31
0.0
  0
LINE
  8
DETAIL
  6
CONTINUOUS
 62
     5
 10
-570.70000000001437
 20
-0.8000000000029104
 30
0.0
 11
-570.70000000001437
 21
-1.3000000000029099
 31
0.0
  0
LINE
  8
DETAIL
  6
CONTINUOUS
 62
     5
 10
-570.70000000001437
 20
-402.70000000000249
 30
0.0
 11
-570.70000000001437
 21
-403.20000000000249
 31
0.0
  0
LINE
  8
DETAIL
  6
CONTINUOUS
 62
     5
 10
-572.70000000000709
 20
-84.000000000003183
 30
0.0
 11
-572.70000000000709
 21
-77.000000000003183
 31
0.0
  0
LINE
  8
DETAIL
  6
CONTINUOUS
 62
     5
 10
-584.70000000000709
 20
-122.0000000000032
 30
0.0
 11
-584.70000000000709
 21
-77.000000000003183
 31
0.0
  0
CIRCLE
  8
DETAIL
  6
CONTINUOUS
 62
     5
 10
503.8736290239799
 20
-338.87362902201357
 30
0.0
 40
4.6999999999999957
  0
CIRCLE
  8
DETAIL
  6
CONTINUOUS
 62
     5
 10
310.12637097799279
 20
-338.87362902201357
 30
0.0
 40
4.6999999999999957
  0
ARC
  8
DETAIL
  6
CONTINUOUS
 62
     5
 10
565.8712797060025
 20
-402.39999999999958
 30
0.0
 40
1.6000000000000001
 50
190.000000000005
 51
270.0
  0
ARC
  8
DETAIL
  6
CONTINUOUS
 62
     5
 10
566.19999999999254
 20
-402.20000000000249
 30
0.0
 40
0.9999999999999993
 50
180.0
 51
269.99999999994787
  0
ARC
  8
DETAIL
  6
CONTINUOUS
 62
     5
 10
565.8712797060025
 20
-402.39999999999958
 30
0.0
 40
0.7999999999999998
 50
190.000000000005
 51
270.0
  0
ARC
  8
DETAIL
  6
CONTINUOUS
 62
     5
 10
566.19999999999254
 20
-402.20000000000249
 30
0.0
 40
0.5000000000000004
 50
180.0
 51
270.0
  0
ARC
  8
DETAIL
  6
CONTINUOUS
 62
     5
 10
545.69999999999254
 20
-95.000000000003183
 30
0.0
 40
4.9999999999999956
 50
180.0
 51
270.0
  0
ARC
  8
DETAIL
  6
CONTINUOUS
 62
     5
 10
579.19999999999982
 20
-122.0000000000032
 30
0.0
 40
4.9999999999999956
 50
270.0
 51
0.000000000000007
  0
CIRCLE
  8
DETAIL
  6
CONTINUOUS
 62
     5
 10
310.12637097799279
 20
-145.1263709780055
 30
0.0
 40
4.6999999999999957
  0
CIRCLE
  8
DETAIL
  6
CONTINUOUS
 62
     5
 10
503.8736290239799
 20
-145.1263709780055
 30
0.0
 40
4.6999999999999957
  0
ARC
  8
DETAIL
  6
CONTINUOUS
 62
     5
 10
569.099999999994
 20
-103.0000000000027
 30
0.0
 40
2.9999999999999978
 50
270.0
 51
90.000000000000014
  0
ARC
  8
DETAIL
  6
CONTINUOUS
 62
     5
 10
552.69999999999254
 20
-92.000000000003183
 30
0.0
 40
2.9999999999999978
 50
90.000000000000014
 51
270.0
  0
ARC
  8
DETAIL
  6
CONTINUOUS
 62
     5
 10
543.69999999999982
 20
-73.200000000000273
 30
0.0
 40
2.9999999999999978
 50
90.000000000000014
 51
180.0
  0
ARC
  8
DETAIL
  6
CONTINUOUS
 62
     5
 10
556.19999999999254
 20
-73.200000000000273
 30
0.0
 40
2.9999999999999978
 50
0.000000000000007
 51
90.000000000000014
  0
ARC
  8
DETAIL
  6
CONTINUOUS
 62
     5
 10
554.69999999997799
 20
-92.000000000003183
 30
0.0
 40
2.9999999999999978
 50
270.0
 51
90.000000000000014
  0
ARC
  8
DETAIL
  6
CONTINUOUS
 62
     5
 10
575.19999999999982
 20
-84.000000000003183
 30
0.0
 40
2.9999999999999978
 50
180.0
 51
270.0
  0
ARC
  8
DETAIL
  6
CONTINUOUS
 62
     5
 10
581.19999999999982
 20
-84.000000000003183
 30
0.0
 40
2.9999999999999978
 50
270.0
 51
0.000000000000007
  0
CIRCLE
  8
DETAIL
  6
CONTINUOUS
 62
     5
 10
553.69999999999254
 20
-92.000000000003183
 30
0.0
 40
2.4999999999999991
  0
ARC
  8
DETAIL
  6
CONTINUOUS
 62
     5
 10
565.8712797060025
 20
-1.5999999999912691
 30
0.0
 40
1.6000000000000001
 50
90.000000000000014
 51
169.999999999995
  0
ARC
  8
DETAIL
  6
CONTINUOUS
 62
     5
 10
570.94999999998527
 20
-1.0500000000029099
 30
0.0
 40
1.05
 50
269.99999887613922
 51
90.000000000000014
  0
ARC
  8
DETAIL
  6
CONTINUOUS
 62
     5
 10
566.19999999999254
 20
-1.8000000000029099
 30
0.0
 40
0.9999999999999993
 50
90.000000000182396
 51
180.0
  0
ARC
  8
DETAIL
  6
CONTINUOUS
 62
     5
 10
565.8712797060025
 20
-1.5999999999912691
 30
0.0
 40
0.7999999999999998
 50
90.000000000000014
 51
169.999999999995
  0
ARC
  8
DETAIL
  6
CONTINUOUS
 62
     5
 10
566.19999999999254
 20
-1.8000000000029099
 30
0.0
 40
0.5000000000000004
 50
90.000000000000014
 51
180.0
  0
ARC
  8
DETAIL
  6
CONTINUOUS
 62
     5
 10
570.94999999998527
 20
-1.0500000000029099
 30
0.0
 40
0.2500000000000002
 50
269.99999887613922
 51
90.000000000000014
  0
ARC
  8
DETAIL
  6
CONTINUOUS
 62
     5
 10
-565.87127970400161
 20
-402.39999999999958
 30
0.0
 40
1.6000000000000001
 50
270.0
 51
349.99999999999488
  0
ARC
  8
DETAIL
  6
CONTINUOUS
 62
     5
 10
-570.94999999999982
 20
-402.95000000000249
 30
0.0
 40
1.05
 50
90.000036324045752
 51
270.0
  0
ARC
  8
DETAIL
  6
CONTINUOUS
 62
     5
 10
-566.19999999999982
 20
-402.20000000000249
 30
0.0
 40
0.9999999999999993
 50
270.00000000018241
 51
0.000000000000007
  0
ARC
  8
DETAIL
  6
CONTINUOUS
 62
     5
 10
-565.87127970400161
 20
-402.39999999999958
 30
0.0
 40
0.7999999999999998
 50
270.0
 51
349.99999999999488
  0
ARC
  8
DETAIL
  6
CONTINUOUS
 62
     5
 10
-566.19999999999982
 20
-402.20000000000249
 30
0.0
 40
0.5000000000000004
 50
270.0
 51
0.000000000000007
  0
ARC
  8
DETAIL
  6
CONTINUOUS
 62
     5
 10
-570.94999999999982
 20
-402.95000000000249
 30
0.0
 40
0.2500000000000002
 50
90.000036324045752
 51
270.0
  0
ARC
  8
DETAIL
  6
CONTINUOUS
 62
     5
 10
-579.69999999999982
 20
-122.0000000000032
 30
0.0
 40
4.9999999999999956
 50
180.0
 51
270.0
  0
ARC
  8
DETAIL
  6
CONTINUOUS
 62
     5
 10
-569.60000000000855
 20
-103.0000000000027
 30
0.0
 40
2.9999999999999978
 50
90.000000000000014
 51
270.0
  0
ARC
  8
DETAIL
  6
CONTINUOUS
 62
     5
 10
-546.19999999999982
 20
-95.000000000003183
 30
0.0
 40
4.9999999999999956
 50
270.0
 51
0.000000000000007
  0
ARC
  8
DETAIL
  6
CONTINUOUS
 62
     5
 10
-553.20000000002165
 20
-92.000000000003183
 30
0.0
 40
2.9999999999999978
 50
270.0
 51
90.000000000000014
  0
ARC
  8
DETAIL
  6
CONTINUOUS
 62
     5
 10
-544.20000000000709
 20
-73.200000000000273
 30
0.0
 40
2.9999999999999978
 50
0.000000000000007
 51
90.000000000000014
  0
ARC
  8
DETAIL
  6
CONTINUOUS
 62
     5
 10
-556.70000000000709
 20
-73.200000000000273
 30
0.0
 40
2.9999999999999978
 50
90.000000000000014
 51
180.0
  0
ARC
  8
DETAIL
  6
CONTINUOUS
 62
     5
 10
-555.20000000000709
 20
-92.000000000003183
 30
0.0
 40
2.9999999999999978
 50
90.000000000000014
 51
270.0
  0
ARC
  8
DETAIL
  6
CONTINUOUS
 62
     5
 10
-575.70000000001437
 20
-84.000000000003183
 30
0.0
 40
2.9999999999999978
 50
270.0
 51
0.000000000000007
  0
ARC
  8
DETAIL
  6
CONTINUOUS
 62
     5
 10
-581.69999999999982
 20
-84.000000000003183
 30
0.0
 40
2.9999999999999978
 50
180.0
 51
270.0
  0
CIRCLE
  8
DETAIL
  6
CONTINUOUS
 62
     5
 10
-553.69999999999982
 20
-92.000000000003183
 30
0.0
 40
2.4999999999999991
  0
ARC
  8
DETAIL
  6
CONTINUOUS
 62
     5
 10
-565.87127970400161
 20
-1.5999999999912691
 30
0.0
 40
1.6000000000000001
 50
10.000000000005031
 51
90.000000000000014
  0
ARC
  8
DETAIL
  6
CONTINUOUS
 62
     5
 10
-566.19999999999982
 20
-1.8000000000029099
 30
0.0
 40
0.9999999999999993
 50
0.000000000000007
 51
89.999999999947889
  0
ARC
  8
DETAIL
  6
CONTINUOUS
 62
     5
 10
-565.87127970400161
 20
-1.5999999999912691
 30
0.0
 40
0.7999999999999998
 50
10.000000000005031
 51
90.000000000000014
  0
ARC
  8
DETAIL
  6
CONTINUOUS
 62
     5
 10
-566.19999999999982
 20
-1.8000000000029099
 30
0.0
 40
0.5000000000000004
 50
0.000000000000007
 51
90.000000000000014
  0
ARC
  8
DETAIL
  6
CONTINUOUS
 62
     5
 10
-570.94999999999982
 20
-1.0500000000029099
 30
0.0
 40
1.05
 50
90.000036324045752
 51
270.0
  0
ARC
  8
DETAIL
  6
CONTINUOUS
 62
     5
 10
-570.94999999999982
 20
-1.0500000000029099
 30
0.0
 40
0.2500000000000002
 50
90.000036324045752
 51
270.0
  0
LINE
  8
DETAIL
  6
CONTINUOUS
 62
     5
 10
-567.70000000000709
 20
-1.3000000000029099
 30
0.0
 11
-567.70000000000709
 21
-2.1000000000058212
 31
0.0
  0
LINE
  8
DETAIL
  6
CONTINUOUS
 62
     5
 10
-567.70000000000709
 20
-2.1000000000058212
 30
0.0
 11
-570.94999999999982
 21
-2.1000000000058212
 31
0.0
  0
LINE
  8
DETAIL
  6
CONTINUOUS
 62
     5
 10
-557.21438631000183
 20
-2.1000000000058212
 30
0.0
 11
557.21438630998728
 21
-2.1000000000058212
 31
0.0
  0
LINE
  8
DETAIL
  6
CONTINUOUS
 62
     5
 10
570.94999999998527
 20
-1.3000000000029099
 30
0.0
 11
566.19999999999254
 21
-1.3000000000029099
 31
0.0
  0
LINE
  8
DETAIL
  6
CONTINUOUS
 62
     5
 10
570.94999999998527
 20
-2.1000000000058212
 30
0.0
 11
567.69999999999982
 21
-2.1000000000058212
 31
0.0
  0
LINE
  8
DETAIL
  6
CONTINUOUS
 62
     5
 10
567.69999999999982
 20
-1.3000000000029099
 30
0.0
 11
567.69999999999982
 21
-2.1000000000058212
 31
0.0
  0
LINE
  8
DETAIL
  6
CONTINUOUS
 62
     5
 10
570.94999999998527
 20
-402.70000000000249
 30
0.0
 11
566.19999999999254
 21
-402.70000000000249
 31
0.0
  0
ARC
  8
DETAIL
  6
CONTINUOUS
 62
     5
 10
570.94999999998527
 20
-402.95000000000249
 30
0.0
 40
1.05
 50
269.99999887613922
 51
90.000000000000014
  0
ARC
  8
DETAIL
  6
CONTINUOUS
 62
     5
 10
570.94999999998527
 20
-402.95000000000249
 30
0.0
 40
0.2500000000000002
 50
269.99999887613922
 51
90.000000000000014
  0
LINE
  8
DETAIL
  6
CONTINUOUS
 62
     5
 10
570.94999999998527
 20
-401.90000000001419
 30
0.0
 11
567.69999999999982
 21
-401.90000000001419
 31
0.0
  0
LINE
  8
DETAIL
  6
CONTINUOUS
 62
     5
 10
567.69999999999982
 20
-402.70000000000249
 30
0.0
 11
567.69999999999982
 21
-401.90000000001419
 31
0.0
  0
LINE
  8
DETAIL
  6
CONTINUOUS
 62
     5
 10
557.167300918004
 20
-401.90000000001419
 30
0.0
 11
-557.16730091801128
 21
-401.90000000001419
 31
0.0
  0
LINE
  8
DETAIL
  6
CONTINUOUS
 62
     5
 10
-570.94999999999982
 20
-401.90000000001419
 30
0.0
 11
-567.70000000000709
 21
-401.90000000001419
 31
0.0
  0
LINE
  8
DETAIL
  6
CONTINUOUS
 62
     5
 10
-567.70000000000709
 20
-401.90000000001419
 30
0.0
 11
-567.70000000000709
 21
-402.70000000000249
 31
0.0
  0
CIRCLE
  8
DETAIL
  6
DASHED
 62
     5
 10
406.99999999999682
 20
-242.0000000000023
 30
0.0
 40
130.0000000095109
  0
LINE
  8
BASIS
  6
DASHDOT
 62
     6
 10
260.57719159756789
 20
-242.0000000000023
 30
0.0
 11
692.21222329392913
 21
-242.0000000000023
 31
0.0
1001
GENIUS_GENODEF_13
1002
{
1000
HIER
1070
     0
1002
}
1002
{
1000
MANEDIT
1070
     0
1002
}
1002
{
1000
NOSEL
1070
     0
1002
}
1002
{
1000
BEHIND
1070
     0
1002
}
1002
{
1000
OTHER
1070
     0
1002
}
1002
{
1000
REACTOR
1002
}
1001
GENIUS_GENOBJ-N-CEN_13
1002
{
1000
OWNER
1000
GEN
1002
}
1001
GENIUS_GENCEN_19
1002
{
1040
5.0
1002
}
  0
LINE
  8
BASIS
  6
DASHDOT
 62
     6
 10
406.99999999999682
 20
-88.824642958597906
 30
0.0
 11
406.99999999999682
 21
-395.17535704140761
 31
0.0
1001
GENIUS_GENODEF_13
1002
{
1000
HIER
1070
     0
1002
}
1002
{
1000
MANEDIT
1070
     0
1002
}
1002
{
1000
NOSEL
1070
     0
1002
}
1002
{
1000
BEHIND
1070
     0
1002
}
1002
{
1000
OTHER
1070
     0
1002
}
1002
{
1000
REACTOR
1002
}
1001
GENIUS_GENOBJ-N-CEN_13
1002
{
1000
OWNER
1000
GEN
1002
}
1001
GENIUS_GENCEN_19
1002
{
1040
5.0
1002
}
  0
LINE
  8
BASIS
  6
DASHDOT
 62
     6
 10
-682.32954395189881
 20
-242.0000000000023
 30
0.0
 11
-545.34328263856423
 21
-242.0000000000023
 31
0.0
1001
GENIUS_GENODEF_13
1002
{
1000
HIER
1070
     0
1002
}
1002
{
1000
MANEDIT
1070
     0
1002
}
1002
{
1000
NOSEL
1070
     0
1002
}
1002
{
1000
BEHIND
1070
     0
1002
}
1002
{
1000
OTHER
1070
     0
1002
}
1002
{
1000
REACTOR
1002
}
1001
GENIUS_GENOBJ-N-CEN_13
1002
{
1000
OWNER
1000
GEN
1002
}
1001
GENIUS_GENCEN_19
1002
{
1040
5.0
1002
}
  0
LINE
  8
SIZE
  6
CONTINUOUS
 62
    30
 10
571.99999999998545
 20
18.949999989699339
 30
0.0
 11
571.99999999998545
 21
264.59082929909482
 31
0.0
  0
LINE
  8
SIZE
  6
CONTINUOUS
 62
    30
 10
-572.0
 20
18.949999667160679
 30
0.0
 11
-572.0
 21
264.59082929909482
 31
0.0
  0
LINE
  8
SIZE
  6
CONTINUOUS
 62
    30
 10
559.99999999998545
 20
244.59082929909479
 30
0.0
 11
-560.0
 21
244.59082929909479
 31
0.0
  0
CIRCLE
  8
SIZE
  6
CONTINUOUS
 62
    30
 10
571.99999999998545
 20
244.59082929909479
 30
0.0
 40
6.0
  0
LINE
  8
SIZE
  6
CONTINUOUS
 62
    30
 10
571.99999999998545
 20
244.59082929909479
 30
0.0
 11
559.99999999998545
 21
244.59082929909479
 31
0.0
  0
CIRCLE
  8
SIZE
  6
CONTINUOUS
 62
    30
 10
-572.0
 20
244.59082929909479
 30
0.0
 40
6.0
  0
LINE
  8
SIZE
  6
CONTINUOUS
 62
    30
 10
-572.0
 20
244.59082929909479
 30
0.0
 11
-560.0
 21
244.59082929909479
 31
0.0
  0
TEXT
  8
SIZE
  6
CONTINUOUS
 62
    30
 10
-96.768000000007291
 20
269.59082929909482
 30
0.0
 40
64.0
  1
1144
 50
0.0
 41
0.9
 51
0.0
  7
STANDARD
 71
     0
 72
     1
 11
-0.000000000007276
 21
269.59082929909482
 31
0.0
210
0.0
220
0.0
230
1.0
  0
POINT
  8
DEFPOINTS
  6
CONTINUOUS
 62
    30
 10
571.99999999998545
 20
-1.0500000103006639
 30
0.0
  0
POINT
  8
DEFPOINTS
  6
CONTINUOUS
 62
    30
 10
-572.0
 20
-1.0500003328393179
 30
0.0
  0
POINT
  8
DEFPOINTS
  6
CONTINUOUS
 62
    30
 10
-572.0
 20
244.59082929909479
 30
0.0
  0
LINE
  8
SIZE
  6
CONTINUOUS
 62
    30
 10
-651.00000000001455
 20
-101.0501682200115
 30
0.0
 11
-651.00000000001455
 21
264.59082929909482
 31
0.0
  0
LINE
  8
SIZE
  6
CONTINUOUS
 62
    30
 10
-572.0
 20
18.949999667160679
 30
0.0
 11
-572.0
 21
264.59082929909482
 31
0.0
  0
LINE
  8
SIZE
  6
CONTINUOUS
 62
    30
 10
-663.00000000001455
 20
244.59082929909479
 30
0.0
 11
-675.00000000001455
 21
244.59082929909479
 31
0.0
  0
LINE
  8
SIZE
  6
CONTINUOUS
 62
    30
 10
-560.0
 20
244.59082929909479
 30
0.0
 11
-548.0
 21
244.59082929909479
 31
0.0
  0
LINE
  8
SIZE
  6
CONTINUOUS
 62
    30
 10
-651.00000000001455
 20
244.59082929909479
 30
0.0
 11
-572.0
 21
244.59082929909479
 31
0.0
  0
CIRCLE
  8
SIZE
  6
CONTINUOUS
 62
    30
 10
-651.00000000001455
 20
244.59082929909479
 30
0.0
 40
6.0
  0
LINE
  8
SIZE
  6
CONTINUOUS
 62
    30
 10
-651.00000000001455
 20
244.59082929909479
 30
0.0
 11
-663.00000000001455
 21
244.59082929909479
 31
0.0
  0
CIRCLE
  8
SIZE
  6
CONTINUOUS
 62
    30
 10
-572.0
 20
244.59082929909479
 30
0.0
 40
6.0
  0
LINE
  8
SIZE
  6
CONTINUOUS
 62
    30
 10
-572.0
 20
244.59082929909479
 30
0.0
 11
-560.0
 21
244.59082929909479
 31
0.0
  0
TEXT
  8
SIZE
  6
CONTINUOUS
 62
    30
 10
-665.06800000000726
 20
269.59082929909482
 30
0.0
 40
64.0
  1
79
 50
0.0
 41
0.9
 51
0.0
  7
STANDARD
 71
     0
 72
     1
 11
-611.50000000000728
 21
269.59082929909482
 31
0.0
210
0.0
220
0.0
230
1.0
  0
POINT
  8
DEFPOINTS
  6
CONTINUOUS
 62
    30
 10
-651.00000000001455
 20
-121.0501682200115
 30
0.0
  0
POINT
  8
DEFPOINTS
  6
CONTINUOUS
 62
    30
 10
-572.0
 20
-1.0500003328393179
 30
0.0
  0
POINT
  8
DEFPOINTS
  6
CONTINUOUS
 62
    30
 10
-572.0
 20
244.59082929909479
 30
0.0
  0
LINE
  8
SIZE
  6
CONTINUOUS
 62
    30
 10
651.00000000000091
 20
-101.0000000000059
 30
0.0
 11
651.00000000000091
 21
264.59082929909482
 31
0.0
  0
LINE
  8
SIZE
  6
CONTINUOUS
 62
    30
 10
571.99999999998545
 20
18.949999989699339
 30
0.0
 11
571.99999999998545
 21
264.59082929909482
 31
0.0
  0
LINE
  8
SIZE
  6
CONTINUOUS
 62
    30
 10
663.00000000000091
 20
244.59082929909479
 30
0.0
 11
675.00000000000091
 21
244.59082929909479
 31
0.0
  0
LINE
  8
SIZE
  6
CONTINUOUS
 62
    30
 10
559.99999999998545
 20
244.59082929909479
 30
0.0
 11
547.99999999998545
 21
244.59082929909479
 31
0.0
  0
LINE
  8
SIZE
  6
CONTINUOUS
 62
    30
 10
651.00000000000091
 20
244.59082929909479
 30
0.0
 11
571.99999999998545
 21
244.59082929909479
 31
0.0
  0
CIRCLE
  8
SIZE
  6
CONTINUOUS
 62
    30
 10
651.00000000000091
 20
244.59082929909479
 30
0.0
 40
6.0
  0
LINE
  8
SIZE
  6
CONTINUOUS
 62
    30
 10
651.00000000000091
 20
244.59082929909479
 30
0.0
 11
663.00000000000091
 21
244.59082929909479
 31
0.0
  0
CIRCLE
  8
SIZE
  6
CONTINUOUS
 62
    30
 10
571.99999999998545
 20
244.59082929909479
 30
0.0
 40
6.0
  0
LINE
  8
SIZE
  6
CONTINUOUS
 62
    30
 10
571.99999999998545
 20
244.59082929909479
 30
0.0
 11
559.99999999998545
 21
244.59082929909479
 31
0.0
  0
TEXT
  8
SIZE
  6
CONTINUOUS
 62
    30
 10
557.9319999999932
 20
269.59082929909482
 30
0.0
 40
64.0
  1
79
 50
0.0
 41
0.9
 51
0.0
  7
STANDARD
 71
     0
 72
     1
 11
611.49999999999318
 21
269.59082929909482
 31
0.0
210
0.0
220
0.0
230
1.0
  0
POINT
  8
DEFPOINTS
  6
CONTINUOUS
 62
    30
 10
651.00000000000091
 20
-121.0000000000059
 30
0.0
  0
POINT
  8
DEFPOINTS
  6
CONTINUOUS
 62
    30
 10
571.99999999998545
 20
-1.0500000103006639
 30
0.0
  0
POINT
  8
DEFPOINTS
  6
CONTINUOUS
 62
    30
 10
571.99999999998545
 20
244.59082929909479
 30
0.0
  0
LINE
  8
SIZE
  6
CONTINUOUS
 62
    30
 10
590.94999999998549
 20
0.000000000000458
 30
0.0
 11
1082.891822378773
 21
0.0000000000005371
 31
0.0
  0
LINE
  8
SIZE
  6
CONTINUOUS
 62
    30
 10
590.94999999998549
 20
-403.99999999999108
 30
0.0
 11
1082.891822378773
 21
-403.99999999999108
 31
0.0
  0
LINE
  8
SIZE
  6
CONTINUOUS
 62
    30
 10
1062.891822378773
 20
-11.999999999999471
 30
0.0
 11
1062.891822378773
 21
-391.99999999999108
 31
0.0
  0
CIRCLE
  8
SIZE
  6
CONTINUOUS
 62
    30
 10
1062.891822378773
 20
0.0000000000005339
 30
0.0
 40
6.0
  0
LINE
  8
SIZE
  6
CONTINUOUS
 62
    30
 10
1062.891822378773
 20
0.0000000000005339
 30
0.0
 11
1062.891822378773
 21
-11.999999999999465
 31
0.0
  0
CIRCLE
  8
SIZE
  6
CONTINUOUS
 62
    30
 10
1062.891822378773
 20
-403.99999999999108
 30
0.0
 40
6.0
  0
LINE
  8
SIZE
  6
CONTINUOUS
 62
    30
 10
1062.891822378773
 20
-403.99999999999108
 30
0.0
 11
1062.891822378773
 21
-391.99999999999108
 31
0.0
  0
TEXT
  8
SIZE
  6
CONTINUOUS
 62
    30
 10
1037.891822378773
 20
-284.07999999999555
 30
0.0
 40
64.0
  1
404
 50
90.0
 41
0.9
 51
0.0
  7
STANDARD
 71
     0
 72
     1
 11
1037.891822378773
 21
-201.99999999999551
 31
0.0
210
0.0
220
0.0
230
1.0
  0
POINT
  8
DEFPOINTS
  6
CONTINUOUS
 62
    30
 10
570.94999999998549
 20
0.0000000000004547
 30
0.0
  0
POINT
  8
DEFPOINTS
  6
CONTINUOUS
 62
    30
 10
570.94999999998549
 20
-403.99999999999108
 30
0.0
  0
POINT
  8
DEFPOINTS
  6
CONTINUOUS
 62
    30
 10
1062.891822378773
 20
-403.99999999999108
 30
0.0
  0
LINE
  8
SIZE
  6
CONTINUOUS
 62
    30
 10
712.21222329392936
 20
-242.00000000000239
 30
0.0
 11
959.83788857270349
 21
-242.00000000000239
 31
0.0
  0
LINE
  8
SIZE
  6
CONTINUOUS
 62
    30
 10
715.69367645163243
 20
-202.000000000006
 30
0.0
 11
959.83788857270349
 21
-202.000000000006
 31
0.0
  0
LINE
  8
SIZE
  6
CONTINUOUS
 62
    30
 10
939.83788857270349
 20
-190.000000000006
 30
0.0
 11
939.83788857270349
 21
-178.000000000006
 31
0.0
  0
LINE
  8
SIZE
  6
CONTINUOUS
 62
    30
 10
939.83788857270349
 20
-254.00000000000239
 30
0.0
 11
939.8378885727036
 21
-539.67439286010074
 31
0.0
  0
LINE
  8
SIZE
  6
CONTINUOUS
 62
    30
 10
939.83788857270349
 20
-202.000000000006
 30
0.0
 11
939.83788857270349
 21
-242.00000000000239
 31
0.0
  0
CIRCLE
  8
SIZE
  6
CONTINUOUS
 62
    30
 10
939.83788857270349
 20
-202.000000000006
 30
0.0
 40
6.0
  0
LINE
  8
SIZE
  6
CONTINUOUS
 62
    30
 10
939.83788857270349
 20
-202.000000000006
 30
0.0
 11
939.83788857270349
 21
-190.000000000006
 31
0.0
  0
CIRCLE
  8
SIZE
  6
CONTINUOUS
 62
    30
 10
939.83788857270349
 20
-242.00000000000239
 30
0.0
 40
6.0
  0
LINE
  8
SIZE
  6
CONTINUOUS
 62
    30
 10
939.83788857270349
 20
-242.00000000000239
 30
0.0
 11
939.83788857270349
 21
-254.00000000000239
 31
0.0
  0
TEXT
  8
SIZE
  6
CONTINUOUS
 62
    30
 10
914.83788857270326
 20
-522.7658214315295
 30
0.0
 40
64.0
  1
40
 50
90.0
 41
0.9
 51
0.0
  7
STANDARD
 71
     0
 72
     1
 11
914.83788857270326
 21
-468.04582143152948
 31
0.0
210
0.0
220
0.0
230
1.0
  0
POINT
  8
DEFPOINTS
  6
CONTINUOUS
 62
    30
 10
692.21222329392936
 20
-242.00000000000239
 30
0.0
  0
POINT
  8
DEFPOINTS
  6
CONTINUOUS
 62
    30
 10
695.69367645163243
 20
-202.000000000006
 30
0.0
  0
POINT
  8
DEFPOINTS
  6
CONTINUOUS
 62
    30
 10
939.83788857270349
 20
-202.000000000006
 30
0.0
  0
LINE
  8
DETAIL
  6
CONTINUOUS
 62
     5
 10
584.199999999993
 20
-114.2121212121197
 30
0.0
 11
643.00000000000091
 21
-121.0000000000059
 31
0.0
  0
LINE
  8
DETAIL
  6
CONTINUOUS
 62
     5
 10
643.00000000000091
 20
-121.0000000000059
 30
0.0
 11
651.00000000000091
 21
-121.0000000000059
 31
0.0
  0
LINE
  8
DETAIL
  6
CONTINUOUS
 62
     5
 10
573.70000000000846
 20
-127.0000000000027
 30
0.0
 11
573.700000000008
 21
-371.00000000000591
 31
0.0
  0
LINE
  8
DETAIL
  6
CONTINUOUS
 62
     5
 10
643.00000000000091
 20
-121.0000000000059
 30
0.0
 11
643.00000000000091
 21
-362.99999999999858
 31
0.0
  0
LINE
  8
DETAIL
  6
CONTINUOUS
 62
     5
 10
651.00000000000091
 20
-121.0000000000059
 30
0.0
 11
651.00000000000091
 21
-362.99999999999858
 31
0.0
  0
LINE
  8
DETAIL
  6
CONTINUOUS
 62
     5
 10
643.00000000000091
 20
-362.99999999999858
 30
0.0
 11
651.00000000000091
 21
-362.99999999999858
 31
0.0
  0
LINE
  8
DETAIL
  6
CONTINUOUS
 62
     5
 10
573.70000001010703
 20
-371.00000000000591
 30
0.0
 11
643.00000000000091
 21
-362.99999999999858
 31
0.0
  0
LINE
  8
DETAIL
  6
CONTINUOUS
 62
     5
 10
566.49999999998772
 20
-371.00000000000591
 30
0.0
 11
573.70000001010703
 21
-371.00000000000591
 31
0.0
  0
LINE
  8
SIZE
  6
CONTINUOUS
 62
    30
 10
636.43427874097756
 20
-77.000000000009578
 30
0.0
 11
959.8378885727036
 21
-77.000000000009521
 31
0.0
  0
LINE
  8
SIZE
  6
CONTINUOUS
 62
    30
 10
590.94999999998549
 20
0.0000000000000032
 30
0.0
 11
959.8378885727036
 21
0.0000000000000625
 31
0.0
  0
LINE
  8
SIZE
  6
CONTINUOUS
 62
    30
 10
939.8378885727036
 20
-65.000000000009521
 30
0.0
 11
939.8378885727036
 21
-11.99999999999994
 31
0.0
  0
LINE
  8
SIZE
  6
CONTINUOUS
 62
    30
 10
939.8378885727036
 20
0.0000000000000593
 30
0.0
 11
939.8378885727036
 21
155.25714285714341
 31
0.0
  0
CIRCLE
  8
SIZE
  6
CONTINUOUS
 62
    30
 10
939.8378885727036
 20
-77.000000000009521
 30
0.0
 40
6.0
  0
LINE
  8
SIZE
  6
CONTINUOUS
 62
    30
 10
939.8378885727036
 20
-77.000000000009521
 30
0.0
 11
939.8378885727036
 21
-65.000000000009521
 31
0.0
  0
CIRCLE
  8
SIZE
  6
CONTINUOUS
 62
    30
 10
939.8378885727036
 20
0.0000000000000593
 30
0.0
 40
6.0
  0
LINE
  8
SIZE
  6
CONTINUOUS
 62
    30
 10
939.8378885727036
 20
0.0000000000000593
 30
0.0
 11
939.8378885727036
 21
-11.999999999999941
 31
0.0
  0
TEXT
  8
SIZE
  6
CONTINUOUS
 62
    30
 10
914.83788857270338
 20
30.060571428571649
 30
0.0
 40
64.0
  1
77
 50
90.0
 41
0.9
 51
0.0
  7
STANDARD
 71
     0
 72
     1
 11
914.83788857270338
 21
83.628571428571632
 31
0.0
210
0.0
220
0.0
230
1.0
  0
POINT
  8
DEFPOINTS
  6
CONTINUOUS
 62
    30
 10
616.43427874097756
 20
-77.000000000009578
 30
0.0
  0
POINT
  8
DEFPOINTS
  6
CONTINUOUS
 62
    30
 10
570.94999999998549
 20
0.0
 30
0.0
  0
POINT
  8
DEFPOINTS
  6
CONTINUOUS
 62
    30
 10
939.8378885727036
 20
0.0000000000000593
 30
0.0
  0
LINE
  8
SIZE
  6
CONTINUOUS
 62
    30
 10
-590.95000000000005
 20
-0.0000000000000032
 30
0.0
 11
-873.80680965687156
 21
-0.0000000000000487
 31
0.0
  0
LINE
  8
SIZE
  6
CONTINUOUS
 62
    30
 10
-636.43427874097711
 20
-77.000000000010488
 30
0.0
 11
-873.80680965687156
 21
-77.00000000001053
 31
0.0
  0
LINE
  8
SIZE
  6
CONTINUOUS
 62
    30
 10
-853.80680965687156
 20
-65.000000000010516
 30
0.0
 11
-853.80680965687156
 21
-12.00000000000005
 31
0.0
  0
LINE
  8
SIZE
  6
CONTINUOUS
 62
    30
 10
-853.80680965687156
 20
-0.0000000000000455
 30
0.0
 11
-853.80680965687156
 21
155.25714285714281
 31
0.0
  0
CIRCLE
  8
SIZE
  6
CONTINUOUS
 62
    30
 10
-853.80680965687156
 20
-77.000000000010516
 30
0.0
 40
6.0
  0
LINE
  8
SIZE
  6
CONTINUOUS
 62
    30
 10
-853.80680965687156
 20
-77.000000000010516
 30
0.0
 11
-853.80680965687156
 21
-65.000000000010516
 31
0.0
  0
CIRCLE
  8
SIZE
  6
CONTINUOUS
 62
    30
 10
-853.80680965687156
 20
-0.0000000000000455
 30
0.0
 40
6.0
  0
LINE
  8
SIZE
  6
CONTINUOUS
 62
    30
 10
-853.80680965687156
 20
-0.0000000000000455
 30
0.0
 11
-853.80680965687156
 21
-12.000000000000046
 31
0.0
  0
TEXT
  8
SIZE
  6
CONTINUOUS
 62
    30
 10
-878.80680965687134
 20
30.060571428571649
 30
0.0
 40
64.0
  1
77
 50
90.0
 41
0.9
 51
0.0
  7
STANDARD
 71
     0
 72
     1
 11
-878.80680965687134
 21
83.628571428571632
 31
0.0
210
0.0
220
0.0
230
1.0
  0
POINT
  8
DEFPOINTS
  6
CONTINUOUS
 62
    30
 10
-570.95000000000005
 20
0.0
 30
0.0
  0
POINT
  8
DEFPOINTS
  6
CONTINUOUS
 62
    30
 10
-616.43427874097711
 20
-77.000000000010488
 30
0.0
  0
POINT
  8
DEFPOINTS
  6
CONTINUOUS
 62
    30
 10
-853.80680965687156
 20
-77.000000000010516
 30
0.0
  0
LINE
  8
DETAIL
  6
CONTINUOUS
 62
     5
 10
-584.70000000000709
 20
-114.269841269841
 30
0.0
 11
-643.00000000000091
 21
-121.0000000000059
 31
0.0
  0
LINE
  8
DETAIL
  6
CONTINUOUS
 62
     5
 10
-643.00000000000091
 20
-121.0000000000059
 30
0.0
 11
-651.00000000000091
 21
-121.0000000000059
 31
0.0
  0
LINE
  8
DETAIL
  6
CONTINUOUS
 62
     5
 10
-573.700000000008
 20
-127.0000000000027
 30
0.0
 11
-573.700000000008
 21
-371.00000000000591
 31
0.0
  0
LINE
  8
DETAIL
  6
CONTINUOUS
 62
     5
 10
-643.00000000000091
 20
-121.0000000000059
 30
0.0
 11
-643.00000000000091
 21
-362.99999999999858
 31
0.0
  0
LINE
  8
DETAIL
  6
CONTINUOUS
 62
     5
 10
-651.00000000000091
 20
-121.0000000000059
 30
0.0
 11
-651.00000000000091
 21
-362.99999999999858
 31
0.0
  0
LINE
  8
DETAIL
  6
CONTINUOUS
 62
     5
 10
-643.00000000000091
 20
-362.99999999999858
 30
0.0
 11
-651.00000000000091
 21
-362.99999999999858
 31
0.0
  0
LINE
  8
DETAIL
  6
CONTINUOUS
 62
     5
 10
-573.70000001010703
 20
-371.00000000000591
 30
0.0
 11
-643.00000000000091
 21
-362.99999999999858
 31
0.0
  0
LINE
  8
DETAIL
  6
CONTINUOUS
 62
     5
 10
-566.49999999998727
 20
-371.00000000000591
 30
0.0
 11
-573.70000001010703
 21
-371.00000000000591
 31
0.0
  0
LINE
  8
SIZE
  6
CONTINUOUS
 62
    30
 10
-671.00000000000114
 20
-121.000000000006
 30
0.0
 11
-873.80680965688146
 21
-121.000000000006
 31
0.0
  0
LINE
  8
SIZE
  6
CONTINUOUS
 62
    30
 10
-671.00000000000114
 20
-362.99999999999869
 30
0.0
 11
-873.80680965688134
 21
-362.99999999999869
 31
0.0
  0
LINE
  8
SIZE
  6
CONTINUOUS
 62
    30
 10
-853.80680965688146
 20
-109.000000000006
 30
0.0
 11
-853.80680965688146
 21
-97.000000000005997
 31
0.0
  0
LINE
  8
SIZE
  6
CONTINUOUS
 62
    30
 10
-853.80680965688134
 20
-374.99999999999869
 30
0.0
 11
-853.80680965688134
 21
-386.99999999999881
 31
0.0
  0
LINE
  8
SIZE
  6
CONTINUOUS
 62
    30
 10
-853.80680965688146
 20
-121.000000000006
 30
0.0
 11
-853.80680965688134
 21
-362.99999999999869
 31
0.0
  0
CIRCLE
  8
SIZE
  6
CONTINUOUS
 62
    30
 10
-853.80680965688146
 20
-121.000000000006
 30
0.0
 40
6.0
  0
LINE
  8
SIZE
  6
CONTINUOUS
 62
    30
 10
-853.80680965688146
 20
-121.000000000006
 30
0.0
 11
-853.80680965688146
 21
-109.000000000006
 31
0.0
  0
CIRCLE
  8
SIZE
  6
CONTINUOUS
 62
    30
 10
-853.80680965688134
 20
-362.99999999999869
 30
0.0
 40
6.0
  0
LINE
  8
SIZE
  6
CONTINUOUS
 62
    30
 10
-853.80680965688134
 20
-362.99999999999869
 30
0.0
 11
-853.80680965688134
 21
-374.99999999999869
 31
0.0
  0
TEXT
  8
SIZE
  6
CONTINUOUS
 62
    30
 10
-878.80680965688123
 20
-357.48800000000205
 30
0.0
 40
64.0
  1
φ242
 50
90.0
 41
0.9
 51
0.0
  7
STANDARD
 71
     0
 72
     1
 11
-878.80680965688123
 21
-242.00000000000199
 31
0.0
210
0.0
220
0.0
230
1.0
  0
POINT
  8
DEFPOINTS
  6
CONTINUOUS
 62
    30
 10
-651.00000000000114
 20
-121.000000000006
 30
0.0
  0
POINT
  8
DEFPOINTS
  6
CONTINUOUS
 62
    30
 10
-651.00000000000114
 20
-362.99999999999869
 30
0.0
  0
POINT
  8
DEFPOINTS
  6
CONTINUOUS
 62
    30
 10
-853.80680965688134
 20
-362.99999999999869
 30
0.0
  0
LINE
  8
SIZE
  6
CONTINUOUS
 62
    30
 10
-593.70000001010726
 20
-371.00000000000603
 30
0.0
 11
-1000.248740335574
 21
-371.00000000000608
 31
0.0
  0
LINE
  8
SIZE
  6
CONTINUOUS
 62
    30
 10
-593.70000001010726
 20
-113.000000000006
 30
0.0
 11
-1000.248740335574
 21
-113.000000000006
 31
0.0
  0
LINE
  8
SIZE
  6
CONTINUOUS
 62
    30
 10
-980.24874033557433
 20
-359.00000000000608
 30
0.0
 11
-980.24874033557444
 21
-125.000000000006
 31
0.0
  0
CIRCLE
  8
SIZE
  6
CONTINUOUS
 62
    30
 10
-980.24874033557433
 20
-371.00000000000608
 30
0.0
 40
6.0
  0
LINE
  8
SIZE
  6
CONTINUOUS
 62
    30
 10
-980.24874033557433
 20
-371.00000000000608
 30
0.0
 11
-980.24874033557433
 21
-359.00000000000608
 31
0.0
  0
CIRCLE
  8
SIZE
  6
CONTINUOUS
 62
    30
 10
-980.24874033557444
 20
-113.000000000006
 30
0.0
 40
6.0
  0
LINE
  8
SIZE
  6
CONTINUOUS
 62
    30
 10
-980.24874033557444
 20
-113.000000000006
 30
0.0
 11
-980.24874033557444
 21
-125.000000000006
 31
0.0
  0
TEXT
  8
SIZE
  6
CONTINUOUS
 62
    30
 10
-1005.248740335574
 20
-356.91200000000583
 30
0.0
 40
64.0
  1
φ258
 50
90.0
 41
0.9
 51
0.0
  7
STANDARD
 71
     0
 72
     1
 11
-1005.248740335574
 21
-242.0000000000058
 31
0.0
210
0.0
220
0.0
230
1.0
  0
POINT
  8
DEFPOINTS
  6
CONTINUOUS
 62
    30
 10
-573.70000001010726
 20
-371.00000000000603
 30
0.0
  0
POINT
  8
DEFPOINTS
  6
CONTINUOUS
 62
    30
 10
-573.70000001010726
 20
-113.000000000006
 30
0.0
  0
POINT
  8
DEFPOINTS
  6
CONTINUOUS
 62
    30
 10
-980.24874033557444
 20
-113.000000000006
 30
0.0
  0
LINE
  8
SIZE
  6
CONTINUOUS
 62
    30
 10
571.99999999998545
 20
-422.9500000103003
 30
0.0
 11
571.99999999998545
 21
-599.41973429428481
 31
0.0
  0
LINE
  8
SIZE
  6
CONTINUOUS
 62
    30
 10
406.99999999999682
 20
-415.17535704140761
 30
0.0
 11
406.99999999999682
 21
-599.41973429428481
 31
0.0
  0
LINE
  8
SIZE
  6
CONTINUOUS
 62
    30
 10
418.99999999999682
 20
-579.41973429428481
 30
0.0
 11
559.99999999998545
 21
-579.41973429428481
 31
0.0
  0
LINE
  8
SIZE
  6
CONTINUOUS
 62
    30
 10
571.99999999998545
 20
-579.41973429428481
 30
0.0
 11
771.14285714284256
 21
-579.41973429428481
 31
0.0
  0
CIRCLE
  8
SIZE
  6
CONTINUOUS
 62
    30
 10
406.99999999999682
 20
-579.41973429428481
 30
0.0
 40
6.0
  0
LINE
  8
SIZE
  6
CONTINUOUS
 62
    30
 10
406.99999999999682
 20
-579.41973429428481
 30
0.0
 11
418.99999999999682
 21
-579.41973429428481
 31
0.0
  0
CIRCLE
  8
SIZE
  6
CONTINUOUS
 62
    30
 10
571.99999999998545
 20
-579.41973429428481
 30
0.0
 40
6.0
  0
LINE
  8
SIZE
  6
CONTINUOUS
 62
    30
 10
571.99999999998545
 20
-579.41973429428481
 30
0.0
 11
559.99999999998545
 21
-579.41973429428481
 31
0.0
  0
TEXT
  8
SIZE
  6
CONTINUOUS
 62
    30
 10
602.97942857141402
 20
-554.41973429428481
 30
0.0
 40
64.0
  1
165
 50
0.0
 41
0.9
 51
0.0
  7
STANDARD
 71
     0
 72
     1
 11
677.571428571414
 21
-554.41973429428481
 31
0.0
210
0.0
220
0.0
230
1.0
  0
POINT
  8
DEFPOINTS
  6
CONTINUOUS
 62
    30
 10
571.99999999998545
 20
-402.9500000103003
 30
0.0
  0
POINT
  8
DEFPOINTS
  6
CONTINUOUS
 62
    30
 10
406.99999999999682
 20
-395.17535704140761
 30
0.0
  0
POINT
  8
DEFPOINTS
  6
CONTINUOUS
 62
    30
 10
406.99999999999682
 20
-579.41973429428481
 30
0.0
  0
POINT
  8
ARRANGE
  6
CONTINUOUS
 62
     1
 10
0.0
 20
0.0
 30
0.0
 50
180.0
  0
CIRCLE
  8
ARRANGE
  6
CONTINUOUS
 62
     1
 10
0.0
 20
0.0
 30
0.0
 40
40.0
  0
LINE
  8
OUTLINE
  6
CONTINUOUS
 62
     3
 10
566.49999999998818
 20
-378.22000234400872
 30
0.0
 11
566.49999999998772
 21
-371.00000000000591
 31
0.0
  0
LINE
  8
OUTLINE
  6
CONTINUOUS
 62
     3
 10
566.49999999998772
 20
-371.00000000000591
 30
0.0
 11
573.69999999995207
 21
-371.00000000000591
 31
0.0
  0
LINE
  8
OUTLINE
  6
CONTINUOUS
 62
     3
 10
573.69999999995207
 20
-371.00000000000591
 30
0.0
 11
642.99999999993679
 21
-362.99999999999773
 31
0.0
  0
LINE
  8
OUTLINE
  6
CONTINUOUS
 62
     3
 10
642.99999999993679
 20
-362.99999999999773
 30
0.0
 11
650.99999999993679
 21
-362.99999999999773
 31
0.0
  0
LINE
  8
OUTLINE
  6
CONTINUOUS
 62
     3
 10
650.99999999993679
 20
-362.99999999999773
 30
0.0
 11
650.99999999993679
 21
-120.9999999999977
 31
0.0
  0
LINE
  8
OUTLINE
  6
CONTINUOUS
 62
     3
 10
650.99999999993679
 20
-120.9999999999977
 30
0.0
 11
642.99999999993679
 21
-120.9999999999977
 31
0.0
  0
LINE
  8
OUTLINE
  6
CONTINUOUS
 62
     3
 10
642.99999999993679
 20
-120.9999999999977
 30
0.0
 11
584.19999999995571
 21
-114.2121212121197
 31
0.0
  0
LINE
  8
OUTLINE
  6
CONTINUOUS
 62
     3
 10
584.19999999995571
 20
-114.2121212121197
 30
0.0
 11
584.20000000000709
 21
-77.000000000002728
 31
0.0
  0
LINE
  8
OUTLINE
  6
CONTINUOUS
 62
     3
 10
584.20000000000709
 20
-77.000000000002728
 30
0.0
 11
566.19999999999254
 21
-77.000000000002728
 31
0.0
  0
LINE
  8
OUTLINE
  6
CONTINUOUS
 62
     3
 10
566.19999999999254
 20
-77.000000000002728
 30
0.0
 11
566.19999999999254
 21
-2.8000000000024561
 31
0.0
  0
LINE
  8
OUTLINE
  6
CONTINUOUS
 62
     3
 10
566.19999999999254
 20
-2.8000000000024561
 30
0.0
 11
565.70000000000709
 21
-2.8000000000024561
 31
0.0
  0
LINE
  8
OUTLINE
  6
CONTINUOUS
 62
     3
 10
565.70000000000709
 20
-2.8000000000024561
 30
0.0
 11
565.70000000000709
 21
-1.8000000000024561
 31
0.0
  0
ARC
  8
OUTLINE
  6
CONTINUOUS
 62
     3
 10
566.19999999998208
 20
-1.7999999999774106
 30
0.0
 40
0.4999999999749545
 50
90.0
 51
180.0
  0
LINE
  8
OUTLINE
  6
CONTINUOUS
 62
     3
 10
566.19999999999254
 20
-1.3000000000024561
 30
0.0
 11
567.70000000001437
 21
-1.3000000000142791
 31
0.0
  0
LINE
  8
OUTLINE
  6
CONTINUOUS
 62
     3
 10
567.70000000001437
 20
-1.3000000000142791
 30
0.0
 11
567.70000000000709
 21
-2.100000000005366
 31
0.0
  0
LINE
  8
OUTLINE
  6
CONTINUOUS
 62
     3
 10
567.70000000000709
 20
-2.100000000005366
 30
0.0
 11
570.92500000001291
 21
-2.100000000005366
 31
0.0
  0
ARC
  8
OUTLINE
  6
CONTINUOUS
 62
     3
 10
570.94985294114576
 20
-1.0501470588254673
 30
0.0
 40
1.0501470691227184
 50
268.64390271122659
 51
89.991976504337345
  0
LINE
  8
OUTLINE
  6
CONTINUOUS
 62
     3
 10
570.94999999997799
 20
0.0000000000004547
 30
0.0
 11
565.87127970599522
 21
0.0000000000004547
 31
0.0
  0
ARC
  8
OUTLINE
  6
CONTINUOUS
 62
     3
 10
565.87127970597646
 20
-1.5999999999797951
 30
0.0
 40
1.5999999999802499
 50
90.0
 51
170.00000000024465
  0
LINE
  8
OUTLINE
  6
CONTINUOUS
 62
     3
 10
564.29558730117515
 20
-1.322162915722856
 30
0.0
 11
564.20000000000709
 21
-1.8642654312766349
 31
0.0
  0
LINE
  8
OUTLINE
  6
CONTINUOUS
 62
     3
 10
564.20000000000709
 20
-1.8642654312766349
 30
0.0
 11
564.20000000000709
 21
-0.8000000000015461
 31
0.0
  0
LINE
  8
OUTLINE
  6
CONTINUOUS
 62
     3
 10
564.20000000000709
 20
-0.8000000000015461
 30
0.0
 11
562.84708539201074
 21
-0.8000000000015461
 31
0.0
  0
LINE
  8
OUTLINE
  6
CONTINUOUS
 62
     3
 10
562.84708539201074
 20
-0.8000000000015461
 30
0.0
 11
562.84708539201074
 21
0.0000000000004547
 31
0.0
  0
LINE
  8
OUTLINE
  6
CONTINUOUS
 62
     3
 10
562.84708539201074
 20
0.0000000000004547
 30
0.0
 11
-562.84708539201256
 21
0.0000000000004547
 31
0.0
  0
LINE
  8
OUTLINE
  6
CONTINUOUS
 62
     3
 10
-562.84708539201256
 20
0.0000000000004547
 30
0.0
 11
-562.84708539201256
 21
-0.8000000000015461
 31
0.0
  0
LINE
  8
OUTLINE
  6
CONTINUOUS
 62
     3
 10
-562.84708539201256
 20
-0.8000000000015461
 30
0.0
 11
-564.19999999999436
 21
-0.8000000000015461
 31
0.0
  0
LINE
  8
OUTLINE
  6
CONTINUOUS
 62
     3
 10
-564.19999999999436
 20
-0.8000000000015461
 30
0.0
 11
-564.19999999999436
 21
-1.8642654312611739
 31
0.0
  0
LINE
  8
OUTLINE
  6
CONTINUOUS
 62
     3
 10
-564.19999999999436
 20
-1.8642654312611739
 30
0.0
 11
-564.29558730000008
 21
-1.3221629159957049
 31
0.0
  0
ARC
  8
OUTLINE
  6
CONTINUOUS
 62
     3
 10
-565.87127970329698
 20
-1.5999999981296344
 30
0.0
 40
1.5999999981300888
 50
9.9999999342405772
 51
90.0
  0
LINE
  8
OUTLINE
  6
CONTINUOUS
 62
     3
 10
-565.87127970398888
 20
0.0000000000004547
 30
0.0
 11
-570.94999999999436
 21
0.0000000000004547
 31
0.0
  0
ARC
  8
OUTLINE
  6
CONTINUOUS
 62
     3
 10
-570.94999999999436
 20
-1.0500000000024559
 30
0.0
 40
1.0500000000029106
 50
90.0
 51
270.0
  0
LINE
  8
OUTLINE
  6
CONTINUOUS
 62
     3
 10
-570.94999999999436
 20
-2.100000000005366
 30
0.0
 11
-567.69999999999436
 21
-2.100000000005366
 31
0.0
  0
LINE
  8
OUTLINE
  6
CONTINUOUS
 62
     3
 10
-567.69999999999436
 20
-2.100000000005366
 30
0.0
 11
-567.69999999999436
 21
-1.3000000000056391
 31
0.0
  0
LINE
  8
OUTLINE
  6
CONTINUOUS
 62
     3
 10
-567.69999999999436
 20
-1.3000000000056391
 30
0.0
 11
-566.20000000000891
 21
-1.3000000000024561
 31
0.0
  0
ARC
  8
OUTLINE
  6
CONTINUOUS
 62
     3
 10
-566.1999999999905
 20
-1.7999999999785743
 30
0.0
 40
0.4999999999761183
 50
0.0
 51
90.0
  0
LINE
  8
OUTLINE
  6
CONTINUOUS
 62
     3
 10
-565.70000000001437
 20
-1.8000000000029099
 30
0.0
 11
-565.70000000001437
 21
-2.8000000000029099
 31
0.0
  0
LINE
  8
OUTLINE
  6
CONTINUOUS
 62
     3
 10
-565.70000000001437
 20
-2.8000000000029099
 30
0.0
 11
-566.20000000000891
 21
-2.8000000000024561
 31
0.0
  0
LINE
  8
OUTLINE
  6
CONTINUOUS
 62
     3
 10
-566.20000000000891
 20
-2.8000000000024561
 30
0.0
 11
-566.20000000000891
 21
-77.000000000002728
 31
0.0
  0
LINE
  8
OUTLINE
  6
CONTINUOUS
 62
     3
 10
-566.20000000000891
 20
-77.000000000002728
 30
0.0
 11
-584.70000000000891
 21
-77.000000000002728
 31
0.0
  0
LINE
  8
OUTLINE
  6
CONTINUOUS
 62
     3
 10
-584.70000000000891
 20
-77.000000000002728
 30
0.0
 11
-584.70000000000709
 21
-114.269841269841
 31
0.0
  0
LINE
  8
OUTLINE
  6
CONTINUOUS
 62
     3
 10
-584.70000000000709
 20
-114.269841269841
 30
0.0
 11
-642.99999999997362
 21
-120.9999999999977
 31
0.0
  0
LINE
  8
OUTLINE
  6
CONTINUOUS
 62
     3
 10
-642.99999999997362
 20
-120.9999999999977
 30
0.0
 11
-650.99999999997362
 21
-120.9999999999977
 31
0.0
  0
LINE
  8
OUTLINE
  6
CONTINUOUS
 62
     3
 10
-650.99999999997362
 20
-120.9999999999977
 30
0.0
 11
-650.99999999997362
 21
-362.99999999999773
 31
0.0
  0
LINE
  8
OUTLINE
  6
CONTINUOUS
 62
     3
 10
-650.99999999997362
 20
-362.99999999999773
 30
0.0
 11
-642.99999999997362
 21
-362.99999999999773
 31
0.0
  0
LINE
  8
OUTLINE
  6
CONTINUOUS
 62
     3
 10
-642.99999999997362
 20
-362.99999999999773
 30
0.0
 11
-573.6999999999889
 21
-371.00000000000591
 31
0.0
  0
LINE
  8
OUTLINE
  6
CONTINUOUS
 62
     3
 10
-573.6999999999889
 20
-371.00000000000591
 30
0.0
 11
-566.50000000002456
 21
-371.00000000000591
 31
0.0
  0
LINE
  8
OUTLINE
  6
CONTINUOUS
 62
     3
 10
-566.50000000002456
 20
-371.00000000000591
 30
0.0
 11
-566.50000000002456
 21
-384.55000000000251
 31
0.0
  0
LINE
  8
OUTLINE
  6
CONTINUOUS
 62
     3
 10
-566.50000000002456
 20
-384.55000000000251
 30
0.0
 11
-566.20000000000709
 21
-384.55110455599828
 31
0.0
  0
LINE
  8
OUTLINE
  6
CONTINUOUS
 62
     3
 10
-566.20000000000709
 20
-384.55110455599828
 30
0.0
 11
-566.20000000000891
 21
-401.20000000000442
 31
0.0
  0
LINE
  8
OUTLINE
  6
CONTINUOUS
 62
     3
 10
-566.20000000000891
 20
-401.20000000000442
 30
0.0
 11
-565.70000000002346
 21
-401.20000000000442
 31
0.0
  0
LINE
  8
OUTLINE
  6
CONTINUOUS
 62
     3
 10
-565.70000000002346
 20
-401.20000000000442
 30
0.0
 11
-565.70000000000891
 21
-402.20000000000249
 31
0.0
  0
ARC
  8
OUTLINE
  6
CONTINUOUS
 62
     3
 10
-566.20000000000994
 20
-402.20000000000243
 30
0.0
 40
0.5000000000010576
 50
270.0
 51
0.0
  0
LINE
  8
OUTLINE
  6
CONTINUOUS
 62
     3
 10
-566.20000000000891
 20
-402.70000000000351
 30
0.0
 11
-567.69999999999436
 21
-402.70000000003353
 31
0.0
  0
LINE
  8
OUTLINE
  6
CONTINUOUS
 62
     3
 10
-567.69999999999436
 20
-402.70000000003353
 30
0.0
 11
-567.69999999999436
 21
-401.9000000000151
 31
0.0
  0
LINE
  8
OUTLINE
  6
CONTINUOUS
 62
     3
 10
-567.69999999999436
 20
-401.9000000000151
 30
0.0
 11
-570.94999999999436
 21
-401.9000000000151
 31
0.0
  0
ARC
  8
OUTLINE
  6
CONTINUOUS
 62
     3
 10
-570.94999999999436
 20
-402.950000000003
 30
0.0
 40
1.0499999999879037
 50
90.0
 51
270.0
  0
LINE
  8
OUTLINE
  6
CONTINUOUS
 62
     3
 10
-570.94999999999436
 20
-403.99999999999091
 30
0.0
 11
-565.87127970398888
 21
-404.00000000000051
 31
0.0
  0
ARC
  8
OUTLINE
  6
CONTINUOUS
 62
     3
 10
-565.87127970331562
 20
-402.40000000185006
 30
0.0
 40
1.5999999981504784
 50
270.0
 51
350.0000000654619
  0
LINE
  8
OUTLINE
  6
CONTINUOUS
 62
     3
 10
-564.29558730000008
 20
-402.67783708399571
 30
0.0
 11
-564.19999999999436
 21
-402.13573456875571
 31
0.0
  0
LINE
  8
OUTLINE
  6
CONTINUOUS
 62
     3
 10
-564.19999999999436
 20
-402.13573456875571
 30
0.0
 11
-564.19999999999436
 21
-403.20000000000351
 31
0.0
  0
LINE
  8
OUTLINE
  6
CONTINUOUS
 62
     3
 10
-564.19999999999436
 20
-403.20000000000351
 30
0.0
 11
-562.80000000001473
 21
-403.20000000000351
 31
0.0
  0
LINE
  8
OUTLINE
  6
CONTINUOUS
 62
     3
 10
-562.80000000001473
 20
-403.20000000000351
 30
0.0
 11
-562.80000000001473
 21
-403.99999999999091
 31
0.0
  0
LINE
  8
OUTLINE
  6
CONTINUOUS
 62
     3
 10
-562.80000000001473
 20
-403.99999999999091
 30
0.0
 11
562.79999999999836
 21
-403.99999999999091
 31
0.0
  0
LINE
  8
OUTLINE
  6
CONTINUOUS
 62
     3
 10
562.79999999999836
 20
-403.99999999999091
 30
0.0
 11
562.79999999999836
 21
-403.20000000000351
 31
0.0
  0
LINE
  8
OUTLINE
  6
CONTINUOUS
 62
     3
 10
562.79999999999836
 20
-403.20000000000351
 30
0.0
 11
564.20000000000709
 21
-403.20000000000351
 31
0.0
  0
LINE
  8
OUTLINE
  6
CONTINUOUS
 62
     3
 10
564.20000000000709
 20
-403.20000000000351
 30
0.0
 11
564.20000000000709
 21
-402.13573456874252
 31
0.0
  0
LINE
  8
OUTLINE
  6
CONTINUOUS
 62
     3
 10
564.20000000000709
 20
-402.13573456874252
 30
0.0
 11
564.29558729999826
 21
-402.67783708399571
 31
0.0
  0
ARC
  8
OUTLINE
  6
CONTINUOUS
 62
     3
 10
565.87127970684151
 20
-402.39999999763421
 30
0.0
 40
1.6000000023567025
 50
190.00000006127709
 51
270.0
  0
LINE
  8
OUTLINE
  6
CONTINUOUS
 62
     3
 10
565.87127970599522
 20
-403.99999999999091
 30
0.0
 11
570.94999999997799
 21
-403.99999999999091
 31
0.0
  0
ARC
  8
OUTLINE
  6
CONTINUOUS
 62
     3
 10
570.94985294117453
 20
-402.94985294119039
 30
0.0
 40
1.0501470690973391
 50
270.00802349409355
 51
91.356097290375885
  0
LINE
  8
OUTLINE
  6
CONTINUOUS
 62
     3
 10
570.92500000001291
 20
-401.90000000003653
 30
0.0
 11
567.70000000000709
 21
-401.9000000000151
 31
0.0
  0
LINE
  8
OUTLINE
  6
CONTINUOUS
 62
     3
 10
567.70000000000709
 20
-401.9000000000151
 30
0.0
 11
567.70000000001073
 21
-402.70000000003211
 31
0.0
  0
LINE
  8
OUTLINE
  6
CONTINUOUS
 62
     3
 10
567.70000000001073
 20
-402.70000000003211
 30
0.0
 11
566.20000000001073
 21
-402.70000000003262
 31
0.0
  0
ARC
  8
OUTLINE
  6
CONTINUOUS
 62
     3
 10
566.2000000000105
 20
-402.20000000003284
 30
0.0
 40
0.4999999999997962
 50
180.0
 51
270.0
  0
LINE
  8
OUTLINE
  6
CONTINUOUS
 62
     3
 10
565.70000000001073
 20
-402.20000000003262
 30
0.0
 11
565.70000000001073
 21
-401.20000000000442
 31
0.0
  0
LINE
  8
OUTLINE
  6
CONTINUOUS
 62
     3
 10
565.70000000001073
 20
-401.20000000000442
 30
0.0
 11
566.19999999999254
 21
-401.20000000000442
 31
0.0
  0
LINE
  8
OUTLINE
  6
CONTINUOUS
 62
     3
 10
566.19999999999254
 20
-401.20000000000442
 30
0.0
 11
566.19999999998527
 21
-378.22000234400872
 31
0.0
  0
LINE
  8
OUTLINE
  6
CONTINUOUS
 62
     3
 10
566.19999999998527
 20
-378.22000234400872
 30
0.0
 11
566.49999999998818
 21
-378.22000234400872
 31
0.0
  0
LINE
  8
BASIS
  6
DASHDOT
 62
     6
 10
-616.43427874097688
 20
-77.000000000010459
 30
0.0
 11
-514.56572125902312
 21
-77.000000000010459
 31
0.0
  0
LINE
  8
BASIS
  6
DASHDOT
 62
     6
 10
-565.5
 20
-26.06572125902812
 30
0.0
 11
-565.5
 21
-127.9342787409782
 31
0.0
  0
LINE
  8
SIZE
  6
CONTINUOUS
 62
    30
 10
-565.5
 20
-6.0657212590281233
 30
0.0
 11
-565.5
 21
146.7281622948253
 31
0.0
  0
LINE
  8
SIZE
  6
CONTINUOUS
 62
    30
 10
565.50000000000045
 20
-6.0657212590281233
 30
0.0
 11
565.50000000000045
 21
146.7281622948253
 31
0.0
  0
LINE
  8
SIZE
  6
CONTINUOUS
 62
    30
 10
-553.5
 20
126.7281622948253
 30
0.0
 11
553.50000000000045
 21
126.7281622948253
 31
0.0
  0
CIRCLE
  8
SIZE
  6
CONTINUOUS
 62
    30
 10
-565.5
 20
126.7281622948253
 30
0.0
 40
6.0
  0
LINE
  8
SIZE
  6
CONTINUOUS
 62
    30
 10
-565.5
 20
126.7281622948253
 30
0.0
 11
-553.5
 21
126.7281622948253
 31
0.0
  0
CIRCLE
  8
SIZE
  6
CONTINUOUS
 62
    30
 10
565.50000000000045
 20
126.7281622948253
 30
0.0
 40
6.0
  0
LINE
  8
SIZE
  6
CONTINUOUS
 62
    30
 10
565.50000000000045
 20
126.7281622948253
 30
0.0
 11
553.50000000000045
 21
126.7281622948253
 31
0.0
  0
TEXT
  8
SIZE
  6
CONTINUOUS
 62
    30
 10
-89.855999999999781
 20
151.7281622948253
 30
0.0
 40
64.0
  1
1131
 50
0.0
 41
0.9
 51
0.0
  7
STANDARD
 71
     0
 72
     1
 11
0.0000000000002274
 21
151.7281622948253
 31
0.0
210
0.0
220
0.0
230
1.0
  0
POINT
  8
DEFPOINTS
  6
CONTINUOUS
 62
    30
 10
-565.5
 20
-26.06572125902812
 30
0.0
  0
POINT
  8
DEFPOINTS
  6
CONTINUOUS
 62
    30
 10
565.50000000000045
 20
-26.06572125902812
 30
0.0
  0
POINT
  8
DEFPOINTS
  6
CONTINUOUS
 62
    30
 10
565.50000000000045
 20
126.7281622948253
 30
0.0
  0
LINE
  8
BASIS
  6
DASHDOT
 62
     6
 10
616.43427874097733
 20
-77.00000000000955
 30
0.0
 11
514.56572125902358
 21
-77.00000000000955
 31
0.0
  0
LINE
  8
BASIS
  6
DASHDOT
 62
     6
 10
565.50000000000045
 20
-26.06572125902812
 30
0.0
 11
565.50000000000045
 21
-127.9342787409782
 31
0.0
  0
CIRCLE
  8
FIX
  6
CONTINUOUS
 62
    11
 10
-565.50000000000364
 20
-77.000000000010459
 30
0.0
 40
6.5
  0
CIRCLE
  8
FIX
  6
CONTINUOUS
 62
    11
 10
565.49999999999682
 20
-77.00000000000955
 30
0.0
 40
6.5
  0
TEXT
  8
NOTE
  6
CONTINUOUS
 62
     4
 10
-801.89337843798501
 20
-270.22484275560191
 30
0.0
 40
64.065641025638456
  1
RA
 41
0.9
  0
TEXT
  8
NOTE
  6
CONTINUOUS
 62
     4
 10
697.55790591051675
 20
-270.22484275560191
 30
0.0
 40
64.065641025638456
  1
EA
 41
0.9
  0
TEXT
  8
ETC
  6
CONTINUOUS
 62
    61
 10
912.30999512459312
 20
778.39943370898936
 30
0.0
 40
64.065641025638456
  1
LGH-100RVX3-E_4
 41
0.9
  0
TEXT
  8
ETC
  6
CONTINUOUS
 62
    61
 10
908.11970779741387
 20
660.32314388901887
 30
0.0
 40
64.065641025638456
  1
LOSSNAY
 41
0.9
  0
TEXT
  8
ETC
  6
CONTINUOUS
 62
    61
 10
958.87310748006712
 20
552.06344918445268
 30
0.0
 40
40.041025641024042
  1
LGH-100RVX3-E
 50
0.0
 41
0.9
 51
0.0
  7
STANDARD
 71
     0
 11
0.0
 21
0.0
 31
0.0
210
0.0
220
0.0
230
1.0
  0
TEXT
  8
NOTE
  6
CONTINUOUS
 62
     4
 10
707.00887299171154
 20
372.50919782022271
 30
0.0
 40
69.0
  1
Ceiling suspension fixture
 50
0.0
 41
0.9
 51
0.0
  7
STANDARD
 71
     0
 11
0.0
 21
0.0
 31
0.0
210
0.0
220
0.0
230
1.0
  0
TEXT
  8
NOTE
  6
CONTINUOUS
 62
     4
 10
707.00887299171154
 20
258.65919782022274
 30
0.0
 40
69.0
  1
(4-13X20 oval)
 50
0.0
 41
0.9
 51
0.0
  7
STANDARD
 71
     0
 11
0.0
 21
0.0
 31
0.0
210
0.0
220
0.0
230
1.0
  0
LINE
  8
NOTE
  6
CONTINUOUS
 62
     4
 10
697.00887299171154
 20
221.36634067736529
 30
0.0
 11
1913.523158705997
 21
221.36634067736529
 31
0.0
  0
LINE
  8
NOTE
  6
CONTINUOUS
 62
     4
 10
587.38655019832072
 20
-48.122145275688467
 30
0.0
 11
565.50000000000364
 21
-77.000000000010459
 31
0.0
  0
LINE
  8
NOTE
  6
CONTINUOUS
 62
     4
 10
565.50000000000364
 20
-77.000000000010459
 30
0.0
 11
570.01532693279432
 21
-41.047762298408145
 31
0.0
  0
LINE
  8
NOTE
  6
CONTINUOUS
 62
     4
 10
565.50000000000364
 20
-77.000000000010459
 30
0.0
 11
591.90187713111141
 21
-12.169907574086153
 31
0.0
  0
LINE
  8
NOTE
  6
CONTINUOUS
 62
     4
 10
591.90187713111141
 20
-12.16990757408615
 30
0.0
 11
687.00887299171154
 21
221.36634067736529
 31
0.0
  0
LINE
  8
NOTE
  6
CONTINUOUS
 62
     4
 10
687.00887299171154
 20
221.36634067736529
 30
0.0
 11
697.00887299171154
 21
221.36634067736529
 31
0.0
  0
VIEWPORT
 67
     1
  8
0
  6
CONTINUOUS
 62
     7
 10
5.249999639556167
 20
3.9999998836066788
 30
0.0
 40
16.01909763056571
 41
8.9929997457669515
 68
     1
 69
     1
1001
ACAD
1000
MVIEW
1002
{
1070
    16
1010
0.0
1020
0.0
1030
0.0
1010
0.0
1020
0.0
1030
1.0
1040
0.0
1040
8.9929997457669515
1040
5.249999639556167
1040
3.9999998836066788
1040
50.0
1040
0.0
1040
0.0
1070
    16
1070
  1000
1070
     0
1070
     1
1070
     0
1070
     0
1070
     0
1070
     0
1040
0.0
1040
0.0
1040
0.0
1040
10.0
1040
10.0
1040
10.0
1040
10.0
1070
     0
1002
{
1002
}
1002
}
  0
VIEWPORT
 67
     1
  8
SIZE
  6
CONTINUOUS
 62
    30
 10
5.2499997615814218
 20
3.9999997615814209
 30
0.0
 40
8.3999996185302752
 41
6.3999996185302743
 68
     2
 69
     2
1001
ACAD
1000
MVIEW
1002
{
1070
    16
1010
0.0
1020
0.0
1030
0.0
1010
0.0
1020
0.0
1030
1.0
1040
0.0
1040
2255.7638686278378
1040
400.16328333895848
1040
121.6049293540473
1040
50.0
1040
0.0
1040
0.0
1070
    16
1070
  1000
1070
     0
1070
     1
1070
     0
1070
     0
1070
     0
1070
     0
1040
0.0
1040
0.0
1040
0.0
1040
10.0
1040
10.0
1040
10.0
1040
10.0
1070
     0
1002
{
1002
}
1002
}
  0
ENDSEC
  0
EOF
