  0
SECTION
  2
HEADER
  9
$ACADVER
  1
AC1009
  9
$DWGCODEPAGE
  3
dos932
  9
$INSBASE
 10
0.0
 20
0.0
 30
0.0
  9
$EXTMIN
 10
-950.78428557699772
 20
-605.62132637205286
 30
-0.0015258207003583
  9
$EXTMAX
 10
2040.243543021199
 20
885.36072613829856
 30
0.0000000349246037
  9
$LIMMIN
 10
-2970.0
 20
-2100.0
  9
$LIMMAX
 10
2970.0
 20
2100.0
  9
$ORTHOMODE
 70
     1
  9
$REGENMODE
 70
     1
  9
$FILLMODE
 70
     1
  9
$QTEXTMODE
 70
     0
  9
$MIRRTEXT
 70
     0
  9
$LTSCALE
 40
20.0
  9
$ATTMODE
 70
     1
  9
$TEXTSIZE
 40
64.0
  9
$TRACEWID
 40
0.05
  9
$TEXTSTYLE
  7
STANDARD
  9
$CLAYER
  8
SIZE
  9
$CELTYPE
  6
CONTINUOUS
  9
$CECOLOR
 62
     7
  9
$DIMSCALE
 40
1.0
  9
$DIMASZ
 40
12.0
  9
$DIMEXO
 40
20.0
  9
$DIMDLI
 40
200.0
  9
$DIMRND
 40
0.0
  9
$DIMDLE
 40
0.0
  9
$DIMEXE
 40
20.0
  9
$DIMTP
 40
0.0
  9
$DIMTM
 40
0.0
  9
$DIMTXT
 40
64.0
  9
$DIMCEN
 40
0.09
  9
$DIMTSZ
 40
0.0
  9
$DIMTOL
 70
     0
  9
$DIMLIM
 70
     0
  9
$DIMTIH
 70
     0
  9
$DIMTOH
 70
     0
  9
$DIMSE1
 70
     0
  9
$DIMSE2
 70
     0
  9
$DIMTAD
 70
     1
  9
$DIMZIN
 70
     8
  9
$DIMBLK
  1

  9
$DIMASO
 70
     1
  9
$DIMSHO
 70
     0
  9
$DIMPOST
  1

  9
$DIMAPOST
  1

  9
$DIMALT
 70
     0
  9
$DIMALTD
 70
     2
  9
$DIMALTF
 40
25.399999999999999
  9
$DIMLFAC
 40
1.0
  9
$DIMTOFL
 70
     1
  9
$DIMTVP
 40
0.0
  9
$DIMTIX
 70
     1
  9
$DIMSOXD
 70
     0
  9
$DIMSAH
 70
     0
  9
$DIMBLK1
  1

  9
$DIMBLK2
  1

  9
$DIMSTYLE
  2
STANDARD
  9
$DIMCLRD
 70
     7
  9
$DIMCLRE
 70
     7
  9
$DIMCLRT
 70
     7
  9
$DIMTFAC
 40
1.0
  9
$DIMGAP
 40
25.0
  9
$LUNITS
 70
     2
  9
$LUPREC
 70
     4
  9
$SKETCHINC
 40
0.1
  9
$FILLETRAD
 40
3.0
  9
$AUNITS
 70
     1
  9
$AUPREC
 70
     3
  9
$MENU
  1
ACAD
  9
$ELEVATION
 40
0.0
  9
$PELEVATION
 40
0.0
  9
$THICKNESS
 40
0.0
  9
$LIMCHECK
 70
     0
  9
$CHAMFERA
 40
0.0
  9
$CHAMFERB
 40
0.0
  9
$SKPOLY
 70
     0
  9
$TDCREATE
 40
2453019.62301037
  9
$TDUPDATE
 40
2460045.429198461
  9
$TDINDWG
 40
1.7161039468
  9
$TDUSRTIMER
 40
1.7161039468
  9
$USRTIMER
 70
     1
  9
$ANGBASE
 50
0.0
  9
$ANGDIR
 70
     0
  9
$PDMODE
 70
     3
  9
$PDSIZE
 40
-2.0
  9
$PLINEWID
 40
0.0
  9
$SPLFRAME
 70
     0
  9
$SPLINETYPE
 70
     6
  9
$SPLINESEGS
 70
     8
  9
$SURFTAB1
 70
     6
  9
$SURFTAB2
 70
     6
  9
$SURFTYPE
 70
     6
  9
$SURFU
 70
     6
  9
$SURFV
 70
     6
  9
$UCSNAME
  2

  9
$UCSORG
 10
0.0
 20
0.0
 30
0.0
  9
$UCSXDIR
 10
1.0
 20
0.0
 30
0.0
  9
$UCSYDIR
 10
0.0
 20
1.0
 30
0.0
  9
$PUCSNAME
  2

  9
$PUCSORG
 10
0.0
 20
0.0
 30
0.0
  9
$PUCSXDIR
 10
1.0
 20
0.0
 30
0.0
  9
$PUCSYDIR
 10
0.0
 20
1.0
 30
0.0
  9
$USERI1
 70
     0
  9
$USERI2
 70
     0
  9
$USERI3
 70
     0
  9
$USERI4
 70
     0
  9
$USERI5
 70
     0
  9
$USERR1
 40
20.0
  9
$USERR2
 40
0.0
  9
$USERR3
 40
0.0
  9
$USERR4
 40
0.0
  9
$USERR5
 40
0.0
  9
$WORLDVIEW
 70
     1
  9
$SHADEDGE
 70
     3
  9
$SHADEDIF
 70
    70
  9
$TILEMODE
 70
     1
  9
$MAXACTVP
 70
    48
  9
$PINSBASE
 10
0.0
 20
0.0
 30
0.0
  9
$PLIMCHECK
 70
     0
  9
$PEXTMIN
 10
-100000000000000000000.0
 20
-100000000000000000000.0
 30
-100000000000000000000.0
  9
$PEXTMAX
 10
100000000000000000000.0
 20
100000000000000000000.0
 30
100000000000000000000.0
  9
$PLIMMIN
 10
0.0
 20
0.0
  9
$PLIMMAX
 10
12.0
 20
9.0
  9
$UNITMODE
 70
     0
  9
$VISRETAIN
 70
     0
  9
$PLINEGEN
 70
     0
  9
$PSLTSCALE
 70
     0
  9
$TREEDEPTH
 70
  3020
  9
$ATTDIA
 70
     0
  9
$ATTREQ
 70
     1
  9
$BLIPMODE
 70
     1
  9
$COORDS
 70
     1
  9
$DRAGMODE
 70
     2
  9
$OSMODE
 70
     0
  9
$HANDLING
 70
     0
  9
$HANDSEED
  5
F711
  0
ENDSEC
  0
SECTION
  2
TABLES
  0
TABLE
  2
LTYPE
 70
     2
  0
LTYPE
  2
CONTINUOUS
 70
     0
  3
実線
 72
    65
 73
     0
 40
0.0
  0
LTYPE
  2
DASHDOT
 70
     0
  3
____ _ ____ _ ____ _ ____ _ ____ _ ____ _ ____
 72
    65
 73
     4
 40
5.5
 49
4.0
 49
-0.6
 49
0.3
 49
-0.6
  0
ENDTAB
  0
TABLE
  2
LAYER
 70
    12
  0
LAYER
  2
0
 70
     0
 62
     7
  6
CONTINUOUS
  0
LAYER
  2
BASIS
 70
     0
 62
     6
  6
DASHDOT
  0
LAYER
  2
OUTLINE
 70
     0
 62
     3
  6
CONTINUOUS
  0
LAYER
  2
DETAIL
 70
     0
 62
     5
  6
CONTINUOUS
  0
LAYER
  2
SIZE
 70
     0
 62
    30
  6
CONTINUOUS
  0
LAYER
  2
ARRANGE
 70
     0
 62
     1
  6
CONTINUOUS
  0
LAYER
  2
DEFPOINTS
 70
     0
 62
     7
  6
CONTINUOUS
  0
LAYER
  2
ETC
 70
     0
 62
    61
  6
CONTINUOUS
  0
LAYER
  2
FIX
 70
     0
 62
    11
  6
CONTINUOUS
  0
LAYER
  2
NOTE
 70
     0
 62
     4
  6
CONTINUOUS
  0
LAYER
  2
SERVICESPACE
 70
    64
 62
     2
  6
DASHDOT
  0
LAYER
  2
SYMBOLLINE
 70
    64
 62
    15
  6
CONTINUOUS
  0
ENDTAB
  0
TABLE
  2
STYLE
 70
     1
  0
STYLE
  2
STANDARD
 70
     0
 40
64.0
 41
0.9
 50
0.0
 71
     0
 42
64.0
  3
SIMPLEX.shx
  4
BIGFONT.shx
  0
ENDTAB
  0
TABLE
  2
APPID
 70
    20
  0
APPID
  2
ACAD
 70
     0
  0
APPID
  2
AUTOCAD_POSTSCRIPT_FIGURE
 70
     0
  0
APPID
  2
ACAD_EXEMPT_FROM_CAD_STANDARDS
 70
     0
  0
APPID
  2
ACAD_PSEXT
 70
     0
  0
APPID
  2
ACAUTHENVIRON
 70
     0
  0
APPID
  2
GENIUS_GENOENT_13
 70
     0
  0
APPID
  2
GENIUS_GENCFG_13
 70
     0
  0
APPID
  2
GENIUS_GENCFG0_13
 70
     0
  0
APPID
  2
GENIUS_GENCFG1_13
 70
     0
  0
APPID
  2
GENIUS_GENCFG2_13
 70
     0
  0
APPID
  2
GENIUS_GENCFG3_13
 70
     0
  0
APPID
  2
GENIUS_GENCFG4_13
 70
     0
  0
APPID
  2
GENIUS_GEVCFG0_13
 70
     0
  0
APPID
  2
CONTENTBLOCKICON
 70
     0
  0
APPID
  2
CONTENTBLOCKDESCRIPTION
 70
     0
  0
APPID
  2
ACAD_NAV_VCDISPLAY
 70
     0
  0
APPID
  2
ACAD_MLEADERVER
 70
     0
  0
APPID
  2
ACDBDYNAMICBLOCKTRUENAME
 70
     0
  0
APPID
  2
ACDBDYNAMICBLOCKGUID
 70
     0
  0
APPID
  2
ACAD_DSTYLE_DIMRADIAL_EXTENSION
 70
     0
  0
ENDTAB
  0
TABLE
  2
DIMSTYLE
 70
     1
  0
DIMSTYLE
  2
STANDARD
 70
     0
  3

  4

  5
_ORIGIN
  6

  7

 40
1.0
 41
12.0
 42
20.0
 43
200.0
 44
20.0
 45
0.0
 46
0.0
 47
0.0
 48
0.0
140
64.0
141
0.09
142
0.0
143
25.399999999999999
144
1.0
145
0.0
146
1.0
147
25.0
 71
     0
 72
     0
 73
     0
 74
     0
 75
     0
 76
     0
 77
     1
 78
     8
170
     0
171
     2
172
     1
173
     0
174
     1
175
     0
176
     7
177
     7
178
     7
  0
ENDTAB
  0
TABLE
  2
VIEW
 70
     1
  0
VIEW
  2
ALL
 70
     0
 40
4282.6198079999986
 10
0.0
 20
41.309904000000003
 41
5940.0
 11
0.0
 21
0.0
 31
1.0
 12
0.0
 22
0.0
 32
0.0
 42
50.0
 43
0.0
 44
0.0
 50
0.0
 71
     0
  0
ENDTAB
  0
TABLE
  2
UCS
 70
     0
  0
ENDTAB
  0
TABLE
  2
VPORT
 70
     1
  0
VPORT
  2
*ACTIVE
 70
     0
 10
0.0
 20
0.0
 11
1.0
 21
1.0
 12
544.72962872210064
 22
139.86969988312279
 13
0.0
 23
0.0
 14
1.0
 24
1.0
 15
0.0
 25
0.0
 16
0.0
 26
0.0
 36
1.0
 17
0.0
 27
0.0
 37
0.0
 40
1685.509607760657
 41
1.781285231116122
 42
50.0
 43
0.0
 44
0.0
 50
0.0
 51
0.0
 71
     0
 72
  1000
 73
     1
 74
     3
 75
     0
 76
     0
 77
     0
 78
     0
  0
ENDTAB
  0
ENDSEC
  0
SECTION
  2
BLOCKS
  0
BLOCK
  8
0
  2
_ORIGIN
 70
     0
 10
0.0
 20
0.0
 30
0.0
  3
_ORIGIN
  1
_ORIGIN
  0
CIRCLE
  8
0
  6
CONTINUOUS
 62
     7
 10
0.0
 20
0.0
 30
0.0
 40
0.5
  0
LINE
  8
0
  6
CONTINUOUS
 62
     7
 10
0.0
 20
0.0
 30
0.0
 11
-1.0
 21
0.0
 31
0.0
  0
ENDBLK
  8
0
  0
ENDSEC
  0
SECTION
  2
ENTITIES
  0
LINE
  8
DETAIL
  6
CONTINUOUS
 62
     5
 10
725.39999999998781
 20
-97.5
 30
0.0
 11
725.39999999998781
 21
-356.69999999999709
 31
0.0
  0
LINE
  8
DETAIL
  6
CONTINUOUS
 62
     5
 10
724.79999999998927
 20
-97.5
 30
0.0
 11
724.79999999998927
 21
-356.69999999999709
 31
0.0
  0
LINE
  8
DETAIL
  6
CONTINUOUS
 62
     5
 10
724.19999999999072
 20
-96.30000000000291
 30
0.0
 11
724.19999999999072
 21
-97.152055013990321
 31
0.0
  0
LINE
  8
DETAIL
  6
CONTINUOUS
 62
     5
 10
724.19999999999072
 20
-357.04794498599949
 30
0.0
 11
724.19999999999072
 21
-357.89999999999418
 31
0.0
  0
LINE
  8
DETAIL
  6
CONTINUOUS
 62
     5
 10
707.64999999999054
 20
-96.30000000000291
 30
0.0
 11
707.64999999999054
 21
-96.899999999994179
 31
0.0
  0
LINE
  8
DETAIL
  6
CONTINUOUS
 62
     5
 10
704.64999999999054
 20
-96.30000000000291
 30
0.0
 11
704.64999999999054
 21
-96.899999999994179
 31
0.0
  0
LINE
  8
DETAIL
  6
CONTINUOUS
 62
     5
 10
659.0
 20
-70.199999999999818
 30
0.0
 11
659.0
 21
-73.799999999998363
 31
0.0
  0
LINE
  8
DETAIL
  6
CONTINUOUS
 62
     5
 10
659.0
 20
-83.399999999996908
 30
0.0
 11
659.0
 21
-86.999999999988177
 31
0.0
  0
LINE
  8
DETAIL
  6
CONTINUOUS
 62
     5
 10
655.80000000000291
 20
-83.399999999996908
 30
0.0
 11
655.80000000000291
 21
-86.999999999988177
 31
0.0
  0
LINE
  8
DETAIL
  6
CONTINUOUS
 62
     5
 10
655.80000000000291
 20
-70.199999999999818
 30
0.0
 11
655.80000000000291
 21
-73.799999999998363
 31
0.0
  0
LINE
  8
DETAIL
  6
CONTINUOUS
 62
     5
 10
644.19999999998618
 20
-96.30000000000291
 30
0.0
 11
644.19999999998618
 21
-80.199999999992542
 31
0.0
  0
LINE
  8
DETAIL
  6
CONTINUOUS
 62
     5
 10
644.19999999998618
 20
-76.999999999988177
 30
0.0
 11
644.19999999998618
 21
-46.408075233994168
 31
0.0
  0
LINE
  8
DETAIL
  6
CONTINUOUS
 62
     5
 10
636.19999999999345
 20
-96.30000000000291
 30
0.0
 11
636.19999999999345
 21
-80.199999999992542
 31
0.0
  0
LINE
  8
DETAIL
  6
CONTINUOUS
 62
     5
 10
629.59999999998763
 20
-96.30000000000291
 30
0.0
 11
629.59999999998763
 21
-80.199999999992542
 31
0.0
  0
LINE
  8
DETAIL
  6
CONTINUOUS
 62
     5
 10
627.69999999998618
 20
-76.549999999991087
 30
0.0
 11
627.69999999998618
 21
-76.999999999988177
 31
0.0
  0
LINE
  8
DETAIL
  6
CONTINUOUS
 62
     5
 10
618.59999999998854
 20
-400.49999999998539
 30
0.0
 11
618.59999999998854
 21
-399.89999999999418
 31
0.0
  0
LINE
  8
DETAIL
  6
CONTINUOUS
 62
     5
 10
618.59999999998763
 20
-3.6999999999898141
 30
0.0
 11
618.59999999998763
 21
-4.2999999999883576
 31
0.0
  0
LINE
  8
DETAIL
  6
CONTINUOUS
 62
     5
 10
614.49999999999
 20
-357.29562532199628
 30
0.0
 11
614.49999999999
 21
-356.69999999999709
 31
0.0
  0
LINE
  8
DETAIL
  6
CONTINUOUS
 62
     5
 10
614.49999999999
 20
-96.899999999994179
 30
0.0
 11
614.49999999999
 21
-96.30000000000291
 31
0.0
  0
LINE
  8
DETAIL
  6
CONTINUOUS
 62
     5
 10
614.49999999999
 20
-96.904374675992585
 30
0.0
 11
614.49999999999
 21
-97.5
 31
0.0
  0
LINE
  8
DETAIL
  6
CONTINUOUS
 62
     5
 10
614.49999999999
 20
-357.29999999999558
 30
0.0
 11
614.49999999999
 21
-357.89999999999418
 31
0.0
  0
LINE
  8
DETAIL
  6
CONTINUOUS
 62
     5
 10
614.19999999998709
 20
-403.19999999999533
 30
0.0
 11
614.19999999998709
 21
-402.69999999999533
 31
0.0
  0
LINE
  8
DETAIL
  6
CONTINUOUS
 62
     5
 10
614.19999999998709
 20
-1.299999999995634
 30
0.0
 11
614.19999999998709
 21
-0.7999999999956344
 31
0.0
  0
LINE
  8
DETAIL
  6
CONTINUOUS
 62
     5
 10
612.69999999998618
 20
-400.59999999999133
 30
0.0
 11
612.69999999998618
 21
-356.69999999999709
 31
0.0
  0
LINE
  8
DETAIL
  6
CONTINUOUS
 62
     5
 10
612.69999999998618
 20
-77.700590832001581
 30
0.0
 11
612.69999999998618
 21
-3.5999999999912689
 31
0.0
  0
LINE
  8
DETAIL
  6
CONTINUOUS
 62
     5
 10
612.39999999999054
 20
-126.9999999999882
 30
0.0
 11
612.39999999999054
 21
-83.399999999996908
 31
0.0
  0
LINE
  8
DETAIL
  6
CONTINUOUS
 62
     5
 10
609.99999999999
 20
-355.98360069999762
 30
0.0
 11
609.99999999999
 21
-356.69999999999709
 31
0.0
  0
LINE
  8
DETAIL
  6
CONTINUOUS
 62
     5
 10
609.19999999998618
 20
-402.19999999999533
 30
0.0
 11
609.19999999998618
 21
-1.799999999988358
 31
0.0
  0
LINE
  8
DETAIL
  6
CONTINUOUS
 62
     5
 10
608.69999999999345
 20
-2.799999999995634
 30
0.0
 11
608.69999999999345
 21
-1.799999999988358
 31
0.0
  0
LINE
  8
DETAIL
  6
CONTINUOUS
 62
     5
 10
608.69999999999345
 20
-401.29999999999558
 30
0.0
 11
608.69999999999345
 21
-402.19999999999533
 31
0.0
  0
LINE
  8
DETAIL
  6
CONTINUOUS
 62
     5
 10
607.69999999998618
 20
-0.7999999999956344
 30
0.0
 11
607.69999999998618
 21
-2.799999999995634
 31
0.0
  0
LINE
  8
DETAIL
  6
CONTINUOUS
 62
     5
 10
607.69999999998618
 20
-401.29999999999558
 30
0.0
 11
607.69999999998618
 21
-403.19999999999533
 31
0.0
  0
LINE
  8
DETAIL
  6
CONTINUOUS
 62
     5
 10
606.34708539198982
 20
0.0
 30
0.0
 11
606.34708539198982
 21
-0.7999999999956344
 31
0.0
  0
LINE
  8
DETAIL
  6
CONTINUOUS
 62
     5
 10
606.29999999998472
 20
-403.99999999999818
 30
0.0
 11
606.29999999998472
 21
-403.19999999999533
 31
0.0
  0
LINE
  8
DETAIL
  6
CONTINUOUS
 62
     5
 10
603.299999999992
 20
-278.28833765000309
 30
0.0
 11
603.299999999992
 21
-205.81166234798729
 31
0.0
  0
LINE
  8
DETAIL
  6
CONTINUOUS
 62
     5
 10
602.69999999998709
 20
-398.29999999999558
 30
0.0
 11
602.69999999998709
 21
-397.09999999999133
 31
0.0
  0
LINE
  8
DETAIL
  6
CONTINUOUS
 62
     5
 10
602.69999999998709
 20
-5.7999999999956344
 30
0.0
 11
602.69999999998709
 21
-6.999999999992724
 31
0.0
  0
LINE
  8
DETAIL
  6
CONTINUOUS
 62
     5
 10
594.19999999998709
 20
-10.0
 30
0.0
 11
594.19999999998709
 21
-110.18181818011639
 31
0.0
  0
LINE
  8
DETAIL
  6
CONTINUOUS
 62
     5
 10
594.19999999998709
 20
-127.0000000006648
 30
0.0
 11
594.19999999998709
 21
-190.05000000000291
 31
0.0
  0
LINE
  8
DETAIL
  6
CONTINUOUS
 62
     5
 10
594.19999999998709
 20
-294.04999999999558
 30
0.0
 11
594.19999999998709
 21
-394.09999999999849
 31
0.0
  0
LINE
  8
DETAIL
  6
CONTINUOUS
 62
     5
 10
589.19999999998709
 20
-121.9999999999882
 30
0.0
 11
589.19999999998709
 21
-115.50213632199571
 31
0.0
  0
LINE
  8
DETAIL
  6
CONTINUOUS
 62
     5
 10
608.58343350198629
 20
-1.4610814579937139
 30
0.0
 11
608.34734603798643
 21
-2.799999999995634
 31
0.0
  0
LINE
  8
DETAIL
  6
CONTINUOUS
 62
     5
 10
607.79558729998462
 20
-1.3221629139952711
 30
0.0
 11
607.69999999998618
 21
-1.8642654314776339
 31
0.0
  0
LINE
  8
DETAIL
  6
CONTINUOUS
 62
     5
 10
608.34734603798643
 20
-401.29999999999558
 30
0.0
 11
608.5834335019872
 21
-402.53891854199719
 31
0.0
  0
LINE
  8
DETAIL
  6
CONTINUOUS
 62
     5
 10
607.69999999998618
 20
-402.13573456878157
 30
0.0
 11
607.79558729998462
 21
-402.67783708399469
 31
0.0
  0
LINE
  8
DETAIL
  6
CONTINUOUS
 62
     5
 10
603.299999999992
 20
-205.81166234798729
 30
0.0
 11
594.19999999998709
 21
-190.05000000000291
 31
0.0
  0
LINE
  8
DETAIL
  6
CONTINUOUS
 62
     5
 10
430.93655276399198
 20
-377.4523415979902
 30
0.0
 11
430.38689240598887
 21
-379.65690888199327
 31
0.0
  0
LINE
  8
DETAIL
  6
CONTINUOUS
 62
     5
 10
488.37229503598968
 20
-107.2384191499923
 30
0.0
 11
488.7668336099905
 21
-105.0008797119926
 31
0.0
  0
LINE
  8
DETAIL
  6
CONTINUOUS
 62
     5
 10
418.74334369199102
 20
-376.75384613599181
 30
0.0
 11
419.29300404999412
 21
-374.54927885199601
 31
0.0
  0
LINE
  8
DETAIL
  6
CONTINUOUS
 62
     5
 10
476.94914057199179
 20
-102.9171015799993
 30
0.0
 11
476.55460199999197
 21
-105.15464101799169
 31
0.0
  0
LINE
  8
DETAIL
  6
CONTINUOUS
 62
     5
 10
623.69999999999345
 20
-399.89999999999418
 30
0.0
 11
624.08091743199202
 21
-400.36357513999252
 31
0.0
  0
LINE
  8
DETAIL
  6
CONTINUOUS
 62
     5
 10
-602.76730091800528
 20
-403.99999999999818
 30
0.0
 11
-600.667300918004
 21
-401.89999999999242
 31
0.0
  0
LINE
  8
DETAIL
  6
CONTINUOUS
 62
     5
 10
614.44999999998618
 20
0.0
 30
0.0
 11
609.37127970398797
 21
0.0
 31
0.0
  0
LINE
  8
DETAIL
  6
CONTINUOUS
 62
     5
 10
606.34708539198982
 20
0.0
 30
0.0
 11
-606.34708539200801
 21
0.0
 31
0.0
  0
LINE
  8
DETAIL
  6
CONTINUOUS
 62
     5
 10
-609.37127970600795
 20
0.0
 30
0.0
 11
-614.45000000001073
 21
0.0
 31
0.0
  0
LINE
  8
DETAIL
  6
CONTINUOUS
 62
     5
 10
614.44999999998618
 20
-0.7999999999956344
 30
0.0
 11
609.37127970398797
 21
-0.7999999999956344
 31
0.0
  0
LINE
  8
DETAIL
  6
CONTINUOUS
 62
     5
 10
607.69999999998618
 20
-0.7999999999956344
 30
0.0
 11
602.01438630999201
 21
-0.7999999999956344
 31
0.0
  0
LINE
  8
DETAIL
  6
CONTINUOUS
 62
     5
 10
-609.37127970600795
 20
-0.7999999999956344
 30
0.0
 11
-614.45000000001073
 21
-0.7999999999956344
 31
0.0
  0
LINE
  8
DETAIL
  6
CONTINUOUS
 62
     5
 10
-602.01438631000929
 20
-0.7999999999965439
 30
0.0
 11
-606.34708539200801
 21
-0.7999999999956344
 31
0.0
  0
LINE
  8
DETAIL
  6
CONTINUOUS
 62
     5
 10
-609.70000000001255
 20
-1.299999999995634
 30
0.0
 11
-614.45000000001073
 21
-1.299999999995634
 31
0.0
  0
LINE
  8
DETAIL
  6
CONTINUOUS
 62
     5
 10
609.19999999998618
 20
-2.799999999995634
 30
0.0
 11
605.69999999998618
 21
-2.799999999995634
 31
0.0
  0
LINE
  8
DETAIL
  6
CONTINUOUS
 62
     5
 10
-606.34708539200801
 20
-2.7999999999965439
 30
0.0
 11
-609.20000000001346
 21
-2.799999999995634
 31
0.0
  0
LINE
  8
DETAIL
  6
CONTINUOUS
 62
     5
 10
613.89999999999145
 20
-3.0999999999912689
 30
0.0
 11
623.09999999998854
 21
-3.0999999999912689
 31
0.0
  0
LINE
  8
DETAIL
  6
CONTINUOUS
 62
     5
 10
612.69999999998618
 20
-3.5999999999912689
 30
0.0
 11
609.19999999998618
 21
-3.5999999999912689
 31
0.0
  0
LINE
  8
DETAIL
  6
CONTINUOUS
 62
     5
 10
613.89999999999145
 20
-3.6999999999898141
 30
0.0
 11
623.09999999998854
 21
-3.6999999999898141
 31
0.0
  0
LINE
  8
DETAIL
  6
CONTINUOUS
 62
     5
 10
623.69999999999345
 20
-4.2999999999883576
 30
0.0
 11
612.69999999998618
 21
-4.2999999999883576
 31
0.0
  0
LINE
  8
DETAIL
  6
CONTINUOUS
 62
     5
 10
597.19999999998799
 20
-6.999999999992724
 30
0.0
 11
602.69999999998709
 21
-6.999999999992724
 31
0.0
  0
LINE
  8
DETAIL
  6
CONTINUOUS
 62
     5
 10
605.69999999998618
 20
-401.29999999999558
 30
0.0
 11
602.69999999998709
 21
-398.29999999999558
 31
0.0
  0
LINE
  8
DETAIL
  6
CONTINUOUS
 62
     5
 10
597.19999999998799
 20
-397.09999999999133
 30
0.0
 11
594.19999999998709
 21
-394.09999999999849
 31
0.0
  0
LINE
  8
DETAIL
  6
CONTINUOUS
 62
     5
 10
602.76730091799982
 20
-403.99999999999818
 30
0.0
 11
600.66730091798945
 21
-401.89999999999242
 31
0.0
  0
LINE
  8
DETAIL
  6
CONTINUOUS
 62
     5
 10
655.80000000000291
 20
-70.199999999999818
 30
0.0
 11
659.0
 21
-70.199999999999818
 31
0.0
  0
LINE
  8
DETAIL
  6
CONTINUOUS
 62
     5
 10
-655.80000000000837
 20
-70.199999999999818
 30
0.0
 11
-659.00000000001182
 21
-70.199999999999818
 31
0.0
  0
LINE
  8
DETAIL
  6
CONTINUOUS
 62
     5
 10
631.69999999998709
 20
-76.549999999991087
 30
0.0
 11
627.69999999998618
 21
-76.549999999991087
 31
0.0
  0
LINE
  8
DETAIL
  6
CONTINUOUS
 62
     5
 10
-652.60000000001037
 20
-76.999999999988177
 30
0.0
 11
-615.60000000000582
 21
-76.999999999988177
 31
0.0
  0
LINE
  8
DETAIL
  6
CONTINUOUS
 62
     5
 10
652.59999999999854
 20
-76.999999999988177
 30
0.0
 11
615.59999999998854
 21
-76.999999999988177
 31
0.0
  0
LINE
  8
DETAIL
  6
CONTINUOUS
 62
     5
 10
-652.60000000001037
 20
-80.199999999992542
 30
0.0
 11
-615.60000000000582
 21
-80.199999999992542
 31
0.0
  0
LINE
  8
DETAIL
  6
CONTINUOUS
 62
     5
 10
652.59999999999854
 20
-80.199999999992542
 30
0.0
 11
615.59999999998854
 21
-80.199999999992542
 31
0.0
  0
LINE
  8
DETAIL
  6
CONTINUOUS
 62
     5
 10
655.80000000000291
 20
-86.999999999988177
 30
0.0
 11
659.0
 21
-86.999999999988177
 31
0.0
  0
LINE
  8
DETAIL
  6
CONTINUOUS
 62
     5
 10
-655.80000000000837
 20
-86.999999999988177
 30
0.0
 11
-659.00000000001182
 21
-86.999999999988177
 31
0.0
  0
LINE
  8
DETAIL
  6
CONTINUOUS
 62
     5
 10
629.59999999998763
 20
-87.549999999998363
 30
0.0
 11
631.69999999998709
 21
-87.549999999998363
 31
0.0
  0
LINE
  8
DETAIL
  6
CONTINUOUS
 62
     5
 10
633.69999999999345
 20
-89.549999999991087
 30
0.0
 11
636.19999999999345
 21
-89.549999999991087
 31
0.0
  0
LINE
  8
DETAIL
  6
CONTINUOUS
 62
     5
 10
724.19999999999072
 20
-96.30000000000291
 30
0.0
 11
614.49999999999
 21
-96.30000000000291
 31
0.0
  0
LINE
  8
DETAIL
  6
CONTINUOUS
 62
     5
 10
614.49999999999
 20
-96.899999999994179
 30
0.0
 11
724.19999999999072
 21
-96.899999999994179
 31
0.0
  0
LINE
  8
DETAIL
  6
CONTINUOUS
 62
     5
 10
612.39999999999054
 20
-97.5
 30
0.0
 11
614.49999999999
 21
-97.5
 31
0.0
  0
LINE
  8
DETAIL
  6
CONTINUOUS
 62
     5
 10
725.39999999998781
 20
-97.5
 30
0.0
 11
724.54794305798805
 21
-97.5
 31
0.0
  0
LINE
  8
DETAIL
  6
CONTINUOUS
 62
     5
 10
606.58087488799083
 20
-105.9999999999882
 30
0.0
 11
607.11355287198603
 21
-105.9999999999882
 31
0.0
  0
LINE
  8
DETAIL
  6
CONTINUOUS
 62
     5
 10
-606.58087488800811
 20
-105.9999999999882
 30
0.0
 11
-607.11355287201332
 21
-105.9999999999882
 31
0.0
  0
LINE
  8
DETAIL
  6
CONTINUOUS
 62
     5
 10
612.39999999999054
 20
-126.9999999999882
 30
0.0
 11
594.19999999969241
 21
-127.0000000006648
 31
0.0
  0
LINE
  8
DETAIL
  6
CONTINUOUS
 62
     5
 10
-594.19999999970423
 20
-127.0000000006648
 30
0.0
 11
-612.40000000000873
 21
-126.9999999999882
 31
0.0
  0
LINE
  8
DETAIL
  6
CONTINUOUS
 62
     5
 10
-323.84615386401038
 20
-202.34334368999129
 30
0.0
 11
-326.05072114800532
 21
-202.89300404800181
 31
0.0
  0
LINE
  8
DETAIL
  6
CONTINUOUS
 62
     5
 10
-323.14765840001019
 20
-214.5365527639924
 30
0.0
 11
-320.94309111801522
 21
-213.98689240598921
 31
0.0
  0
LINE
  8
DETAIL
  6
CONTINUOUS
 62
     5
 10
-597.68289841800834
 20
-260.54914057199949
 30
0.0
 11
-595.44535898201048
 21
-260.15460199999961
 31
0.0
  0
LINE
  8
DETAIL
  6
CONTINUOUS
 62
     5
 10
-593.36158085000898
 20
-271.97229503599101
 30
0.0
 11
-595.59912028600775
 21
-272.36683360799088
 31
0.0
  0
LINE
  8
DETAIL
  6
CONTINUOUS
 62
     5
 10
-331.13319993801088
 20
-219.15613496798781
 30
0.0
 11
-331.5930087820152
 21
-219.15613496798781
 31
0.0
  0
LINE
  8
BASIS
  6
DASHDOT
 62
     6
 10
-0.0000000000045475
 20
37.464210742047733
 30
0.0
 11
-0.0000000000045475
 21
-441.66421074203032
 31
0.0
  0
LINE
  8
DETAIL
  6
CONTINUOUS
 62
     5
 10
592.49128468399158
 20
-110.8031692039976
 30
0.0
 11
604.87215957198714
 21
-106.3010328819973
 31
0.0
  0
LINE
  8
DETAIL
  6
CONTINUOUS
 62
     5
 10
-592.49128468400886
 20
-110.8031692039976
 30
0.0
 11
-604.87215957401349
 21
-106.3010328819973
 31
0.0
  0
LINE
  8
DETAIL
  6
CONTINUOUS
 62
     5
 10
321.55464101799038
 20
-260.15460199999961
 30
0.0
 11
319.31710158199348
 21
-260.54914057199949
 31
0.0
  0
LINE
  8
DETAIL
  6
CONTINUOUS
 62
     5
 10
321.40087971399322
 20
-272.36683360799088
 30
0.0
 11
323.63841914999188
 21
-271.97229503599101
 31
0.0
  0
LINE
  8
DETAIL
  6
CONTINUOUS
 62
     5
 10
590.94927885199468
 20
-202.89300404800181
 30
0.0
 11
593.15384613599053
 21
-202.34334368999129
 31
0.0
  0
LINE
  8
DETAIL
  6
CONTINUOUS
 62
     5
 10
596.05690888198569
 20
-213.98689240598921
 30
0.0
 11
593.85234159999072
 21
-214.5365527639924
 31
0.0
  0
LINE
  8
DETAIL
  6
CONTINUOUS
 62
     5
 10
725.39999999998781
 20
-356.69999999999709
 30
0.0
 11
724.54794305798805
 21
-356.69999999999709
 31
0.0
  0
LINE
  8
DETAIL
  6
CONTINUOUS
 62
     5
 10
614.49999999999
 20
-356.69999999999709
 30
0.0
 11
609.99999999999
 21
-356.69999999999709
 31
0.0
  0
LINE
  8
DETAIL
  6
CONTINUOUS
 62
     5
 10
724.19999999999072
 20
-357.29999999999558
 30
0.0
 11
614.49999999999
 21
-357.29999999999558
 31
0.0
  0
LINE
  8
DETAIL
  6
CONTINUOUS
 62
     5
 10
724.19999999999072
 20
-357.89999999999418
 30
0.0
 11
614.49999999999
 21
-357.89999999999418
 31
0.0
  0
LINE
  8
DETAIL
  6
CONTINUOUS
 62
     5
 10
597.19999999998799
 20
-397.09999999999133
 30
0.0
 11
602.69999999998709
 21
-397.09999999999133
 31
0.0
  0
LINE
  8
DETAIL
  6
CONTINUOUS
 62
     5
 10
623.69999999999345
 20
-399.89999999999418
 30
0.0
 11
612.69999999998618
 21
-399.89999999999418
 31
0.0
  0
LINE
  8
DETAIL
  6
CONTINUOUS
 62
     5
 10
623.09999999998854
 20
-400.49999999998539
 30
0.0
 11
613.89999999999145
 21
-400.49999999998539
 31
0.0
  0
LINE
  8
DETAIL
  6
CONTINUOUS
 62
     5
 10
612.69999999998618
 20
-400.59999999999133
 30
0.0
 11
609.19999999998618
 21
-400.59999999999133
 31
0.0
  0
LINE
  8
DETAIL
  6
CONTINUOUS
 62
     5
 10
623.09999999998854
 20
-401.09999999999133
 30
0.0
 11
613.89999999999145
 21
-401.09999999999133
 31
0.0
  0
LINE
  8
DETAIL
  6
CONTINUOUS
 62
     5
 10
609.19999999998618
 20
-401.29999999999558
 30
0.0
 11
605.69999999998618
 21
-401.29999999999558
 31
0.0
  0
LINE
  8
DETAIL
  6
CONTINUOUS
 62
     5
 10
-606.3000000000111
 20
-401.29999999999558
 30
0.0
 11
-609.20000000001346
 21
-401.29999999999558
 31
0.0
  0
LINE
  8
DETAIL
  6
CONTINUOUS
 62
     5
 10
-609.70000000001255
 20
-402.69999999999533
 30
0.0
 11
-614.45000000001073
 21
-402.69999999999533
 31
0.0
  0
LINE
  8
DETAIL
  6
CONTINUOUS
 62
     5
 10
-614.45000000001073
 20
-403.19999999999533
 30
0.0
 11
-609.37127970600795
 21
-403.19999999999533
 31
0.0
  0
LINE
  8
DETAIL
  6
CONTINUOUS
 62
     5
 10
601.967300917996
 20
-403.19999999999618
 30
0.0
 11
607.69999999998618
 21
-403.19999999999533
 31
0.0
  0
LINE
  8
DETAIL
  6
CONTINUOUS
 62
     5
 10
614.44999999998618
 20
-403.19999999999533
 30
0.0
 11
609.37127970398888
 21
-403.19999999999533
 31
0.0
  0
LINE
  8
DETAIL
  6
CONTINUOUS
 62
     5
 10
-601.96730091800418
 20
-403.19999999999533
 30
0.0
 11
-606.3000000000111
 21
-403.19999999999533
 31
0.0
  0
LINE
  8
DETAIL
  6
CONTINUOUS
 62
     5
 10
-614.45000000001073
 20
-403.99999999999818
 30
0.0
 11
-609.37127970600795
 21
-403.99999999999818
 31
0.0
  0
LINE
  8
DETAIL
  6
CONTINUOUS
 62
     5
 10
614.44999999998618
 20
-403.99999999999818
 30
0.0
 11
609.37127970398888
 21
-403.99999999999818
 31
0.0
  0
LINE
  8
DETAIL
  6
CONTINUOUS
 62
     5
 10
606.29999999998472
 20
-403.99999999999818
 30
0.0
 11
-606.3000000000111
 21
-403.99999999999818
 31
0.0
  0
LINE
  8
DETAIL
  6
CONTINUOUS
 62
     5
 10
602.81438630998673
 20
0.0
 30
0.0
 11
600.71438630999
 21
-2.0999999999985448
 31
0.0
  0
LINE
  8
DETAIL
  6
CONTINUOUS
 62
     5
 10
594.19999999998709
 20
-10.0
 30
0.0
 11
597.19999999998799
 21
-6.999999999992724
 31
0.0
  0
LINE
  8
DETAIL
  6
CONTINUOUS
 62
     5
 10
602.69999999998709
 20
-5.7999999999956344
 30
0.0
 11
605.69999999998618
 21
-2.799999999995634
 31
0.0
  0
LINE
  8
DETAIL
  6
CONTINUOUS
 62
     5
 10
-602.81438631000492
 20
0.0
 30
0.0
 11
-600.71438631000638
 21
-2.0999999999985448
 31
0.0
  0
LINE
  8
DETAIL
  6
CONTINUOUS
 62
     5
 10
623.69999999999345
 20
-4.2999999999883576
 30
0.0
 11
624.08091743199202
 21
-3.8364248599973512
 31
0.0
  0
LINE
  8
DETAIL
  6
CONTINUOUS
 62
     5
 10
-486.61310759401198
 20
-379.65690888199327
 30
0.0
 11
-486.06344723600893
 21
-377.4523415979902
 31
0.0
  0
LINE
  8
DETAIL
  6
CONTINUOUS
 62
     5
 10
-435.96743476200749
 20
-115.12164149598991
 30
0.0
 11
-435.96743476200749
 21
-114.6590511359946
 31
0.0
  0
LINE
  8
DETAIL
  6
CONTINUOUS
 62
     5
 10
-436.56054887601022
 20
-115.0187264339957
 30
0.0
 11
-436.56054887601022
 21
-114.5521249899875
 31
0.0
  0
LINE
  8
DETAIL
  6
CONTINUOUS
 62
     5
 10
-497.70699595000679
 20
-374.54927885199601
 30
0.0
 11
-498.25665630801001
 21
-376.75384613599181
 31
0.0
  0
LINE
  8
DETAIL
  6
CONTINUOUS
 62
     5
 10
-428.23316639001041
 20
-105.0008797119926
 30
0.0
 11
-428.62770496401117
 21
-107.2384191499923
 31
0.0
  0
LINE
  8
DETAIL
  6
CONTINUOUS
 62
     5
 10
-440.44539800000888
 20
-105.15464101799169
 30
0.0
 11
-440.05085942800912
 21
-102.9171015799993
 31
0.0
  0
LINE
  8
DETAIL
  6
CONTINUOUS
 62
     5
 10
594.19999999998709
 20
-294.04999999999558
 30
0.0
 11
603.299999999992
 21
-278.28833765000309
 31
0.0
  0
LINE
  8
DETAIL
  6
CONTINUOUS
 62
     5
 10
-607.79558730001008
 20
-402.67783708399469
 30
0.0
 11
-607.53500475000419
 21
-401.29999999999558
 31
0.0
  0
LINE
  8
DETAIL
  6
CONTINUOUS
 62
     5
 10
-607.5350047500051
 20
-2.799999999995634
 30
0.0
 11
-607.79558730001008
 21
-1.3221629139952711
 31
0.0
  0
LINE
  8
DETAIL
  6
CONTINUOUS
 62
     5
 10
-608.58343350201176
 20
-402.53891854199719
 30
0.0
 11
-608.3473460380128
 21
-401.29999999999558
 31
0.0
  0
LINE
  8
DETAIL
  6
CONTINUOUS
 62
     5
 10
-589.20000000001255
 20
-121.9999999999882
 30
0.0
 11
-589.20000000001255
 21
-115.50213632199571
 31
0.0
  0
LINE
  8
DETAIL
  6
CONTINUOUS
 62
     5
 10
-606.3000000000111
 20
-401.29999999999558
 30
0.0
 11
-606.3000000000111
 21
-403.99999999999818
 31
0.0
  0
LINE
  8
DETAIL
  6
CONTINUOUS
 62
     5
 10
-606.34708539200801
 20
0.0
 30
0.0
 11
-606.34708539200801
 21
-2.799999999995634
 31
0.0
  0
LINE
  8
DETAIL
  6
CONTINUOUS
 62
     5
 10
-608.34734603801371
 20
-2.799999999995634
 30
0.0
 11
-608.58343350201176
 21
-1.4610814579937139
 31
0.0
  0
LINE
  8
DETAIL
  6
CONTINUOUS
 62
     5
 10
-608.70000000000437
 20
-402.19999999999533
 30
0.0
 11
-608.70000000000437
 21
-401.29999999999558
 31
0.0
  0
LINE
  8
DETAIL
  6
CONTINUOUS
 62
     5
 10
-608.70000000000437
 20
-1.799999999988358
 30
0.0
 11
-608.70000000000437
 21
-2.799999999995634
 31
0.0
  0
LINE
  8
DETAIL
  6
CONTINUOUS
 62
     5
 10
-609.20000000001346
 20
-402.19999999999533
 30
0.0
 11
-609.20000000001346
 21
-1.799999999988358
 31
0.0
  0
LINE
  8
DETAIL
  6
CONTINUOUS
 62
     5
 10
-611.20000000000437
 20
-1.299999999995634
 30
0.0
 11
-611.20000000000437
 21
-2.0999999999985448
 31
0.0
  0
LINE
  8
DETAIL
  6
CONTINUOUS
 62
     5
 10
-611.20000000000437
 20
-401.89999999999242
 30
0.0
 11
-611.20000000000437
 21
-402.69999999999442
 31
0.0
  0
LINE
  8
DETAIL
  6
CONTINUOUS
 62
     5
 10
-612.40000000000873
 20
-126.9999999999882
 30
0.0
 11
-612.40000000000873
 21
-83.399999999996908
 31
0.0
  0
LINE
  8
DETAIL
  6
CONTINUOUS
 62
     5
 10
-614.20000000001255
 20
-0.7999999999956344
 30
0.0
 11
-614.20000000001255
 21
-1.299999999995634
 31
0.0
  0
LINE
  8
DETAIL
  6
CONTINUOUS
 62
     5
 10
-614.20000000001255
 20
-402.69999999999533
 30
0.0
 11
-614.20000000001255
 21
-403.19999999999533
 31
0.0
  0
LINE
  8
DETAIL
  6
CONTINUOUS
 62
     5
 10
-655.80000000000837
 20
-83.399999999996908
 30
0.0
 11
-655.80000000000837
 21
-86.999999999988177
 31
0.0
  0
LINE
  8
DETAIL
  6
CONTINUOUS
 62
     5
 10
-655.80000000000837
 20
-70.199999999999818
 30
0.0
 11
-655.80000000000837
 21
-73.799999999998363
 31
0.0
  0
LINE
  8
DETAIL
  6
CONTINUOUS
 62
     5
 10
-659.00000000001182
 20
-70.199999999999818
 30
0.0
 11
-659.00000000001182
 21
-73.799999999998363
 31
0.0
  0
LINE
  8
DETAIL
  6
CONTINUOUS
 62
     5
 10
-659.00000000001182
 20
-83.399999999996908
 30
0.0
 11
-659.00000000001182
 21
-86.999999999988177
 31
0.0
  0
ARC
  8
DETAIL
  6
CONTINUOUS
 62
     5
 10
589.09999999998945
 20
-46.408075233994168
 30
0.0
 40
55.099999999999937
 50
0.000000000000007
 51
50.590221408988462
  0
ARC
  8
DETAIL
  6
CONTINUOUS
 62
     5
 10
652.59999999999854
 20
-73.799999999998363
 30
0.0
 40
6.3999999999999968
 50
311.3435448479313
 51
0.000000000000007
  0
ARC
  8
DETAIL
  6
CONTINUOUS
 62
     5
 10
652.59999999999854
 20
-83.399999999996908
 30
0.0
 40
6.3999999999999968
 50
0.000000000000007
 51
90.000000000000014
  0
ARC
  8
DETAIL
  6
CONTINUOUS
 62
     5
 10
615.59999999998854
 20
-83.399999999996908
 30
0.0
 40
6.3999999999999968
 50
90.000000000000014
 51
180.0
  0
ARC
  8
DETAIL
  6
CONTINUOUS
 62
     5
 10
652.59999999999854
 20
-83.399999999996908
 30
0.0
 40
3.199999999999998
 50
0.000000000000007
 51
90.000000000000014
  0
ARC
  8
DETAIL
  6
CONTINUOUS
 62
     5
 10
615.59999999998854
 20
-83.399999999996908
 30
0.0
 40
3.199999999999998
 50
90.000000000000014
 51
180.0
  0
ARC
  8
DETAIL
  6
CONTINUOUS
 62
     5
 10
652.59999999999854
 20
-73.799999999998363
 30
0.0
 40
3.199999999999998
 50
270.0
 51
0.000000000000007
  0
ARC
  8
DETAIL
  6
CONTINUOUS
 62
     5
 10
609.37127970398797
 20
-1.599999999998545
 30
0.0
 40
1.6000000000000001
 50
90.000000000000014
 51
169.99999999999329
  0
ARC
  8
DETAIL
  6
CONTINUOUS
 62
     5
 10
723.39999999998781
 20
-98.299999999995634
 30
0.0
 40
1.3999999999999999
 50
0.000000000000007
 51
90.000000000000014
  0
ARC
  8
DETAIL
  6
CONTINUOUS
 62
     5
 10
613.89999999999145
 20
-4.2999999999883576
 30
0.0
 40
1.1999999999999991
 50
90.000000000000014
 51
180.0
  0
ARC
  8
DETAIL
  6
CONTINUOUS
 62
     5
 10
614.44999999998618
 20
-1.049999999995634
 30
0.0
 40
1.05
 50
270.00001760006643
 51
90.000000000104237
  0
ARC
  8
DETAIL
  6
CONTINUOUS
 62
     5
 10
633.69999999999345
 20
-88.549999999991087
 30
0.0
 40
0.9999999999999993
 50
180.0
 51
270.0
  0
ARC
  8
DETAIL
  6
CONTINUOUS
 62
     5
 10
631.69999999998709
 20
-88.549999999991087
 30
0.0
 40
0.9999999999999993
 50
0.000000000000007
 51
90.000000000000014
  0
ARC
  8
DETAIL
  6
CONTINUOUS
 62
     5
 10
609.69999999998618
 20
-1.799999999988358
 30
0.0
 40
0.9999999999999993
 50
90.000000000000014
 51
180.0
  0
ARC
  8
DETAIL
  6
CONTINUOUS
 62
     5
 10
631.69999999998709
 20
-77.549999999991087
 30
0.0
 40
0.9999999999999993
 50
33.394743781498818
 51
90.000000000000014
  0
ARC
  8
DETAIL
  6
CONTINUOUS
 62
     5
 10
609.37127970398797
 20
-1.599999999998545
 30
0.0
 40
0.7999999999999998
 50
90.000000000000014
 51
169.99999999999329
  0
ARC
  8
DETAIL
  6
CONTINUOUS
 62
     5
 10
613.89999999999145
 20
-4.2999999999883576
 30
0.0
 40
0.6000000000000002
 50
90.000000000000014
 51
180.0
  0
ARC
  8
DETAIL
  6
CONTINUOUS
 62
     5
 10
623.09999999998854
 20
-3.6999999999898141
 30
0.0
 40
0.6000000000000002
 50
270.0
 51
90.000000000000014
  0
ARC
  8
DETAIL
  6
CONTINUOUS
 62
     5
 10
609.69999999998618
 20
-1.799999999988358
 30
0.0
 40
0.5000000000000004
 50
90.000000000000014
 51
180.0
  0
ARC
  8
DETAIL
  6
CONTINUOUS
 62
     5
 10
614.44999999998618
 20
-1.049999999995634
 30
0.0
 40
0.2500000000000002
 50
270.00001760006643
 51
90.00000000041689
  0
CIRCLE
  8
DETAIL
  6
CONTINUOUS
 62
     5
 10
598.19999999998799
 20
-118.0000000000027
 30
0.0
 40
6.9999999999999947
  0
ARC
  8
DETAIL
  6
CONTINUOUS
 62
     5
 10
594.19999999998709
 20
-115.50213632199571
 30
0.0
 40
4.9999999999999956
 50
109.98310652186549
 51
180.0
  0
ARC
  8
DETAIL
  6
CONTINUOUS
 62
     5
 10
606.58087488799083
 20
-110.9999999999882
 30
0.0
 40
4.9999999999999956
 50
90.000000000000014
 51
109.98310652186549
  0
CIRCLE
  8
DETAIL
  6
CONTINUOUS
 62
     5
 10
583.69999999999345
 20
-105.9999999999882
 30
0.0
 40
4.6999999999999957
  0
ARC
  8
DETAIL
  6
CONTINUOUS
 62
     5
 10
592.67000234398711
 20
-200.4027522379956
 30
0.0
 40
1.9999999999999989
 50
283.99999999997601
 51
17.26415855428456
  0
ARC
  8
DETAIL
  6
CONTINUOUS
 62
     5
 10
482.46344851798767
 20
-106.19653008399931
 30
0.0
 40
5.9999999999999956
 50
169.99999999999329
 51
349.99999999999341
  0
ARC
  8
DETAIL
  6
CONTINUOUS
 62
     5
 10
490.7364491159924
 20
-105.34817606799059
 30
0.0
 40
1.9999999999999989
 50
76.735841445818437
 51
169.99999999999329
  0
ARC
  8
DETAIL
  6
CONTINUOUS
 62
     5
 10
474.97952506599091
 20
-102.569805225995
 30
0.0
 40
1.9999999999999989
 50
349.99999999999341
 51
83.264158554305141
  0
ARC
  8
DETAIL
  6
CONTINUOUS
 62
     5
 10
-652.60000000001037
 20
-73.799999999998363
 30
0.0
 40
6.3999999999999968
 50
180.0
 51
228.65645515206879
  0
ARC
  8
DETAIL
  6
CONTINUOUS
 62
     5
 10
-652.60000000001037
 20
-83.399999999996908
 30
0.0
 40
6.3999999999999968
 50
90.000000000000014
 51
180.0
  0
ARC
  8
DETAIL
  6
CONTINUOUS
 62
     5
 10
-615.60000000000582
 20
-83.399999999996908
 30
0.0
 40
6.3999999999999968
 50
0.000000000000007
 51
90.000000000000014
  0
ARC
  8
DETAIL
  6
CONTINUOUS
 62
     5
 10
-652.60000000001037
 20
-83.399999999996908
 30
0.0
 40
3.199999999999998
 50
90.000000000000014
 51
180.0
  0
ARC
  8
DETAIL
  6
CONTINUOUS
 62
     5
 10
-615.60000000000582
 20
-83.399999999996908
 30
0.0
 40
3.199999999999998
 50
0.000000000000007
 51
90.000000000000014
  0
ARC
  8
DETAIL
  6
CONTINUOUS
 62
     5
 10
-652.60000000001037
 20
-73.799999999998363
 30
0.0
 40
3.199999999999998
 50
180.0
 51
270.0
  0
ARC
  8
DETAIL
  6
CONTINUOUS
 62
     5
 10
-609.37127970600795
 20
-1.599999999998545
 30
0.0
 40
1.6000000000000001
 50
10.00000000000664
 51
90.000000000000014
  0
ARC
  8
DETAIL
  6
CONTINUOUS
 62
     5
 10
-609.70000000001255
 20
-1.799999999988358
 30
0.0
 40
0.9999999999999993
 50
0.000000000000007
 51
77.742522747697734
  0
ARC
  8
DETAIL
  6
CONTINUOUS
 62
     5
 10
-609.37127970600795
 20
-1.599999999998545
 30
0.0
 40
0.7999999999999998
 50
10.00000000000664
 51
90.000000000000014
  0
ARC
  8
DETAIL
  6
CONTINUOUS
 62
     5
 10
-609.70000000001255
 20
-1.799999999988358
 30
0.0
 40
0.5000000000000004
 50
0.000000000000007
 51
90.000000000000014
  0
ARC
  8
DETAIL
  6
CONTINUOUS
 62
     5
 10
-434.53655148201318
 20
-106.19653008399931
 30
0.0
 40
5.9999999999999956
 50
169.99999999999329
 51
349.99999999999341
  0
ARC
  8
DETAIL
  6
CONTINUOUS
 62
     5
 10
-426.26355088400942
 20
-105.34817606799059
 30
0.0
 40
1.9999999999999989
 50
76.735841445818437
 51
169.99999999999329
  0
ARC
  8
DETAIL
  6
CONTINUOUS
 62
     5
 10
-442.02047493401011
 20
-102.569805225995
 30
0.0
 40
1.9999999999999989
 50
349.99999999999341
 51
83.264158554305141
  0
ARC
  8
DETAIL
  6
CONTINUOUS
 62
     5
 10
-324.3299976560138
 20
-200.4027522379956
 30
0.0
 40
1.9999999999999989
 50
283.99999999997601
 51
17.26415855428456
  0
CIRCLE
  8
DETAIL
  6
CONTINUOUS
 62
     5
 10
-598.20000000001164
 20
-118.0000000000027
 30
0.0
 40
6.9999999999999947
  0
ARC
  8
DETAIL
  6
CONTINUOUS
 62
     5
 10
-606.58087488800811
 20
-110.9999999999882
 30
0.0
 40
4.9999999999999956
 50
70.01689347813452
 51
90.000000000000014
  0
ARC
  8
DETAIL
  6
CONTINUOUS
 62
     5
 10
-594.20000000001164
 20
-115.50213632199571
 30
0.0
 40
4.9999999999999956
 50
0.000000000000007
 51
70.01689347813452
  0
CIRCLE
  8
DETAIL
  6
CONTINUOUS
 62
     5
 10
-583.70000000000437
 20
-105.9999999999882
 30
0.0
 40
4.6999999999999957
  0
ARC
  8
DETAIL
  6
CONTINUOUS
 62
     5
 10
592.40081022598497
 20
-208.71477840599709
 30
0.0
 40
5.9999999999999956
 50
103.9999999999759
 51
283.99999999997601
  0
ARC
  8
DETAIL
  6
CONTINUOUS
 62
     5
 10
596.54075267398912
 20
-215.9274838579922
 30
0.0
 40
1.9999999999999989
 50
10.735841445720871
 51
103.9999999999759
  0
ARC
  8
DETAIL
  6
CONTINUOUS
 62
     5
 10
458.49999999999551
 20
-242.09999999999579
 30
0.0
 40
142.49999999999989
 50
17.26415855428456
 51
76.735841445711387
  0
ARC
  8
DETAIL
  6
CONTINUOUS
 62
     5
 10
458.49999999999551
 20
-242.09999999999579
 30
0.0
 40
142.49999999999989
 50
259.26415855428229
 51
10.735841445720871
  0
ARC
  8
DETAIL
  6
CONTINUOUS
 62
     5
 10
458.49999999999551
 20
-242.09999999999579
 30
0.0
 40
142.49999999999989
 50
193.26415855429889
 51
252.73584144566291
  0
ARC
  8
DETAIL
  6
CONTINUOUS
 62
     5
 10
458.49999999999551
 20
-242.09999999999579
 30
0.0
 40
142.49999999999989
 50
83.264158554305141
 51
186.7358414456981
  0
CIRCLE
  8
DETAIL
  6
CONTINUOUS
 62
     5
 10
458.49999999999551
 20
-242.09999999999579
 30
0.0
 40
128.99999999999989
  0
CIRCLE
  8
DETAIL
  6
CONTINUOUS
 62
     5
 10
458.49999999999551
 20
-242.09999999999579
 30
0.0
 40
120.9999999999999
  0
ARC
  8
DETAIL
  6
CONTINUOUS
 62
     5
 10
322.59653008399067
 20
-266.06344851798798
 30
0.0
 40
5.9999999999999956
 50
280.00000000000512
 51
100.000000000005
  0
ARC
  8
DETAIL
  6
CONTINUOUS
 62
     5
 10
321.74817606799019
 20
-274.33644911399188
 30
0.0
 40
1.9999999999999989
 50
100.000000000005
 51
193.26415855417801
  0
ARC
  8
DETAIL
  6
CONTINUOUS
 62
     5
 10
318.96980522598727
 20
-258.57952506599122
 30
0.0
 40
1.9999999999999989
 50
186.7358414456981
 51
280.00000000000512
  0
ARC
  8
DETAIL
  6
CONTINUOUS
 62
     5
 10
589.09999999998945
 20
-357.79192476398748
 30
0.0
 40
55.099999999999937
 50
309.4097785910115
 51
359.88759627502048
  0
ARC
  8
DETAIL
  6
CONTINUOUS
 62
     5
 10
609.37127970398888
 20
-402.39999999999242
 30
0.0
 40
1.6000000000000001
 50
190.00000000000659
 51
270.0
  0
ARC
  8
DETAIL
  6
CONTINUOUS
 62
     5
 10
723.39999999998781
 20
-355.89999999999418
 30
0.0
 40
1.3999999999999999
 50
270.0
 51
0.000000000000007
  0
ARC
  8
DETAIL
  6
CONTINUOUS
 62
     5
 10
613.89999999999145
 20
-399.89999999999418
 30
0.0
 40
1.1999999999999991
 50
180.0
 51
270.0
  0
ARC
  8
DETAIL
  6
CONTINUOUS
 62
     5
 10
609.69999999998618
 20
-402.19999999999533
 30
0.0
 40
0.9999999999999993
 50
180.0
 51
270.0
  0
ARC
  8
DETAIL
  6
CONTINUOUS
 62
     5
 10
609.37127970398888
 20
-402.39999999999242
 30
0.0
 40
0.7999999999999998
 50
190.00000000000659
 51
270.0
  0
ARC
  8
DETAIL
  6
CONTINUOUS
 62
     5
 10
613.89999999999145
 20
-399.89999999999418
 30
0.0
 40
0.6000000000000002
 50
180.0
 51
270.0
  0
ARC
  8
DETAIL
  6
CONTINUOUS
 62
     5
 10
623.09999999998854
 20
-400.49999999998539
 30
0.0
 40
0.6000000000000002
 50
270.0
 51
90.000000000000014
  0
ARC
  8
DETAIL
  6
CONTINUOUS
 62
     5
 10
609.69999999998618
 20
-402.19999999999533
 30
0.0
 40
0.5000000000000004
 50
180.0
 51
270.0
  0
ARC
  8
DETAIL
  6
CONTINUOUS
 62
     5
 10
425.11477840799029
 20
-376.00081022599352
 30
0.0
 40
5.9999999999999956
 50
346.00000000002569
 51
166.00000000002569
  0
ARC
  8
DETAIL
  6
CONTINUOUS
 62
     5
 10
432.32748385999281
 20
-380.09075267399749
 30
0.0
 40
1.9999999999999989
 50
166.00000000002569
 51
259.26415855428229
  0
ARC
  8
DETAIL
  6
CONTINUOUS
 62
     5
 10
416.80275223798708
 20
-376.27000234398753
 30
0.0
 40
1.9999999999999989
 50
252.73584144566291
 51
346.00000000002569
  0
ARC
  8
DETAIL
  6
CONTINUOUS
 62
     5
 10
-458.50000000000642
 20
-242.09999999999579
 30
0.0
 40
142.49999999999989
 50
17.26415855428456
 51
76.735841445711387
  0
ARC
  8
DETAIL
  6
CONTINUOUS
 62
     5
 10
-458.50000000000642
 20
-242.09999999999579
 30
0.0
 40
142.49999999999989
 50
259.26415855428229
 51
10.735841445720871
  0
ARC
  8
DETAIL
  6
CONTINUOUS
 62
     5
 10
-458.50000000000642
 20
-242.09999999999579
 30
0.0
 40
142.49999999999989
 50
193.26415855429889
 51
252.73584144566291
  0
ARC
  8
DETAIL
  6
CONTINUOUS
 62
     5
 10
-458.50000000000642
 20
-242.09999999999579
 30
0.0
 40
142.49999999999989
 50
83.264158554305141
 51
186.7358414456981
  0
CIRCLE
  8
DETAIL
  6
CONTINUOUS
 62
     5
 10
-458.50000000000642
 20
-242.09999999999579
 30
0.0
 40
128.99999999999989
  0
CIRCLE
  8
DETAIL
  6
CONTINUOUS
 62
     5
 10
-458.50000000000642
 20
-242.09999999999579
 30
0.0
 40
120.9999999999999
  0
ARC
  8
DETAIL
  6
CONTINUOUS
 62
     5
 10
-324.59918977401588
 20
-208.71477840599709
 30
0.0
 40
5.9999999999999956
 50
103.9999999999759
 51
283.99999999997601
  0
ARC
  8
DETAIL
  6
CONTINUOUS
 62
     5
 10
-320.45924732601088
 20
-215.9274838579922
 30
0.0
 40
1.9999999999999989
 50
10.73584144577068
 51
103.9999999999759
  0
ARC
  8
DETAIL
  6
CONTINUOUS
 62
     5
 10
-594.40346991601018
 20
-266.06344851798798
 30
0.0
 40
5.9999999999999956
 50
280.00000000000512
 51
100.000000000005
  0
ARC
  8
DETAIL
  6
CONTINUOUS
 62
     5
 10
-595.25182393201067
 20
-274.33644911399188
 30
0.0
 40
1.9999999999999989
 50
100.000000000005
 51
193.26415855429889
  0
ARC
  8
DETAIL
  6
CONTINUOUS
 62
     5
 10
-598.03019477401358
 20
-258.57952506599122
 30
0.0
 40
1.9999999999999989
 50
186.73584144579991
 51
280.00000000000512
  0
ARC
  8
DETAIL
  6
CONTINUOUS
 62
     5
 10
-491.88522159201062
 20
-376.00081022599352
 30
0.0
 40
5.9999999999999956
 50
346.00000000002569
 51
166.00000000002569
  0
ARC
  8
DETAIL
  6
CONTINUOUS
 62
     5
 10
-484.67251614000821
 20
-380.14075267399772
 30
0.0
 40
1.9999999999999989
 50
166.00000000002569
 51
259.26415855422931
  0
ARC
  8
DETAIL
  6
CONTINUOUS
 62
     5
 10
-500.19724776201377
 20
-376.27000234398753
 30
0.0
 40
1.9999999999999989
 50
252.73584144566291
 51
346.00000000002569
  0
ARC
  8
DETAIL
  6
CONTINUOUS
 62
     5
 10
-609.37127970600795
 20
-402.39999999999242
 30
0.0
 40
1.6000000000000001
 50
270.0
 51
349.99999999999341
  0
ARC
  8
DETAIL
  6
CONTINUOUS
 62
     5
 10
-614.45000000001073
 20
-402.94999999999533
 30
0.0
 40
1.05
 50
89.999980152159807
 51
269.99999999989569
  0
ARC
  8
DETAIL
  6
CONTINUOUS
 62
     5
 10
-609.70000000001255
 20
-402.19999999999533
 30
0.0
 40
0.9999999999999993
 50
282.25747725230229
 51
0.000000000000007
  0
ARC
  8
DETAIL
  6
CONTINUOUS
 62
     5
 10
-609.37127970600795
 20
-402.39999999999242
 30
0.0
 40
0.7999999999999998
 50
270.0
 51
350.00000000009732
  0
ARC
  8
DETAIL
  6
CONTINUOUS
 62
     5
 10
-609.70000000001255
 20
-402.19999999999533
 30
0.0
 40
0.5000000000000004
 50
270.0
 51
0.000000000000007
  0
ARC
  8
DETAIL
  6
CONTINUOUS
 62
     5
 10
-614.45000000001073
 20
-402.94999999999533
 30
0.0
 40
0.2500000000000002
 50
89.999980152159807
 51
269.99999999958311
  0
LINE
  8
DETAIL
  6
CONTINUOUS
 62
     5
 10
-607.11355287201332
 20
-105.9999999999882
 30
0.0
 11
-607.48509349390531
 21
-105.99739144616896
 31
0.0
  0
LINE
  8
DETAIL
  6
CONTINUOUS
 62
     5
 10
-607.48509349390531
 20
-105.99739144616896
 30
0.0
 11
-607.85593275459166
 21
-105.97648281972893
 31
0.0
  0
LINE
  8
DETAIL
  6
CONTINUOUS
 62
     5
 10
-607.85593275459166
 20
-105.97648281972893
 30
0.0
 11
-608.22267086664135
 21
-105.91764859008798
 31
0.0
  0
LINE
  8
DETAIL
  6
CONTINUOUS
 62
     5
 10
-608.22267086664135
 20
-105.91764859008798
 30
0.0
 11
-608.5723850659258
 21
-105.79277197678221
 31
0.0
  0
LINE
  8
DETAIL
  6
CONTINUOUS
 62
     5
 10
-608.5723850659258
 20
-105.79277197678221
 30
0.0
 11
-608.85994981112242
 21
-105.5579287475922
 31
0.0
  0
LINE
  8
DETAIL
  6
CONTINUOUS
 62
     5
 10
-608.85994981112242
 20
-105.5579287475922
 30
0.0
 11
-609.04252968597848
 21
-105.23907837720276
 31
0.0
  0
LINE
  8
DETAIL
  6
CONTINUOUS
 62
     5
 10
-609.04252968597848
 20
-105.23907837720276
 30
0.0
 11
-609.1341882189331
 21
-104.87492291584586
 31
0.0
  0
LINE
  8
DETAIL
  6
CONTINUOUS
 62
     5
 10
-609.1341882189331
 20
-104.87492291584586
 30
0.0
 11
-609.17467561457261
 21
-104.49677561816564
 31
0.0
  0
LINE
  8
DETAIL
  6
CONTINUOUS
 62
     5
 10
-609.17467561457261
 20
-104.49677561816564
 30
0.0
 11
-609.19322956438236
 21
-104.12432984196232
 31
0.0
  0
LINE
  8
DETAIL
  6
CONTINUOUS
 62
     5
 10
-609.19322956438236
 20
-104.12432984196232
 30
0.0
 11
-609.19923542263314
 21
-103.7556842008301
 31
0.0
  0
LINE
  8
DETAIL
  6
CONTINUOUS
 62
     5
 10
-609.19923542263314
 20
-103.7556842008301
 30
0.0
 11
-609.1999088460143
 21
-103.3865771799929
 31
0.0
  0
LINE
  8
DETAIL
  6
CONTINUOUS
 62
     5
 10
607.11355287198603
 20
-105.9999999999882
 30
0.0
 11
607.48509349348626
 21
-105.99739144616896
 31
0.0
  0
LINE
  8
DETAIL
  6
CONTINUOUS
 62
     5
 10
607.48509349348626
 20
-105.99739144616896
 30
0.0
 11
607.8559327533643
 21
-105.97648281972893
 31
0.0
  0
LINE
  8
DETAIL
  6
CONTINUOUS
 62
     5
 10
607.8559327533643
 20
-105.97648281972893
 30
0.0
 11
608.22267086476438
 21
-105.91764859008798
 31
0.0
  0
LINE
  8
DETAIL
  6
CONTINUOUS
 62
     5
 10
608.22267086476438
 20
-105.91764859008798
 30
0.0
 11
608.57238506408794
 21
-105.79277197678221
 31
0.0
  0
LINE
  8
DETAIL
  6
CONTINUOUS
 62
     5
 10
608.57238506408794
 20
-105.79277197678221
 30
0.0
 11
608.85994981016438
 21
-105.5579287475922
 31
0.0
  0
LINE
  8
DETAIL
  6
CONTINUOUS
 62
     5
 10
608.85994981016438
 20
-105.5579287475922
 30
0.0
 11
609.04252968571552
 21
-105.23907837720276
 31
0.0
  0
LINE
  8
DETAIL
  6
CONTINUOUS
 62
     5
 10
609.04252968571552
 20
-105.23907837720276
 30
0.0
 11
609.13418821889229
 21
-104.87492291584586
 31
0.0
  0
LINE
  8
DETAIL
  6
CONTINUOUS
 62
     5
 10
609.13418821889229
 20
-104.87492291584586
 30
0.0
 11
609.17467561455055
 21
-104.49677561816564
 31
0.0
  0
LINE
  8
DETAIL
  6
CONTINUOUS
 62
     5
 10
609.17467561455055
 20
-104.49677561816564
 30
0.0
 11
609.19322956435917
 21
-104.12432984196232
 31
0.0
  0
LINE
  8
DETAIL
  6
CONTINUOUS
 62
     5
 10
609.19322956435917
 20
-104.12432984196232
 30
0.0
 11
609.19923542260847
 21
-103.7556842008301
 31
0.0
  0
LINE
  8
DETAIL
  6
CONTINUOUS
 62
     5
 10
609.19923542260847
 20
-103.7556842008301
 30
0.0
 11
609.19990884598883
 21
-103.3865771799929
 31
0.0
  0
CIRCLE
  8
DETAIL
  6
CONTINUOUS
 62
     5
 10
-555.77362902200093
 20
-145.22637097699501
 30
0.0
 40
4.6999999999999957
  0
CIRCLE
  8
DETAIL
  6
CONTINUOUS
 62
     5
 10
-555.3736290220013
 20
-338.97362902298943
 30
0.0
 40
4.6999999999999957
  0
CIRCLE
  8
DETAIL
  6
CONTINUOUS
 62
     5
 10
-361.62637097800229
 20
-338.97362902298943
 30
0.0
 40
4.6999999999999957
  0
CIRCLE
  8
DETAIL
  6
CONTINUOUS
 62
     5
 10
-362.02637097800198
 20
-145.22637097699501
 30
0.0
 40
4.6999999999999957
  0
CIRCLE
  8
DETAIL
  6
CONTINUOUS
 62
     5
 10
361.62637097799961
 20
-145.22637097699501
 30
0.0
 40
4.6999999999999957
  0
CIRCLE
  8
DETAIL
  6
CONTINUOUS
 62
     5
 10
361.62637097799961
 20
-338.97362902298943
 30
0.0
 40
4.6999999999999957
  0
CIRCLE
  8
DETAIL
  6
CONTINUOUS
 62
     5
 10
555.37362902199948
 20
-338.97362902298943
 30
0.0
 40
4.6999999999999957
  0
CIRCLE
  8
DETAIL
  6
CONTINUOUS
 62
     5
 10
555.37362902199948
 20
-145.22637097699501
 30
0.0
 40
4.6999999999999957
  0
ARC
  8
DETAIL
  6
CONTINUOUS
 62
     5
 10
594.19999999969241
 20
-122.0000000002938
 30
0.0
 40
5.0000000003707132
 50
180.0
 51
270.0
  0
ARC
  8
DETAIL
  6
CONTINUOUS
 62
     5
 10
-594.19999999970423
 20
-122.0000000002938
 30
0.0
 40
5.0000000003707132
 50
270.0
 51
0.000000000000007
  0
LINE
  8
BASIS
  6
DASHDOT
 62
     6
 10
623.55027096889262
 20
-242.09999999999579
 30
0.0
 11
-623.55027096890262
 21
-242.09999999999579
 31
0.0
  0
LINE
  8
BASIS
  6
DASHDOT
 62
     6
 10
458.49999999999551
 20
-79.906950680063346
 30
0.0
 11
458.49999999999551
 21
-404.19304931992792
 31
0.0
  0
LINE
  8
BASIS
  6
DASHDOT
 62
     6
 10
-458.50000000000642
 20
-84.995756862715098
 30
0.0
 11
-458.50000000000642
 21
-399.20424313727648
 31
0.0
  0
ARC
  8
DETAIL
  6
CONTINUOUS
 62
     5
 10
-614.45000000001073
 20
-1.0500000000029099
 30
0.0
 40
1.05
 50
89.999980152159807
 51
269.99999999989569
  0
ARC
  8
DETAIL
  6
CONTINUOUS
 62
     5
 10
-614.45000000001073
 20
-1.0500000000029099
 30
0.0
 40
0.2500000000000002
 50
89.999980152159807
 51
269.99999999958311
  0
LINE
  8
DETAIL
  6
CONTINUOUS
 62
     5
 10
-611.20000000000437
 20
-2.0999999999985448
 30
0.0
 11
-614.45000000001073
 21
-2.0999999999985448
 31
0.0
  0
LINE
  8
DETAIL
  6
CONTINUOUS
 62
     5
 10
-614.45000000001073
 20
-401.89999999999242
 30
0.0
 11
-611.20000000000437
 21
-401.89999999999242
 31
0.0
  0
LINE
  8
DETAIL
  6
CONTINUOUS
 62
     5
 10
611.19999999999436
 20
-1.299999999995634
 30
0.0
 11
611.19999999999436
 21
-2.0999999999985448
 31
0.0
  0
LINE
  8
DETAIL
  6
CONTINUOUS
 62
     5
 10
611.19999999999436
 20
-401.89999999999242
 30
0.0
 11
611.19999999999436
 21
-402.69999999999533
 31
0.0
  0
LINE
  8
DETAIL
  6
CONTINUOUS
 62
     5
 10
611.19999999999436
 20
-2.0999999999985448
 30
0.0
 11
614.45000000000073
 21
-2.0999999999985448
 31
0.0
  0
LINE
  8
DETAIL
  6
CONTINUOUS
 62
     5
 10
609.69999999998618
 20
-1.299999999995634
 30
0.0
 11
614.45000000000073
 21
-1.299999999995634
 31
0.0
  0
LINE
  8
DETAIL
  6
CONTINUOUS
 62
     5
 10
614.45000000000164
 20
-402.69999999999533
 30
0.0
 11
609.69999999998618
 21
-402.69999999999533
 31
0.0
  0
LINE
  8
DETAIL
  6
CONTINUOUS
 62
     5
 10
614.45000000000164
 20
-401.89999999999242
 30
0.0
 11
611.19999999999436
 21
-401.89999999999242
 31
0.0
  0
ARC
  8
DETAIL
  6
CONTINUOUS
 62
     5
 10
614.45000000000164
 20
-402.94999999998799
 30
0.0
 40
1.05
 50
270.00001760006643
 51
89.999999999895792
  0
ARC
  8
DETAIL
  6
CONTINUOUS
 62
     5
 10
614.45000000000164
 20
-402.94999999998799
 30
0.0
 40
0.2500000000000002
 50
270.00001760006643
 51
89.999999999583139
  0
LINE
  8
DETAIL
  6
CONTINUOUS
 62
     5
 10
600.66730091798945
 20
-401.89999999999242
 30
0.0
 11
-600.667300918004
 21
-401.89999999999242
 31
0.0
  0
LINE
  8
DETAIL
  6
CONTINUOUS
 62
     5
 10
-600.71438631000638
 20
-2.0999999999985448
 30
0.0
 11
600.71438630999
 21
-2.0999999999985448
 31
0.0
  0
LINE
  8
BASIS
  6
DASHDOT
 62
     6
 10
678.9482505927017
 20
-202.0999999999913
 30
0.0
 11
-678.94825059271079
 21
-202.0999999999913
 31
0.0
  0
LINE
  8
DETAIL
  6
CONTINUOUS
 62
     5
 10
610.00000163159439
 20
-355.98360626794602
 30
0.0
 11
609.19999999998618
 21
-355.98360626794602
 31
0.0
  0
LINE
  8
SIZE
  6
CONTINUOUS
 62
    30
 10
458.49999999999551
 20
-59.906950680063353
 30
0.0
 11
458.49999999999551
 21
113.0112853555875
 31
0.0
  0
LINE
  8
SIZE
  6
CONTINUOUS
 62
    30
 10
-458.50000000000642
 20
-64.995756862715098
 30
0.0
 11
-458.50000000000642
 21
113.0112853555875
 31
0.0
  0
LINE
  8
SIZE
  6
CONTINUOUS
 62
    30
 10
446.49999999999551
 20
93.011285355587461
 30
0.0
 11
-446.50000000000642
 21
93.011285355587461
 31
0.0
  0
CIRCLE
  8
SIZE
  6
CONTINUOUS
 62
    30
 10
458.49999999999551
 20
93.011285355587461
 30
0.0
 40
6.0
  0
LINE
  8
SIZE
  6
CONTINUOUS
 62
    30
 10
458.49999999999551
 20
93.011285355587461
 30
0.0
 11
446.49999999999551
 21
93.011285355587461
 31
0.0
  0
CIRCLE
  8
SIZE
  6
CONTINUOUS
 62
    30
 10
-458.50000000000642
 20
93.011285355587461
 30
0.0
 40
6.0
  0
LINE
  8
SIZE
  6
CONTINUOUS
 62
    30
 10
-458.50000000000642
 20
93.011285355587461
 30
0.0
 11
-446.50000000000642
 21
93.011285355587461
 31
0.0
  0
TEXT
  8
SIZE
  6
CONTINUOUS
 62
    30
 10
-74.59200000000547
 20
118.01128535558749
 30
0.0
 40
64.0
  1
917
 50
0.0
 41
0.9
 51
0.0
  7
STANDARD
 71
     0
 72
     1
 11
-0.000000000005457
 21
118.01128535558749
 31
0.0
210
0.0
220
0.0
230
1.0
  0
POINT
  8
DEFPOINTS
  6
CONTINUOUS
 62
    30
 10
458.49999999999551
 20
-79.906950680063346
 30
0.0
  0
POINT
  8
DEFPOINTS
  6
CONTINUOUS
 62
    30
 10
-458.50000000000642
 20
-84.995756862715098
 30
0.0
  0
POINT
  8
DEFPOINTS
  6
CONTINUOUS
 62
    30
 10
-458.50000000000642
 20
93.011285355587461
 30
0.0
  0
LINE
  8
SIZE
  6
CONTINUOUS
 62
    30
 10
-615.50000000001091
 20
18.950000181863292
 30
0.0
 11
-615.50000000001091
 21
248.78717566559499
 31
0.0
  0
LINE
  8
SIZE
  6
CONTINUOUS
 62
    30
 10
615.49999999998636
 20
18.950000161274151
 30
0.0
 11
615.49999999998636
 21
248.78717566559499
 31
0.0
  0
LINE
  8
SIZE
  6
CONTINUOUS
 62
    30
 10
-603.50000000001091
 20
228.78717566559499
 30
0.0
 11
603.49999999998636
 21
228.78717566559499
 31
0.0
  0
CIRCLE
  8
SIZE
  6
CONTINUOUS
 62
    30
 10
-615.50000000001091
 20
228.78717566559499
 30
0.0
 40
6.0
  0
LINE
  8
SIZE
  6
CONTINUOUS
 62
    30
 10
-615.50000000001091
 20
228.78717566559499
 30
0.0
 11
-603.50000000001091
 21
228.78717566559499
 31
0.0
  0
CIRCLE
  8
SIZE
  6
CONTINUOUS
 62
    30
 10
615.49999999998636
 20
228.78717566559499
 30
0.0
 40
6.0
  0
LINE
  8
SIZE
  6
CONTINUOUS
 62
    30
 10
615.49999999998636
 20
228.78717566559499
 30
0.0
 11
603.49999999998636
 21
228.78717566559499
 31
0.0
  0
TEXT
  8
SIZE
  6
CONTINUOUS
 62
    30
 10
-95.616000000012292
 20
253.78717566559499
 30
0.0
 40
64.0
  1
1231
 50
0.0
 41
0.9
 51
0.0
  7
STANDARD
 71
     0
 72
     1
 11
-0.0000000000122782
 21
253.78717566559499
 31
0.0
210
0.0
220
0.0
230
1.0
  0
POINT
  8
DEFPOINTS
  6
CONTINUOUS
 62
    30
 10
-615.50000000001091
 20
-1.0499998181367121
 30
0.0
  0
POINT
  8
DEFPOINTS
  6
CONTINUOUS
 62
    30
 10
615.49999999998636
 20
-1.0499998387258529
 30
0.0
  0
POINT
  8
DEFPOINTS
  6
CONTINUOUS
 62
    30
 10
615.49999999998636
 20
228.78717566559499
 30
0.0
  0
LINE
  8
SIZE
  6
CONTINUOUS
 62
    30
 10
724.19999999999072
 20
-377.89999999999418
 30
0.0
 11
724.19999999999072
 21
-605.59930028783856
 31
0.0
  0
LINE
  8
SIZE
  6
CONTINUOUS
 62
    30
 10
609.19999999998618
 20
-422.19999999999533
 30
0.0
 11
609.19999999998618
 21
-605.59930028783856
 31
0.0
  0
LINE
  8
SIZE
  6
CONTINUOUS
 62
    30
 10
712.19999999999072
 20
-585.59930028783856
 30
0.0
 11
621.19999999998618
 21
-585.59930028783856
 31
0.0
  0
LINE
  8
SIZE
  6
CONTINUOUS
 62
    30
 10
609.19999999998618
 20
-585.59930028783856
 30
0.0
 11
421.0285714285576
 21
-585.59930028783856
 31
0.0
  0
CIRCLE
  8
SIZE
  6
CONTINUOUS
 62
    30
 10
724.19999999999072
 20
-585.59930028783856
 30
0.0
 40
6.0
  0
LINE
  8
SIZE
  6
CONTINUOUS
 62
    30
 10
724.19999999999072
 20
-585.59930028783856
 30
0.0
 11
712.19999999999072
 21
-585.59930028783856
 31
0.0
  0
CIRCLE
  8
SIZE
  6
CONTINUOUS
 62
    30
 10
609.19999999998618
 20
-585.59930028783856
 30
0.0
 40
6.0
  0
LINE
  8
SIZE
  6
CONTINUOUS
 62
    30
 10
609.19999999998618
 20
-585.59930028783856
 30
0.0
 11
621.19999999998618
 21
-585.59930028783856
 31
0.0
  0
TEXT
  8
SIZE
  6
CONTINUOUS
 62
    30
 10
440.28228571427189
 20
-560.59930028783856
 30
0.0
 40
64.0
  1
115
 50
0.0
 41
0.9
 51
0.0
  7
STANDARD
 71
     0
 72
     1
 11
509.11428571427189
 21
-560.59930028783856
 31
0.0
210
0.0
220
0.0
230
1.0
  0
POINT
  8
DEFPOINTS
  6
CONTINUOUS
 62
    30
 10
724.19999999999072
 20
-357.89999999999418
 30
0.0
  0
POINT
  8
DEFPOINTS
  6
CONTINUOUS
 62
    30
 10
609.19999999998618
 20
-402.19999999999533
 30
0.0
  0
POINT
  8
DEFPOINTS
  6
CONTINUOUS
 62
    30
 10
609.19999999998618
 20
-585.59930028783856
 30
0.0
  0
LINE
  8
SIZE
  6
CONTINUOUS
 62
    30
 10
643.55027096889285
 20
-242.0999999999959
 30
0.0
 11
973.84581348229517
 21
-242.0999999999959
 31
0.0
  0
LINE
  8
SIZE
  6
CONTINUOUS
 62
    30
 10
698.94825059270192
 20
-202.09999999999141
 30
0.0
 11
973.84581348229517
 21
-202.0999999999913
 31
0.0
  0
LINE
  8
SIZE
  6
CONTINUOUS
 62
    30
 10
953.84581348229517
 20
-190.0999999999913
 30
0.0
 11
953.84581348229517
 21
-178.0999999999913
 31
0.0
  0
LINE
  8
SIZE
  6
CONTINUOUS
 62
    30
 10
953.84581348229517
 20
-254.0999999999959
 30
0.0
 11
953.84581348229528
 21
-548.24017718028688
 31
0.0
  0
LINE
  8
SIZE
  6
CONTINUOUS
 62
    30
 10
953.84581348229517
 20
-202.09999999999141
 30
0.0
 11
953.84581348229517
 21
-242.0999999999959
 31
0.0
  0
CIRCLE
  8
SIZE
  6
CONTINUOUS
 62
    30
 10
953.84581348229517
 20
-202.09999999999141
 30
0.0
 40
6.0
  0
LINE
  8
SIZE
  6
CONTINUOUS
 62
    30
 10
953.84581348229517
 20
-202.09999999999141
 30
0.0
 11
953.84581348229517
 21
-190.09999999999141
 31
0.0
  0
CIRCLE
  8
SIZE
  6
CONTINUOUS
 62
    30
 10
953.84581348229517
 20
-242.0999999999959
 30
0.0
 40
6.0
  0
LINE
  8
SIZE
  6
CONTINUOUS
 62
    30
 10
953.84581348229517
 20
-242.0999999999959
 30
0.0
 11
953.84581348229517
 21
-254.0999999999959
 31
0.0
  0
TEXT
  8
SIZE
  6
CONTINUOUS
 62
    30
 10
928.84581348229494
 20
-531.33160575171564
 30
0.0
 40
64.0
  1
40
 50
90.0
 41
0.9
 51
0.0
  7
STANDARD
 71
     0
 72
     1
 11
928.84581348229494
 21
-476.61160575171562
 31
0.0
210
0.0
220
0.0
230
1.0
  0
POINT
  8
DEFPOINTS
  6
CONTINUOUS
 62
    30
 10
623.55027096889285
 20
-242.0999999999959
 30
0.0
  0
POINT
  8
DEFPOINTS
  6
CONTINUOUS
 62
    30
 10
678.94825059270192
 20
-202.09999999999141
 30
0.0
  0
POINT
  8
DEFPOINTS
  6
CONTINUOUS
 62
    30
 10
953.84581348229517
 20
-202.09999999999141
 30
0.0
  0
LINE
  8
SIZE
  6
CONTINUOUS
 62
    30
 10
634.44999999998458
 20
0.0000000000045507
 30
0.0
 11
1114.288640392276
 21
0.0000000000046279
 31
0.0
  0
LINE
  8
SIZE
  6
CONTINUOUS
 62
    30
 10
634.4499999999864
 20
-403.99999999999841
 30
0.0
 11
1114.288640392276
 21
-403.99999999999841
 31
0.0
  0
LINE
  8
SIZE
  6
CONTINUOUS
 62
    30
 10
1094.288640392276
 20
-11.99999999999538
 30
0.0
 11
1094.288640392276
 21
-391.99999999999841
 31
0.0
  0
CIRCLE
  8
SIZE
  6
CONTINUOUS
 62
    30
 10
1094.288640392276
 20
0.0000000000046246
 30
0.0
 40
6.0
  0
LINE
  8
SIZE
  6
CONTINUOUS
 62
    30
 10
1094.288640392276
 20
0.0000000000046246
 30
0.0
 11
1094.288640392276
 21
-11.999999999995376
 31
0.0
  0
CIRCLE
  8
SIZE
  6
CONTINUOUS
 62
    30
 10
1094.288640392276
 20
-403.99999999999841
 30
0.0
 40
6.0
  0
LINE
  8
SIZE
  6
CONTINUOUS
 62
    30
 10
1094.288640392276
 20
-403.99999999999841
 30
0.0
 11
1094.288640392276
 21
-391.99999999999841
 31
0.0
  0
TEXT
  8
SIZE
  6
CONTINUOUS
 62
    30
 10
1069.288640392276
 20
-284.07999999999714
 30
0.0
 40
64.0
  1
404
 50
90.0
 41
0.9
 51
0.0
  7
STANDARD
 71
     0
 72
     1
 11
1069.288640392276
 21
-201.9999999999971
 31
0.0
210
0.0
220
0.0
230
1.0
  0
POINT
  8
DEFPOINTS
  6
CONTINUOUS
 62
    30
 10
614.44999999998458
 20
0.0000000000045475
 30
0.0
  0
POINT
  8
DEFPOINTS
  6
CONTINUOUS
 62
    30
 10
614.4499999999864
 20
-403.99999999999841
 30
0.0
  0
POINT
  8
DEFPOINTS
  6
CONTINUOUS
 62
    30
 10
1094.288640392276
 20
-403.99999999999841
 30
0.0
  0
LINE
  8
SIZE
  6
CONTINUOUS
 62
    30
 10
709.93427874097347
 20
-76.999999999998209
 30
0.0
 11
973.84581348229517
 21
-76.999999999998167
 31
0.0
  0
LINE
  8
SIZE
  6
CONTINUOUS
 62
    30
 10
634.44999999998458
 20
0.0000000000045507
 30
0.0
 11
973.84581348229517
 21
0.0000000000046053
 31
0.0
  0
LINE
  8
SIZE
  6
CONTINUOUS
 62
    30
 10
953.84581348229517
 20
-64.999999999998167
 30
0.0
 11
953.84581348229517
 21
-11.999999999995399
 31
0.0
  0
LINE
  8
SIZE
  6
CONTINUOUS
 62
    30
 10
953.84581348229517
 20
0.0000000000046021
 30
0.0
 11
953.84581348229517
 21
155.2571428571479
 31
0.0
  0
CIRCLE
  8
SIZE
  6
CONTINUOUS
 62
    30
 10
953.84581348229517
 20
-76.999999999998167
 30
0.0
 40
6.0
  0
LINE
  8
SIZE
  6
CONTINUOUS
 62
    30
 10
953.84581348229517
 20
-76.999999999998167
 30
0.0
 11
953.84581348229517
 21
-64.999999999998167
 31
0.0
  0
CIRCLE
  8
SIZE
  6
CONTINUOUS
 62
    30
 10
953.84581348229517
 20
0.0000000000046021
 30
0.0
 40
6.0
  0
LINE
  8
SIZE
  6
CONTINUOUS
 62
    30
 10
953.84581348229517
 20
0.0000000000046021
 30
0.0
 11
953.84581348229517
 21
-11.999999999995397
 31
0.0
  0
TEXT
  8
SIZE
  6
CONTINUOUS
 62
    30
 10
928.84581348229494
 20
30.060571428576225
 30
0.0
 40
64.0
  1
77
 50
90.0
 41
0.9
 51
0.0
  7
STANDARD
 71
     0
 72
     1
 11
928.84581348229494
 21
83.628571428576208
 31
0.0
210
0.0
220
0.0
230
1.0
  0
POINT
  8
DEFPOINTS
  6
CONTINUOUS
 62
    30
 10
689.93427874097347
 20
-76.999999999998209
 30
0.0
  0
POINT
  8
DEFPOINTS
  6
CONTINUOUS
 62
    30
 10
614.44999999998458
 20
0.0000000000045475
 30
0.0
  0
POINT
  8
DEFPOINTS
  6
CONTINUOUS
 62
    30
 10
953.84581348229517
 20
0.0000000000046021
 30
0.0
  0
LINE
  8
SIZE
  6
CONTINUOUS
 62
    30
 10
-634.45000000001096
 20
-0.0000000000000032
 30
0.0
 11
-804.07534499157009
 21
-0.0000000000000305
 31
0.0
  0
LINE
  8
SIZE
  6
CONTINUOUS
 62
    30
 10
-709.93427874098347
 20
-76.999999999998209
 30
0.0
 11
-804.07534499157009
 21
-76.999999999998238
 31
0.0
  0
LINE
  8
SIZE
  6
CONTINUOUS
 62
    30
 10
-784.07534499157009
 20
-64.999999999998224
 30
0.0
 11
-784.07534499157009
 21
-12.00000000000003
 31
0.0
  0
LINE
  8
SIZE
  6
CONTINUOUS
 62
    30
 10
-784.07534499157009
 20
-0.0000000000000273
 30
0.0
 11
-784.07534499157009
 21
155.2571428571429
 31
0.0
  0
CIRCLE
  8
SIZE
  6
CONTINUOUS
 62
    30
 10
-784.07534499157009
 20
-76.999999999998224
 30
0.0
 40
6.0
  0
LINE
  8
SIZE
  6
CONTINUOUS
 62
    30
 10
-784.07534499157009
 20
-76.999999999998224
 30
0.0
 11
-784.07534499157009
 21
-64.999999999998224
 31
0.0
  0
CIRCLE
  8
SIZE
  6
CONTINUOUS
 62
    30
 10
-784.07534499157009
 20
-0.0000000000000273
 30
0.0
 40
6.0
  0
LINE
  8
SIZE
  6
CONTINUOUS
 62
    30
 10
-784.07534499157009
 20
-0.0000000000000273
 30
0.0
 11
-784.07534499157009
 21
-12.000000000000027
 31
0.0
  0
TEXT
  8
SIZE
  6
CONTINUOUS
 62
    30
 10
-809.07534499156986
 20
30.060571428571677
 30
0.0
 40
64.0
  1
77
 50
90.0
 41
0.9
 51
0.0
  7
STANDARD
 71
     0
 72
     1
 11
-809.07534499156986
 21
83.628571428571661
 31
0.0
210
0.0
220
0.0
230
1.0
  0
POINT
  8
DEFPOINTS
  6
CONTINUOUS
 62
    30
 10
-614.45000000001096
 20
0.0
 30
0.0
  0
POINT
  8
DEFPOINTS
  6
CONTINUOUS
 62
    30
 10
-689.93427874098347
 20
-76.999999999998209
 30
0.0
  0
POINT
  8
DEFPOINTS
  6
CONTINUOUS
 62
    30
 10
-784.07534499157009
 20
-76.999999999998224
 30
0.0
  0
LINE
  8
BASIS
  6
DASHDOT
 62
     6
 10
-639.00000000000182
 20
-127.9342787409751
 30
0.0
 11
-639.00000000000182
 21
-26.065721259021299
 31
0.0
  0
LINE
  8
BASIS
  6
DASHDOT
 62
     6
 10
-689.93427874098325
 20
-76.999999999998181
 30
0.0
 11
-588.06572125903313
 21
-76.999999999998181
 31
0.0
  0
LINE
  8
SIZE
  6
CONTINUOUS
 62
    30
 10
-639.00000000000182
 20
-6.0657212590213021
 30
0.0
 11
-639.00000000000182
 21
378.67953403249157
 31
0.0
  0
LINE
  8
SIZE
  6
CONTINUOUS
 62
    30
 10
638.99999999999181
 20
-6.0657212590213021
 30
0.0
 11
638.99999999999181
 21
378.67953403249157
 31
0.0
  0
LINE
  8
SIZE
  6
CONTINUOUS
 62
    30
 10
-627.00000000000182
 20
358.67953403249157
 30
0.0
 11
626.99999999999181
 21
358.67953403249157
 31
0.0
  0
CIRCLE
  8
SIZE
  6
CONTINUOUS
 62
    30
 10
-639.00000000000182
 20
358.67953403249157
 30
0.0
 40
6.0
  0
LINE
  8
SIZE
  6
CONTINUOUS
 62
    30
 10
-639.00000000000182
 20
358.67953403249157
 30
0.0
 11
-627.00000000000182
 21
358.67953403249157
 31
0.0
  0
CIRCLE
  8
SIZE
  6
CONTINUOUS
 62
    30
 10
638.99999999999181
 20
358.67953403249157
 30
0.0
 40
6.0
  0
LINE
  8
SIZE
  6
CONTINUOUS
 62
    30
 10
638.99999999999181
 20
358.67953403249157
 30
0.0
 11
626.99999999999181
 21
358.67953403249157
 31
0.0
  0
TEXT
  8
SIZE
  6
CONTINUOUS
 62
    30
 10
-101.37600000000502
 20
383.67953403249157
 30
0.0
 40
64.0
  1
1278
 50
0.0
 41
0.9
 51
0.0
  7
STANDARD
 71
     0
 72
     1
 11
-0.0000000000050022
 21
383.67953403249157
 31
0.0
210
0.0
220
0.0
230
1.0
  0
POINT
  8
DEFPOINTS
  6
CONTINUOUS
 62
    30
 10
-639.00000000000182
 20
-26.065721259021299
 30
0.0
  0
POINT
  8
DEFPOINTS
  6
CONTINUOUS
 62
    30
 10
638.99999999999181
 20
-26.065721259021299
 30
0.0
  0
POINT
  8
DEFPOINTS
  6
CONTINUOUS
 62
    30
 10
638.99999999999181
 20
358.67953403249157
 30
0.0
  0
LINE
  8
BASIS
  6
DASHDOT
 62
     6
 10
638.99999999999181
 20
-127.9342787409751
 30
0.0
 11
638.99999999999181
 21
-26.065721259021299
 31
0.0
  0
LINE
  8
BASIS
  6
DASHDOT
 62
     6
 10
689.93427874097324
 20
-76.999999999998181
 30
0.0
 11
588.06572125902312
 21
-76.999999999998181
 31
0.0
  0
LINE
  8
SIZE
  6
CONTINUOUS
 62
    30
 10
638.99999999999181
 20
-6.0657212590213021
 30
0.0
 11
638.99999999999181
 21
378.67953403250522
 31
0.0
  0
LINE
  8
SIZE
  6
CONTINUOUS
 62
    30
 10
659.0
 20
-50.199999999999818
 30
0.0
 11
659.0
 21
378.67953403250522
 31
0.0
  0
LINE
  8
SIZE
  6
CONTINUOUS
 62
    30
 10
626.99999999999181
 20
358.67953403250522
 30
0.0
 11
614.99999999999181
 21
358.67953403250522
 31
0.0
  0
LINE
  8
SIZE
  6
CONTINUOUS
 62
    30
 10
671.0
 20
358.67953403250522
 30
0.0
 11
826.25714285714469
 21
358.67953403250522
 31
0.0
  0
LINE
  8
SIZE
  6
CONTINUOUS
 62
    30
 10
638.99999999999181
 20
358.67953403250522
 30
0.0
 11
659.0
 21
358.67953403250522
 31
0.0
  0
CIRCLE
  8
SIZE
  6
CONTINUOUS
 62
    30
 10
638.99999999999181
 20
358.67953403250522
 30
0.0
 40
6.0
  0
LINE
  8
SIZE
  6
CONTINUOUS
 62
    30
 10
638.99999999999181
 20
358.67953403250522
 30
0.0
 11
626.99999999999181
 21
358.67953403250522
 31
0.0
  0
CIRCLE
  8
SIZE
  6
CONTINUOUS
 62
    30
 10
659.0
 20
358.67953403250522
 30
0.0
 40
6.0
  0
LINE
  8
SIZE
  6
CONTINUOUS
 62
    30
 10
659.0
 20
358.67953403250522
 30
0.0
 11
671.0
 21
358.67953403250522
 31
0.0
  0
TEXT
  8
SIZE
  6
CONTINUOUS
 62
    30
 10
700.48457142857319
 20
383.67953403250522
 30
0.0
 40
64.0
  1
20
 50
0.0
 41
0.9
 51
0.0
  7
STANDARD
 71
     0
 72
     1
 11
754.6285714285732
 21
383.67953403250522
 31
0.0
210
0.0
220
0.0
230
1.0
  0
POINT
  8
DEFPOINTS
  6
CONTINUOUS
 62
    30
 10
638.99999999999181
 20
-26.065721259021299
 30
0.0
  0
POINT
  8
DEFPOINTS
  6
CONTINUOUS
 62
    30
 10
659.0
 20
-70.199999999999818
 30
0.0
  0
POINT
  8
DEFPOINTS
  6
CONTINUOUS
 62
    30
 10
659.0
 20
358.67953403250522
 30
0.0
  0
CIRCLE
  8
FIX
  6
CONTINUOUS
 62
    11
 10
638.99999999999818
 20
-77.000000000001819
 30
0.0
 40
6.5
  0
CIRCLE
  8
FIX
  6
CONTINUOUS
 62
    11
 10
-639.00000000000182
 20
-77.000000000001819
 30
0.0
 40
6.5
  0
POINT
  8
ARRANGE
  6
CONTINUOUS
 62
     1
 10
-0.0000000000090949
 20
0.0
 30
0.0
 50
270.0
  0
CIRCLE
  8
ARRANGE
  6
CONTINUOUS
 62
     1
 10
-0.0000000000090949
 20
0.0
 30
0.0
 40
40.0
  0
LINE
  8
OUTLINE
  6
CONTINUOUS
 62
     3
 10
-609.20000000001164
 20
-83.399999999996908
 30
0.0
 11
-609.20000000001164
 21
-1.8000000000029099
 31
0.0
  0
ARC
  8
OUTLINE
  6
CONTINUOUS
 62
     3
 10
-609.70000000001107
 20
-1.800000000002318
 30
0.0
 40
0.4999999999994081
 50
0.0
 51
90.0
  0
LINE
  8
OUTLINE
  6
CONTINUOUS
 62
     3
 10
-609.70000000001164
 20
-1.3000000000029099
 30
0.0
 11
-611.20000000000437
 21
-1.3000000000029099
 31
0.0
  0
LINE
  8
OUTLINE
  6
CONTINUOUS
 62
     3
 10
-611.20000000000437
 20
-1.3000000000029099
 30
0.0
 11
-611.19999999999709
 21
-2.0999999999976349
 31
0.0
  0
LINE
  8
OUTLINE
  6
CONTINUOUS
 62
     3
 10
-611.19999999999709
 20
-2.0999999999976349
 30
0.0
 11
-614.45000000001164
 21
-2.1000000000058212
 31
0.0
  0
ARC
  8
OUTLINE
  6
CONTINUOUS
 62
     3
 10
-614.45000000001164
 20
-1.0500000000029106
 30
0.0
 40
1.0500000000029106
 50
90.0
 51
270.0
  0
LINE
  8
OUTLINE
  6
CONTINUOUS
 62
     3
 10
-614.45000000001164
 20
0.0
 30
0.0
 11
-609.37127970600704
 21
-0.0000000000059117
 31
0.0
  0
ARC
  8
OUTLINE
  6
CONTINUOUS
 62
     3
 10
-609.37127970600591
 20
-1.6000000000074104
 30
0.0
 40
1.6000000000014987
 50
10.000000000047066
 51
90.0
  0
LINE
  8
OUTLINE
  6
CONTINUOUS
 62
     3
 10
-607.79558730118515
 20
-1.322162915738772
 30
0.0
 11
-607.53500475000328
 21
-2.8000000000029099
 31
0.0
  0
LINE
  8
OUTLINE
  6
CONTINUOUS
 62
     3
 10
-607.53500475000328
 20
-2.8000000000029099
 30
0.0
 11
-606.34708539200801
 21
-2.8000000000029099
 31
0.0
  0
LINE
  8
OUTLINE
  6
CONTINUOUS
 62
     3
 10
-606.34708539200801
 20
-2.8000000000029099
 30
0.0
 11
-606.34708539200801
 21
0.0
 31
0.0
  0
LINE
  8
OUTLINE
  6
CONTINUOUS
 62
     3
 10
-606.34708539200801
 20
0.0
 30
0.0
 11
606.34708539199164
 21
0.0000000000081855
 31
0.0
  0
LINE
  8
OUTLINE
  6
CONTINUOUS
 62
     3
 10
606.34708539199164
 20
0.0000000000081855
 30
0.0
 11
606.34708539199164
 21
-0.7999999999947249
 31
0.0
  0
LINE
  8
OUTLINE
  6
CONTINUOUS
 62
     3
 10
606.34708539199164
 20
-0.7999999999947249
 30
0.0
 11
607.69999999998618
 21
-0.7999999999947249
 31
0.0
  0
LINE
  8
OUTLINE
  6
CONTINUOUS
 62
     3
 10
607.69999999998618
 20
-0.7999999999947249
 30
0.0
 11
607.69999999998618
 21
-1.8642654314776339
 31
0.0
  0
LINE
  8
OUTLINE
  6
CONTINUOUS
 62
     3
 10
607.69999999998618
 20
-1.8642654314776339
 30
0.0
 11
607.79558729916971
 21
-1.322162915730587
 31
0.0
  0
ARC
  8
OUTLINE
  6
CONTINUOUS
 62
     3
 10
609.37127970399968
 20
-1.6000000000029848
 30
0.0
 40
1.6000000000111705
 50
90.0
 51
169.99999999987767
  0
LINE
  8
OUTLINE
  6
CONTINUOUS
 62
     3
 10
609.37127970398797
 20
0.0000000000081855
 30
0.0
 11
614.44999999998799
 21
0.0000000000081855
 31
0.0
  0
ARC
  8
OUTLINE
  6
CONTINUOUS
 62
     3
 10
614.45000016125709
 20
-1.0500000000006366
 30
0.0
 40
1.0500000000088345
 50
270.0
 51
90.0
  0
LINE
  8
OUTLINE
  6
CONTINUOUS
 62
     3
 10
614.45000032252574
 20
-2.1000000000094592
 30
0.0
 11
611.19999999999527
 21
-2.0999999999976349
 31
0.0
  0
LINE
  8
OUTLINE
  6
CONTINUOUS
 62
     3
 10
611.19999999999527
 20
-2.0999999999976349
 30
0.0
 11
611.19999999999527
 21
-1.3000000000074581
 31
0.0
  0
LINE
  8
OUTLINE
  6
CONTINUOUS
 62
     3
 10
611.19999999999527
 20
-1.3000000000074581
 30
0.0
 11
609.69999999999891
 21
-1.3000000000074581
 31
0.0
  0
ARC
  8
OUTLINE
  6
CONTINUOUS
 62
     3
 10
609.69999999998652
 20
-1.7999999999950271
 30
0.0
 40
0.4999999999875691
 50
90.0
 51
180.0
  0
LINE
  8
OUTLINE
  6
CONTINUOUS
 62
     3
 10
609.19999999999891
 20
-1.8000000000001819
 30
0.0
 11
609.19999999999072
 21
-3.6000000000067298
 31
0.0
  0
LINE
  8
OUTLINE
  6
CONTINUOUS
 62
     3
 10
609.19999999999072
 20
-3.6000000000067298
 30
0.0
 11
612.69999999999072
 21
-3.6000000000067298
 31
0.0
  0
LINE
  8
OUTLINE
  6
CONTINUOUS
 62
     3
 10
612.69999999999072
 20
-3.6000000000067298
 30
0.0
 11
612.69999999999163
 21
-4.2999999999883576
 31
0.0
  0
ARC
  8
OUTLINE
  6
CONTINUOUS
 62
     3
 10
613.89999999998508
 20
-4.299999999984685
 30
0.0
 40
1.1999999999934161
 50
90.0
 51
180.0
  0
LINE
  8
OUTLINE
  6
CONTINUOUS
 62
     3
 10
613.89999999999145
 20
-3.0999999999912689
 30
0.0
 11
623.09999999922638
 21
-3.099999998775274
 31
0.0
  0
ARC
  8
OUTLINE
  6
CONTINUOUS
 62
     3
 10
623.09999999922638
 20
-3.6999999987745009
 30
0.0
 40
0.599999999999227
 50
270.0
 51
90.0
  0
LINE
  8
OUTLINE
  6
CONTINUOUS
 62
     3
 10
623.09999999922638
 20
-4.2999999987737283
 30
0.0
 11
623.70113113122989
 21
-4.3008654841169118
 31
0.0
  0
LINE
  8
OUTLINE
  6
CONTINUOUS
 62
     3
 10
623.70113113122989
 20
-4.3008654841169118
 30
0.0
 11
624.08091743122986
 21
-3.8364248587886318
 31
0.0
  0
ARC
  8
OUTLINE
  6
CONTINUOUS
 62
     3
 10
588.99921378144029
 20
-46.455679590811506
 30
0.0
 40
55.200786270529839
 50
359.99751343679543
 51
50.540765303688204
  0
LINE
  8
OUTLINE
  6
CONTINUOUS
 62
     3
 10
644.19999999998618
 20
-46.458075234000717
 30
0.0
 11
644.19999999998618
 21
-76.999999999994543
 31
0.0
  0
LINE
  8
OUTLINE
  6
CONTINUOUS
 62
     3
 10
644.19999999998618
 20
-76.999999999994543
 30
0.0
 11
652.59999999999491
 21
-76.999999999994543
 31
0.0
  0
ARC
  8
OUTLINE
  6
CONTINUOUS
 62
     3
 10
652.60000000000093
 20
-73.799999999999812
 30
0.0
 40
3.1999999999947359
 50
270.0
 51
0.0
  0
LINE
  8
OUTLINE
  6
CONTINUOUS
 62
     3
 10
655.79999999999563
 20
-73.799999999997453
 30
0.0
 11
655.799999999992
 21
-70.199999999998909
 31
0.0
  0
LINE
  8
OUTLINE
  6
CONTINUOUS
 62
     3
 10
655.799999999992
 20
-70.199999999998909
 30
0.0
 11
658.99999999999636
 21
-70.199999999998909
 31
0.0
  0
LINE
  8
OUTLINE
  6
CONTINUOUS
 62
     3
 10
658.99999999999636
 20
-70.199999999998909
 30
0.0
 11
658.99999999999636
 21
-73.799999999997453
 31
0.0
  0
ARC
  8
OUTLINE
  6
CONTINUOUS
 62
     3
 10
652.5999999999998
 20
-73.799999999997993
 30
0.0
 40
6.39999999999654
 50
311.34354484781852
 51
0.0
  0
ARC
  8
OUTLINE
  6
CONTINUOUS
 62
     3
 10
652.85163095436644
 20
-83.295771045991728
 30
0.0
 40
6.1492524420546459
 50
359.02879818118618
 51
49.715159321488386
  0
LINE
  8
OUTLINE
  6
CONTINUOUS
 62
     3
 10
658.99999999999636
 20
-83.400000000003274
 30
0.0
 11
658.99999999999636
 21
-86.999999999994543
 31
0.0
  0
LINE
  8
OUTLINE
  6
CONTINUOUS
 62
     3
 10
658.99999999999636
 20
-86.999999999994543
 30
0.0
 11
655.799999999992
 21
-86.999999999994543
 31
0.0
  0
LINE
  8
OUTLINE
  6
CONTINUOUS
 62
     3
 10
655.799999999992
 20
-86.999999999994543
 30
0.0
 11
655.79999999999563
 21
-83.400000000003274
 31
0.0
  0
ARC
  8
OUTLINE
  6
CONTINUOUS
 62
     3
 10
652.59999999999491
 20
-83.400000000003757
 30
0.0
 40
3.200000000000752
 50
0.0
 51
90.0
  0
LINE
  8
OUTLINE
  6
CONTINUOUS
 62
     3
 10
652.59999999999491
 20
-80.200000000003001
 30
0.0
 11
646.89722442199854
 21
-80.200000000006185
 31
0.0
  0
LINE
  8
OUTLINE
  6
CONTINUOUS
 62
     3
 10
646.89722442199854
 20
-80.200000000006185
 30
0.0
 11
646.89722442197672
 21
-96.300000000008367
 31
0.0
  0
LINE
  8
OUTLINE
  6
CONTINUOUS
 62
     3
 10
646.89722442197672
 20
-96.300000000008367
 30
0.0
 11
724.19999999999345
 21
-96.300000000009277
 31
0.0
  0
LINE
  8
OUTLINE
  6
CONTINUOUS
 62
     3
 10
724.19999999999345
 20
-96.300000000009277
 30
0.0
 11
724.19999999999345
 21
-97.151087470702805
 31
0.0
  0
ARC
  8
OUTLINE
  6
CONTINUOUS
 62
     3
 10
723.39999999999191
 20
-98.299999999999258
 30
0.0
 40
1.3999999999917083
 50
34.849904578609824
 51
55.150095420640753
  0
LINE
  8
OUTLINE
  6
CONTINUOUS
 62
     3
 10
724.54891252929883
 20
-97.500000000012733
 30
0.0
 11
725.39999999999054
 21
-97.500000000012733
 31
0.0
  0
LINE
  8
OUTLINE
  6
CONTINUOUS
 62
     3
 10
725.39999999999054
 20
-97.500000000012733
 30
0.0
 11
725.39999999999054
 21
-356.70000000000351
 31
0.0
  0
LINE
  8
OUTLINE
  6
CONTINUOUS
 62
     3
 10
725.39999999999054
 20
-356.70000000000351
 30
0.0
 11
724.54891252929883
 21
-356.70000000000249
 31
0.0
  0
ARC
  8
OUTLINE
  6
CONTINUOUS
 62
     3
 10
723.39999999998884
 20
-355.90000000001601
 30
0.0
 40
1.3999999999942934
 50
304.8499045794407
 51
325.15009542146345
  0
LINE
  8
OUTLINE
  6
CONTINUOUS
 62
     3
 10
724.19999999999345
 20
-357.04891252931338
 30
0.0
 11
724.19999999999345
 21
-357.90000000000691
 31
0.0
  0
LINE
  8
OUTLINE
  6
CONTINUOUS
 62
     3
 10
724.19999999999345
 20
-357.90000000000691
 30
0.0
 11
644.19989396783058
 21
-357.9000207062586
 31
0.0
  0
ARC
  8
OUTLINE
  6
CONTINUOUS
 62
     3
 10
589.10000000000002
 20
-357.79192476399737
 30
0.0
 40
55.099999999990004
 50
309.40977859102122
 51
359.88759627501156
  0
LINE
  8
OUTLINE
  6
CONTINUOUS
 62
     3
 10
624.08091743123623
 20
-400.36357513919347
 30
0.0
 11
623.70110091752758
 21
-399.89909756663337
 31
0.0
  0
LINE
  8
OUTLINE
  6
CONTINUOUS
 62
     3
 10
623.70110091752758
 20
-399.89909756663337
 30
0.0
 11
623.09999999999673
 21
-399.89999999798511
 31
0.0
  0
ARC
  8
OUTLINE
  6
CONTINUOUS
 62
     3
 10
623.09999999999673
 20
-400.49999999798791
 30
0.0
 40
0.6000000000028364
 50
270.0
 51
90.0
  0
LINE
  8
OUTLINE
  6
CONTINUOUS
 62
     3
 10
623.09999999999673
 20
-401.09999999799078
 30
0.0
 11
613.90110091752831
 21
-401.09909756663768
 31
0.0
  0
ARC
  8
OUTLINE
  6
CONTINUOUS
 62
     3
 10
613.9011009175349
 20
-399.89909756663042
 30
0.0
 40
1.2000000000072928
 50
180.0
 51
270.0
  0
LINE
  8
OUTLINE
  6
CONTINUOUS
 62
     3
 10
612.70110091752758
 20
-399.89909756663337
 30
0.0
 11
612.69999999998618
 21
-400.59999999999133
 31
0.0
  0
LINE
  8
OUTLINE
  6
CONTINUOUS
 62
     3
 10
612.69999999998618
 20
-400.59999999999133
 30
0.0
 11
609.19999999998618
 21
-400.59999999999133
 31
0.0
  0
LINE
  8
OUTLINE
  6
CONTINUOUS
 62
     3
 10
609.19999999998618
 20
-400.59999999999133
 30
0.0
 11
609.19999999998799
 21
-402.19999999999533
 31
0.0
  0
ARC
  8
OUTLINE
  6
CONTINUOUS
 62
     3
 10
609.70000000000073
 20
-402.19999999998981
 30
0.0
 40
0.5000000000127022
 50
180.0
 51
270.0
  0
LINE
  8
OUTLINE
  6
CONTINUOUS
 62
     3
 10
609.70000000000255
 20
-402.70000000000249
 30
0.0
 11
611.19999999999527
 21
-402.70000000000482
 31
0.0
  0
LINE
  8
OUTLINE
  6
CONTINUOUS
 62
     3
 10
611.19999999999527
 20
-402.70000000000482
 30
0.0
 11
611.19999999999527
 21
-401.89999999999242
 31
0.0
  0
LINE
  8
OUTLINE
  6
CONTINUOUS
 62
     3
 10
611.19999999999527
 20
-401.89999999999242
 30
0.0
 11
614.42500000000109
 21
-401.89999999999009
 31
0.0
  0
ARC
  8
OUTLINE
  6
CONTINUOUS
 62
     3
 10
614.44985294115145
 20
-402.94985294117089
 30
0.0
 40
1.0501470691240629
 50
270.00802349589833
 51
91.356097289727188
  0
LINE
  8
OUTLINE
  6
CONTINUOUS
 62
     3
 10
614.44999999998799
 20
-403.99999999999818
 30
0.0
 11
609.37127970398797
 21
-403.99999999999818
 31
0.0
  0
ARC
  8
OUTLINE
  6
CONTINUOUS
 62
     3
 10
609.37127970397103
 20
-402.40000000001811
 30
0.0
 40
1.5999999999800623
 50
189.99999999971897
 51
270.0
  0
LINE
  8
OUTLINE
  6
CONTINUOUS
 62
     3
 10
607.79558729916971
 20
-402.67783708427402
 30
0.0
 11
607.69999999998799
 21
-402.13573456878839
 31
0.0
  0
LINE
  8
OUTLINE
  6
CONTINUOUS
 62
     3
 10
607.69999999998799
 20
-402.13573456878839
 30
0.0
 11
607.69999999998618
 21
-403.20000000000982
 31
0.0
  0
LINE
  8
OUTLINE
  6
CONTINUOUS
 62
     3
 10
607.69999999998618
 20
-403.20000000000982
 30
0.0
 11
606.29999999998472
 21
-403.20000000000982
 31
0.0
  0
LINE
  8
OUTLINE
  6
CONTINUOUS
 62
     3
 10
606.29999999998472
 20
-403.20000000000982
 30
0.0
 11
606.29999999998472
 21
-403.99999999999818
 31
0.0
  0
LINE
  8
OUTLINE
  6
CONTINUOUS
 62
     3
 10
606.29999999998472
 20
-403.99999999999818
 30
0.0
 11
-606.30000000000655
 21
-404.00000000000642
 31
0.0
  0
LINE
  8
OUTLINE
  6
CONTINUOUS
 62
     3
 10
-606.30000000000655
 20
-404.00000000000642
 30
0.0
 11
-606.3000000000111
 21
-401.29999999999558
 31
0.0
  0
LINE
  8
OUTLINE
  6
CONTINUOUS
 62
     3
 10
-606.3000000000111
 20
-401.29999999999558
 30
0.0
 11
-607.53500475000783
 21
-401.29999999999558
 31
0.0
  0
LINE
  8
OUTLINE
  6
CONTINUOUS
 62
     3
 10
-607.53500475000783
 20
-401.29999999999558
 30
0.0
 11
-607.79558730001008
 21
-402.67783708401021
 31
0.0
  0
ARC
  8
OUTLINE
  6
CONTINUOUS
 62
     3
 10
-609.37127970687106
 20
-402.39999999763921
 30
0.0
 40
1.6000000023757766
 50
270.0
 51
349.99999993849838
  0
LINE
  8
OUTLINE
  6
CONTINUOUS
 62
     3
 10
-609.37127970600704
 20
-404.00000000001501
 30
0.0
 11
-614.45000000001164
 21
-404.00000000000642
 31
0.0
  0
ARC
  8
OUTLINE
  6
CONTINUOUS
 62
     3
 10
-614.44985294114008
 20
-402.94985294118038
 30
0.0
 40
1.0501470691228294
 50
88.643902710990915
 51
269.99197650219116
  0
LINE
  8
OUTLINE
  6
CONTINUOUS
 62
     3
 10
-614.42500000000291
 20
-401.90000000000049
 30
0.0
 11
-611.20000000000437
 21
-401.89999999998599
 31
0.0
  0
LINE
  8
OUTLINE
  6
CONTINUOUS
 62
     3
 10
-611.20000000000437
 20
-401.89999999998599
 30
0.0
 11
-611.20000000000437
 21
-402.70000000000351
 31
0.0
  0
LINE
  8
OUTLINE
  6
CONTINUOUS
 62
     3
 10
-611.20000000000437
 20
-402.70000000000351
 30
0.0
 11
-609.700000000008
 21
-402.70000000000351
 31
0.0
  0
ARC
  8
OUTLINE
  6
CONTINUOUS
 62
     3
 10
-609.70000000000971
 20
-402.20000000000545
 30
0.0
 40
0.4999999999980495
 50
270.0
 51
0.0
  0
LINE
  8
OUTLINE
  6
CONTINUOUS
 62
     3
 10
-609.20000000001164
 20
-402.20000000000351
 30
0.0
 11
-609.20000000001164
 21
-127.0000000001323
 31
0.0
  0
LINE
  8
OUTLINE
  6
CONTINUOUS
 62
     3
 10
-609.20000000001164
 20
-127.0000000001323
 30
0.0
 11
-612.40000000000873
 21
-127.00000000001729
 31
0.0
  0
LINE
  8
OUTLINE
  6
CONTINUOUS
 62
     3
 10
-612.40000000000873
 20
-127.00000000001729
 30
0.0
 11
-612.40000000001237
 21
-83.400000000018736
 31
0.0
  0
ARC
  8
OUTLINE
  6
CONTINUOUS
 62
     3
 10
-615.60281766880109
 20
-83.401167116646221
 30
0.0
 40
3.2028178814391457
 50
0.0208787576783607
 51
88.160360343755087
  0
LINE
  8
OUTLINE
  6
CONTINUOUS
 62
     3
 10
-615.50000000001455
 20
-80.200000000007094
 30
0.0
 11
-652.6000000000131
 21
-80.200000000022555
 31
0.0
  0
ARC
  8
OUTLINE
  6
CONTINUOUS
 62
     3
 10
-652.60000000001173
 20
-83.400000000020981
 30
0.0
 40
3.1999999999984237
 50
90.0
 51
180.0
  0
LINE
  8
OUTLINE
  6
CONTINUOUS
 62
     3
 10
-655.80000000001019
 20
-83.400000000022374
 30
0.0
 11
-655.80000000001019
 21
-87.00000000001728
 31
0.0
  0
LINE
  8
OUTLINE
  6
CONTINUOUS
 62
     3
 10
-655.80000000001019
 20
-87.00000000001728
 30
0.0
 11
-659.00000000001455
 21
-87.00000000001728
 31
0.0
  0
LINE
  8
OUTLINE
  6
CONTINUOUS
 62
     3
 10
-659.00000000001455
 20
-87.00000000001728
 30
0.0
 11
-659.00000000001455
 21
-83.400000000022374
 31
0.0
  0
ARC
  8
OUTLINE
  6
CONTINUOUS
 62
     3
 10
-652.60000000001378
 20
-83.400000000023653
 30
0.0
 40
6.4000000000007766
 50
131.40962210918508
 51
180.0
  0
ARC
  8
OUTLINE
  6
CONTINUOUS
 62
     3
 10
-652.60000000001287
 20
-73.800000000009419
 30
0.0
 40
6.4000000000016728
 50
180.0
 51
228.59037789081117
  0
LINE
  8
OUTLINE
  6
CONTINUOUS
 62
     3
 10
-659.00000000001455
 20
-73.800000000012915
 30
0.0
 11
-659.00000000001455
 21
-70.20000000001437
 31
0.0
  0
LINE
  8
OUTLINE
  6
CONTINUOUS
 62
     3
 10
-659.00000000001455
 20
-70.20000000001437
 30
0.0
 11
-655.80000000001019
 21
-70.20000000001437
 31
0.0
  0
LINE
  8
OUTLINE
  6
CONTINUOUS
 62
     3
 10
-655.80000000001019
 20
-70.20000000001437
 30
0.0
 11
-655.80000000001019
 21
-73.800000000012915
 31
0.0
  0
ARC
  8
OUTLINE
  6
CONTINUOUS
 62
     3
 10
-652.60000000001492
 20
-73.80000000001742
 30
0.0
 40
3.1999999999953181
 50
180.0
 51
270.0
  0
LINE
  8
OUTLINE
  6
CONTINUOUS
 62
     3
 10
-652.6000000000131
 20
-77.000000000012733
 30
0.0
 11
-615.6000000000131
 21
-77.000000000017735
 31
0.0
  0
ARC
  8
OUTLINE
  6
CONTINUOUS
 62
     3
 10
-615.59999999996558
 20
-83.399999999971698
 30
0.0
 40
6.3999999999539581
 50
0.0
 51
90.0
  0
LINE
  8
SIZE
  6
CONTINUOUS
 62
    30
 10
-950.78204833323741
 20
-317.67719763007602
 30
0.0
 11
-589.95979051669622
 21
-262.28225649691262
 31
0.0
  0
LINE
  8
SIZE
  6
CONTINUOUS
 62
    30
 10
-327.04020948331328
 20
-221.91774350307881
 30
0.0
 11
-315.1791757524839
 21
-220.09678802967269
 31
0.0
  0
TEXT
  8
SIZE
  6
CONTINUOUS
 62
    30
 10
-945.06089727285485
 20
-291.50595755251481
 30
0.0
 40
64.0
  1
φ242
 50
8.728140166760852
 41
0.9
 51
0.0
  7
STANDARD
 71
     0
 72
     1
 11
-830.91030864735274
 21
-273.98108207645498
 31
0.0
210
0.0
220
0.0
230
1.0
  0
LINE
  8
SIZE
  6
CONTINUOUS
 62
    30
 10
-338.90124321414271
 20
-223.73869897648481
 30
0.0
 11
-578.09875678586684
 21
-260.46130102350651
 31
0.0
  0
CIRCLE
  8
SIZE
  6
CONTINUOUS
 62
    30
 10
-338.90124321414271
 20
-223.73869897648481
 30
0.0
 40
6.0
  0
LINE
  8
SIZE
  6
CONTINUOUS
 62
    30
 10
-338.90124321414271
 20
-223.73869897648481
 30
0.0
 11
-327.04020948331333
 21
-221.91774350307875
 31
0.0
  0
CIRCLE
  8
SIZE
  6
CONTINUOUS
 62
    30
 10
-578.09875678586684
 20
-260.46130102350651
 30
0.0
 40
6.0
  0
LINE
  8
SIZE
  6
CONTINUOUS
 62
    30
 10
-578.09875678586684
 20
-260.46130102350651
 30
0.0
 11
-589.95979051669622
 21
-262.28225649691257
 31
0.0
  0
POINT
  8
DEFPOINTS
  6
CONTINUOUS
 62
    30
 10
-578.09875678586684
 20
-260.46130102350651
 30
0.0
  0
POINT
  8
DEFPOINTS
  6
CONTINUOUS
 62
    30
 10
-338.90124321414271
 20
-223.73869897648481
 30
0.0
  0
LINE
  8
SIZE
  6
CONTINUOUS
 62
    30
 10
-859.04677926914189
 20
-473.35515829818542
 30
0.0
 11
-580.60966543278096
 21
-312.59985537499392
 31
0.0
  0
LINE
  8
SIZE
  6
CONTINUOUS
 62
    30
 10
-336.39033456723001
 20
-171.60014462499751
 30
0.0
 11
-325.99802261550451
 21
-165.6001569335082
 31
0.0
  0
TEXT
  8
SIZE
  6
CONTINUOUS
 62
    30
 10
-862.71130897945363
 20
-446.603376006193
 30
0.0
 40
64.0
  1
φ258
 50
29.999932139646603
 41
0.9
 51
0.0
  7
STANDARD
 71
     0
 72
     1
 11
-763.19452972972954
 21
-389.1474938724923
 31
0.0
210
0.0
220
0.0
230
1.0
  0
LINE
  8
SIZE
  6
CONTINUOUS
 62
    30
 10
-346.78264651895557
 20
-177.60013231648671
 30
0.0
 11
-570.2173534810554
 21
-306.59986768350473
 31
0.0
  0
CIRCLE
  8
SIZE
  6
CONTINUOUS
 62
    30
 10
-346.78264651895557
 20
-177.60013231648671
 30
0.0
 40
6.0
  0
LINE
  8
SIZE
  6
CONTINUOUS
 62
    30
 10
-346.78264651895557
 20
-177.60013231648671
 30
0.0
 11
-336.39033456723001
 21
-171.60014462499751
 31
0.0
  0
CIRCLE
  8
SIZE
  6
CONTINUOUS
 62
    30
 10
-570.2173534810554
 20
-306.59986768350473
 30
0.0
 40
6.0
  0
LINE
  8
SIZE
  6
CONTINUOUS
 62
    30
 10
-570.2173534810554
 20
-306.59986768350473
 30
0.0
 11
-580.60966543278096
 21
-312.59985537499392
 31
0.0
  0
POINT
  8
DEFPOINTS
  6
CONTINUOUS
 62
    30
 10
-570.2173534810554
 20
-306.59986768350473
 30
0.0
  0
POINT
  8
DEFPOINTS
  6
CONTINUOUS
 62
    30
 10
-346.78264651895557
 20
-177.60013231648671
 30
0.0
  0
TEXT
  8
NOTE
  6
CONTINUOUS
 62
     4
 10
409.22615778187998
 20
-272.66989812889011
 30
0.0
 40
64.065641025638456
  1
OA
 41
0.9
  0
TEXT
  8
NOTE
  6
CONTINUOUS
 62
     4
 10
-509.25588830129789
 20
-272.66989812889011
 30
0.0
 40
64.065641025638456
  1
EA
 41
0.9
  0
TEXT
  8
ETC
  6
CONTINUOUS
 62
    61
 10
1010.920658872412
 20
821.03043395704753
 30
0.0
 40
64.065641025638456
  1
LGH-100RVX3-E_3
 41
0.9
  0
TEXT
  8
ETC
  6
CONTINUOUS
 62
    61
 10
1006.730371545233
 20
702.95414413707704
 30
0.0
 40
64.065641025638456
  1
LOSSNAY
 41
0.9
  0
TEXT
  8
ETC
  6
CONTINUOUS
 62
    61
 10
1057.4837712278861
 20
594.69444943251085
 30
0.0
 40
40.041025641024042
  1
LGH-100RVX3-E
 50
0.0
 41
0.9
 51
0.0
  7
STANDARD
 71
     0
 11
0.0
 21
0.0
 31
0.0
210
0.0
220
0.0
230
1.0
  0
TEXT
  8
NOTE
  6
CONTINUOUS
 62
     4
 10
877.40287163663015
 20
372.50918863466529
 30
0.0
 40
69.0
  1
Ceiling suspension fixture
 50
0.0
 41
0.9
 51
0.0
  7
STANDARD
 71
     0
 11
0.0
 21
0.0
 31
0.0
210
0.0
220
0.0
230
1.0
  0
TEXT
  8
NOTE
  6
CONTINUOUS
 62
     4
 10
877.40287163663015
 20
258.65918863466527
 30
0.0
 40
69.0
  1
(4-13X20 oval)
 50
0.0
 41
0.9
 51
0.0
  7
STANDARD
 71
     0
 11
0.0
 21
0.0
 31
0.0
210
0.0
220
0.0
230
1.0
  0
LINE
  8
NOTE
  6
CONTINUOUS
 62
     4
 10
867.40287163663015
 20
221.3663314918081
 30
0.0
 11
2083.9171573509161
 21
221.3663314918081
 31
0.0
  0
LINE
  8
NOTE
  6
CONTINUOUS
 62
     4
 10
667.24065029352437
 20
-54.297200543578739
 30
0.0
 11
639.00000488964361
 21
-77.000009185567706
 31
0.0
  0
LINE
  8
NOTE
  6
CONTINUOUS
 62
     4
 10
639.00000488964361
 20
-77.000009185567706
 30
0.0
 11
652.10566600079562
 21
-43.218457712875711
 31
0.0
  0
LINE
  8
NOTE
  6
CONTINUOUS
 62
     4
 10
639.00000488964361
 20
-77.000009185567706
 30
0.0
 11
680.34631140467638
 21
-20.515649070886745
 31
0.0
  0
LINE
  8
NOTE
  6
CONTINUOUS
 62
     4
 10
680.34631140467638
 20
-20.515649070886749
 30
0.0
 11
857.40287163663015
 21
221.3663314918081
 31
0.0
  0
LINE
  8
NOTE
  6
CONTINUOUS
 62
     4
 10
857.40287163663015
 20
221.3663314918081
 30
0.0
 11
867.40287163663015
 21
221.3663314918081
 31
0.0
  0
ENDSEC
  0
EOF
