  0
SECTION
  2
HEADER
  9
$ACADVER
  1
AC1009
  9
$DWGCODEPAGE
  3
dos932
  9
$INSBASE
 10
0.0
 20
0.0
 30
0.0
  9
$EXTMIN
 10
-1423.9105068309129
 20
-675.15562821081403
 30
-0.0015258207003583
  9
$EXTMAX
 10
1943.2617313848571
 20
885.36072613829856
 30
0.0000000349246037
  9
$LIMMIN
 10
-2970.0
 20
-2100.0
  9
$LIMMAX
 10
2970.0
 20
2100.0
  9
$ORTHOMODE
 70
     1
  9
$REGENMODE
 70
     1
  9
$FILLMODE
 70
     1
  9
$QTEXTMODE
 70
     0
  9
$MIRRTEXT
 70
     0
  9
$LTSCALE
 40
20.0
  9
$ATTMODE
 70
     1
  9
$TEXTSIZE
 40
64.0
  9
$TRACEWID
 40
0.05
  9
$TEXTSTYLE
  7
STANDARD
  9
$CLAYER
  8
SIZE
  9
$CELTYPE
  6
CONTINUOUS
  9
$CECOLOR
 62
     7
  9
$DIMSCALE
 40
1.0
  9
$DIMASZ
 40
12.0
  9
$DIMEXO
 40
20.0
  9
$DIMDLI
 40
200.0
  9
$DIMRND
 40
0.0
  9
$DIMDLE
 40
0.0
  9
$DIMEXE
 40
20.0
  9
$DIMTP
 40
0.0
  9
$DIMTM
 40
0.0
  9
$DIMTXT
 40
64.0
  9
$DIMCEN
 40
0.09
  9
$DIMTSZ
 40
0.0
  9
$DIMTOL
 70
     0
  9
$DIMLIM
 70
     0
  9
$DIMTIH
 70
     0
  9
$DIMTOH
 70
     0
  9
$DIMSE1
 70
     0
  9
$DIMSE2
 70
     0
  9
$DIMTAD
 70
     1
  9
$DIMZIN
 70
     8
  9
$DIMBLK
  1

  9
$DIMASO
 70
     1
  9
$DIMSHO
 70
     0
  9
$DIMPOST
  1

  9
$DIMAPOST
  1

  9
$DIMALT
 70
     0
  9
$DIMALTD
 70
     2
  9
$DIMALTF
 40
25.399999999999999
  9
$DIMLFAC
 40
1.0
  9
$DIMTOFL
 70
     1
  9
$DIMTVP
 40
0.0
  9
$DIMTIX
 70
     1
  9
$DIMSOXD
 70
     0
  9
$DIMSAH
 70
     0
  9
$DIMBLK1
  1

  9
$DIMBLK2
  1

  9
$DIMSTYLE
  2
STANDARD
  9
$DIMCLRD
 70
     7
  9
$DIMCLRE
 70
     7
  9
$DIMCLRT
 70
     7
  9
$DIMTFAC
 40
1.0
  9
$DIMGAP
 40
25.0
  9
$LUNITS
 70
     2
  9
$LUPREC
 70
     4
  9
$SKETCHINC
 40
0.1
  9
$FILLETRAD
 40
3.0
  9
$AUNITS
 70
     1
  9
$AUPREC
 70
     3
  9
$MENU
  1
ACAD
  9
$ELEVATION
 40
0.0
  9
$PELEVATION
 40
0.0
  9
$THICKNESS
 40
0.0
  9
$LIMCHECK
 70
     0
  9
$CHAMFERA
 40
0.0
  9
$CHAMFERB
 40
0.0
  9
$SKPOLY
 70
     0
  9
$TDCREATE
 40
2453019.62301037
  9
$TDUPDATE
 40
2460045.429158137
  9
$TDINDWG
 40
1.7153516319
  9
$TDUSRTIMER
 40
1.7153516319
  9
$USRTIMER
 70
     1
  9
$ANGBASE
 50
0.0
  9
$ANGDIR
 70
     0
  9
$PDMODE
 70
     3
  9
$PDSIZE
 40
-2.0
  9
$PLINEWID
 40
0.0
  9
$SPLFRAME
 70
     0
  9
$SPLINETYPE
 70
     6
  9
$SPLINESEGS
 70
     8
  9
$SURFTAB1
 70
     6
  9
$SURFTAB2
 70
     6
  9
$SURFTYPE
 70
     6
  9
$SURFU
 70
     6
  9
$SURFV
 70
     6
  9
$UCSNAME
  2

  9
$UCSORG
 10
0.0
 20
0.0
 30
0.0
  9
$UCSXDIR
 10
1.0
 20
0.0
 30
0.0
  9
$UCSYDIR
 10
0.0
 20
1.0
 30
0.0
  9
$PUCSNAME
  2

  9
$PUCSORG
 10
0.0
 20
0.0
 30
0.0
  9
$PUCSXDIR
 10
1.0
 20
0.0
 30
0.0
  9
$PUCSYDIR
 10
0.0
 20
1.0
 30
0.0
  9
$USERI1
 70
     0
  9
$USERI2
 70
     0
  9
$USERI3
 70
     0
  9
$USERI4
 70
     0
  9
$USERI5
 70
     0
  9
$USERR1
 40
20.0
  9
$USERR2
 40
0.0
  9
$USERR3
 40
0.0
  9
$USERR4
 40
0.0
  9
$USERR5
 40
0.0
  9
$WORLDVIEW
 70
     1
  9
$SHADEDGE
 70
     3
  9
$SHADEDIF
 70
    70
  9
$TILEMODE
 70
     1
  9
$MAXACTVP
 70
    48
  9
$PINSBASE
 10
0.0
 20
0.0
 30
0.0
  9
$PLIMCHECK
 70
     0
  9
$PEXTMIN
 10
-100000000000000000000.0
 20
-100000000000000000000.0
 30
-100000000000000000000.0
  9
$PEXTMAX
 10
100000000000000000000.0
 20
100000000000000000000.0
 30
100000000000000000000.0
  9
$PLIMMIN
 10
0.0
 20
0.0
  9
$PLIMMAX
 10
12.0
 20
9.0
  9
$UNITMODE
 70
     0
  9
$VISRETAIN
 70
     0
  9
$PLINEGEN
 70
     0
  9
$PSLTSCALE
 70
     0
  9
$TREEDEPTH
 70
  3020
  9
$ATTDIA
 70
     0
  9
$ATTREQ
 70
     1
  9
$BLIPMODE
 70
     1
  9
$COORDS
 70
     1
  9
$DRAGMODE
 70
     2
  9
$OSMODE
 70
     0
  9
$HANDLING
 70
     0
  9
$HANDSEED
  5
F615
  0
ENDSEC
  0
SECTION
  2
TABLES
  0
TABLE
  2
LTYPE
 70
     2
  0
LTYPE
  2
CONTINUOUS
 70
     0
  3
実線
 72
    65
 73
     0
 40
0.0
  0
LTYPE
  2
DASHDOT
 70
     0
  3
____ _ ____ _ ____ _ ____ _ ____ _ ____ _ ____
 72
    65
 73
     4
 40
5.5
 49
4.0
 49
-0.6
 49
0.3
 49
-0.6
  0
ENDTAB
  0
TABLE
  2
LAYER
 70
    12
  0
LAYER
  2
0
 70
     0
 62
     7
  6
CONTINUOUS
  0
LAYER
  2
BASIS
 70
     0
 62
     6
  6
DASHDOT
  0
LAYER
  2
OUTLINE
 70
     0
 62
     3
  6
CONTINUOUS
  0
LAYER
  2
DETAIL
 70
     0
 62
     5
  6
CONTINUOUS
  0
LAYER
  2
SIZE
 70
     0
 62
    30
  6
CONTINUOUS
  0
LAYER
  2
ARRANGE
 70
     0
 62
     1
  6
CONTINUOUS
  0
LAYER
  2
DEFPOINTS
 70
     0
 62
     7
  6
CONTINUOUS
  0
LAYER
  2
ETC
 70
     0
 62
    61
  6
CONTINUOUS
  0
LAYER
  2
FIX
 70
     0
 62
    11
  6
CONTINUOUS
  0
LAYER
  2
NOTE
 70
     0
 62
     4
  6
CONTINUOUS
  0
LAYER
  2
SERVICESPACE
 70
    64
 62
     2
  6
DASHDOT
  0
LAYER
  2
SYMBOLLINE
 70
    64
 62
    15
  6
CONTINUOUS
  0
ENDTAB
  0
TABLE
  2
STYLE
 70
     1
  0
STYLE
  2
STANDARD
 70
     0
 40
64.0
 41
0.9
 50
0.0
 71
     0
 42
64.0
  3
SIMPLEX.shx
  4
BIGFONT.shx
  0
ENDTAB
  0
TABLE
  2
APPID
 70
    20
  0
APPID
  2
ACAD
 70
     0
  0
APPID
  2
AUTOCAD_POSTSCRIPT_FIGURE
 70
     0
  0
APPID
  2
ACAD_EXEMPT_FROM_CAD_STANDARDS
 70
     0
  0
APPID
  2
ACAD_PSEXT
 70
     0
  0
APPID
  2
ACAUTHENVIRON
 70
     0
  0
APPID
  2
GENIUS_GENOENT_13
 70
     0
  0
APPID
  2
GENIUS_GENCFG_13
 70
     0
  0
APPID
  2
GENIUS_GENCFG0_13
 70
     0
  0
APPID
  2
GENIUS_GENCFG1_13
 70
     0
  0
APPID
  2
GENIUS_GENCFG2_13
 70
     0
  0
APPID
  2
GENIUS_GENCFG3_13
 70
     0
  0
APPID
  2
GENIUS_GENCFG4_13
 70
     0
  0
APPID
  2
GENIUS_GEVCFG0_13
 70
     0
  0
APPID
  2
CONTENTBLOCKICON
 70
     0
  0
APPID
  2
CONTENTBLOCKDESCRIPTION
 70
     0
  0
APPID
  2
ACAD_NAV_VCDISPLAY
 70
     0
  0
APPID
  2
ACAD_MLEADERVER
 70
     0
  0
APPID
  2
ACDBDYNAMICBLOCKTRUENAME
 70
     0
  0
APPID
  2
ACDBDYNAMICBLOCKGUID
 70
     0
  0
APPID
  2
ACAD_DSTYLE_DIMRADIAL_EXTENSION
 70
     0
  0
ENDTAB
  0
TABLE
  2
DIMSTYLE
 70
     1
  0
DIMSTYLE
  2
STANDARD
 70
     0
  3

  4

  5
_ORIGIN
  6

  7

 40
1.0
 41
12.0
 42
20.0
 43
200.0
 44
20.0
 45
0.0
 46
0.0
 47
0.0
 48
0.0
140
64.0
141
0.09
142
0.0
143
25.399999999999999
144
1.0
145
0.0
146
1.0
147
25.0
 71
     0
 72
     0
 73
     0
 74
     0
 75
     0
 76
     0
 77
     1
 78
     8
170
     0
171
     2
172
     1
173
     0
174
     1
175
     0
176
     7
177
     7
178
     7
  0
ENDTAB
  0
TABLE
  2
VIEW
 70
     1
  0
VIEW
  2
ALL
 70
     0
 40
4282.6198079999986
 10
0.0
 20
41.309904000000003
 41
5940.0
 11
0.0
 21
0.0
 31
1.0
 12
0.0
 22
0.0
 32
0.0
 42
50.0
 43
0.0
 44
0.0
 50
0.0
 71
     0
  0
ENDTAB
  0
TABLE
  2
UCS
 70
     0
  0
ENDTAB
  0
TABLE
  2
VPORT
 70
     1
  0
VPORT
  2
*ACTIVE
 70
     0
 10
0.0
 20
0.0
 11
1.0
 21
1.0
 12
259.67561227697212
 22
105.10254896374229
 13
0.0
 23
0.0
 14
1.0
 24
1.0
 15
0.0
 25
0.0
 16
0.0
 26
0.0
 36
1.0
 17
0.0
 27
0.0
 37
0.0
 40
1897.4752104387881
 41
1.781285231116122
 42
50.0
 43
0.0
 44
0.0
 50
0.0
 51
0.0
 71
     0
 72
  1000
 73
     1
 74
     3
 75
     0
 76
     0
 77
     0
 78
     0
  0
ENDTAB
  0
ENDSEC
  0
SECTION
  2
BLOCKS
  0
BLOCK
  8
0
  2
_ORIGIN
 70
     0
 10
0.0
 20
0.0
 30
0.0
  3
_ORIGIN
  1
_ORIGIN
  0
CIRCLE
  8
0
  6
CONTINUOUS
 62
     7
 10
0.0
 20
0.0
 30
0.0
 40
0.5
  0
LINE
  8
0
  6
CONTINUOUS
 62
     7
 10
0.0
 20
0.0
 30
0.0
 11
-1.0
 21
0.0
 31
0.0
  0
ENDBLK
  8
0
  0
ENDSEC
  0
SECTION
  2
ENTITIES
  0
LINE
  8
DETAIL
  6
CONTINUOUS
 62
     5
 10
-725.39999999999691
 20
-97.5
 30
0.0
 11
-725.39999999999691
 21
-356.69999999999709
 31
0.0
  0
LINE
  8
DETAIL
  6
CONTINUOUS
 62
     5
 10
-724.79999999999836
 20
-97.5
 30
0.0
 11
-724.79999999999836
 21
-356.69999999999709
 31
0.0
  0
LINE
  8
DETAIL
  6
CONTINUOUS
 62
     5
 10
-724.19999999999982
 20
-96.30000000000291
 30
0.0
 11
-724.19999999999982
 21
-97.152055013990321
 31
0.0
  0
LINE
  8
DETAIL
  6
CONTINUOUS
 62
     5
 10
-724.19999999999982
 20
-357.04794498599949
 30
0.0
 11
-724.19999999999982
 21
-357.89999999999418
 31
0.0
  0
LINE
  8
DETAIL
  6
CONTINUOUS
 62
     5
 10
-707.64999999999964
 20
-96.30000000000291
 30
0.0
 11
-707.64999999999964
 21
-96.899999999994179
 31
0.0
  0
LINE
  8
DETAIL
  6
CONTINUOUS
 62
     5
 10
-704.64999999999964
 20
-96.30000000000291
 30
0.0
 11
-704.64999999999964
 21
-96.899999999994179
 31
0.0
  0
LINE
  8
DETAIL
  6
CONTINUOUS
 62
     5
 10
-679.19999999999618
 20
-138.0999999999913
 30
0.0
 11
-679.19999999999527
 21
-128.09999999999849
 31
0.0
  0
LINE
  8
DETAIL
  6
CONTINUOUS
 62
     5
 10
-678.0335652699996
 20
-138.0999999999913
 30
0.0
 11
-678.0335652699996
 21
-128.09999999999849
 31
0.0
  0
LINE
  8
DETAIL
  6
CONTINUOUS
 62
     5
 10
-674.89999999999964
 20
-128.09999999999849
 30
0.0
 11
-674.90000000000055
 21
-138.0999999999913
 31
0.0
  0
LINE
  8
DETAIL
  6
CONTINUOUS
 62
     5
 10
-673.19999999999527
 20
-129.29999999999561
 30
0.0
 11
-673.19999999999527
 21
-109.3005689979982
 31
0.0
  0
LINE
  8
DETAIL
  6
CONTINUOUS
 62
     5
 10
-673.19999999999527
 20
-138.0999999999913
 30
0.0
 11
-673.19999999999527
 21
-155.46807636799349
 31
0.0
  0
LINE
  8
DETAIL
  6
CONTINUOUS
 62
     5
 10
-665.19999999999527
 20
-129.29999999999561
 30
0.0
 11
-665.19999999999527
 21
-109.3005689979982
 31
0.0
  0
LINE
  8
DETAIL
  6
CONTINUOUS
 62
     5
 10
-665.19999999999527
 20
-138.0999999999913
 30
0.0
 11
-665.19999999999527
 21
-155.46550693199239
 31
0.0
  0
LINE
  8
DETAIL
  6
CONTINUOUS
 62
     5
 10
-663.49999999999909
 20
-128.09999999999849
 30
0.0
 11
-663.49999999999909
 21
-138.0999999999913
 31
0.0
  0
LINE
  8
DETAIL
  6
CONTINUOUS
 62
     5
 10
-660.33256777199767
 20
-138.0999999999913
 30
0.0
 11
-660.33256777199767
 21
-128.09999999999849
 31
0.0
  0
LINE
  8
DETAIL
  6
CONTINUOUS
 62
     5
 10
-659.00000000000909
 20
-70.199999999999818
 30
0.0
 11
-659.00000000000909
 21
-73.799999999998363
 31
0.0
  0
LINE
  8
DETAIL
  6
CONTINUOUS
 62
     5
 10
-659.00000000000909
 20
-83.399999999996908
 30
0.0
 11
-659.00000000000909
 21
-86.999999999988177
 31
0.0
  0
LINE
  8
DETAIL
  6
CONTINUOUS
 62
     5
 10
-659.19999999999527
 20
-128.09999999999849
 30
0.0
 11
-659.19999999999527
 21
-138.0999999999913
 31
0.0
  0
LINE
  8
DETAIL
  6
CONTINUOUS
 62
     5
 10
-655.80000000001201
 20
-83.399999999996908
 30
0.0
 11
-655.80000000001201
 21
-86.999999999988177
 31
0.0
  0
LINE
  8
DETAIL
  6
CONTINUOUS
 62
     5
 10
-655.80000000001201
 20
-70.199999999999818
 30
0.0
 11
-655.80000000001201
 21
-73.799999999998363
 31
0.0
  0
LINE
  8
DETAIL
  6
CONTINUOUS
 62
     5
 10
-644.19999999999527
 20
-96.30000000000291
 30
0.0
 11
-644.19999999999527
 21
-80.199999999992542
 31
0.0
  0
LINE
  8
DETAIL
  6
CONTINUOUS
 62
     5
 10
-644.19999999999527
 20
-76.999999999988177
 30
0.0
 11
-644.19999999999527
 21
-46.408075233994168
 31
0.0
  0
LINE
  8
DETAIL
  6
CONTINUOUS
 62
     5
 10
-636.20000000000255
 20
-96.30000000000291
 30
0.0
 11
-636.20000000000255
 21
-80.199999999992542
 31
0.0
  0
LINE
  8
DETAIL
  6
CONTINUOUS
 62
     5
 10
-666.75760783199621
 20
-160.3707968499948
 30
0.0
 11
-665.19999999999527
 21
-155.46550693199239
 31
0.0
  0
LINE
  8
DETAIL
  6
CONTINUOUS
 62
     5
 10
-629.59999999999673
 20
-96.30000000000291
 30
0.0
 11
-629.59999999999673
 21
-80.199999999992542
 31
0.0
  0
LINE
  8
DETAIL
  6
CONTINUOUS
 62
     5
 10
-627.69999999999527
 20
-76.549999999991087
 30
0.0
 11
-627.69999999999527
 21
-76.999999999988177
 31
0.0
  0
LINE
  8
DETAIL
  6
CONTINUOUS
 62
     5
 10
-618.59999999999764
 20
-400.49999999998539
 30
0.0
 11
-618.59999999999764
 21
-399.89999999999418
 31
0.0
  0
LINE
  8
DETAIL
  6
CONTINUOUS
 62
     5
 10
-618.59999999999673
 20
-3.6999999999898141
 30
0.0
 11
-618.59999999999673
 21
-4.2999999999883576
 31
0.0
  0
LINE
  8
DETAIL
  6
CONTINUOUS
 62
     5
 10
-614.49999999999909
 20
-357.29562532199628
 30
0.0
 11
-614.49999999999909
 21
-356.69999999999709
 31
0.0
  0
LINE
  8
DETAIL
  6
CONTINUOUS
 62
     5
 10
-614.49999999999909
 20
-96.899999999994179
 30
0.0
 11
-614.49999999999909
 21
-96.30000000000291
 31
0.0
  0
LINE
  8
DETAIL
  6
CONTINUOUS
 62
     5
 10
-614.49999999999909
 20
-96.904374675992585
 30
0.0
 11
-614.49999999999909
 21
-97.5
 31
0.0
  0
LINE
  8
DETAIL
  6
CONTINUOUS
 62
     5
 10
-614.49999999999909
 20
-357.29999999999558
 30
0.0
 11
-614.49999999999909
 21
-357.89999999999418
 31
0.0
  0
LINE
  8
DETAIL
  6
CONTINUOUS
 62
     5
 10
-614.19999999999618
 20
-403.19999999999533
 30
0.0
 11
-614.19999999999618
 21
-402.69999999999533
 31
0.0
  0
LINE
  8
DETAIL
  6
CONTINUOUS
 62
     5
 10
-614.19999999999618
 20
-1.299999999995634
 30
0.0
 11
-614.19999999999618
 21
-0.7999999999956344
 31
0.0
  0
LINE
  8
DETAIL
  6
CONTINUOUS
 62
     5
 10
-612.69999999999527
 20
-400.59999999999133
 30
0.0
 11
-612.69999999999527
 21
-356.69999999999709
 31
0.0
  0
LINE
  8
DETAIL
  6
CONTINUOUS
 62
     5
 10
-612.69999999999527
 20
-77.700590832001581
 30
0.0
 11
-612.69999999999527
 21
-3.5999999999912689
 31
0.0
  0
LINE
  8
DETAIL
  6
CONTINUOUS
 62
     5
 10
-612.39999999999964
 20
-126.9999999999882
 30
0.0
 11
-612.39999999999964
 21
-83.399999999996908
 31
0.0
  0
LINE
  8
DETAIL
  6
CONTINUOUS
 62
     5
 10
-609.99999999999909
 20
-355.98360069999762
 30
0.0
 11
-609.99999999999909
 21
-356.69999999999709
 31
0.0
  0
LINE
  8
DETAIL
  6
CONTINUOUS
 62
     5
 10
-609.19999999999527
 20
-402.19999999999533
 30
0.0
 11
-609.19999999999527
 21
-1.799999999988358
 31
0.0
  0
LINE
  8
DETAIL
  6
CONTINUOUS
 62
     5
 10
-608.70000000000255
 20
-2.799999999995634
 30
0.0
 11
-608.70000000000255
 21
-1.799999999988358
 31
0.0
  0
LINE
  8
DETAIL
  6
CONTINUOUS
 62
     5
 10
-608.70000000000255
 20
-401.29999999999558
 30
0.0
 11
-608.70000000000255
 21
-402.19999999999533
 31
0.0
  0
LINE
  8
DETAIL
  6
CONTINUOUS
 62
     5
 10
-607.69999999999527
 20
-0.7999999999956344
 30
0.0
 11
-607.69999999999527
 21
-2.799999999995634
 31
0.0
  0
LINE
  8
DETAIL
  6
CONTINUOUS
 62
     5
 10
-607.69999999999527
 20
-401.29999999999558
 30
0.0
 11
-607.69999999999527
 21
-403.19999999999533
 31
0.0
  0
LINE
  8
DETAIL
  6
CONTINUOUS
 62
     5
 10
-606.34708539199892
 20
0.0
 30
0.0
 11
-606.34708539199892
 21
-0.7999999999956344
 31
0.0
  0
LINE
  8
DETAIL
  6
CONTINUOUS
 62
     5
 10
-606.29999999999382
 20
-403.99999999999818
 30
0.0
 11
-606.29999999999382
 21
-403.19999999999533
 31
0.0
  0
LINE
  8
DETAIL
  6
CONTINUOUS
 62
     5
 10
-603.30000000000109
 20
-278.28833765000309
 30
0.0
 11
-603.30000000000109
 21
-205.81166234798729
 31
0.0
  0
LINE
  8
DETAIL
  6
CONTINUOUS
 62
     5
 10
-602.69999999999618
 20
-398.29999999999558
 30
0.0
 11
-602.69999999999618
 21
-397.09999999999133
 31
0.0
  0
LINE
  8
DETAIL
  6
CONTINUOUS
 62
     5
 10
-602.69999999999618
 20
-5.7999999999956344
 30
0.0
 11
-602.69999999999618
 21
-6.999999999992724
 31
0.0
  0
LINE
  8
DETAIL
  6
CONTINUOUS
 62
     5
 10
-594.19999999999618
 20
-10.0
 30
0.0
 11
-594.19999999999618
 21
-110.18181818011639
 31
0.0
  0
LINE
  8
DETAIL
  6
CONTINUOUS
 62
     5
 10
-594.19999999999618
 20
-127.0000000006648
 30
0.0
 11
-594.19999999999618
 21
-190.05000000000291
 31
0.0
  0
LINE
  8
DETAIL
  6
CONTINUOUS
 62
     5
 10
-594.19999999999618
 20
-294.04999999999558
 30
0.0
 11
-594.19999999999618
 21
-394.09999999999849
 31
0.0
  0
LINE
  8
DETAIL
  6
CONTINUOUS
 62
     5
 10
-589.19999999999618
 20
-121.9999999999882
 30
0.0
 11
-589.19999999999618
 21
-115.50213632199571
 31
0.0
  0
LINE
  8
DETAIL
  6
CONTINUOUS
 62
     5
 10
-608.58343350199539
 20
-1.4610814579937139
 30
0.0
 11
-608.34734603799552
 21
-2.799999999995634
 31
0.0
  0
LINE
  8
DETAIL
  6
CONTINUOUS
 62
     5
 10
-607.79558729999371
 20
-1.3221629139952711
 30
0.0
 11
-607.69999999999527
 21
-1.8642654314776339
 31
0.0
  0
LINE
  8
DETAIL
  6
CONTINUOUS
 62
     5
 10
-608.34734603799552
 20
-401.29999999999558
 30
0.0
 11
-608.5834335019963
 21
-402.53891854199719
 31
0.0
  0
LINE
  8
DETAIL
  6
CONTINUOUS
 62
     5
 10
-607.69999999999527
 20
-402.13573456878157
 30
0.0
 11
-607.79558729999371
 21
-402.67783708399469
 31
0.0
  0
LINE
  8
DETAIL
  6
CONTINUOUS
 62
     5
 10
-603.30000000000109
 20
-205.81166234798729
 30
0.0
 11
-594.19999999999618
 21
-190.05000000000291
 31
0.0
  0
LINE
  8
DETAIL
  6
CONTINUOUS
 62
     5
 10
-430.93655276400108
 20
-377.4523415979902
 30
0.0
 11
-430.38689240599803
 21
-379.65690888199327
 31
0.0
  0
LINE
  8
DETAIL
  6
CONTINUOUS
 62
     5
 10
-488.37229503599877
 20
-107.2384191499923
 30
0.0
 11
-488.76683360999959
 21
-105.0008797119926
 31
0.0
  0
LINE
  8
DETAIL
  6
CONTINUOUS
 62
     5
 10
-418.74334369200011
 20
-376.75384613599181
 30
0.0
 11
-419.29300405000322
 21
-374.54927885199601
 31
0.0
  0
LINE
  8
DETAIL
  6
CONTINUOUS
 62
     5
 10
-476.94914057200089
 20
-102.9171015799993
 30
0.0
 11
-476.55460200000113
 21
-105.15464101799169
 31
0.0
  0
LINE
  8
DETAIL
  6
CONTINUOUS
 62
     5
 10
-623.70000000000255
 20
-399.89999999999418
 30
0.0
 11
-624.08091743200112
 21
-400.36357513999252
 31
0.0
  0
LINE
  8
DETAIL
  6
CONTINUOUS
 62
     5
 10
602.76730091799618
 20
-403.99999999999818
 30
0.0
 11
600.66730091799491
 21
-401.89999999999242
 31
0.0
  0
LINE
  8
DETAIL
  6
CONTINUOUS
 62
     5
 10
-614.44999999999527
 20
0.0
 30
0.0
 11
-609.37127970399706
 21
0.0
 31
0.0
  0
LINE
  8
DETAIL
  6
CONTINUOUS
 62
     5
 10
-606.34708539199892
 20
0.0
 30
0.0
 11
606.34708539199892
 21
0.0
 31
0.0
  0
LINE
  8
DETAIL
  6
CONTINUOUS
 62
     5
 10
609.37127970599886
 20
0.0
 30
0.0
 11
614.45000000000164
 21
0.0
 31
0.0
  0
LINE
  8
DETAIL
  6
CONTINUOUS
 62
     5
 10
-614.44999999999527
 20
-0.7999999999956344
 30
0.0
 11
-609.37127970399706
 21
-0.7999999999956344
 31
0.0
  0
LINE
  8
DETAIL
  6
CONTINUOUS
 62
     5
 10
-607.69999999999527
 20
-0.7999999999956344
 30
0.0
 11
-602.0143863100011
 21
-0.7999999999956344
 31
0.0
  0
LINE
  8
DETAIL
  6
CONTINUOUS
 62
     5
 10
609.37127970599886
 20
-0.7999999999956344
 30
0.0
 11
614.45000000000164
 21
-0.7999999999956344
 31
0.0
  0
LINE
  8
DETAIL
  6
CONTINUOUS
 62
     5
 10
602.01438631000019
 20
-0.7999999999965439
 30
0.0
 11
606.34708539199892
 21
-0.7999999999956344
 31
0.0
  0
LINE
  8
DETAIL
  6
CONTINUOUS
 62
     5
 10
609.70000000000346
 20
-1.299999999995634
 30
0.0
 11
614.45000000000164
 21
-1.299999999995634
 31
0.0
  0
LINE
  8
DETAIL
  6
CONTINUOUS
 62
     5
 10
-609.19999999999527
 20
-2.799999999995634
 30
0.0
 11
-605.69999999999527
 21
-2.799999999995634
 31
0.0
  0
LINE
  8
DETAIL
  6
CONTINUOUS
 62
     5
 10
606.34708539199892
 20
-2.7999999999965439
 30
0.0
 11
609.20000000000437
 21
-2.799999999995634
 31
0.0
  0
LINE
  8
DETAIL
  6
CONTINUOUS
 62
     5
 10
-613.90000000000055
 20
-3.0999999999912689
 30
0.0
 11
-623.09999999999764
 21
-3.0999999999912689
 31
0.0
  0
LINE
  8
DETAIL
  6
CONTINUOUS
 62
     5
 10
-612.69999999999527
 20
-3.5999999999912689
 30
0.0
 11
-609.19999999999527
 21
-3.5999999999912689
 31
0.0
  0
LINE
  8
DETAIL
  6
CONTINUOUS
 62
     5
 10
-613.90000000000055
 20
-3.6999999999898141
 30
0.0
 11
-623.09999999999764
 21
-3.6999999999898141
 31
0.0
  0
LINE
  8
DETAIL
  6
CONTINUOUS
 62
     5
 10
-623.70000000000255
 20
-4.2999999999883576
 30
0.0
 11
-612.69999999999527
 21
-4.2999999999883576
 31
0.0
  0
LINE
  8
DETAIL
  6
CONTINUOUS
 62
     5
 10
-597.19999999999709
 20
-6.999999999992724
 30
0.0
 11
-602.69999999999618
 21
-6.999999999992724
 31
0.0
  0
LINE
  8
DETAIL
  6
CONTINUOUS
 62
     5
 10
-605.69999999999527
 20
-401.29999999999558
 30
0.0
 11
-602.69999999999618
 21
-398.29999999999558
 31
0.0
  0
LINE
  8
DETAIL
  6
CONTINUOUS
 62
     5
 10
-597.19999999999709
 20
-397.09999999999133
 30
0.0
 11
-594.19999999999618
 21
-394.09999999999849
 31
0.0
  0
LINE
  8
DETAIL
  6
CONTINUOUS
 62
     5
 10
-602.76730091800891
 20
-403.99999999999818
 30
0.0
 11
-600.66730091799855
 21
-401.89999999999242
 31
0.0
  0
LINE
  8
DETAIL
  6
CONTINUOUS
 62
     5
 10
-655.80000000001201
 20
-70.199999999999818
 30
0.0
 11
-659.00000000000909
 21
-70.199999999999818
 31
0.0
  0
LINE
  8
DETAIL
  6
CONTINUOUS
 62
     5
 10
655.79999999999927
 20
-70.199999999999818
 30
0.0
 11
659.00000000000273
 21
-70.199999999999818
 31
0.0
  0
LINE
  8
DETAIL
  6
CONTINUOUS
 62
     5
 10
-631.69999999999618
 20
-76.549999999991087
 30
0.0
 11
-627.69999999999527
 21
-76.549999999991087
 31
0.0
  0
LINE
  8
DETAIL
  6
CONTINUOUS
 62
     5
 10
652.60000000000127
 20
-76.999999999988177
 30
0.0
 11
615.59999999999673
 21
-76.999999999988177
 31
0.0
  0
LINE
  8
DETAIL
  6
CONTINUOUS
 62
     5
 10
-652.60000000000764
 20
-76.999999999988177
 30
0.0
 11
-615.59999999999764
 21
-76.999999999988177
 31
0.0
  0
LINE
  8
DETAIL
  6
CONTINUOUS
 62
     5
 10
652.60000000000127
 20
-80.199999999992542
 30
0.0
 11
615.59999999999673
 21
-80.199999999992542
 31
0.0
  0
LINE
  8
DETAIL
  6
CONTINUOUS
 62
     5
 10
-652.60000000000764
 20
-80.199999999992542
 30
0.0
 11
-615.59999999999764
 21
-80.199999999992542
 31
0.0
  0
LINE
  8
DETAIL
  6
CONTINUOUS
 62
     5
 10
-655.80000000001201
 20
-86.999999999988177
 30
0.0
 11
-659.00000000000909
 21
-86.999999999988177
 31
0.0
  0
LINE
  8
DETAIL
  6
CONTINUOUS
 62
     5
 10
655.79999999999927
 20
-86.999999999988177
 30
0.0
 11
659.00000000000273
 21
-86.999999999988177
 31
0.0
  0
LINE
  8
DETAIL
  6
CONTINUOUS
 62
     5
 10
-629.59999999999673
 20
-87.549999999998363
 30
0.0
 11
-631.69999999999618
 21
-87.549999999998363
 31
0.0
  0
LINE
  8
DETAIL
  6
CONTINUOUS
 62
     5
 10
-633.70000000000255
 20
-89.549999999991087
 30
0.0
 11
-636.20000000000255
 21
-89.549999999991087
 31
0.0
  0
LINE
  8
DETAIL
  6
CONTINUOUS
 62
     5
 10
-724.19999999999982
 20
-96.30000000000291
 30
0.0
 11
-614.49999999999909
 21
-96.30000000000291
 31
0.0
  0
LINE
  8
DETAIL
  6
CONTINUOUS
 62
     5
 10
-614.49999999999909
 20
-96.899999999994179
 30
0.0
 11
-724.19999999999982
 21
-96.899999999994179
 31
0.0
  0
LINE
  8
DETAIL
  6
CONTINUOUS
 62
     5
 10
-612.39999999999964
 20
-97.5
 30
0.0
 11
-614.49999999999909
 21
-97.5
 31
0.0
  0
LINE
  8
DETAIL
  6
CONTINUOUS
 62
     5
 10
-725.39999999999691
 20
-97.5
 30
0.0
 11
-724.54794305799714
 21
-97.5
 31
0.0
  0
LINE
  8
DETAIL
  6
CONTINUOUS
 62
     5
 10
-606.58087488799993
 20
-105.9999999999882
 30
0.0
 11
-607.11355287199513
 21
-105.9999999999882
 31
0.0
  0
LINE
  8
DETAIL
  6
CONTINUOUS
 62
     5
 10
606.58087488799902
 20
-105.9999999999882
 30
0.0
 11
607.11355287200422
 21
-105.9999999999882
 31
0.0
  0
LINE
  8
DETAIL
  6
CONTINUOUS
 62
     5
 10
-665.19999999999527
 20
-109.29999999999561
 30
0.0
 11
-673.19999999999527
 21
-109.29999999999561
 31
0.0
  0
LINE
  8
DETAIL
  6
CONTINUOUS
 62
     5
 10
-612.39999999999964
 20
-126.9999999999882
 30
0.0
 11
-594.1999999997015
 21
-127.0000000006648
 31
0.0
  0
LINE
  8
DETAIL
  6
CONTINUOUS
 62
     5
 10
594.19999999969514
 20
-127.0000000006648
 30
0.0
 11
612.39999999999964
 21
-126.9999999999882
 31
0.0
  0
LINE
  8
DETAIL
  6
CONTINUOUS
 62
     5
 10
-665.19999999999527
 20
-128.09999999999849
 30
0.0
 11
-659.19999999999527
 21
-128.09999999999849
 31
0.0
  0
LINE
  8
DETAIL
  6
CONTINUOUS
 62
     5
 10
-679.19999999999527
 20
-128.09999999999849
 30
0.0
 11
-673.19999999999527
 21
-128.09999999999849
 31
0.0
  0
LINE
  8
DETAIL
  6
CONTINUOUS
 62
     5
 10
-665.19999999999527
 20
-129.29999999999561
 30
0.0
 11
-673.19999999999527
 21
-129.29999999999561
 31
0.0
  0
LINE
  8
DETAIL
  6
CONTINUOUS
 62
     5
 10
-679.19999999999618
 20
-138.0999999999913
 30
0.0
 11
-659.19999999999527
 21
-138.0999999999913
 31
0.0
  0
LINE
  8
DETAIL
  6
CONTINUOUS
 62
     5
 10
-668.66381456600266
 20
-161.76550693198811
 30
0.0
 11
-669.73711191800157
 21
-161.76550693198811
 31
0.0
  0
LINE
  8
DETAIL
  6
CONTINUOUS
 62
     5
 10
323.84615386400128
 20
-202.34334368999129
 30
0.0
 11
326.05072114799623
 21
-202.89300404800181
 31
0.0
  0
LINE
  8
DETAIL
  6
CONTINUOUS
 62
     5
 10
323.14765840000109
 20
-214.5365527639924
 30
0.0
 11
320.94309111800612
 21
-213.98689240598921
 31
0.0
  0
LINE
  8
DETAIL
  6
CONTINUOUS
 62
     5
 10
597.68289841799924
 20
-260.54914057199949
 30
0.0
 11
595.44535898200138
 21
-260.15460199999961
 31
0.0
  0
LINE
  8
DETAIL
  6
CONTINUOUS
 62
     5
 10
593.36158084999988
 20
-271.97229503599101
 30
0.0
 11
595.59912028599865
 21
-272.36683360799088
 31
0.0
  0
LINE
  8
DETAIL
  6
CONTINUOUS
 62
     5
 10
331.13319993800178
 20
-219.15613496798781
 30
0.0
 11
331.59300878200611
 21
-219.15613496798781
 31
0.0
  0
LINE
  8
BASIS
  6
DASHDOT
 62
     6
 10
-0.0000000000045475
 20
37.464210742047733
 30
0.0
 11
-0.0000000000045475
 21
-441.66421074203032
 31
0.0
  0
LINE
  8
DETAIL
  6
CONTINUOUS
 62
     5
 10
-592.49128468400068
 20
-110.8031692039976
 30
0.0
 11
-604.87215957199624
 21
-106.3010328819973
 31
0.0
  0
LINE
  8
DETAIL
  6
CONTINUOUS
 62
     5
 10
592.49128468399977
 20
-110.8031692039976
 30
0.0
 11
604.8721595740044
 21
-106.3010328819973
 31
0.0
  0
LINE
  8
DETAIL
  6
CONTINUOUS
 62
     5
 10
-321.55464101799947
 20
-260.15460199999961
 30
0.0
 11
-319.31710158200258
 21
-260.54914057199949
 31
0.0
  0
LINE
  8
DETAIL
  6
CONTINUOUS
 62
     5
 10
-321.40087971400231
 20
-272.36683360799088
 30
0.0
 11
-323.63841915000103
 21
-271.97229503599101
 31
0.0
  0
LINE
  8
DETAIL
  6
CONTINUOUS
 62
     5
 10
-590.94927885200377
 20
-202.89300404800181
 30
0.0
 11
-593.15384613599963
 21
-202.34334368999129
 31
0.0
  0
LINE
  8
DETAIL
  6
CONTINUOUS
 62
     5
 10
-596.05690888199479
 20
-213.98689240598921
 30
0.0
 11
-593.85234159999982
 21
-214.5365527639924
 31
0.0
  0
LINE
  8
DETAIL
  6
CONTINUOUS
 62
     5
 10
-725.39999999999691
 20
-356.69999999999709
 30
0.0
 11
-724.54794305799714
 21
-356.69999999999709
 31
0.0
  0
LINE
  8
DETAIL
  6
CONTINUOUS
 62
     5
 10
-614.49999999999909
 20
-356.69999999999709
 30
0.0
 11
-609.99999999999909
 21
-356.69999999999709
 31
0.0
  0
LINE
  8
DETAIL
  6
CONTINUOUS
 62
     5
 10
-724.19999999999982
 20
-357.29999999999558
 30
0.0
 11
-614.49999999999909
 21
-357.29999999999558
 31
0.0
  0
LINE
  8
DETAIL
  6
CONTINUOUS
 62
     5
 10
-724.19999999999982
 20
-357.89999999999418
 30
0.0
 11
-614.49999999999909
 21
-357.89999999999418
 31
0.0
  0
LINE
  8
DETAIL
  6
CONTINUOUS
 62
     5
 10
-597.19999999999709
 20
-397.09999999999133
 30
0.0
 11
-602.69999999999618
 21
-397.09999999999133
 31
0.0
  0
LINE
  8
DETAIL
  6
CONTINUOUS
 62
     5
 10
-623.70000000000255
 20
-399.89999999999418
 30
0.0
 11
-612.69999999999527
 21
-399.89999999999418
 31
0.0
  0
LINE
  8
DETAIL
  6
CONTINUOUS
 62
     5
 10
-623.09999999999764
 20
-400.49999999998539
 30
0.0
 11
-613.90000000000055
 21
-400.49999999998539
 31
0.0
  0
LINE
  8
DETAIL
  6
CONTINUOUS
 62
     5
 10
-612.69999999999527
 20
-400.59999999999133
 30
0.0
 11
-609.19999999999527
 21
-400.59999999999133
 31
0.0
  0
LINE
  8
DETAIL
  6
CONTINUOUS
 62
     5
 10
-623.09999999999764
 20
-401.09999999999133
 30
0.0
 11
-613.90000000000055
 21
-401.09999999999133
 31
0.0
  0
LINE
  8
DETAIL
  6
CONTINUOUS
 62
     5
 10
-609.19999999999527
 20
-401.29999999999558
 30
0.0
 11
-605.69999999999527
 21
-401.29999999999558
 31
0.0
  0
LINE
  8
DETAIL
  6
CONTINUOUS
 62
     5
 10
606.300000000002
 20
-401.29999999999558
 30
0.0
 11
609.20000000000437
 21
-401.29999999999558
 31
0.0
  0
LINE
  8
DETAIL
  6
CONTINUOUS
 62
     5
 10
609.70000000000346
 20
-402.69999999999533
 30
0.0
 11
614.45000000000164
 21
-402.69999999999533
 31
0.0
  0
LINE
  8
DETAIL
  6
CONTINUOUS
 62
     5
 10
614.45000000000164
 20
-403.19999999999533
 30
0.0
 11
609.37127970599886
 21
-403.19999999999533
 31
0.0
  0
LINE
  8
DETAIL
  6
CONTINUOUS
 62
     5
 10
-601.96730091800509
 20
-403.19999999999618
 30
0.0
 11
-607.69999999999527
 21
-403.19999999999533
 31
0.0
  0
LINE
  8
DETAIL
  6
CONTINUOUS
 62
     5
 10
-614.44999999999527
 20
-403.19999999999533
 30
0.0
 11
-609.37127970399797
 21
-403.19999999999533
 31
0.0
  0
LINE
  8
DETAIL
  6
CONTINUOUS
 62
     5
 10
601.96730091799509
 20
-403.19999999999533
 30
0.0
 11
606.300000000002
 21
-403.19999999999533
 31
0.0
  0
LINE
  8
DETAIL
  6
CONTINUOUS
 62
     5
 10
614.45000000000164
 20
-403.99999999999818
 30
0.0
 11
609.37127970599886
 21
-403.99999999999818
 31
0.0
  0
LINE
  8
DETAIL
  6
CONTINUOUS
 62
     5
 10
-614.44999999999527
 20
-403.99999999999818
 30
0.0
 11
-609.37127970399797
 21
-403.99999999999818
 31
0.0
  0
LINE
  8
DETAIL
  6
CONTINUOUS
 62
     5
 10
-606.29999999999382
 20
-403.99999999999818
 30
0.0
 11
606.300000000002
 21
-403.99999999999818
 31
0.0
  0
LINE
  8
DETAIL
  6
CONTINUOUS
 62
     5
 10
-602.81438630999583
 20
0.0
 30
0.0
 11
-600.7143863099991
 21
-2.0999999999985448
 31
0.0
  0
LINE
  8
DETAIL
  6
CONTINUOUS
 62
     5
 10
-594.19999999999618
 20
-10.0
 30
0.0
 11
-597.19999999999709
 21
-6.999999999992724
 31
0.0
  0
LINE
  8
DETAIL
  6
CONTINUOUS
 62
     5
 10
-602.69999999999618
 20
-5.7999999999956344
 30
0.0
 11
-605.69999999999527
 21
-2.799999999995634
 31
0.0
  0
LINE
  8
DETAIL
  6
CONTINUOUS
 62
     5
 10
602.81438630999583
 20
0.0
 30
0.0
 11
600.71438630999728
 21
-2.0999999999985448
 31
0.0
  0
LINE
  8
DETAIL
  6
CONTINUOUS
 62
     5
 10
-623.70000000000255
 20
-4.2999999999883576
 30
0.0
 11
-624.08091743200112
 21
-3.8364248599973512
 31
0.0
  0
LINE
  8
DETAIL
  6
CONTINUOUS
 62
     5
 10
486.61310759400288
 20
-379.65690888199327
 30
0.0
 11
486.06344723599977
 21
-377.4523415979902
 31
0.0
  0
LINE
  8
DETAIL
  6
CONTINUOUS
 62
     5
 10
435.96743476199839
 20
-115.12164149598991
 30
0.0
 11
435.96743476199839
 21
-114.6590511359946
 31
0.0
  0
LINE
  8
DETAIL
  6
CONTINUOUS
 62
     5
 10
436.56054887600112
 20
-115.0187264339957
 30
0.0
 11
436.56054887600112
 21
-114.5521249899875
 31
0.0
  0
LINE
  8
DETAIL
  6
CONTINUOUS
 62
     5
 10
497.70699594999769
 20
-374.54927885199601
 30
0.0
 11
498.25665630800091
 21
-376.75384613599181
 31
0.0
  0
LINE
  8
DETAIL
  6
CONTINUOUS
 62
     5
 10
428.23316639000132
 20
-105.0008797119926
 30
0.0
 11
428.62770496400208
 21
-107.2384191499923
 31
0.0
  0
LINE
  8
DETAIL
  6
CONTINUOUS
 62
     5
 10
440.44539799999978
 20
-105.15464101799169
 30
0.0
 11
440.05085942800002
 21
-102.9171015799993
 31
0.0
  0
LINE
  8
DETAIL
  6
CONTINUOUS
 62
     5
 10
-594.19999999999618
 20
-294.04999999999558
 30
0.0
 11
-603.30000000000109
 21
-278.28833765000309
 31
0.0
  0
LINE
  8
DETAIL
  6
CONTINUOUS
 62
     5
 10
607.79558730000099
 20
-402.67783708399469
 30
0.0
 11
607.5350047499951
 21
-401.29999999999558
 31
0.0
  0
LINE
  8
DETAIL
  6
CONTINUOUS
 62
     5
 10
607.53500474999601
 20
-2.799999999995634
 30
0.0
 11
607.79558730000099
 21
-1.3221629139952711
 31
0.0
  0
LINE
  8
DETAIL
  6
CONTINUOUS
 62
     5
 10
-673.19999999999527
 20
-155.46807636799349
 30
0.0
 11
-671.64333105600144
 21
-160.37075778799769
 31
0.0
  0
LINE
  8
DETAIL
  6
CONTINUOUS
 62
     5
 10
608.58343350200266
 20
-402.53891854199719
 30
0.0
 11
608.34734603800371
 21
-401.29999999999558
 31
0.0
  0
LINE
  8
DETAIL
  6
CONTINUOUS
 62
     5
 10
589.20000000000346
 20
-121.9999999999882
 30
0.0
 11
589.20000000000346
 21
-115.50213632199571
 31
0.0
  0
LINE
  8
DETAIL
  6
CONTINUOUS
 62
     5
 10
606.300000000002
 20
-401.29999999999558
 30
0.0
 11
606.300000000002
 21
-403.99999999999818
 31
0.0
  0
LINE
  8
DETAIL
  6
CONTINUOUS
 62
     5
 10
606.34708539199892
 20
0.0
 30
0.0
 11
606.34708539199892
 21
-2.799999999995634
 31
0.0
  0
LINE
  8
DETAIL
  6
CONTINUOUS
 62
     5
 10
608.34734603800462
 20
-2.799999999995634
 30
0.0
 11
608.58343350200266
 21
-1.4610814579937139
 31
0.0
  0
LINE
  8
DETAIL
  6
CONTINUOUS
 62
     5
 10
608.69999999999527
 20
-402.19999999999533
 30
0.0
 11
608.69999999999527
 21
-401.29999999999558
 31
0.0
  0
LINE
  8
DETAIL
  6
CONTINUOUS
 62
     5
 10
608.69999999999527
 20
-1.799999999988358
 30
0.0
 11
608.69999999999527
 21
-2.799999999995634
 31
0.0
  0
LINE
  8
DETAIL
  6
CONTINUOUS
 62
     5
 10
609.20000000000437
 20
-402.19999999999533
 30
0.0
 11
609.20000000000437
 21
-1.799999999988358
 31
0.0
  0
LINE
  8
DETAIL
  6
CONTINUOUS
 62
     5
 10
611.19999999999527
 20
-1.299999999995634
 30
0.0
 11
611.19999999999527
 21
-2.0999999999985448
 31
0.0
  0
LINE
  8
DETAIL
  6
CONTINUOUS
 62
     5
 10
611.19999999999527
 20
-401.89999999999242
 30
0.0
 11
611.19999999999527
 21
-402.69999999999442
 31
0.0
  0
LINE
  8
DETAIL
  6
CONTINUOUS
 62
     5
 10
612.39999999999964
 20
-126.9999999999882
 30
0.0
 11
612.39999999999964
 21
-83.399999999996908
 31
0.0
  0
LINE
  8
DETAIL
  6
CONTINUOUS
 62
     5
 10
614.20000000000346
 20
-0.7999999999956344
 30
0.0
 11
614.20000000000346
 21
-1.299999999995634
 31
0.0
  0
LINE
  8
DETAIL
  6
CONTINUOUS
 62
     5
 10
614.20000000000346
 20
-402.69999999999533
 30
0.0
 11
614.20000000000346
 21
-403.19999999999533
 31
0.0
  0
LINE
  8
DETAIL
  6
CONTINUOUS
 62
     5
 10
655.79999999999927
 20
-83.399999999996908
 30
0.0
 11
655.79999999999927
 21
-86.999999999988177
 31
0.0
  0
LINE
  8
DETAIL
  6
CONTINUOUS
 62
     5
 10
655.79999999999927
 20
-70.199999999999818
 30
0.0
 11
655.79999999999927
 21
-73.799999999998363
 31
0.0
  0
LINE
  8
DETAIL
  6
CONTINUOUS
 62
     5
 10
659.00000000000273
 20
-70.199999999999818
 30
0.0
 11
659.00000000000273
 21
-73.799999999998363
 31
0.0
  0
LINE
  8
DETAIL
  6
CONTINUOUS
 62
     5
 10
659.00000000000273
 20
-83.399999999996908
 30
0.0
 11
659.00000000000273
 21
-86.999999999988177
 31
0.0
  0
ARC
  8
DETAIL
  6
CONTINUOUS
 62
     5
 10
-589.09999999999854
 20
-46.408075233994168
 30
0.0
 40
55.099999999999937
 50
129.40977859101159
 51
180.0
  0
ARC
  8
DETAIL
  6
CONTINUOUS
 62
     5
 10
-652.60000000000764
 20
-73.799999999998363
 30
0.0
 40
6.3999999999999968
 50
180.0
 51
228.6564551520687
  0
ARC
  8
DETAIL
  6
CONTINUOUS
 62
     5
 10
-652.60000000000764
 20
-83.399999999996908
 30
0.0
 40
6.3999999999999968
 50
90.0
 51
180.0
  0
ARC
  8
DETAIL
  6
CONTINUOUS
 62
     5
 10
-615.59999999999764
 20
-83.399999999996908
 30
0.0
 40
6.3999999999999968
 50
0.0
 51
90.0
  0
ARC
  8
DETAIL
  6
CONTINUOUS
 62
     5
 10
-652.60000000000764
 20
-83.399999999996908
 30
0.0
 40
3.199999999999998
 50
90.0
 51
180.0
  0
ARC
  8
DETAIL
  6
CONTINUOUS
 62
     5
 10
-615.59999999999764
 20
-83.399999999996908
 30
0.0
 40
3.199999999999998
 50
0.0
 51
90.0
  0
ARC
  8
DETAIL
  6
CONTINUOUS
 62
     5
 10
-652.60000000000764
 20
-73.799999999998363
 30
0.0
 40
3.199999999999998
 50
180.0
 51
270.0
  0
ARC
  8
DETAIL
  6
CONTINUOUS
 62
     5
 10
-609.37127970399706
 20
-1.599999999998545
 30
0.0
 40
1.6000000000000001
 50
10.000000000006629
 51
90.0
  0
ARC
  8
DETAIL
  6
CONTINUOUS
 62
     5
 10
-723.39999999999691
 20
-98.299999999995634
 30
0.0
 40
1.3999999999999999
 50
90.0
 51
180.0
  0
ARC
  8
DETAIL
  6
CONTINUOUS
 62
     5
 10
-613.90000000000055
 20
-4.2999999999883576
 30
0.0
 40
1.1999999999999991
 50
0.0
 51
90.0
  0
ARC
  8
DETAIL
  6
CONTINUOUS
 62
     5
 10
-614.44999999999527
 20
-1.049999999995634
 30
0.0
 40
1.05
 50
89.999999999895778
 51
269.99998239993357
  0
ARC
  8
DETAIL
  6
CONTINUOUS
 62
     5
 10
-633.70000000000255
 20
-88.549999999991087
 30
0.0
 40
0.9999999999999993
 50
270.0
 51
0.0
  0
ARC
  8
DETAIL
  6
CONTINUOUS
 62
     5
 10
-631.69999999999618
 20
-88.549999999991087
 30
0.0
 40
0.9999999999999993
 50
90.0
 51
180.0
  0
ARC
  8
DETAIL
  6
CONTINUOUS
 62
     5
 10
-609.69999999999527
 20
-1.799999999988358
 30
0.0
 40
0.9999999999999993
 50
0.0
 51
90.0
  0
ARC
  8
DETAIL
  6
CONTINUOUS
 62
     5
 10
-631.69999999999618
 20
-77.549999999991087
 30
0.0
 40
0.9999999999999993
 50
90.0
 51
146.60525621850121
  0
ARC
  8
DETAIL
  6
CONTINUOUS
 62
     5
 10
-609.37127970399706
 20
-1.599999999998545
 30
0.0
 40
0.7999999999999998
 50
10.000000000006629
 51
90.0
  0
ARC
  8
DETAIL
  6
CONTINUOUS
 62
     5
 10
-613.90000000000055
 20
-4.2999999999883576
 30
0.0
 40
0.6000000000000002
 50
0.0
 51
90.0
  0
ARC
  8
DETAIL
  6
CONTINUOUS
 62
     5
 10
-623.09999999999764
 20
-3.6999999999898141
 30
0.0
 40
0.6000000000000002
 50
90.0
 51
270.0
  0
ARC
  8
DETAIL
  6
CONTINUOUS
 62
     5
 10
-609.69999999999527
 20
-1.799999999988358
 30
0.0
 40
0.5000000000000004
 50
0.0
 51
90.0
  0
ARC
  8
DETAIL
  6
CONTINUOUS
 62
     5
 10
-614.44999999999527
 20
-1.049999999995634
 30
0.0
 40
0.2500000000000002
 50
89.99999999958311
 51
269.99998239993357
  0
CIRCLE
  8
DETAIL
  6
CONTINUOUS
 62
     5
 10
-705.40000000000055
 20
-145.2499999999927
 30
0.0
 40
12.999999999999989
  0
CIRCLE
  8
DETAIL
  6
CONTINUOUS
 62
     5
 10
-705.39999999999964
 20
-118.2499999999927
 30
0.0
 40
12.999999999999989
  0
CIRCLE
  8
DETAIL
  6
CONTINUOUS
 62
     5
 10
-598.19999999999709
 20
-118.0000000000027
 30
0.0
 40
6.9999999999999947
  0
ARC
  8
DETAIL
  6
CONTINUOUS
 62
     5
 10
-594.19999999999618
 20
-115.50213632199571
 30
0.0
 40
4.9999999999999956
 50
0.0
 51
70.01689347813452
  0
ARC
  8
DETAIL
  6
CONTINUOUS
 62
     5
 10
-606.58087488799993
 20
-110.9999999999882
 30
0.0
 40
4.9999999999999956
 50
70.01689347813452
 51
90.0
  0
CIRCLE
  8
DETAIL
  6
CONTINUOUS
 62
     5
 10
-583.70000000000255
 20
-105.9999999999882
 30
0.0
 40
4.6999999999999957
  0
CIRCLE
  8
DETAIL
  6
CONTINUOUS
 62
     5
 10
-669.19999999999527
 20
-154.7655069319953
 30
0.0
 40
2.699999999999998
  0
ARC
  8
DETAIL
  6
CONTINUOUS
 62
     5
 10
-669.73711191800157
 20
-159.7655069319953
 30
0.0
 40
1.9999999999999989
 50
197.61536088909571
 51
270.0
  0
ARC
  8
DETAIL
  6
CONTINUOUS
 62
     5
 10
-668.66381456600266
 20
-159.7655069319953
 30
0.0
 40
1.9999999999999989
 50
270.0
 51
342.38346499349592
  0
ARC
  8
DETAIL
  6
CONTINUOUS
 62
     5
 10
-592.6700023439962
 20
-200.4027522379956
 30
0.0
 40
1.9999999999999989
 50
162.73584144571541
 51
256.00000000002399
  0
ARC
  8
DETAIL
  6
CONTINUOUS
 62
     5
 10
-482.46344851799682
 20
-106.19653008399931
 30
0.0
 40
5.9999999999999956
 50
190.00000000000671
 51
10.000000000006629
  0
ARC
  8
DETAIL
  6
CONTINUOUS
 62
     5
 10
-490.73644911600149
 20
-105.34817606799059
 30
0.0
 40
1.9999999999999989
 50
10.000000000006629
 51
103.26415855418161
  0
ARC
  8
DETAIL
  6
CONTINUOUS
 62
     5
 10
-474.97952506600001
 20
-102.569805225995
 30
0.0
 40
1.9999999999999989
 50
96.735841445694874
 51
190.00000000000671
  0
ARC
  8
DETAIL
  6
CONTINUOUS
 62
     5
 10
652.60000000000127
 20
-73.799999999998363
 30
0.0
 40
6.3999999999999968
 50
311.34354484793118
 51
0.0
  0
ARC
  8
DETAIL
  6
CONTINUOUS
 62
     5
 10
652.60000000000127
 20
-83.399999999996908
 30
0.0
 40
6.3999999999999968
 50
0.0
 51
90.0
  0
ARC
  8
DETAIL
  6
CONTINUOUS
 62
     5
 10
615.59999999999673
 20
-83.399999999996908
 30
0.0
 40
6.3999999999999968
 50
90.0
 51
180.0
  0
ARC
  8
DETAIL
  6
CONTINUOUS
 62
     5
 10
652.60000000000127
 20
-83.399999999996908
 30
0.0
 40
3.199999999999998
 50
0.0
 51
90.0
  0
ARC
  8
DETAIL
  6
CONTINUOUS
 62
     5
 10
615.59999999999673
 20
-83.399999999996908
 30
0.0
 40
3.199999999999998
 50
90.0
 51
180.0
  0
ARC
  8
DETAIL
  6
CONTINUOUS
 62
     5
 10
652.60000000000127
 20
-73.799999999998363
 30
0.0
 40
3.199999999999998
 50
270.0
 51
0.0
  0
ARC
  8
DETAIL
  6
CONTINUOUS
 62
     5
 10
609.37127970599886
 20
-1.599999999998545
 30
0.0
 40
1.6000000000000001
 50
90.0
 51
169.99999999999329
  0
ARC
  8
DETAIL
  6
CONTINUOUS
 62
     5
 10
609.70000000000346
 20
-1.799999999988358
 30
0.0
 40
0.9999999999999993
 50
102.25747725230229
 51
180.0
  0
ARC
  8
DETAIL
  6
CONTINUOUS
 62
     5
 10
609.37127970599886
 20
-1.599999999998545
 30
0.0
 40
0.7999999999999998
 50
90.0
 51
169.99999999999329
  0
ARC
  8
DETAIL
  6
CONTINUOUS
 62
     5
 10
609.70000000000346
 20
-1.799999999988358
 30
0.0
 40
0.5000000000000004
 50
90.0
 51
180.0
  0
ARC
  8
DETAIL
  6
CONTINUOUS
 62
     5
 10
434.53655148200409
 20
-106.19653008399931
 30
0.0
 40
5.9999999999999956
 50
190.00000000000671
 51
10.000000000006629
  0
ARC
  8
DETAIL
  6
CONTINUOUS
 62
     5
 10
426.26355088400032
 20
-105.34817606799059
 30
0.0
 40
1.9999999999999989
 50
10.000000000006629
 51
103.26415855418161
  0
ARC
  8
DETAIL
  6
CONTINUOUS
 62
     5
 10
442.02047493400102
 20
-102.569805225995
 30
0.0
 40
1.9999999999999989
 50
96.735841445694874
 51
190.00000000000671
  0
ARC
  8
DETAIL
  6
CONTINUOUS
 62
     5
 10
324.32999765600471
 20
-200.4027522379956
 30
0.0
 40
1.9999999999999989
 50
162.73584144571541
 51
256.00000000002399
  0
CIRCLE
  8
DETAIL
  6
CONTINUOUS
 62
     5
 10
598.20000000000255
 20
-118.0000000000027
 30
0.0
 40
6.9999999999999947
  0
ARC
  8
DETAIL
  6
CONTINUOUS
 62
     5
 10
606.58087488799902
 20
-110.9999999999882
 30
0.0
 40
4.9999999999999956
 50
90.0
 51
109.98310652186549
  0
ARC
  8
DETAIL
  6
CONTINUOUS
 62
     5
 10
594.20000000000255
 20
-115.50213632199571
 30
0.0
 40
4.9999999999999956
 50
109.98310652186549
 51
180.0
  0
CIRCLE
  8
DETAIL
  6
CONTINUOUS
 62
     5
 10
583.69999999999527
 20
-105.9999999999882
 30
0.0
 40
4.6999999999999957
  0
ARC
  8
DETAIL
  6
CONTINUOUS
 62
     5
 10
-592.40081022599406
 20
-208.71477840599709
 30
0.0
 40
5.9999999999999956
 50
256.00000000002399
 51
76.000000000024087
  0
ARC
  8
DETAIL
  6
CONTINUOUS
 62
     5
 10
-596.54075267399821
 20
-215.9274838579922
 30
0.0
 40
1.9999999999999989
 50
76.000000000024087
 51
169.26415855427911
  0
ARC
  8
DETAIL
  6
CONTINUOUS
 62
     5
 10
-458.50000000000449
 20
-242.09999999999579
 30
0.0
 40
142.49999999999989
 50
103.2641585542886
 51
162.73584144571541
  0
ARC
  8
DETAIL
  6
CONTINUOUS
 62
     5
 10
-458.50000000000449
 20
-242.09999999999579
 30
0.0
 40
142.49999999999989
 50
169.26415855427911
 51
280.73584144571771
  0
ARC
  8
DETAIL
  6
CONTINUOUS
 62
     5
 10
-458.50000000000449
 20
-242.09999999999579
 30
0.0
 40
142.49999999999989
 50
287.26415855433709
 51
346.73584144570123
  0
ARC
  8
DETAIL
  6
CONTINUOUS
 62
     5
 10
-458.50000000000449
 20
-242.09999999999579
 30
0.0
 40
142.49999999999989
 50
353.2641585543019
 51
96.735841445694874
  0
CIRCLE
  8
DETAIL
  6
CONTINUOUS
 62
     5
 10
-458.50000000000449
 20
-242.09999999999579
 30
0.0
 40
128.99999999999989
  0
CIRCLE
  8
DETAIL
  6
CONTINUOUS
 62
     5
 10
-458.50000000000449
 20
-242.09999999999579
 30
0.0
 40
120.9999999999999
  0
ARC
  8
DETAIL
  6
CONTINUOUS
 62
     5
 10
-322.59653008399982
 20
-266.06344851798798
 30
0.0
 40
5.9999999999999956
 50
79.999999999994984
 51
259.99999999999488
  0
ARC
  8
DETAIL
  6
CONTINUOUS
 62
     5
 10
-321.74817606799928
 20
-274.33644911399188
 30
0.0
 40
1.9999999999999989
 50
346.73584144582202
 51
79.999999999994984
  0
ARC
  8
DETAIL
  6
CONTINUOUS
 62
     5
 10
-318.96980522599642
 20
-258.57952506599122
 30
0.0
 40
1.9999999999999989
 50
259.99999999999488
 51
353.2641585543019
  0
ARC
  8
DETAIL
  6
CONTINUOUS
 62
     5
 10
-589.09999999999854
 20
-357.79192476398748
 30
0.0
 40
55.099999999999937
 50
180.11240372497949
 51
230.5902214089885
  0
CIRCLE
  8
DETAIL
  6
CONTINUOUS
 62
     5
 10
-699.40000000000055
 20
-315.94999999998981
 30
0.0
 40
12.999999999999989
  0
ARC
  8
DETAIL
  6
CONTINUOUS
 62
     5
 10
-609.37127970399797
 20
-402.39999999999242
 30
0.0
 40
1.6000000000000001
 50
270.0
 51
349.99999999999341
  0
ARC
  8
DETAIL
  6
CONTINUOUS
 62
     5
 10
-723.39999999999691
 20
-355.89999999999418
 30
0.0
 40
1.3999999999999999
 50
180.0
 51
270.0
  0
ARC
  8
DETAIL
  6
CONTINUOUS
 62
     5
 10
-613.90000000000055
 20
-399.89999999999418
 30
0.0
 40
1.1999999999999991
 50
270.0
 51
0.0
  0
ARC
  8
DETAIL
  6
CONTINUOUS
 62
     5
 10
-609.69999999999527
 20
-402.19999999999533
 30
0.0
 40
0.9999999999999993
 50
270.0
 51
0.0
  0
ARC
  8
DETAIL
  6
CONTINUOUS
 62
     5
 10
-609.37127970399797
 20
-402.39999999999242
 30
0.0
 40
0.7999999999999998
 50
270.0
 51
349.99999999999341
  0
ARC
  8
DETAIL
  6
CONTINUOUS
 62
     5
 10
-613.90000000000055
 20
-399.89999999999418
 30
0.0
 40
0.6000000000000002
 50
270.0
 51
0.0
  0
ARC
  8
DETAIL
  6
CONTINUOUS
 62
     5
 10
-623.09999999999764
 20
-400.49999999998539
 30
0.0
 40
0.6000000000000002
 50
90.0
 51
270.0
  0
ARC
  8
DETAIL
  6
CONTINUOUS
 62
     5
 10
-609.69999999999527
 20
-402.19999999999533
 30
0.0
 40
0.5000000000000004
 50
270.0
 51
0.0
  0
ARC
  8
DETAIL
  6
CONTINUOUS
 62
     5
 10
-425.11477840799938
 20
-376.00081022599352
 30
0.0
 40
5.9999999999999956
 50
13.999999999974341
 51
193.99999999997431
  0
ARC
  8
DETAIL
  6
CONTINUOUS
 62
     5
 10
-432.32748386000179
 20
-380.09075267399749
 30
0.0
 40
1.9999999999999989
 50
280.73584144571771
 51
13.999999999974341
  0
ARC
  8
DETAIL
  6
CONTINUOUS
 62
     5
 10
-416.80275223799617
 20
-376.27000234398753
 30
0.0
 40
1.9999999999999989
 50
193.99999999997431
 51
287.26415855433709
  0
ARC
  8
DETAIL
  6
CONTINUOUS
 62
     5
 10
458.49999999999733
 20
-242.09999999999579
 30
0.0
 40
142.49999999999989
 50
103.2641585542886
 51
162.73584144571541
  0
ARC
  8
DETAIL
  6
CONTINUOUS
 62
     5
 10
458.49999999999733
 20
-242.09999999999579
 30
0.0
 40
142.49999999999989
 50
169.26415855427911
 51
280.73584144571771
  0
ARC
  8
DETAIL
  6
CONTINUOUS
 62
     5
 10
458.49999999999733
 20
-242.09999999999579
 30
0.0
 40
142.49999999999989
 50
287.26415855433709
 51
346.73584144570123
  0
ARC
  8
DETAIL
  6
CONTINUOUS
 62
     5
 10
458.49999999999733
 20
-242.09999999999579
 30
0.0
 40
142.49999999999989
 50
353.2641585543019
 51
96.735841445694874
  0
CIRCLE
  8
DETAIL
  6
CONTINUOUS
 62
     5
 10
458.49999999999733
 20
-242.09999999999579
 30
0.0
 40
128.99999999999989
  0
CIRCLE
  8
DETAIL
  6
CONTINUOUS
 62
     5
 10
458.49999999999733
 20
-242.09999999999579
 30
0.0
 40
120.9999999999999
  0
ARC
  8
DETAIL
  6
CONTINUOUS
 62
     5
 10
324.59918977400679
 20
-208.71477840599709
 30
0.0
 40
5.9999999999999956
 50
256.00000000002399
 51
76.000000000024087
  0
ARC
  8
DETAIL
  6
CONTINUOUS
 62
     5
 10
320.45924732600179
 20
-215.9274838579922
 30
0.0
 40
1.9999999999999989
 50
76.000000000024087
 51
169.26415855422931
  0
ARC
  8
DETAIL
  6
CONTINUOUS
 62
     5
 10
594.40346991600109
 20
-266.06344851798798
 30
0.0
 40
5.9999999999999956
 50
79.999999999994984
 51
259.99999999999488
  0
ARC
  8
DETAIL
  6
CONTINUOUS
 62
     5
 10
595.25182393200157
 20
-274.33644911399188
 30
0.0
 40
1.9999999999999989
 50
346.73584144570123
 51
79.999999999994984
  0
ARC
  8
DETAIL
  6
CONTINUOUS
 62
     5
 10
598.03019477400449
 20
-258.57952506599122
 30
0.0
 40
1.9999999999999989
 50
259.99999999999488
 51
353.26415855420009
  0
ARC
  8
DETAIL
  6
CONTINUOUS
 62
     5
 10
491.88522159200153
 20
-376.00081022599352
 30
0.0
 40
5.9999999999999956
 50
13.999999999974341
 51
193.99999999997431
  0
ARC
  8
DETAIL
  6
CONTINUOUS
 62
     5
 10
484.67251613999912
 20
-380.14075267399772
 30
0.0
 40
1.9999999999999989
 50
280.73584144577069
 51
13.999999999974341
  0
ARC
  8
DETAIL
  6
CONTINUOUS
 62
     5
 10
500.19724776200468
 20
-376.27000234398753
 30
0.0
 40
1.9999999999999989
 50
193.99999999997431
 51
287.26415855433709
  0
ARC
  8
DETAIL
  6
CONTINUOUS
 62
     5
 10
609.37127970599886
 20
-402.39999999999242
 30
0.0
 40
1.6000000000000001
 50
190.00000000000671
 51
270.0
  0
ARC
  8
DETAIL
  6
CONTINUOUS
 62
     5
 10
614.45000000000164
 20
-402.94999999999533
 30
0.0
 40
1.05
 50
270.00000000010431
 51
90.000019847840207
  0
ARC
  8
DETAIL
  6
CONTINUOUS
 62
     5
 10
609.70000000000346
 20
-402.19999999999533
 30
0.0
 40
0.9999999999999993
 50
180.0
 51
257.74252274769771
  0
ARC
  8
DETAIL
  6
CONTINUOUS
 62
     5
 10
609.37127970599886
 20
-402.39999999999242
 30
0.0
 40
0.7999999999999998
 50
189.9999999999028
 51
270.0
  0
ARC
  8
DETAIL
  6
CONTINUOUS
 62
     5
 10
609.70000000000346
 20
-402.19999999999533
 30
0.0
 40
0.5000000000000004
 50
180.0
 51
270.0
  0
ARC
  8
DETAIL
  6
CONTINUOUS
 62
     5
 10
614.45000000000164
 20
-402.94999999999533
 30
0.0
 40
0.2500000000000002
 50
270.00000000041689
 51
90.000019847840207
  0
LINE
  8
DETAIL
  6
CONTINUOUS
 62
     5
 10
607.11355287200422
 20
-105.9999999999882
 30
0.0
 11
607.4850934938961
 21
-105.99739144616896
 31
0.0
  0
LINE
  8
DETAIL
  6
CONTINUOUS
 62
     5
 10
607.4850934938961
 20
-105.99739144616896
 30
0.0
 11
607.85593275458257
 21
-105.97648281972893
 31
0.0
  0
LINE
  8
DETAIL
  6
CONTINUOUS
 62
     5
 10
607.85593275458257
 20
-105.97648281972893
 30
0.0
 11
608.22267086663214
 21
-105.91764859008798
 31
0.0
  0
LINE
  8
DETAIL
  6
CONTINUOUS
 62
     5
 10
608.22267086663214
 20
-105.91764859008798
 30
0.0
 11
608.57238506591682
 21
-105.79277197678221
 31
0.0
  0
LINE
  8
DETAIL
  6
CONTINUOUS
 62
     5
 10
608.57238506591682
 20
-105.79277197678221
 30
0.0
 11
608.85994981111332
 21
-105.5579287475922
 31
0.0
  0
LINE
  8
DETAIL
  6
CONTINUOUS
 62
     5
 10
608.85994981111332
 20
-105.5579287475922
 30
0.0
 11
609.0425296859695
 21
-105.23907837720276
 31
0.0
  0
LINE
  8
DETAIL
  6
CONTINUOUS
 62
     5
 10
609.0425296859695
 20
-105.23907837720276
 30
0.0
 11
609.1341882189239
 21
-104.87492291584586
 31
0.0
  0
LINE
  8
DETAIL
  6
CONTINUOUS
 62
     5
 10
609.1341882189239
 20
-104.87492291584586
 30
0.0
 11
609.17467561456351
 21
-104.49677561816564
 31
0.0
  0
LINE
  8
DETAIL
  6
CONTINUOUS
 62
     5
 10
609.17467561456351
 20
-104.49677561816564
 30
0.0
 11
609.19322956437327
 21
-104.12432984196232
 31
0.0
  0
LINE
  8
DETAIL
  6
CONTINUOUS
 62
     5
 10
609.19322956437327
 20
-104.12432984196232
 30
0.0
 11
609.19923542262393
 21
-103.7556842008301
 31
0.0
  0
LINE
  8
DETAIL
  6
CONTINUOUS
 62
     5
 10
609.19923542262393
 20
-103.7556842008301
 30
0.0
 11
609.1999088460052
 21
-103.3865771799929
 31
0.0
  0
LINE
  8
DETAIL
  6
CONTINUOUS
 62
     5
 10
-607.11355287199513
 20
-105.9999999999882
 30
0.0
 11
-607.48509349349524
 21
-105.99739144616896
 31
0.0
  0
LINE
  8
DETAIL
  6
CONTINUOUS
 62
     5
 10
-607.48509349349524
 20
-105.99739144616896
 30
0.0
 11
-607.85593275337339
 21
-105.97648281972893
 31
0.0
  0
LINE
  8
DETAIL
  6
CONTINUOUS
 62
     5
 10
-607.85593275337339
 20
-105.97648281972893
 30
0.0
 11
-608.22267086477359
 21
-105.91764859008798
 31
0.0
  0
LINE
  8
DETAIL
  6
CONTINUOUS
 62
     5
 10
-608.22267086477359
 20
-105.91764859008798
 30
0.0
 11
-608.57238506409692
 21
-105.79277197678221
 31
0.0
  0
LINE
  8
DETAIL
  6
CONTINUOUS
 62
     5
 10
-608.57238506409692
 20
-105.79277197678221
 30
0.0
 11
-608.85994981017348
 21
-105.5579287475922
 31
0.0
  0
LINE
  8
DETAIL
  6
CONTINUOUS
 62
     5
 10
-608.85994981017348
 20
-105.5579287475922
 30
0.0
 11
-609.04252968572462
 21
-105.23907837720276
 31
0.0
  0
LINE
  8
DETAIL
  6
CONTINUOUS
 62
     5
 10
-609.04252968572462
 20
-105.23907837720276
 30
0.0
 11
-609.13418821890139
 21
-104.87492291584586
 31
0.0
  0
LINE
  8
DETAIL
  6
CONTINUOUS
 62
     5
 10
-609.13418821890139
 20
-104.87492291584586
 30
0.0
 11
-609.17467561455965
 21
-104.49677561816564
 31
0.0
  0
LINE
  8
DETAIL
  6
CONTINUOUS
 62
     5
 10
-609.17467561455965
 20
-104.49677561816564
 30
0.0
 11
-609.19322956436838
 21
-104.12432984196232
 31
0.0
  0
LINE
  8
DETAIL
  6
CONTINUOUS
 62
     5
 10
-609.19322956436838
 20
-104.12432984196232
 30
0.0
 11
-609.19923542261745
 21
-103.7556842008301
 31
0.0
  0
LINE
  8
DETAIL
  6
CONTINUOUS
 62
     5
 10
-609.19923542261745
 20
-103.7556842008301
 30
0.0
 11
-609.19990884599792
 21
-103.3865771799929
 31
0.0
  0
CIRCLE
  8
DETAIL
  6
CONTINUOUS
 62
     5
 10
555.77362902199184
 20
-145.22637097699501
 30
0.0
 40
4.6999999999999957
  0
CIRCLE
  8
DETAIL
  6
CONTINUOUS
 62
     5
 10
555.3736290219922
 20
-338.97362902298943
 30
0.0
 40
4.6999999999999957
  0
CIRCLE
  8
DETAIL
  6
CONTINUOUS
 62
     5
 10
361.62637097799319
 20
-338.97362902298943
 30
0.0
 40
4.6999999999999957
  0
CIRCLE
  8
DETAIL
  6
CONTINUOUS
 62
     5
 10
362.02637097799288
 20
-145.22637097699501
 30
0.0
 40
4.6999999999999957
  0
CIRCLE
  8
DETAIL
  6
CONTINUOUS
 62
     5
 10
-361.62637097800871
 20
-145.22637097699501
 30
0.0
 40
4.6999999999999957
  0
CIRCLE
  8
DETAIL
  6
CONTINUOUS
 62
     5
 10
-361.62637097800871
 20
-338.97362902298943
 30
0.0
 40
4.6999999999999957
  0
CIRCLE
  8
DETAIL
  6
CONTINUOUS
 62
     5
 10
-555.37362902200857
 20
-338.97362902298943
 30
0.0
 40
4.6999999999999957
  0
CIRCLE
  8
DETAIL
  6
CONTINUOUS
 62
     5
 10
-555.37362902200857
 20
-145.22637097699501
 30
0.0
 40
4.6999999999999957
  0
ARC
  8
DETAIL
  6
CONTINUOUS
 62
     5
 10
-594.1999999997015
 20
-122.0000000002938
 30
0.0
 40
5.0000000003707132
 50
270.0
 51
0.0
  0
ARC
  8
DETAIL
  6
CONTINUOUS
 62
     5
 10
594.19999999969514
 20
-122.0000000002938
 30
0.0
 40
5.0000000003707132
 50
180.0
 51
270.0
  0
LINE
  8
BASIS
  6
DASHDOT
 62
     6
 10
-623.55027096890171
 20
-242.09999999999579
 30
0.0
 11
623.55027096889353
 21
-242.09999999999579
 31
0.0
  0
LINE
  8
BASIS
  6
DASHDOT
 62
     6
 10
-458.50000000000449
 20
-79.906950680063346
 30
0.0
 11
-458.50000000000449
 21
-404.19304931992792
 31
0.0
  0
LINE
  8
BASIS
  6
DASHDOT
 62
     6
 10
458.49999999999733
 20
-84.995756862715098
 30
0.0
 11
458.49999999999733
 21
-399.20424313727648
 31
0.0
  0
ARC
  8
DETAIL
  6
CONTINUOUS
 62
     5
 10
614.45000000000164
 20
-1.0500000000029099
 30
0.0
 40
1.05
 50
270.00000000010431
 51
90.000019847840207
  0
ARC
  8
DETAIL
  6
CONTINUOUS
 62
     5
 10
614.45000000000164
 20
-1.0500000000029099
 30
0.0
 40
0.2500000000000002
 50
270.00000000041689
 51
90.000019847840207
  0
LINE
  8
DETAIL
  6
CONTINUOUS
 62
     5
 10
611.19999999999527
 20
-2.0999999999985448
 30
0.0
 11
614.45000000000164
 21
-2.0999999999985448
 31
0.0
  0
LINE
  8
DETAIL
  6
CONTINUOUS
 62
     5
 10
614.45000000000164
 20
-401.89999999999242
 30
0.0
 11
611.19999999999527
 21
-401.89999999999242
 31
0.0
  0
LINE
  8
DETAIL
  6
CONTINUOUS
 62
     5
 10
-611.20000000000346
 20
-1.299999999995634
 30
0.0
 11
-611.20000000000346
 21
-2.0999999999985448
 31
0.0
  0
LINE
  8
DETAIL
  6
CONTINUOUS
 62
     5
 10
-611.20000000000346
 20
-401.89999999999242
 30
0.0
 11
-611.20000000000346
 21
-402.69999999999533
 31
0.0
  0
LINE
  8
DETAIL
  6
CONTINUOUS
 62
     5
 10
-611.20000000000346
 20
-2.0999999999985448
 30
0.0
 11
-614.45000000000982
 21
-2.0999999999985448
 31
0.0
  0
LINE
  8
DETAIL
  6
CONTINUOUS
 62
     5
 10
-609.69999999999527
 20
-1.299999999995634
 30
0.0
 11
-614.45000000000982
 21
-1.299999999995634
 31
0.0
  0
LINE
  8
DETAIL
  6
CONTINUOUS
 62
     5
 10
-614.45000000001073
 20
-402.69999999999533
 30
0.0
 11
-609.69999999999527
 21
-402.69999999999533
 31
0.0
  0
LINE
  8
DETAIL
  6
CONTINUOUS
 62
     5
 10
-614.45000000001073
 20
-401.89999999999242
 30
0.0
 11
-611.20000000000346
 21
-401.89999999999242
 31
0.0
  0
ARC
  8
DETAIL
  6
CONTINUOUS
 62
     5
 10
-614.45000000001073
 20
-402.94999999998799
 30
0.0
 40
1.05
 50
90.000000000104222
 51
269.99998239993357
  0
ARC
  8
DETAIL
  6
CONTINUOUS
 62
     5
 10
-614.45000000001073
 20
-402.94999999998799
 30
0.0
 40
0.2500000000000002
 50
90.00000000041689
 51
269.99998239993357
  0
LINE
  8
DETAIL
  6
CONTINUOUS
 62
     5
 10
-600.66730091799855
 20
-401.89999999999242
 30
0.0
 11
600.66730091799491
 21
-401.89999999999242
 31
0.0
  0
LINE
  8
DETAIL
  6
CONTINUOUS
 62
     5
 10
600.71438630999728
 20
-2.0999999999985448
 30
0.0
 11
-600.7143863099991
 21
-2.0999999999985448
 31
0.0
  0
LINE
  8
BASIS
  6
DASHDOT
 62
     6
 10
-678.94825059271079
 20
-202.0999999999913
 30
0.0
 11
678.9482505927017
 21
-202.0999999999913
 31
0.0
  0
LINE
  8
DETAIL
  6
CONTINUOUS
 62
     5
 10
-610.00000163160348
 20
-355.98360626794602
 30
0.0
 11
-609.19999999999527
 21
-355.98360626794602
 31
0.0
  0
LINE
  8
SIZE
  6
CONTINUOUS
 62
    30
 10
-458.50000000000449
 20
-59.906950680063353
 30
0.0
 11
-458.50000000000449
 21
113.0112853555875
 31
0.0
  0
LINE
  8
SIZE
  6
CONTINUOUS
 62
    30
 10
458.49999999999733
 20
-64.995756862715098
 30
0.0
 11
458.49999999999733
 21
113.0112853555875
 31
0.0
  0
LINE
  8
SIZE
  6
CONTINUOUS
 62
    30
 10
-446.50000000000449
 20
93.011285355587461
 30
0.0
 11
446.49999999999733
 21
93.011285355587461
 31
0.0
  0
CIRCLE
  8
SIZE
  6
CONTINUOUS
 62
    30
 10
-458.50000000000449
 20
93.011285355587461
 30
0.0
 40
6.0
  0
LINE
  8
SIZE
  6
CONTINUOUS
 62
    30
 10
-458.50000000000449
 20
93.011285355587461
 30
0.0
 11
-446.50000000000449
 21
93.011285355587461
 31
0.0
  0
CIRCLE
  8
SIZE
  6
CONTINUOUS
 62
    30
 10
458.49999999999733
 20
93.011285355587461
 30
0.0
 40
6.0
  0
LINE
  8
SIZE
  6
CONTINUOUS
 62
    30
 10
458.49999999999733
 20
93.011285355587461
 30
0.0
 11
446.49999999999733
 21
93.011285355587461
 31
0.0
  0
TEXT
  8
SIZE
  6
CONTINUOUS
 62
    30
 10
-74.592000000003651
 20
118.01128535558749
 30
0.0
 40
64.0
  1
917
 50
0.0
 41
0.9
 51
0.0
  7
STANDARD
 71
     0
 72
     1
 11
-0.000000000003638
 21
118.01128535558749
 31
0.0
210
0.0
220
0.0
230
1.0
  0
POINT
  8
DEFPOINTS
  6
CONTINUOUS
 62
    30
 10
-458.50000000000449
 20
-79.906950680063346
 30
0.0
  0
POINT
  8
DEFPOINTS
  6
CONTINUOUS
 62
    30
 10
458.49999999999733
 20
-84.995756862715098
 30
0.0
  0
POINT
  8
DEFPOINTS
  6
CONTINUOUS
 62
    30
 10
458.49999999999733
 20
93.011285355587461
 30
0.0
  0
LINE
  8
SIZE
  6
CONTINUOUS
 62
    30
 10
615.50000000000182
 20
18.950000181863292
 30
0.0
 11
615.50000000000182
 21
248.78717566559499
 31
0.0
  0
LINE
  8
SIZE
  6
CONTINUOUS
 62
    30
 10
-615.49999999999545
 20
18.950000161274151
 30
0.0
 11
-615.49999999999545
 21
248.78717566559499
 31
0.0
  0
LINE
  8
SIZE
  6
CONTINUOUS
 62
    30
 10
603.50000000000182
 20
228.78717566559499
 30
0.0
 11
-603.49999999999545
 21
228.78717566559499
 31
0.0
  0
CIRCLE
  8
SIZE
  6
CONTINUOUS
 62
    30
 10
615.50000000000182
 20
228.78717566559499
 30
0.0
 40
6.0
  0
LINE
  8
SIZE
  6
CONTINUOUS
 62
    30
 10
615.50000000000182
 20
228.78717566559499
 30
0.0
 11
603.50000000000182
 21
228.78717566559499
 31
0.0
  0
CIRCLE
  8
SIZE
  6
CONTINUOUS
 62
    30
 10
-615.49999999999545
 20
228.78717566559499
 30
0.0
 40
6.0
  0
LINE
  8
SIZE
  6
CONTINUOUS
 62
    30
 10
-615.49999999999545
 20
228.78717566559499
 30
0.0
 11
-603.49999999999545
 21
228.78717566559499
 31
0.0
  0
TEXT
  8
SIZE
  6
CONTINUOUS
 62
    30
 10
-95.615999999996831
 20
253.78717566559499
 30
0.0
 40
64.0
  1
1231
 50
0.0
 41
0.9
 51
0.0
  7
STANDARD
 71
     0
 72
     1
 11
0.0000000000031832
 21
253.78717566559499
 31
0.0
210
0.0
220
0.0
230
1.0
  0
POINT
  8
DEFPOINTS
  6
CONTINUOUS
 62
    30
 10
615.50000000000182
 20
-1.0499998181367121
 30
0.0
  0
POINT
  8
DEFPOINTS
  6
CONTINUOUS
 62
    30
 10
-615.49999999999545
 20
-1.0499998387258529
 30
0.0
  0
POINT
  8
DEFPOINTS
  6
CONTINUOUS
 62
    30
 10
-615.49999999999545
 20
228.78717566559499
 30
0.0
  0
LINE
  8
SIZE
  6
CONTINUOUS
 62
    30
 10
-724.19999999999982
 20
-377.89999999999418
 30
0.0
 11
-724.19999999999982
 21
-605.59930028783856
 31
0.0
  0
LINE
  8
SIZE
  6
CONTINUOUS
 62
    30
 10
-609.19999999999527
 20
-422.19999999999533
 30
0.0
 11
-609.19999999999527
 21
-605.59930028783856
 31
0.0
  0
LINE
  8
SIZE
  6
CONTINUOUS
 62
    30
 10
-712.19999999999982
 20
-585.59930028783856
 30
0.0
 11
-621.19999999999527
 21
-585.59930028783856
 31
0.0
  0
LINE
  8
SIZE
  6
CONTINUOUS
 62
    30
 10
-609.19999999999527
 20
-585.59930028783856
 30
0.0
 11
-421.02857142856669
 21
-585.59930028783856
 31
0.0
  0
CIRCLE
  8
SIZE
  6
CONTINUOUS
 62
    30
 10
-724.19999999999982
 20
-585.59930028783856
 30
0.0
 40
6.0
  0
LINE
  8
SIZE
  6
CONTINUOUS
 62
    30
 10
-724.19999999999982
 20
-585.59930028783856
 30
0.0
 11
-712.19999999999982
 21
-585.59930028783856
 31
0.0
  0
CIRCLE
  8
SIZE
  6
CONTINUOUS
 62
    30
 10
-609.19999999999527
 20
-585.59930028783856
 30
0.0
 40
6.0
  0
LINE
  8
SIZE
  6
CONTINUOUS
 62
    30
 10
-609.19999999999527
 20
-585.59930028783856
 30
0.0
 11
-621.19999999999527
 21
-585.59930028783856
 31
0.0
  0
TEXT
  8
SIZE
  6
CONTINUOUS
 62
    30
 10
-577.94628571428098
 20
-560.59930028783856
 30
0.0
 40
64.0
  1
115
 50
0.0
 41
0.9
 51
0.0
  7
STANDARD
 71
     0
 72
     1
 11
-509.11428571428098
 21
-560.59930028783856
 31
0.0
210
0.0
220
0.0
230
1.0
  0
POINT
  8
DEFPOINTS
  6
CONTINUOUS
 62
    30
 10
-724.19999999999982
 20
-357.89999999999418
 30
0.0
  0
POINT
  8
DEFPOINTS
  6
CONTINUOUS
 62
    30
 10
-609.19999999999527
 20
-402.19999999999533
 30
0.0
  0
POINT
  8
DEFPOINTS
  6
CONTINUOUS
 62
    30
 10
-609.19999999999527
 20
-585.59930028783856
 30
0.0
  0
LINE
  8
SIZE
  6
CONTINUOUS
 62
    30
 10
-643.55027096890194
 20
-242.0999999999959
 30
0.0
 11
-942.08562635179487
 21
-242.09999999999599
 31
0.0
  0
LINE
  8
SIZE
  6
CONTINUOUS
 62
    30
 10
-698.94825059271102
 20
-202.09999999999141
 30
0.0
 11
-942.08562635179487
 21
-202.09999999999141
 31
0.0
  0
LINE
  8
SIZE
  6
CONTINUOUS
 62
    30
 10
-922.08562635179487
 20
-254.09999999999599
 30
0.0
 11
-922.08562635179476
 21
-266.09999999999599
 31
0.0
  0
LINE
  8
SIZE
  6
CONTINUOUS
 62
    30
 10
-922.08562635179487
 20
-190.09999999999141
 30
0.0
 11
-922.08562635179487
 21
-178.09999999999141
 31
0.0
  0
LINE
  8
SIZE
  6
CONTINUOUS
 62
    30
 10
-922.08562635179487
 20
-242.09999999999599
 30
0.0
 11
-922.08562635179487
 21
-202.09999999999141
 31
0.0
  0
CIRCLE
  8
SIZE
  6
CONTINUOUS
 62
    30
 10
-922.08562635179487
 20
-242.09999999999599
 30
0.0
 40
6.0
  0
LINE
  8
SIZE
  6
CONTINUOUS
 62
    30
 10
-922.08562635179487
 20
-242.09999999999599
 30
0.0
 11
-922.08562635179487
 21
-254.09999999999599
 31
0.0
  0
CIRCLE
  8
SIZE
  6
CONTINUOUS
 62
    30
 10
-922.08562635179487
 20
-202.09999999999141
 30
0.0
 40
6.0
  0
LINE
  8
SIZE
  6
CONTINUOUS
 62
    30
 10
-922.08562635179487
 20
-202.09999999999141
 30
0.0
 11
-922.08562635179487
 21
-190.09999999999141
 31
0.0
  0
TEXT
  8
SIZE
  6
CONTINUOUS
 62
    30
 10
-947.08562635179464
 20
-276.81999999999346
 30
0.0
 40
64.0
  1
40
 50
90.0
 41
0.9
 51
0.0
  7
STANDARD
 71
     0
 72
     1
 11
-947.08562635179464
 21
-222.0999999999934
 31
0.0
210
0.0
220
0.0
230
1.0
  0
POINT
  8
DEFPOINTS
  6
CONTINUOUS
 62
    30
 10
-623.55027096890194
 20
-242.0999999999959
 30
0.0
  0
POINT
  8
DEFPOINTS
  6
CONTINUOUS
 62
    30
 10
-678.94825059271102
 20
-202.09999999999141
 30
0.0
  0
POINT
  8
DEFPOINTS
  6
CONTINUOUS
 62
    30
 10
-922.08562635179487
 20
-202.09999999999141
 30
0.0
  0
LINE
  8
SIZE
  6
CONTINUOUS
 62
    30
 10
-634.44999999999368
 20
0.0000000000045443
 30
0.0
 11
-1061.9777312476331
 21
0.0000000000044755
 31
0.0
  0
LINE
  8
SIZE
  6
CONTINUOUS
 62
    30
 10
-634.4499999999955
 20
-403.99999999999841
 30
0.0
 11
-1061.9777312476331
 21
-403.99999999999852
 31
0.0
  0
LINE
  8
SIZE
  6
CONTINUOUS
 62
    30
 10
-1041.9777312476331
 20
-11.99999999999552
 30
0.0
 11
-1041.9777312476331
 21
-391.99999999999852
 31
0.0
  0
CIRCLE
  8
SIZE
  6
CONTINUOUS
 62
    30
 10
-1041.9777312476331
 20
0.0000000000044787
 30
0.0
 40
6.0
  0
LINE
  8
SIZE
  6
CONTINUOUS
 62
    30
 10
-1041.9777312476331
 20
0.0000000000044787
 30
0.0
 11
-1041.9777312476331
 21
-11.999999999995522
 31
0.0
  0
CIRCLE
  8
SIZE
  6
CONTINUOUS
 62
    30
 10
-1041.9777312476331
 20
-403.99999999999852
 30
0.0
 40
6.0
  0
LINE
  8
SIZE
  6
CONTINUOUS
 62
    30
 10
-1041.9777312476331
 20
-403.99999999999852
 30
0.0
 11
-1041.9777312476331
 21
-391.99999999999852
 31
0.0
  0
TEXT
  8
SIZE
  6
CONTINUOUS
 62
    30
 10
-1066.9777312476331
 20
-284.07999999999663
 30
0.0
 40
64.0
  1
404
 50
90.0
 41
0.9
 51
0.0
  7
STANDARD
 71
     0
 72
     1
 11
-1066.9777312476331
 21
-201.9999999999967
 31
0.0
210
0.0
220
0.0
230
1.0
  0
POINT
  8
DEFPOINTS
  6
CONTINUOUS
 62
    30
 10
-614.44999999999368
 20
0.0000000000045475
 30
0.0
  0
POINT
  8
DEFPOINTS
  6
CONTINUOUS
 62
    30
 10
-614.4499999999955
 20
-403.99999999999841
 30
0.0
  0
POINT
  8
DEFPOINTS
  6
CONTINUOUS
 62
    30
 10
-1041.9777312476331
 20
-403.99999999999852
 30
0.0
  0
LINE
  8
SIZE
  6
CONTINUOUS
 62
    30
 10
-709.93427874098256
 20
-76.999999999998209
 30
0.0
 11
-942.08562635180101
 21
-76.999999999998252
 31
0.0
  0
LINE
  8
SIZE
  6
CONTINUOUS
 62
    30
 10
-634.44999999999368
 20
0.0000000000045443
 30
0.0
 11
-942.08562635180101
 21
0.0000000000044948
 31
0.0
  0
LINE
  8
SIZE
  6
CONTINUOUS
 62
    30
 10
-922.08562635180101
 20
-64.999999999998238
 30
0.0
 11
-922.08562635180101
 21
-11.9999999999955
 31
0.0
  0
LINE
  8
SIZE
  6
CONTINUOUS
 62
    30
 10
-922.08562635180101
 20
0.000000000004498
 30
0.0
 11
-922.08562635180101
 21
155.25714285714739
 31
0.0
  0
CIRCLE
  8
SIZE
  6
CONTINUOUS
 62
    30
 10
-922.08562635180101
 20
-76.999999999998238
 30
0.0
 40
6.0
  0
LINE
  8
SIZE
  6
CONTINUOUS
 62
    30
 10
-922.08562635180101
 20
-76.999999999998238
 30
0.0
 11
-922.08562635180101
 21
-64.999999999998238
 31
0.0
  0
CIRCLE
  8
SIZE
  6
CONTINUOUS
 62
    30
 10
-922.08562635180101
 20
0.000000000004498
 30
0.0
 40
6.0
  0
LINE
  8
SIZE
  6
CONTINUOUS
 62
    30
 10
-922.08562635180101
 20
0.000000000004498
 30
0.0
 11
-922.08562635180101
 21
-11.999999999995502
 31
0.0
  0
TEXT
  8
SIZE
  6
CONTINUOUS
 62
    30
 10
-947.08562635180078
 20
30.060571428576225
 30
0.0
 40
64.0
  1
77
 50
90.0
 41
0.9
 51
0.0
  7
STANDARD
 71
     0
 72
     1
 11
-947.08562635180078
 21
83.628571428576208
 31
0.0
210
0.0
220
0.0
230
1.0
  0
POINT
  8
DEFPOINTS
  6
CONTINUOUS
 62
    30
 10
-689.93427874098256
 20
-76.999999999998209
 30
0.0
  0
POINT
  8
DEFPOINTS
  6
CONTINUOUS
 62
    30
 10
-614.44999999999368
 20
0.0000000000045475
 30
0.0
  0
POINT
  8
DEFPOINTS
  6
CONTINUOUS
 62
    30
 10
-922.08562635180101
 20
0.000000000004498
 30
0.0
  0
LINE
  8
SIZE
  6
CONTINUOUS
 62
    30
 10
634.45000000000186
 20
0.0000000000000032
 30
0.0
 11
930.22981378089776
 21
0.0000000000000508
 31
0.0
  0
LINE
  8
SIZE
  6
CONTINUOUS
 62
    30
 10
709.93427874097438
 20
-76.999999999998209
 30
0.0
 11
930.22981378089776
 21
-76.999999999998167
 31
0.0
  0
LINE
  8
SIZE
  6
CONTINUOUS
 62
    30
 10
910.22981378089776
 20
-64.999999999998181
 30
0.0
 11
910.22981378089776
 21
-11.999999999999959
 31
0.0
  0
LINE
  8
SIZE
  6
CONTINUOUS
 62
    30
 10
910.22981378089776
 20
0.0000000000000476
 30
0.0
 11
910.22981378089776
 21
155.2571428571429
 31
0.0
  0
CIRCLE
  8
SIZE
  6
CONTINUOUS
 62
    30
 10
910.22981378089776
 20
-76.999999999998181
 30
0.0
 40
6.0
  0
LINE
  8
SIZE
  6
CONTINUOUS
 62
    30
 10
910.22981378089776
 20
-76.999999999998181
 30
0.0
 11
910.22981378089776
 21
-64.999999999998181
 31
0.0
  0
CIRCLE
  8
SIZE
  6
CONTINUOUS
 62
    30
 10
910.22981378089776
 20
0.0000000000000476
 30
0.0
 40
6.0
  0
LINE
  8
SIZE
  6
CONTINUOUS
 62
    30
 10
910.22981378089776
 20
0.0000000000000476
 30
0.0
 11
910.22981378089776
 21
-11.999999999999952
 31
0.0
  0
TEXT
  8
SIZE
  6
CONTINUOUS
 62
    30
 10
885.22981378089753
 20
30.060571428571237
 30
0.0
 40
64.0
  1
77
 50
90.0
 41
0.9
 51
0.0
  7
STANDARD
 71
     0
 72
     1
 11
885.22981378089753
 21
83.62857142857122
 31
0.0
210
0.0
220
0.0
230
1.0
  0
POINT
  8
DEFPOINTS
  6
CONTINUOUS
 62
    30
 10
614.45000000000186
 20
0.0
 30
0.0
  0
POINT
  8
DEFPOINTS
  6
CONTINUOUS
 62
    30
 10
689.93427874097438
 20
-76.999999999998209
 30
0.0
  0
POINT
  8
DEFPOINTS
  6
CONTINUOUS
 62
    30
 10
910.22981378089776
 20
-76.999999999998181
 30
0.0
  0
LINE
  8
BASIS
  6
DASHDOT
 62
     6
 10
638.99999999999272
 20
-127.9342787409751
 30
0.0
 11
638.99999999999272
 21
-26.065721259021299
 31
0.0
  0
LINE
  8
BASIS
  6
DASHDOT
 62
     6
 10
689.93427874097415
 20
-76.999999999998181
 30
0.0
 11
588.06572125902403
 21
-76.999999999998181
 31
0.0
  0
LINE
  8
SIZE
  6
CONTINUOUS
 62
    30
 10
638.99999999999272
 20
-6.0657212590213021
 30
0.0
 11
638.99999999999272
 21
378.67953403249157
 31
0.0
  0
LINE
  8
SIZE
  6
CONTINUOUS
 62
    30
 10
-639.00000000000091
 20
-6.0657212590213021
 30
0.0
 11
-639.00000000000091
 21
378.67953403249157
 31
0.0
  0
LINE
  8
SIZE
  6
CONTINUOUS
 62
    30
 10
626.99999999999272
 20
358.67953403249157
 30
0.0
 11
-627.00000000000091
 21
358.67953403249157
 31
0.0
  0
CIRCLE
  8
SIZE
  6
CONTINUOUS
 62
    30
 10
638.99999999999272
 20
358.67953403249157
 30
0.0
 40
6.0
  0
LINE
  8
SIZE
  6
CONTINUOUS
 62
    30
 10
638.99999999999272
 20
358.67953403249157
 30
0.0
 11
626.99999999999272
 21
358.67953403249157
 31
0.0
  0
CIRCLE
  8
SIZE
  6
CONTINUOUS
 62
    30
 10
-639.00000000000091
 20
358.67953403249157
 30
0.0
 40
6.0
  0
LINE
  8
SIZE
  6
CONTINUOUS
 62
    30
 10
-639.00000000000091
 20
358.67953403249157
 30
0.0
 11
-627.00000000000091
 21
358.67953403249157
 31
0.0
  0
TEXT
  8
SIZE
  6
CONTINUOUS
 62
    30
 10
-101.37600000000411
 20
383.67953403249157
 30
0.0
 40
64.0
  1
1278
 50
0.0
 41
0.9
 51
0.0
  7
STANDARD
 71
     0
 72
     1
 11
-0.0000000000040927
 21
383.67953403249157
 31
0.0
210
0.0
220
0.0
230
1.0
  0
POINT
  8
DEFPOINTS
  6
CONTINUOUS
 62
    30
 10
638.99999999999272
 20
-26.065721259021299
 30
0.0
  0
POINT
  8
DEFPOINTS
  6
CONTINUOUS
 62
    30
 10
-639.00000000000091
 20
-26.065721259021299
 30
0.0
  0
POINT
  8
DEFPOINTS
  6
CONTINUOUS
 62
    30
 10
-639.00000000000091
 20
358.67953403249157
 30
0.0
  0
LINE
  8
BASIS
  6
DASHDOT
 62
     6
 10
-639.00000000000091
 20
-127.9342787409751
 30
0.0
 11
-639.00000000000091
 21
-26.065721259021299
 31
0.0
  0
LINE
  8
BASIS
  6
DASHDOT
 62
     6
 10
-689.93427874098234
 20
-76.999999999998181
 30
0.0
 11
-588.06572125903222
 21
-76.999999999998181
 31
0.0
  0
LINE
  8
SIZE
  6
CONTINUOUS
 62
    30
 10
-639.00000000000091
 20
-6.0657212590213021
 30
0.0
 11
-639.00000000000091
 21
378.67953403250522
 31
0.0
  0
LINE
  8
SIZE
  6
CONTINUOUS
 62
    30
 10
-659.00000000000909
 20
-50.199999999999818
 30
0.0
 11
-659.00000000000909
 21
378.67953403250522
 31
0.0
  0
LINE
  8
SIZE
  6
CONTINUOUS
 62
    30
 10
-627.00000000000091
 20
358.67953403250522
 30
0.0
 11
-615.00000000000091
 21
358.67953403250522
 31
0.0
  0
LINE
  8
SIZE
  6
CONTINUOUS
 62
    30
 10
-671.00000000000909
 20
358.67953403250522
 30
0.0
 11
-826.25714285715378
 21
358.67953403250522
 31
0.0
  0
LINE
  8
SIZE
  6
CONTINUOUS
 62
    30
 10
-639.00000000000091
 20
358.67953403250522
 30
0.0
 11
-659.00000000000909
 21
358.67953403250522
 31
0.0
  0
CIRCLE
  8
SIZE
  6
CONTINUOUS
 62
    30
 10
-639.00000000000091
 20
358.67953403250522
 30
0.0
 40
6.0
  0
LINE
  8
SIZE
  6
CONTINUOUS
 62
    30
 10
-639.00000000000091
 20
358.67953403250522
 30
0.0
 11
-627.00000000000091
 21
358.67953403250522
 31
0.0
  0
CIRCLE
  8
SIZE
  6
CONTINUOUS
 62
    30
 10
-659.00000000000909
 20
358.67953403250522
 30
0.0
 40
6.0
  0
LINE
  8
SIZE
  6
CONTINUOUS
 62
    30
 10
-659.00000000000909
 20
358.67953403250522
 30
0.0
 11
-671.00000000000909
 21
358.67953403250522
 31
0.0
  0
TEXT
  8
SIZE
  6
CONTINUOUS
 62
    30
 10
-808.7725714285823
 20
383.67953403250522
 30
0.0
 40
64.0
  1
20
 50
0.0
 41
0.9
 51
0.0
  7
STANDARD
 71
     0
 72
     1
 11
-754.62857142858229
 21
383.67953403250522
 31
0.0
210
0.0
220
0.0
230
1.0
  0
POINT
  8
DEFPOINTS
  6
CONTINUOUS
 62
    30
 10
-639.00000000000091
 20
-26.065721259021299
 30
0.0
  0
POINT
  8
DEFPOINTS
  6
CONTINUOUS
 62
    30
 10
-659.00000000000909
 20
-70.199999999999818
 30
0.0
  0
POINT
  8
DEFPOINTS
  6
CONTINUOUS
 62
    30
 10
-659.00000000000909
 20
358.67953403250522
 30
0.0
  0
CIRCLE
  8
FIX
  6
CONTINUOUS
 62
    11
 10
-639.00000000000728
 20
-77.000000000001819
 30
0.0
 40
6.5
  0
CIRCLE
  8
FIX
  6
CONTINUOUS
 62
    11
 10
638.99999999999272
 20
-77.000000000001819
 30
0.0
 40
6.5
  0
POINT
  8
ARRANGE
  6
CONTINUOUS
 62
     1
 10
0.0
 20
0.0
 30
0.0
 50
270.0
  0
CIRCLE
  8
ARRANGE
  6
CONTINUOUS
 62
     1
 10
0.0
 20
0.0
 30
0.0
 40
40.0
  0
LINE
  8
OUTLINE
  6
CONTINUOUS
 62
     3
 10
609.20000000000255
 20
-83.399999999996908
 30
0.0
 11
609.20000000000255
 21
-1.8000000000029099
 31
0.0
  0
ARC
  8
OUTLINE
  6
CONTINUOUS
 62
     3
 10
609.70000000000198
 20
-1.800000000002318
 30
0.0
 40
0.4999999999994081
 50
90.0
 51
180.0
  0
LINE
  8
OUTLINE
  6
CONTINUOUS
 62
     3
 10
609.70000000000255
 20
-1.3000000000029099
 30
0.0
 11
611.19999999999527
 21
-1.3000000000029099
 31
0.0
  0
LINE
  8
OUTLINE
  6
CONTINUOUS
 62
     3
 10
611.19999999999527
 20
-1.3000000000029099
 30
0.0
 11
611.19999999998799
 21
-2.0999999999976349
 31
0.0
  0
LINE
  8
OUTLINE
  6
CONTINUOUS
 62
     3
 10
611.19999999998799
 20
-2.0999999999976349
 30
0.0
 11
614.45000000000255
 21
-2.1000000000058212
 31
0.0
  0
ARC
  8
OUTLINE
  6
CONTINUOUS
 62
     3
 10
614.45000000000255
 20
-1.0500000000029106
 30
0.0
 40
1.0500000000029106
 50
270.0
 51
90.0
  0
LINE
  8
OUTLINE
  6
CONTINUOUS
 62
     3
 10
614.45000000000255
 20
0.0
 30
0.0
 11
609.37127970599795
 21
-0.0000000000059117
 31
0.0
  0
ARC
  8
OUTLINE
  6
CONTINUOUS
 62
     3
 10
609.37127970599681
 20
-1.6000000000074104
 30
0.0
 40
1.6000000000014987
 50
90.0
 51
169.99999999995293
  0
LINE
  8
OUTLINE
  6
CONTINUOUS
 62
     3
 10
607.79558730117606
 20
-1.322162915738772
 30
0.0
 11
607.53500474999419
 21
-2.8000000000029099
 31
0.0
  0
LINE
  8
OUTLINE
  6
CONTINUOUS
 62
     3
 10
607.53500474999419
 20
-2.8000000000029099
 30
0.0
 11
606.34708539199892
 21
-2.8000000000029099
 31
0.0
  0
LINE
  8
OUTLINE
  6
CONTINUOUS
 62
     3
 10
606.34708539199892
 20
-2.8000000000029099
 30
0.0
 11
606.34708539199892
 21
0.0
 31
0.0
  0
LINE
  8
OUTLINE
  6
CONTINUOUS
 62
     3
 10
606.34708539199892
 20
0.0
 30
0.0
 11
-606.34708539200074
 21
0.0000000000081855
 31
0.0
  0
LINE
  8
OUTLINE
  6
CONTINUOUS
 62
     3
 10
-606.34708539200074
 20
0.0000000000081855
 30
0.0
 11
-606.34708539200074
 21
-0.7999999999947249
 31
0.0
  0
LINE
  8
OUTLINE
  6
CONTINUOUS
 62
     3
 10
-606.34708539200074
 20
-0.7999999999947249
 30
0.0
 11
-607.69999999999527
 21
-0.7999999999947249
 31
0.0
  0
LINE
  8
OUTLINE
  6
CONTINUOUS
 62
     3
 10
-607.69999999999527
 20
-0.7999999999947249
 30
0.0
 11
-607.69999999999527
 21
-1.8642654314776339
 31
0.0
  0
LINE
  8
OUTLINE
  6
CONTINUOUS
 62
     3
 10
-607.69999999999527
 20
-1.8642654314776339
 30
0.0
 11
-607.79558729917881
 21
-1.322162915730587
 31
0.0
  0
ARC
  8
OUTLINE
  6
CONTINUOUS
 62
     3
 10
-609.37127970400877
 20
-1.6000000000029848
 30
0.0
 40
1.6000000000111705
 50
10.000000000122384
 51
90.0
  0
LINE
  8
OUTLINE
  6
CONTINUOUS
 62
     3
 10
-609.37127970399706
 20
0.0000000000081855
 30
0.0
 11
-614.44999999999709
 21
0.0000000000081855
 31
0.0
  0
ARC
  8
OUTLINE
  6
CONTINUOUS
 62
     3
 10
-614.45000016126619
 20
-1.0500000000006366
 30
0.0
 40
1.0500000000088345
 50
90.0
 51
270.0
  0
LINE
  8
OUTLINE
  6
CONTINUOUS
 62
     3
 10
-614.45000032253483
 20
-2.1000000000094592
 30
0.0
 11
-611.20000000000437
 21
-2.0999999999976349
 31
0.0
  0
LINE
  8
OUTLINE
  6
CONTINUOUS
 62
     3
 10
-611.20000000000437
 20
-2.0999999999976349
 30
0.0
 11
-611.20000000000437
 21
-1.3000000000074581
 31
0.0
  0
LINE
  8
OUTLINE
  6
CONTINUOUS
 62
     3
 10
-611.20000000000437
 20
-1.3000000000074581
 30
0.0
 11
-609.700000000008
 21
-1.3000000000074581
 31
0.0
  0
ARC
  8
OUTLINE
  6
CONTINUOUS
 62
     3
 10
-609.69999999999561
 20
-1.7999999999950271
 30
0.0
 40
0.4999999999875691
 50
0.0
 51
90.0
  0
LINE
  8
OUTLINE
  6
CONTINUOUS
 62
     3
 10
-609.200000000008
 20
-1.8000000000001819
 30
0.0
 11
-609.19999999999982
 21
-3.6000000000067298
 31
0.0
  0
LINE
  8
OUTLINE
  6
CONTINUOUS
 62
     3
 10
-609.19999999999982
 20
-3.6000000000067298
 30
0.0
 11
-612.69999999999982
 21
-3.6000000000067298
 31
0.0
  0
LINE
  8
OUTLINE
  6
CONTINUOUS
 62
     3
 10
-612.69999999999982
 20
-3.6000000000067298
 30
0.0
 11
-612.70000000000073
 21
-4.2999999999883576
 31
0.0
  0
ARC
  8
OUTLINE
  6
CONTINUOUS
 62
     3
 10
-613.89999999999418
 20
-4.299999999984685
 30
0.0
 40
1.1999999999934161
 50
0.0
 51
90.0
  0
LINE
  8
OUTLINE
  6
CONTINUOUS
 62
     3
 10
-613.90000000000055
 20
-3.0999999999912689
 30
0.0
 11
-623.09999999923548
 21
-3.099999998775274
 31
0.0
  0
ARC
  8
OUTLINE
  6
CONTINUOUS
 62
     3
 10
-623.09999999923548
 20
-3.6999999987745009
 30
0.0
 40
0.599999999999227
 50
90.0
 51
270.0
  0
LINE
  8
OUTLINE
  6
CONTINUOUS
 62
     3
 10
-623.09999999923548
 20
-4.2999999987737283
 30
0.0
 11
-623.70113113123898
 21
-4.3008654841169118
 31
0.0
  0
LINE
  8
OUTLINE
  6
CONTINUOUS
 62
     3
 10
-623.70113113123898
 20
-4.3008654841169118
 30
0.0
 11
-624.08091743123896
 21
-3.8364248587886318
 31
0.0
  0
ARC
  8
OUTLINE
  6
CONTINUOUS
 62
     3
 10
-588.99921378144938
 20
-46.455679590811506
 30
0.0
 40
55.200786270529839
 50
129.4592346963118
 51
180.00248656320457
  0
LINE
  8
OUTLINE
  6
CONTINUOUS
 62
     3
 10
-644.19999999999527
 20
-46.458075234000717
 30
0.0
 11
-644.19999999999527
 21
-76.999999999994543
 31
0.0
  0
LINE
  8
OUTLINE
  6
CONTINUOUS
 62
     3
 10
-644.19999999999527
 20
-76.999999999994543
 30
0.0
 11
-652.600000000004
 21
-76.999999999994543
 31
0.0
  0
ARC
  8
OUTLINE
  6
CONTINUOUS
 62
     3
 10
-652.60000000001003
 20
-73.799999999999812
 30
0.0
 40
3.1999999999947359
 50
180.0
 51
270.0
  0
LINE
  8
OUTLINE
  6
CONTINUOUS
 62
     3
 10
-655.80000000000473
 20
-73.799999999997453
 30
0.0
 11
-655.80000000000109
 21
-70.199999999998909
 31
0.0
  0
LINE
  8
OUTLINE
  6
CONTINUOUS
 62
     3
 10
-655.80000000000109
 20
-70.199999999998909
 30
0.0
 11
-659.00000000000546
 21
-70.199999999998909
 31
0.0
  0
LINE
  8
OUTLINE
  6
CONTINUOUS
 62
     3
 10
-659.00000000000546
 20
-70.199999999998909
 30
0.0
 11
-659.00000000000546
 21
-73.799999999997453
 31
0.0
  0
ARC
  8
OUTLINE
  6
CONTINUOUS
 62
     3
 10
-652.60000000000889
 20
-73.799999999997993
 30
0.0
 40
6.39999999999654
 50
180.0
 51
228.65645515218148
  0
ARC
  8
OUTLINE
  6
CONTINUOUS
 62
     3
 10
-652.85163095437554
 20
-83.295771045991728
 30
0.0
 40
6.1492524420546459
 50
130.28484067851161
 51
180.97120181881382
  0
LINE
  8
OUTLINE
  6
CONTINUOUS
 62
     3
 10
-659.00000000000546
 20
-83.400000000003274
 30
0.0
 11
-659.00000000000546
 21
-86.999999999994543
 31
0.0
  0
LINE
  8
OUTLINE
  6
CONTINUOUS
 62
     3
 10
-659.00000000000546
 20
-86.999999999994543
 30
0.0
 11
-655.80000000000109
 21
-86.999999999994543
 31
0.0
  0
LINE
  8
OUTLINE
  6
CONTINUOUS
 62
     3
 10
-655.80000000000109
 20
-86.999999999994543
 30
0.0
 11
-655.80000000000473
 21
-83.400000000003274
 31
0.0
  0
ARC
  8
OUTLINE
  6
CONTINUOUS
 62
     3
 10
-652.600000000004
 20
-83.400000000003757
 30
0.0
 40
3.200000000000752
 50
90.0
 51
180.0
  0
LINE
  8
OUTLINE
  6
CONTINUOUS
 62
     3
 10
-652.600000000004
 20
-80.200000000003001
 30
0.0
 11
-646.89722442200764
 21
-80.200000000006185
 31
0.0
  0
LINE
  8
OUTLINE
  6
CONTINUOUS
 62
     3
 10
-646.89722442200764
 20
-80.200000000006185
 30
0.0
 11
-646.89722442198581
 21
-96.300000000008367
 31
0.0
  0
LINE
  8
OUTLINE
  6
CONTINUOUS
 62
     3
 10
-646.89722442198581
 20
-96.300000000008367
 30
0.0
 11
-724.20000000000255
 21
-96.300000000009277
 31
0.0
  0
LINE
  8
OUTLINE
  6
CONTINUOUS
 62
     3
 10
-724.20000000000255
 20
-96.300000000009277
 30
0.0
 11
-724.20000000000255
 21
-97.151087470702805
 31
0.0
  0
ARC
  8
OUTLINE
  6
CONTINUOUS
 62
     3
 10
-723.400000000001
 20
-98.299999999999258
 30
0.0
 40
1.3999999999917083
 50
124.84990457935925
 51
145.15009542139018
  0
LINE
  8
OUTLINE
  6
CONTINUOUS
 62
     3
 10
-724.54891252930793
 20
-97.500000000012733
 30
0.0
 11
-725.39999999999964
 21
-97.500000000012733
 31
0.0
  0
LINE
  8
OUTLINE
  6
CONTINUOUS
 62
     3
 10
-725.39999999999964
 20
-97.500000000012733
 30
0.0
 11
-725.39999999999964
 21
-356.70000000000351
 31
0.0
  0
LINE
  8
OUTLINE
  6
CONTINUOUS
 62
     3
 10
-725.39999999999964
 20
-356.70000000000351
 30
0.0
 11
-724.54891252930793
 21
-356.70000000000249
 31
0.0
  0
ARC
  8
OUTLINE
  6
CONTINUOUS
 62
     3
 10
-723.39999999999793
 20
-355.90000000001601
 30
0.0
 40
1.3999999999942934
 50
214.84990457853655
 51
235.1500954205593
  0
LINE
  8
OUTLINE
  6
CONTINUOUS
 62
     3
 10
-724.20000000000255
 20
-357.04891252931338
 30
0.0
 11
-724.20000000000255
 21
-357.90000000000691
 31
0.0
  0
LINE
  8
OUTLINE
  6
CONTINUOUS
 62
     3
 10
-724.20000000000255
 20
-357.90000000000691
 30
0.0
 11
-644.19989396783967
 21
-357.9000207062586
 31
0.0
  0
ARC
  8
OUTLINE
  6
CONTINUOUS
 62
     3
 10
-589.10000000000912
 20
-357.79192476399737
 30
0.0
 40
55.099999999990004
 50
180.11240372498844
 51
230.59022140897878
  0
LINE
  8
OUTLINE
  6
CONTINUOUS
 62
     3
 10
-624.08091743124533
 20
-400.36357513919347
 30
0.0
 11
-623.70110091753668
 21
-399.89909756663337
 31
0.0
  0
LINE
  8
OUTLINE
  6
CONTINUOUS
 62
     3
 10
-623.70110091753668
 20
-399.89909756663337
 30
0.0
 11
-623.10000000000582
 21
-399.89999999798511
 31
0.0
  0
ARC
  8
OUTLINE
  6
CONTINUOUS
 62
     3
 10
-623.10000000000582
 20
-400.49999999798791
 30
0.0
 40
0.6000000000028364
 50
90.0
 51
270.0
  0
LINE
  8
OUTLINE
  6
CONTINUOUS
 62
     3
 10
-623.10000000000582
 20
-401.09999999799078
 30
0.0
 11
-613.90110091753741
 21
-401.09909756663768
 31
0.0
  0
ARC
  8
OUTLINE
  6
CONTINUOUS
 62
     3
 10
-613.901100917544
 20
-399.89909756663042
 30
0.0
 40
1.2000000000072928
 50
270.0
 51
0.0
  0
LINE
  8
OUTLINE
  6
CONTINUOUS
 62
     3
 10
-612.70110091753668
 20
-399.89909756663337
 30
0.0
 11
-612.69999999999527
 21
-400.59999999999133
 31
0.0
  0
LINE
  8
OUTLINE
  6
CONTINUOUS
 62
     3
 10
-612.69999999999527
 20
-400.59999999999133
 30
0.0
 11
-609.19999999999527
 21
-400.59999999999133
 31
0.0
  0
LINE
  8
OUTLINE
  6
CONTINUOUS
 62
     3
 10
-609.19999999999527
 20
-400.59999999999133
 30
0.0
 11
-609.19999999999709
 21
-402.19999999999533
 31
0.0
  0
ARC
  8
OUTLINE
  6
CONTINUOUS
 62
     3
 10
-609.70000000000982
 20
-402.19999999998981
 30
0.0
 40
0.5000000000127022
 50
270.0
 51
0.0
  0
LINE
  8
OUTLINE
  6
CONTINUOUS
 62
     3
 10
-609.70000000001164
 20
-402.70000000000249
 30
0.0
 11
-611.20000000000437
 21
-402.70000000000482
 31
0.0
  0
LINE
  8
OUTLINE
  6
CONTINUOUS
 62
     3
 10
-611.20000000000437
 20
-402.70000000000482
 30
0.0
 11
-611.20000000000437
 21
-401.89999999999242
 31
0.0
  0
LINE
  8
OUTLINE
  6
CONTINUOUS
 62
     3
 10
-611.20000000000437
 20
-401.89999999999242
 30
0.0
 11
-614.42500000001019
 21
-401.89999999999009
 31
0.0
  0
ARC
  8
OUTLINE
  6
CONTINUOUS
 62
     3
 10
-614.44985294116054
 20
-402.94985294117089
 30
0.0
 40
1.0501470691240629
 50
88.643902710272812
 51
269.99197650410167
  0
LINE
  8
OUTLINE
  6
CONTINUOUS
 62
     3
 10
-614.44999999999709
 20
-403.99999999999818
 30
0.0
 11
-609.37127970399706
 21
-403.99999999999818
 31
0.0
  0
ARC
  8
OUTLINE
  6
CONTINUOUS
 62
     3
 10
-609.37127970398012
 20
-402.40000000001811
 30
0.0
 40
1.5999999999800623
 50
270.0
 51
350.00000000028103
  0
LINE
  8
OUTLINE
  6
CONTINUOUS
 62
     3
 10
-607.79558729917881
 20
-402.67783708427402
 30
0.0
 11
-607.69999999999709
 21
-402.13573456878839
 31
0.0
  0
LINE
  8
OUTLINE
  6
CONTINUOUS
 62
     3
 10
-607.69999999999709
 20
-402.13573456878839
 30
0.0
 11
-607.69999999999527
 21
-403.20000000000982
 31
0.0
  0
LINE
  8
OUTLINE
  6
CONTINUOUS
 62
     3
 10
-607.69999999999527
 20
-403.20000000000982
 30
0.0
 11
-606.29999999999382
 21
-403.20000000000982
 31
0.0
  0
LINE
  8
OUTLINE
  6
CONTINUOUS
 62
     3
 10
-606.29999999999382
 20
-403.20000000000982
 30
0.0
 11
-606.29999999999382
 21
-403.99999999999818
 31
0.0
  0
LINE
  8
OUTLINE
  6
CONTINUOUS
 62
     3
 10
-606.29999999999382
 20
-403.99999999999818
 30
0.0
 11
606.29999999999745
 21
-404.00000000000642
 31
0.0
  0
LINE
  8
OUTLINE
  6
CONTINUOUS
 62
     3
 10
606.29999999999745
 20
-404.00000000000642
 30
0.0
 11
606.300000000002
 21
-401.29999999999558
 31
0.0
  0
LINE
  8
OUTLINE
  6
CONTINUOUS
 62
     3
 10
606.300000000002
 20
-401.29999999999558
 30
0.0
 11
607.53500474999873
 21
-401.29999999999558
 31
0.0
  0
LINE
  8
OUTLINE
  6
CONTINUOUS
 62
     3
 10
607.53500474999873
 20
-401.29999999999558
 30
0.0
 11
607.79558730000099
 21
-402.67783708401021
 31
0.0
  0
ARC
  8
OUTLINE
  6
CONTINUOUS
 62
     3
 10
609.37127970686197
 20
-402.39999999763921
 30
0.0
 40
1.6000000023757766
 50
190.00000006150162
 51
270.0
  0
LINE
  8
OUTLINE
  6
CONTINUOUS
 62
     3
 10
609.37127970599795
 20
-404.00000000001501
 30
0.0
 11
614.45000000000255
 21
-404.00000000000642
 31
0.0
  0
ARC
  8
OUTLINE
  6
CONTINUOUS
 62
     3
 10
614.44985294113098
 20
-402.94985294118038
 30
0.0
 40
1.0501470691228294
 50
270.00802349780884
 51
91.356097289009085
  0
LINE
  8
OUTLINE
  6
CONTINUOUS
 62
     3
 10
614.42499999999382
 20
-401.90000000000049
 30
0.0
 11
611.19999999999527
 21
-401.89999999998599
 31
0.0
  0
LINE
  8
OUTLINE
  6
CONTINUOUS
 62
     3
 10
611.19999999999527
 20
-401.89999999998599
 30
0.0
 11
611.19999999999527
 21
-402.70000000000351
 31
0.0
  0
LINE
  8
OUTLINE
  6
CONTINUOUS
 62
     3
 10
611.19999999999527
 20
-402.70000000000351
 30
0.0
 11
609.69999999999891
 21
-402.70000000000351
 31
0.0
  0
ARC
  8
OUTLINE
  6
CONTINUOUS
 62
     3
 10
609.70000000000061
 20
-402.20000000000545
 30
0.0
 40
0.4999999999980495
 50
180.0
 51
270.0
  0
LINE
  8
OUTLINE
  6
CONTINUOUS
 62
     3
 10
609.20000000000255
 20
-402.20000000000351
 30
0.0
 11
609.20000000000255
 21
-127.0000000001323
 31
0.0
  0
LINE
  8
OUTLINE
  6
CONTINUOUS
 62
     3
 10
609.20000000000255
 20
-127.0000000001323
 30
0.0
 11
612.39999999999964
 21
-127.00000000001729
 31
0.0
  0
LINE
  8
OUTLINE
  6
CONTINUOUS
 62
     3
 10
612.39999999999964
 20
-127.00000000001729
 30
0.0
 11
612.40000000000327
 21
-83.400000000018736
 31
0.0
  0
ARC
  8
OUTLINE
  6
CONTINUOUS
 62
     3
 10
615.602817668792
 20
-83.401167116646221
 30
0.0
 40
3.2028178814391457
 50
91.839639656244913
 51
179.97912124232164
  0
LINE
  8
OUTLINE
  6
CONTINUOUS
 62
     3
 10
615.50000000000546
 20
-80.200000000007094
 30
0.0
 11
652.600000000004
 21
-80.200000000022555
 31
0.0
  0
ARC
  8
OUTLINE
  6
CONTINUOUS
 62
     3
 10
652.60000000000264
 20
-83.400000000020981
 30
0.0
 40
3.1999999999984237
 50
0.0
 51
90.0
  0
LINE
  8
OUTLINE
  6
CONTINUOUS
 62
     3
 10
655.80000000000109
 20
-83.400000000022374
 30
0.0
 11
655.80000000000109
 21
-87.00000000001728
 31
0.0
  0
LINE
  8
OUTLINE
  6
CONTINUOUS
 62
     3
 10
655.80000000000109
 20
-87.00000000001728
 30
0.0
 11
659.00000000000546
 21
-87.00000000001728
 31
0.0
  0
LINE
  8
OUTLINE
  6
CONTINUOUS
 62
     3
 10
659.00000000000546
 20
-87.00000000001728
 30
0.0
 11
659.00000000000546
 21
-83.400000000022374
 31
0.0
  0
ARC
  8
OUTLINE
  6
CONTINUOUS
 62
     3
 10
652.60000000000468
 20
-83.400000000023653
 30
0.0
 40
6.4000000000007766
 50
0.0
 51
48.590377890814864
  0
ARC
  8
OUTLINE
  6
CONTINUOUS
 62
     3
 10
652.60000000000377
 20
-73.800000000009419
 30
0.0
 40
6.4000000000016728
 50
311.40962210918883
 51
0.0
  0
LINE
  8
OUTLINE
  6
CONTINUOUS
 62
     3
 10
659.00000000000546
 20
-73.800000000012915
 30
0.0
 11
659.00000000000546
 21
-70.20000000001437
 31
0.0
  0
LINE
  8
OUTLINE
  6
CONTINUOUS
 62
     3
 10
659.00000000000546
 20
-70.20000000001437
 30
0.0
 11
655.80000000000109
 21
-70.20000000001437
 31
0.0
  0
LINE
  8
OUTLINE
  6
CONTINUOUS
 62
     3
 10
655.80000000000109
 20
-70.20000000001437
 30
0.0
 11
655.80000000000109
 21
-73.800000000012915
 31
0.0
  0
ARC
  8
OUTLINE
  6
CONTINUOUS
 62
     3
 10
652.60000000000582
 20
-73.80000000001742
 30
0.0
 40
3.1999999999953181
 50
270.0
 51
0.0
  0
LINE
  8
OUTLINE
  6
CONTINUOUS
 62
     3
 10
652.600000000004
 20
-77.000000000012733
 30
0.0
 11
615.600000000004
 21
-77.000000000017735
 31
0.0
  0
ARC
  8
OUTLINE
  6
CONTINUOUS
 62
     3
 10
615.59999999995648
 20
-83.399999999971698
 30
0.0
 40
6.3999999999539581
 50
90.0
 51
180.0
  0
LINE
  8
SIZE
  6
CONTINUOUS
 62
    30
 10
950.78204833322843
 20
-317.67719763007602
 30
0.0
 11
589.95979051668724
 21
-262.28225649691262
 31
0.0
  0
LINE
  8
SIZE
  6
CONTINUOUS
 62
    30
 10
327.04020948330418
 20
-221.91774350307881
 30
0.0
 11
315.17917575247492
 21
-220.09678802967269
 31
0.0
  0
TEXT
  8
SIZE
  6
CONTINUOUS
 62
    30
 10
716.75972002184153
 20
-256.45620660039515
 30
0.0
 40
64.0
  1
φ242
 50
351.27185983323915
 41
0.9
 51
0.0
  7
STANDARD
 71
     0
 72
     1
 11
830.91030864734364
 21
-273.98108207645498
 31
0.0
210
0.0
220
0.0
230
1.0
  0
LINE
  8
SIZE
  6
CONTINUOUS
 62
    30
 10
338.90124321413361
 20
-223.73869897648481
 30
0.0
 11
578.09875678585786
 21
-260.46130102350662
 31
0.0
  0
CIRCLE
  8
SIZE
  6
CONTINUOUS
 62
    30
 10
338.90124321413361
 20
-223.73869897648481
 30
0.0
 40
6.0
  0
LINE
  8
SIZE
  6
CONTINUOUS
 62
    30
 10
338.90124321413361
 20
-223.73869897648481
 30
0.0
 11
327.04020948330424
 21
-221.91774350307875
 31
0.0
  0
CIRCLE
  8
SIZE
  6
CONTINUOUS
 62
    30
 10
578.09875678585786
 20
-260.46130102350662
 30
0.0
 40
6.0
  0
LINE
  8
SIZE
  6
CONTINUOUS
 62
    30
 10
578.09875678585786
 20
-260.46130102350662
 30
0.0
 11
589.95979051668724
 21
-262.28225649691268
 31
0.0
  0
POINT
  8
DEFPOINTS
  6
CONTINUOUS
 62
    30
 10
578.09875678585786
 20
-260.46130102350662
 30
0.0
  0
POINT
  8
DEFPOINTS
  6
CONTINUOUS
 62
    30
 10
338.90124321413361
 20
-223.73869897648481
 30
0.0
  0
LINE
  8
SIZE
  6
CONTINUOUS
 62
    30
 10
859.04677926913303
 20
-473.35515829818519
 30
0.0
 11
580.60966543277186
 21
-312.59985537499381
 31
0.0
  0
LINE
  8
SIZE
  6
CONTINUOUS
 62
    30
 10
336.39033456722092
 20
-171.6001446249974
 30
0.0
 11
325.9980226154953
 21
-165.6001569335082
 31
0.0
  0
TEXT
  8
SIZE
  6
CONTINUOUS
 62
    30
 10
663.67775047999658
 20
-331.69161173879149
 30
0.0
 40
64.0
  1
φ258
 50
330.0000678603534
 41
0.9
 51
0.0
  7
STANDARD
 71
     0
 72
     1
 11
763.19452972972056
 21
-389.14749387249219
 31
0.0
210
0.0
220
0.0
230
1.0
  0
LINE
  8
SIZE
  6
CONTINUOUS
 62
    30
 10
346.78264651894642
 20
-177.60013231648659
 30
0.0
 11
570.2173534810463
 21
-306.59986768350461
 31
0.0
  0
CIRCLE
  8
SIZE
  6
CONTINUOUS
 62
    30
 10
346.78264651894642
 20
-177.60013231648659
 30
0.0
 40
6.0
  0
LINE
  8
SIZE
  6
CONTINUOUS
 62
    30
 10
346.78264651894642
 20
-177.60013231648659
 30
0.0
 11
336.39033456722086
 21
-171.60014462499737
 31
0.0
  0
CIRCLE
  8
SIZE
  6
CONTINUOUS
 62
    30
 10
570.2173534810463
 20
-306.59986768350461
 30
0.0
 40
6.0
  0
LINE
  8
SIZE
  6
CONTINUOUS
 62
    30
 10
570.2173534810463
 20
-306.59986768350461
 30
0.0
 11
580.60966543277186
 21
-312.59985537499381
 31
0.0
  0
POINT
  8
DEFPOINTS
  6
CONTINUOUS
 62
    30
 10
570.2173534810463
 20
-306.59986768350461
 30
0.0
  0
POINT
  8
DEFPOINTS
  6
CONTINUOUS
 62
    30
 10
346.78264651894642
 20
-177.60013231648659
 30
0.0
  0
TEXT
  8
NOTE
  6
CONTINUOUS
 62
     4
 10
-508.070289650017
 20
-272.66989812889011
 30
0.0
 40
64.065641025638456
  1
SA
 41
0.9
  0
TEXT
  8
NOTE
  6
CONTINUOUS
 62
     4
 10
407.66608610349073
 20
-272.66989812889011
 30
0.0
 40
64.065641025638456
  1
RA
 41
0.9
  0
TEXT
  8
ETC
  6
CONTINUOUS
 62
    61
 10
1010.920658872412
 20
821.03043395704753
 30
0.0
 40
64.065641025638456
  1
LGH-100RVX3-E_2
 41
0.9
  0
TEXT
  8
ETC
  6
CONTINUOUS
 62
    61
 10
1006.730371545233
 20
702.95414413707704
 30
0.0
 40
64.065641025638456
  1
LOSSNAY
 41
0.9
  0
TEXT
  8
ETC
  6
CONTINUOUS
 62
    61
 10
1057.4837712278861
 20
594.69444943251085
 30
0.0
 40
40.041025641024042
  1
LGH-100RVX3-E
 50
0.0
 41
0.9
 51
0.0
  7
STANDARD
 71
     0
 11
0.0
 21
0.0
 31
0.0
210
0.0
220
0.0
230
1.0
  0
TEXT
  8
NOTE
  6
CONTINUOUS
 62
     4
 10
780.50887788135515
 20
372.50918863466541
 30
0.0
 40
69.0
  1
Ceiling suspension fixture
 50
0.0
 41
0.9
 51
0.0
  7
STANDARD
 71
     0
 11
0.0
 21
0.0
 31
0.0
210
0.0
220
0.0
230
1.0
  0
TEXT
  8
NOTE
  6
CONTINUOUS
 62
     4
 10
780.50887788135515
 20
258.65918863466538
 30
0.0
 40
69.0
  1
(4-13X20 oval)
 50
0.0
 41
0.9
 51
0.0
  7
STANDARD
 71
     0
 11
0.0
 21
0.0
 31
0.0
210
0.0
220
0.0
230
1.0
  0
LINE
  8
NOTE
  6
CONTINUOUS
 62
     4
 10
770.50887788135515
 20
221.3663314918081
 30
0.0
 11
1987.0231635956411
 21
221.3663314918081
 31
0.0
  0
LINE
  8
NOTE
  6
CONTINUOUS
 62
     4
 10
660.88655508796103
 20
-48.122154461245977
 30
0.0
 11
639.00000488964361
 21
-77.000009185567706
 31
0.0
  0
LINE
  8
NOTE
  6
CONTINUOUS
 62
     4
 10
639.00000488964361
 20
-77.000009185567706
 30
0.0
 11
643.51533182243475
 21
-41.047771483965441
 31
0.0
  0
LINE
  8
NOTE
  6
CONTINUOUS
 62
     4
 10
639.00000488964361
 20
-77.000009185567706
 30
0.0
 11
665.40188202075217
 21
-12.169916759643712
 31
0.0
  0
LINE
  8
NOTE
  6
CONTINUOUS
 62
     4
 10
665.40188202075205
 20
-12.169916759643669
 30
0.0
 11
760.50887788135515
 21
221.3663314918081
 31
0.0
  0
LINE
  8
NOTE
  6
CONTINUOUS
 62
     4
 10
760.50887788135515
 20
221.3663314918081
 30
0.0
 11
770.50887788135515
 21
221.3663314918081
 31
0.0
  0
TEXT
  8
NOTE
  6
CONTINUOUS
 62
     4
 10
-1411.0315292034784
 20
-536.96293987662102
 30
0.0
 40
69.0
  1
Power supply
 50
0.0
 41
0.9
 51
0.0
  7
STANDARD
 71
     0
 72
     2
 11
-806.79852920347821
 21
-536.96293987662102
 31
0.0
210
0.0
220
0.0
230
1.0
  0
TEXT
  8
NOTE
  6
CONTINUOUS
 62
     4
 10
-1438.9765292034783
 20
-650.81293987662104
 30
0.0
 40
69.0
  1
cable opening
 50
0.0
 41
0.9
 51
0.0
  7
STANDARD
 71
     0
 72
     2
 11
-806.79852920347821
 21
-650.81293987662104
 31
0.0
210
0.0
220
0.0
230
1.0
  0
LINE
  8
NOTE
  6
CONTINUOUS
 62
     4
 10
-796.79852920347821
 20
-674.96293987662102
 30
0.0
 11
-1448.498529203478
 21
-674.96293987662102
 31
0.0
  0
LINE
  8
NOTE
  6
CONTINUOUS
 62
     4
 10
-716.79078725759064
 20
-347.73855283939633
 30
0.0
 11
-699.40000000000055
 21
-315.94999999998981
 31
0.0
  0
LINE
  8
NOTE
  6
CONTINUOUS
 62
     4
 10
-699.40000000000055
 20
-315.94999999998981
 30
0.0
 11
-698.56653254801267
 21
-352.17508668130745
 31
0.0
  0
LINE
  8
NOTE
  6
CONTINUOUS
 62
     4
 10
-699.40000000000055
 20
-315.94999999998981
 30
0.0
 11
-715.95731980560276
 21
-383.96363952071397
 31
0.0
  0
LINE
  8
NOTE
  6
CONTINUOUS
 62
     4
 10
-715.95731980560276
 20
-383.96363952071403
 30
0.0
 11
-786.79852920347821
 21
-674.96293987662102
 31
0.0
  0
LINE
  8
NOTE
  6
CONTINUOUS
 62
     4
 10
-786.79852920347821
 20
-674.96293987662102
 30
0.0
 11
-796.79852920347821
 21
-674.96293987662102
 31
0.0
  0
ENDSEC
  0
EOF
