  0
SECTION
  2
HEADER
  9
$ACADVER
  1
AC1009
  9
$DWGCODEPAGE
  3
dos932
  9
$INSBASE
 10
0.0
 20
0.0
 30
0.0
  9
$EXTMIN
 10
-884.16593833147454
 20
-1139.7857557048389
 30
-0.0000000349181948
  9
$EXTMAX
 10
2362.458814392397
 20
843.38379737849209
 30
0.0000000814935746
  9
$LIMMIN
 10
-2970.0
 20
-2100.0
  9
$LIMMAX
 10
2970.0
 20
2100.0
  9
$ORTHOMODE
 70
     1
  9
$REGENMODE
 70
     1
  9
$FILLMODE
 70
     1
  9
$QTEXTMODE
 70
     0
  9
$MIRRTEXT
 70
     0
  9
$LTSCALE
 40
20.0
  9
$ATTMODE
 70
     1
  9
$TEXTSIZE
 40
64.0
  9
$TRACEWID
 40
0.05
  9
$TEXTSTYLE
  7
STANDARD
  9
$CLAYER
  8
SIZE
  9
$CELTYPE
  6
CONTINUOUS
  9
$CECOLOR
 62
     7
  9
$DIMSCALE
 40
1.0
  9
$DIMASZ
 40
12.0
  9
$DIMEXO
 40
20.0
  9
$DIMDLI
 40
200.0
  9
$DIMRND
 40
0.0
  9
$DIMDLE
 40
0.0
  9
$DIMEXE
 40
20.0
  9
$DIMTP
 40
0.0
  9
$DIMTM
 40
0.0
  9
$DIMTXT
 40
64.0
  9
$DIMCEN
 40
0.09
  9
$DIMTSZ
 40
0.0
  9
$DIMTOL
 70
     0
  9
$DIMLIM
 70
     0
  9
$DIMTIH
 70
     0
  9
$DIMTOH
 70
     0
  9
$DIMSE1
 70
     0
  9
$DIMSE2
 70
     0
  9
$DIMTAD
 70
     1
  9
$DIMZIN
 70
     8
  9
$DIMBLK
  1

  9
$DIMASO
 70
     1
  9
$DIMSHO
 70
     0
  9
$DIMPOST
  1

  9
$DIMAPOST
  1

  9
$DIMALT
 70
     0
  9
$DIMALTD
 70
     2
  9
$DIMALTF
 40
25.399999999999999
  9
$DIMLFAC
 40
1.0
  9
$DIMTOFL
 70
     1
  9
$DIMTVP
 40
0.0
  9
$DIMTIX
 70
     1
  9
$DIMSOXD
 70
     0
  9
$DIMSAH
 70
     0
  9
$DIMBLK1
  1

  9
$DIMBLK2
  1

  9
$DIMSTYLE
  2
STANDARD
  9
$DIMCLRD
 70
     7
  9
$DIMCLRE
 70
     7
  9
$DIMCLRT
 70
     7
  9
$DIMTFAC
 40
1.0
  9
$DIMGAP
 40
25.0
  9
$LUNITS
 70
     2
  9
$LUPREC
 70
     4
  9
$SKETCHINC
 40
0.1
  9
$FILLETRAD
 40
3.0
  9
$AUNITS
 70
     1
  9
$AUPREC
 70
     3
  9
$MENU
  1
ACAD
  9
$ELEVATION
 40
0.0
  9
$PELEVATION
 40
0.0
  9
$THICKNESS
 40
0.0
  9
$LIMCHECK
 70
     0
  9
$CHAMFERA
 40
0.0
  9
$CHAMFERB
 40
0.0
  9
$SKPOLY
 70
     0
  9
$TDCREATE
 40
2453019.62301037
  9
$TDUPDATE
 40
2460045.4294764
  9
$TDINDWG
 40
1.7144025579
  9
$TDUSRTIMER
 40
1.7144025579
  9
$USRTIMER
 70
     1
  9
$ANGBASE
 50
0.0
  9
$ANGDIR
 70
     0
  9
$PDMODE
 70
     3
  9
$PDSIZE
 40
-2.0
  9
$PLINEWID
 40
0.0
  9
$SPLFRAME
 70
     0
  9
$SPLINETYPE
 70
     6
  9
$SPLINESEGS
 70
     8
  9
$SURFTAB1
 70
     6
  9
$SURFTAB2
 70
     6
  9
$SURFTYPE
 70
     6
  9
$SURFU
 70
     6
  9
$SURFV
 70
     6
  9
$UCSNAME
  2

  9
$UCSORG
 10
0.0
 20
0.0
 30
0.0
  9
$UCSXDIR
 10
1.0
 20
0.0
 30
0.0
  9
$UCSYDIR
 10
0.0
 20
1.0
 30
0.0
  9
$PUCSNAME
  2

  9
$PUCSORG
 10
0.0
 20
0.0
 30
0.0
  9
$PUCSXDIR
 10
1.0
 20
0.0
 30
0.0
  9
$PUCSYDIR
 10
0.0
 20
1.0
 30
0.0
  9
$USERI1
 70
     0
  9
$USERI2
 70
     0
  9
$USERI3
 70
     0
  9
$USERI4
 70
     0
  9
$USERI5
 70
     0
  9
$USERR1
 40
20.0
  9
$USERR2
 40
0.0
  9
$USERR3
 40
0.0
  9
$USERR4
 40
0.0
  9
$USERR5
 40
0.0
  9
$WORLDVIEW
 70
     1
  9
$SHADEDGE
 70
     3
  9
$SHADEDIF
 70
    70
  9
$TILEMODE
 70
     1
  9
$MAXACTVP
 70
    48
  9
$PINSBASE
 10
0.0
 20
0.0
 30
0.0
  9
$PLIMCHECK
 70
     0
  9
$PEXTMIN
 10
-100000000000000000000.0
 20
-100000000000000000000.0
 30
-100000000000000000000.0
  9
$PEXTMAX
 10
100000000000000000000.0
 20
100000000000000000000.0
 30
100000000000000000000.0
  9
$PLIMMIN
 10
0.0
 20
0.0
  9
$PLIMMAX
 10
12.0
 20
9.0
  9
$UNITMODE
 70
     0
  9
$VISRETAIN
 70
     0
  9
$PLINEGEN
 70
     0
  9
$PSLTSCALE
 70
     0
  9
$TREEDEPTH
 70
  3020
  9
$ATTDIA
 70
     0
  9
$ATTREQ
 70
     1
  9
$BLIPMODE
 70
     1
  9
$COORDS
 70
     1
  9
$DRAGMODE
 70
     2
  9
$OSMODE
 70
     0
  9
$HANDLING
 70
     0
  9
$HANDSEED
  5
F878
  0
ENDSEC
  0
SECTION
  2
TABLES
  0
TABLE
  2
LTYPE
 70
     2
  0
LTYPE
  2
CONTINUOUS
 70
     0
  3
実線
 72
    65
 73
     0
 40
0.0
  0
LTYPE
  2
DASHDOT
 70
     0
  3
____ _ ____ _ ____ _ ____ _ ____ _ ____ _ ____
 72
    65
 73
     4
 40
5.5
 49
4.0
 49
-0.6
 49
0.3
 49
-0.6
  0
ENDTAB
  0
TABLE
  2
LAYER
 70
    12
  0
LAYER
  2
0
 70
     0
 62
     7
  6
CONTINUOUS
  0
LAYER
  2
BASIS
 70
     0
 62
     6
  6
DASHDOT
  0
LAYER
  2
OUTLINE
 70
     0
 62
     3
  6
CONTINUOUS
  0
LAYER
  2
DETAIL
 70
     0
 62
     5
  6
CONTINUOUS
  0
LAYER
  2
SIZE
 70
     0
 62
    30
  6
CONTINUOUS
  0
LAYER
  2
ARRANGE
 70
     0
 62
     1
  6
CONTINUOUS
  0
LAYER
  2
DEFPOINTS
 70
     0
 62
     7
  6
CONTINUOUS
  0
LAYER
  2
ETC
 70
     0
 62
    61
  6
CONTINUOUS
  0
LAYER
  2
FIX
 70
     0
 62
    11
  6
CONTINUOUS
  0
LAYER
  2
NOTE
 70
     0
 62
     4
  6
CONTINUOUS
  0
LAYER
  2
SERVICESPACE
 70
    64
 62
     2
  6
DASHDOT
  0
LAYER
  2
SYMBOLLINE
 70
    64
 62
    15
  6
CONTINUOUS
  0
ENDTAB
  0
TABLE
  2
STYLE
 70
     1
  0
STYLE
  2
STANDARD
 70
     0
 40
64.0
 41
0.9
 50
0.0
 71
     0
 42
64.0
  3
SIMPLEX.shx
  4
BIGFONT.shx
  0
ENDTAB
  0
TABLE
  2
APPID
 70
    20
  0
APPID
  2
ACAD
 70
     0
  0
APPID
  2
AUTOCAD_POSTSCRIPT_FIGURE
 70
     0
  0
APPID
  2
ACAD_EXEMPT_FROM_CAD_STANDARDS
 70
     0
  0
APPID
  2
ACAD_PSEXT
 70
     0
  0
APPID
  2
ACAUTHENVIRON
 70
     0
  0
APPID
  2
GENIUS_GENOENT_13
 70
     0
  0
APPID
  2
GENIUS_GENCFG_13
 70
     0
  0
APPID
  2
GENIUS_GENCFG0_13
 70
     0
  0
APPID
  2
GENIUS_GENCFG1_13
 70
     0
  0
APPID
  2
GENIUS_GENCFG2_13
 70
     0
  0
APPID
  2
GENIUS_GENCFG3_13
 70
     0
  0
APPID
  2
GENIUS_GENCFG4_13
 70
     0
  0
APPID
  2
GENIUS_GEVCFG0_13
 70
     0
  0
APPID
  2
CONTENTBLOCKICON
 70
     0
  0
APPID
  2
CONTENTBLOCKDESCRIPTION
 70
     0
  0
APPID
  2
ACAD_NAV_VCDISPLAY
 70
     0
  0
APPID
  2
ACAD_MLEADERVER
 70
     0
  0
APPID
  2
ACDBDYNAMICBLOCKTRUENAME
 70
     0
  0
APPID
  2
ACDBDYNAMICBLOCKGUID
 70
     0
  0
APPID
  2
ACAD_DSTYLE_DIMRADIAL_EXTENSION
 70
     0
  0
ENDTAB
  0
TABLE
  2
DIMSTYLE
 70
     1
  0
DIMSTYLE
  2
STANDARD
 70
     0
  3

  4

  5
_ORIGIN
  6

  7

 40
1.0
 41
12.0
 42
20.0
 43
200.0
 44
20.0
 45
0.0
 46
0.0
 47
0.0
 48
0.0
140
64.0
141
0.09
142
0.0
143
25.399999999999999
144
1.0
145
0.0
146
1.0
147
25.0
 71
     0
 72
     0
 73
     0
 74
     0
 75
     0
 76
     0
 77
     1
 78
     8
170
     0
171
     2
172
     1
173
     0
174
     1
175
     0
176
     7
177
     7
178
     7
  0
ENDTAB
  0
TABLE
  2
VIEW
 70
     1
  0
VIEW
  2
ALL
 70
     0
 40
4282.6198079999986
 10
0.0
 20
41.309904000000003
 41
5940.0
 11
0.0
 21
0.0
 31
1.0
 12
0.0
 22
0.0
 32
0.0
 42
50.0
 43
0.0
 44
0.0
 50
0.0
 71
     0
  0
ENDTAB
  0
TABLE
  2
UCS
 70
     0
  0
ENDTAB
  0
TABLE
  2
VPORT
 70
     1
  0
VPORT
  2
*ACTIVE
 70
     0
 10
0.0
 20
0.0
 11
1.0
 21
1.0
 12
739.1464380304617
 22
-148.20097916317351
 13
0.0
 23
0.0
 14
1.0
 24
1.0
 15
0.0
 25
0.0
 16
0.0
 26
0.0
 36
1.0
 17
0.0
 27
0.0
 37
0.0
 40
1729.0110677033199
 41
1.932291666666667
 42
50.0
 43
0.0
 44
0.0
 50
0.0
 51
0.0
 71
     0
 72
  1000
 73
     1
 74
     3
 75
     0
 76
     0
 77
     0
 78
     0
  0
ENDTAB
  0
ENDSEC
  0
SECTION
  2
BLOCKS
  0
BLOCK
  8
0
  2
_ORIGIN
 70
     0
 10
0.0
 20
0.0
 30
0.0
  3
_ORIGIN
  1
_ORIGIN
  0
CIRCLE
  8
0
  6
CONTINUOUS
 62
     7
 10
0.0
 20
0.0
 30
0.0
 40
0.5
  0
LINE
  8
0
  6
CONTINUOUS
 62
     7
 10
0.0
 20
0.0
 30
0.0
 11
-1.0
 21
0.0
 31
0.0
  0
ENDBLK
  8
0
  0
ENDSEC
  0
SECTION
  2
ENTITIES
  0
LINE
  8
DETAIL
  6
CONTINUOUS
 62
     5
 10
-530.69999999999345
 20
-105.09999999801219
 30
0.0
 11
-530.69999999999345
 21
-46.308075234008363
 31
0.0
  0
LINE
  8
DETAIL
  6
CONTINUOUS
 62
     5
 10
-505.09999999999673
 20
-3.5999999999967258
 30
0.0
 11
-505.09999999999673
 21
-4.2000000000025466
 31
0.0
  0
LINE
  8
DETAIL
  6
CONTINUOUS
 62
     5
 10
-500.69999999999351
 20
-403.20000000000249
 30
0.0
 11
-500.69999999999351
 21
-402.69999999998799
 31
0.0
  0
LINE
  8
DETAIL
  6
CONTINUOUS
 62
     5
 10
-500.69999999999351
 20
-1.3000000000029099
 30
0.0
 11
-500.69999999999351
 21
-0.8000000000029104
 31
0.0
  0
LINE
  8
DETAIL
  6
CONTINUOUS
 62
     5
 10
-499.19999999999351
 20
-105.09999999801219
 30
0.0
 11
-499.19999999999351
 21
-3.6000000000058212
 31
0.0
  0
LINE
  8
DETAIL
  6
CONTINUOUS
 62
     5
 10
-495.69999999999351
 20
-402.20000000000249
 30
0.0
 11
-495.69999999999351
 21
-1.8000000000029099
 31
0.0
  0
LINE
  8
DETAIL
  6
CONTINUOUS
 62
     5
 10
-495.20000000000249
 20
-2.799999999988358
 30
0.0
 11
-495.20000000000249
 21
-1.8000000000029099
 31
0.0
  0
LINE
  8
DETAIL
  6
CONTINUOUS
 62
     5
 10
-495.20000000000249
 20
-401.20000000000249
 30
0.0
 11
-495.20000000000249
 21
-402.20000000000249
 31
0.0
  0
LINE
  8
DETAIL
  6
CONTINUOUS
 62
     5
 10
-494.19999999999351
 20
-0.8000000000029104
 30
0.0
 11
-494.19999999999351
 21
-2.799999999988358
 31
0.0
  0
LINE
  8
DETAIL
  6
CONTINUOUS
 62
     5
 10
-494.19999999999351
 20
-401.20000000000249
 30
0.0
 11
-494.19999999999351
 21
-403.20000000000249
 31
0.0
  0
LINE
  8
DETAIL
  6
CONTINUOUS
 62
     5
 10
-492.84708539199892
 20
0.0
 30
0.0
 11
-492.84708539199892
 21
-0.8000000000029104
 31
0.0
  0
LINE
  8
DETAIL
  6
CONTINUOUS
 62
     5
 10
-489.80000000000109
 20
-278.18833765001
 30
0.0
 11
-489.80000000000109
 21
-205.71166234800151
 31
0.0
  0
LINE
  8
DETAIL
  6
CONTINUOUS
 62
     5
 10
-489.19999999999533
 20
-398.2000000000171
 30
0.0
 11
-489.19999999999533
 21
-397.00000000000551
 31
0.0
  0
LINE
  8
DETAIL
  6
CONTINUOUS
 62
     5
 10
-489.19999999999533
 20
-5.7000000000025466
 30
0.0
 11
-489.19999999999533
 21
-6.9000000000141881
 31
0.0
  0
LINE
  8
DETAIL
  6
CONTINUOUS
 62
     5
 10
-480.69999999999351
 20
-9.8999999999996362
 30
0.0
 11
-480.69999999999351
 21
-189.9500000000171
 31
0.0
  0
LINE
  8
DETAIL
  6
CONTINUOUS
 62
     5
 10
-480.69999999999351
 20
-293.95000000000249
 30
0.0
 11
-480.69999999999351
 21
-394.00000000000551
 31
0.0
  0
LINE
  8
DETAIL
  6
CONTINUOUS
 62
     5
 10
-495.08343350199362
 20
-1.4610814580082661
 30
0.0
 11
-494.8473460379937
 21
-2.799999999988358
 31
0.0
  0
LINE
  8
DETAIL
  6
CONTINUOUS
 62
     5
 10
-494.29558729999371
 20
-1.322162914002547
 30
0.0
 11
-494.19999999999351
 21
-1.864265431506283
 31
0.0
  0
LINE
  8
DETAIL
  6
CONTINUOUS
 62
     5
 10
-494.8473460379937
 20
-401.20000000000249
 30
0.0
 11
-495.08343350199362
 21
-402.53891854199719
 31
0.0
  0
LINE
  8
DETAIL
  6
CONTINUOUS
 62
     5
 10
-494.2109900359992
 20
-402.19806215999961
 30
0.0
 11
-494.29558729999371
 21
-402.6778370840093
 31
0.0
  0
LINE
  8
DETAIL
  6
CONTINUOUS
 62
     5
 10
-489.80000000000109
 20
-205.71166234800151
 30
0.0
 11
-480.69999999999351
 21
-189.9500000000171
 31
0.0
  0
LINE
  8
DETAIL
  6
CONTINUOUS
 62
     5
 10
-317.43655276400023
 20
-377.35234159800348
 30
0.0
 11
-316.88689240599712
 21
-379.55690888200661
 31
0.0
  0
LINE
  8
DETAIL
  6
CONTINUOUS
 62
     5
 10
-374.87229503599701
 20
-107.1384191499983
 30
0.0
 11
-375.26683360999601
 21
-104.9008797120059
 31
0.0
  0
LINE
  8
DETAIL
  6
CONTINUOUS
 62
     5
 10
-305.24334369200011
 20
-376.65384613600509
 30
0.0
 11
-305.7930040500014
 21
-374.44927885200201
 31
0.0
  0
LINE
  8
DETAIL
  6
CONTINUOUS
 62
     5
 10
-363.44914057199821
 20
-102.8171015800053
 30
0.0
 11
-363.05460199999828
 21
-105.0546410179977
 31
0.0
  0
LINE
  8
DETAIL
  6
CONTINUOUS
 62
     5
 10
-500.94999999999351
 20
0.0
 30
0.0
 11
-495.87127970399712
 21
0.0
 31
0.0
  0
LINE
  8
DETAIL
  6
CONTINUOUS
 62
     5
 10
-492.84708539199892
 20
0.0
 30
0.0
 11
492.84708539200068
 21
0.0
 31
0.0
  0
LINE
  8
DETAIL
  6
CONTINUOUS
 62
     5
 10
495.87127970599983
 20
0.0
 30
0.0
 11
500.95000000000618
 21
0.0
 31
0.0
  0
LINE
  8
DETAIL
  6
CONTINUOUS
 62
     5
 10
-500.94999999999351
 20
-0.8000000000029104
 30
0.0
 11
-495.87127970399712
 21
-0.8000000000029104
 31
0.0
  0
LINE
  8
DETAIL
  6
CONTINUOUS
 62
     5
 10
-494.19999999999351
 20
-0.8000000000029104
 30
0.0
 11
-488.51438630999661
 21
-0.8000000000029104
 31
0.0
  0
LINE
  8
DETAIL
  6
CONTINUOUS
 62
     5
 10
495.87127970599983
 20
-0.8000000000029104
 30
0.0
 11
500.95000000000618
 21
-0.8000000000029104
 31
0.0
  0
LINE
  8
DETAIL
  6
CONTINUOUS
 62
     5
 10
488.51438631000377
 20
-0.8000000000029104
 30
0.0
 11
492.84708539200068
 21
-0.8000000000029104
 31
0.0
  0
LINE
  8
DETAIL
  6
CONTINUOUS
 62
     5
 10
496.20000000000618
 20
-1.3000000000029099
 30
0.0
 11
500.95000000000618
 21
-1.3000000000029099
 31
0.0
  0
LINE
  8
DETAIL
  6
CONTINUOUS
 62
     5
 10
-495.69999999999351
 20
-2.799999999988358
 30
0.0
 11
-492.19999999999351
 21
-2.799999999988358
 31
0.0
  0
LINE
  8
DETAIL
  6
CONTINUOUS
 62
     5
 10
492.84708539200068
 20
-2.799999999990177
 30
0.0
 11
495.70000000000442
 21
-2.799999999988358
 31
0.0
  0
LINE
  8
DETAIL
  6
CONTINUOUS
 62
     5
 10
-500.39999999999958
 20
-3.1000000000058212
 30
0.0
 11
-509.59999999999673
 21
-3.000000000005457
 31
0.0
  0
LINE
  8
DETAIL
  6
CONTINUOUS
 62
     5
 10
-499.19999999999351
 20
-3.6000000000058212
 30
0.0
 11
-495.69999999999351
 21
-3.6000000000058212
 31
0.0
  0
LINE
  8
DETAIL
  6
CONTINUOUS
 62
     5
 10
-500.39999999999958
 20
-3.6999999999970901
 30
0.0
 11
-509.59999999999673
 21
-3.5999999999967258
 31
0.0
  0
LINE
  8
DETAIL
  6
CONTINUOUS
 62
     5
 10
-510.20000000000073
 20
-4.2000000000025466
 30
0.0
 11
-499.19999999999351
 21
-4.2000000000025466
 31
0.0
  0
LINE
  8
DETAIL
  6
CONTINUOUS
 62
     5
 10
-483.69999999999351
 20
-6.9000000000141881
 30
0.0
 11
-489.19999999999533
 21
-6.9000000000141881
 31
0.0
  0
LINE
  8
DETAIL
  6
CONTINUOUS
 62
     5
 10
-492.19999999999351
 20
-401.20000000000249
 30
0.0
 11
-489.19999999999533
 21
-398.2000000000171
 31
0.0
  0
LINE
  8
DETAIL
  6
CONTINUOUS
 62
     5
 10
-483.69999999999351
 20
-397.00000000000551
 30
0.0
 11
-480.69999999999351
 21
-394.00000000000551
 31
0.0
  0
LINE
  8
DETAIL
  6
CONTINUOUS
 62
     5
 10
210.3461538640004
 20
-202.24334369000459
 30
0.0
 11
212.55072114799799
 21
-202.79300404800051
 31
0.0
  0
LINE
  8
DETAIL
  6
CONTINUOUS
 62
     5
 10
209.64765840000291
 20
-214.4365527639911
 30
0.0
 11
207.44309111800791
 21
-213.88689240600979
 31
0.0
  0
LINE
  8
DETAIL
  6
CONTINUOUS
 62
     5
 10
484.18289841800112
 20
-260.44914057199088
 30
0.0
 11
481.94535898200229
 21
-260.05460200000562
 31
0.0
  0
LINE
  8
DETAIL
  6
CONTINUOUS
 62
     5
 10
479.8615808500017
 20
-271.87229503599701
 30
0.0
 11
482.09912028600053
 21
-272.26683360799689
 31
0.0
  0
LINE
  8
DETAIL
  6
CONTINUOUS
 62
     5
 10
217.6331999380036
 20
-219.05613496800831
 30
0.0
 11
218.0930087820052
 21
-219.05613496800831
 31
0.0
  0
LINE
  8
BASIS
  6
DASHDOT
 62
     6
 10
-0.0000000062627805
 20
121.5633946460093
 30
0.0
 11
0.0000003574696166
 21
-929.46339464599077
 31
0.0
  0
LINE
  8
DETAIL
  6
CONTINUOUS
 62
     5
 10
-208.0546410179995
 20
-260.05460200000562
 30
0.0
 11
-205.81710158199891
 21
-260.44914057199088
 31
0.0
  0
LINE
  8
DETAIL
  6
CONTINUOUS
 62
     5
 10
-207.9008797139995
 20
-272.26683360799689
 30
0.0
 11
-210.1384191499983
 21
-271.87229503599701
 31
0.0
  0
LINE
  8
DETAIL
  6
CONTINUOUS
 62
     5
 10
-477.44927885200201
 20
-202.79300404800051
 30
0.0
 11
-479.65384613599957
 21
-202.24334369000459
 31
0.0
  0
LINE
  8
DETAIL
  6
CONTINUOUS
 62
     5
 10
-482.55690888199211
 20
-213.88689240600979
 30
0.0
 11
-480.35234159999709
 21
-214.4365527639911
 31
0.0
  0
LINE
  8
DETAIL
  6
CONTINUOUS
 62
     5
 10
-483.69999999999351
 20
-397.00000000000551
 30
0.0
 11
-489.19999999999533
 21
-397.00000000000551
 31
0.0
  0
LINE
  8
DETAIL
  6
CONTINUOUS
 62
     5
 10
-495.69999999999351
 20
-401.20000000000249
 30
0.0
 11
-492.19999999999351
 21
-401.20000000000249
 31
0.0
  0
LINE
  8
DETAIL
  6
CONTINUOUS
 62
     5
 10
492.20000000000618
 20
-401.20000000000249
 30
0.0
 11
495.70000000000442
 21
-401.20000000000249
 31
0.0
  0
LINE
  8
DETAIL
  6
CONTINUOUS
 62
     5
 10
496.20000000000618
 20
-402.69999999998799
 30
0.0
 11
500.95000000000618
 21
-402.69999999998799
 31
0.0
  0
LINE
  8
DETAIL
  6
CONTINUOUS
 62
     5
 10
500.95000000000618
 20
-403.20000000000249
 30
0.0
 11
495.87127970599983
 21
-403.20000000000249
 31
0.0
  0
LINE
  8
DETAIL
  6
CONTINUOUS
 62
     5
 10
-500.94999999999351
 20
-403.20000000000249
 30
0.0
 11
-495.87127970399712
 21
-403.20000000000249
 31
0.0
  0
LINE
  8
DETAIL
  6
CONTINUOUS
 62
     5
 10
-489.31438631000128
 20
0.0
 30
0.0
 11
-487.21438630999728
 21
-2.1000000000058212
 31
0.0
  0
LINE
  8
DETAIL
  6
CONTINUOUS
 62
     5
 10
-480.69999999999351
 20
-9.8999999999996362
 30
0.0
 11
-483.69999999999351
 21
-6.9000000000141881
 31
0.0
  0
LINE
  8
DETAIL
  6
CONTINUOUS
 62
     5
 10
-489.19999999999533
 20
-5.7000000000025466
 30
0.0
 11
-492.19999999999351
 21
-2.799999999988358
 31
0.0
  0
LINE
  8
DETAIL
  6
CONTINUOUS
 62
     5
 10
489.31438631000668
 20
0.0
 30
0.0
 11
487.21438631000092
 21
-2.1000000000058212
 31
0.0
  0
LINE
  8
DETAIL
  6
CONTINUOUS
 62
     5
 10
-510.20000000000073
 20
-4.2000000000025466
 30
0.0
 11
-510.58091743199839
 21
-3.7364248600115388
 31
0.0
  0
LINE
  8
DETAIL
  6
CONTINUOUS
 62
     5
 10
373.11310759400288
 20
-379.55690888200661
 30
0.0
 11
372.56344723599977
 21
-377.35234159800348
 31
0.0
  0
LINE
  8
DETAIL
  6
CONTINUOUS
 62
     5
 10
322.46743476200032
 20
-115.0216414960032
 30
0.0
 11
322.46743476200032
 21
-114.5590511359933
 31
0.0
  0
LINE
  8
DETAIL
  6
CONTINUOUS
 62
     5
 10
323.06054887600288
 20
-114.91872643401619
 30
0.0
 11
323.06054887600288
 21
-114.4521249900008
 31
0.0
  0
LINE
  8
DETAIL
  6
CONTINUOUS
 62
     5
 10
384.2069959499986
 20
-374.44927885200201
 30
0.0
 11
384.75665630799989
 21
-376.65384613600509
 31
0.0
  0
LINE
  8
DETAIL
  6
CONTINUOUS
 62
     5
 10
314.73316639000041
 20
-104.9008797120059
 30
0.0
 11
315.12770496400299
 21
-107.1384191499983
 31
0.0
  0
LINE
  8
DETAIL
  6
CONTINUOUS
 62
     5
 10
326.94539799999978
 20
-105.0546410179977
 30
0.0
 11
326.55085942800002
 21
-102.8171015800053
 31
0.0
  0
LINE
  8
DETAIL
  6
CONTINUOUS
 62
     5
 10
-480.69999999999351
 20
-293.95000000000249
 30
0.0
 11
-489.80000000000109
 21
-278.18833765001
 31
0.0
  0
LINE
  8
DETAIL
  6
CONTINUOUS
 62
     5
 10
494.29558730000281
 20
-402.6778370840093
 30
0.0
 11
494.03500474999601
 21
-401.20000000000249
 31
0.0
  0
LINE
  8
DETAIL
  6
CONTINUOUS
 62
     5
 10
494.03500474999601
 20
-2.799999999988358
 30
0.0
 11
494.29558730000281
 21
-1.322162914002547
 31
0.0
  0
LINE
  8
DETAIL
  6
CONTINUOUS
 62
     5
 10
495.08343350200448
 20
-402.53891854199719
 30
0.0
 11
494.84734603800462
 21
-401.20000000000249
 31
0.0
  0
LINE
  8
DETAIL
  6
CONTINUOUS
 62
     5
 10
492.84708539200068
 20
0.0
 30
0.0
 11
492.84708539200068
 21
-2.799999999988358
 31
0.0
  0
LINE
  8
DETAIL
  6
CONTINUOUS
 62
     5
 10
494.84734603800462
 20
-2.799999999988358
 30
0.0
 11
495.08343350200448
 21
-1.4610814580082661
 31
0.0
  0
LINE
  8
DETAIL
  6
CONTINUOUS
 62
     5
 10
495.19999999999891
 20
-402.20000000000249
 30
0.0
 11
495.19999999999891
 21
-401.20000000000249
 31
0.0
  0
LINE
  8
DETAIL
  6
CONTINUOUS
 62
     5
 10
495.19999999999891
 20
-1.8000000000029099
 30
0.0
 11
495.19999999999891
 21
-2.799999999988358
 31
0.0
  0
LINE
  8
DETAIL
  6
CONTINUOUS
 62
     5
 10
495.70000000000442
 20
-1.8000000000029099
 30
0.0
 11
495.70000000000442
 21
-402.20000000000249
 31
0.0
  0
LINE
  8
DETAIL
  6
CONTINUOUS
 62
     5
 10
497.20000036373858
 20
-404.80000000000842
 30
0.0
 11
497.20000000000442
 21
-403.20000000000249
 31
0.0
  0
LINE
  8
DETAIL
  6
CONTINUOUS
 62
     5
 10
497.69999999999891
 20
-1.3000000000029099
 30
0.0
 11
497.69999999999891
 21
-2.1000000000058212
 31
0.0
  0
LINE
  8
DETAIL
  6
CONTINUOUS
 62
     5
 10
497.69999999999891
 20
-401.89999999999958
 30
0.0
 11
497.69999999999891
 21
-403.20000000000249
 31
0.0
  0
LINE
  8
DETAIL
  6
CONTINUOUS
 62
     5
 10
500.70000000000618
 20
-0.8000000000029104
 30
0.0
 11
500.70000000000618
 21
-1.3000000000029099
 31
0.0
  0
LINE
  8
DETAIL
  6
CONTINUOUS
 62
     5
 10
500.70000000000618
 20
-402.69999999998799
 30
0.0
 11
500.70000000000618
 21
-403.20000000000249
 31
0.0
  0
ARC
  8
DETAIL
  6
CONTINUOUS
 62
     5
 10
-475.59999999999673
 20
-46.308075234008363
 30
0.0
 40
55.099999999999952
 50
129.40977859107761
 51
180.0
  0
ARC
  8
DETAIL
  6
CONTINUOUS
 62
     5
 10
-495.87127970399712
 20
-1.600000000005821
 30
0.0
 40
1.599999999999999
 50
9.9999999999522906
 51
90.0
  0
ARC
  8
DETAIL
  6
CONTINUOUS
 62
     5
 10
-500.31809785170122
 20
-4.2151976564055076
 30
0.0
 40
1.1182011334015489
 50
0.7787403844009981
 51
94.200365459653071
  0
ARC
  8
DETAIL
  6
CONTINUOUS
 62
     5
 10
-500.94999999999351
 20
-1.0500000000029099
 30
0.0
 40
1.0499999999999989
 50
89.999999999895778
 51
269.9999823998815
  0
ARC
  8
DETAIL
  6
CONTINUOUS
 62
     5
 10
-496.19999999999351
 20
-1.8000000000029099
 30
0.0
 40
0.9999999999999994
 50
0.0
 51
90.0
  0
ARC
  8
DETAIL
  6
CONTINUOUS
 62
     5
 10
-495.87127970399712
 20
-1.600000000005821
 30
0.0
 40
0.7999999999999996
 50
9.9999999999522906
 51
90.0
  0
ARC
  8
DETAIL
  6
CONTINUOUS
 62
     5
 10
-500.32151767800678
 20
-4.2158212136127986
 30
0.0
 40
0.5217576058622017
 50
1.73764163716842
 51
98.651216178322557
  0
ARC
  8
DETAIL
  6
CONTINUOUS
 62
     5
 10
-509.59999999999673
 20
-3.5999999999967258
 30
0.0
 40
0.5999999999999996
 50
90.0
 51
270.0
  0
ARC
  8
DETAIL
  6
CONTINUOUS
 62
     5
 10
-496.19999999999351
 20
-1.8000000000029099
 30
0.0
 40
0.4999999999999997
 50
0.0
 51
90.0
  0
ARC
  8
DETAIL
  6
CONTINUOUS
 62
     5
 10
-500.94999999999351
 20
-1.0500000000029099
 30
0.0
 40
0.2499999999999999
 50
89.99999999958311
 51
269.9999823998815
  0
ARC
  8
DETAIL
  6
CONTINUOUS
 62
     5
 10
-479.17000234399347
 20
-200.3027522380016
 30
0.0
 40
1.9999999999999989
 50
162.73584144567161
 51
256.00000000007782
  0
ARC
  8
DETAIL
  6
CONTINUOUS
 62
     5
 10
-368.96344851799398
 20
-106.09653008400529
 30
0.0
 40
5.9999999999999956
 50
190.00000000006949
 51
9.9999999999522906
  0
ARC
  8
DETAIL
  6
CONTINUOUS
 62
     5
 10
-377.23644911599882
 20
-105.2481760679966
 30
0.0
 40
1.9999999999999989
 50
9.9999999999522906
 51
103.2641585541282
  0
ARC
  8
DETAIL
  6
CONTINUOUS
 62
     5
 10
-361.47952506599722
 20
-102.46980522600821
 30
0.0
 40
1.9999999999999989
 50
96.735841445747397
 51
190.00000000006949
  0
ARC
  8
DETAIL
  6
CONTINUOUS
 62
     5
 10
495.87127970599983
 20
-1.600000000005821
 30
0.0
 40
1.599999999999999
 50
90.0
 51
169.99999999993051
  0
ARC
  8
DETAIL
  6
CONTINUOUS
 62
     5
 10
496.20000000000618
 20
-1.8000000000029099
 30
0.0
 40
0.9999999999999994
 50
102.25747725230229
 51
180.0
  0
ARC
  8
DETAIL
  6
CONTINUOUS
 62
     5
 10
495.87127970599983
 20
-1.600000000005821
 30
0.0
 40
0.7999999999999996
 50
90.0
 51
169.99999999993051
  0
ARC
  8
DETAIL
  6
CONTINUOUS
 62
     5
 10
496.20000000000618
 20
-1.8000000000029099
 30
0.0
 40
0.4999999999999997
 50
90.0
 51
180.0
  0
ARC
  8
DETAIL
  6
CONTINUOUS
 62
     5
 10
321.03655148200602
 20
-106.09653008400529
 30
0.0
 40
5.9999999999999956
 50
190.00000000006949
 51
9.9999999999522906
  0
ARC
  8
DETAIL
  6
CONTINUOUS
 62
     5
 10
312.76355088400118
 20
-105.2481760679966
 30
0.0
 40
1.9999999999999989
 50
9.9999999999522906
 51
103.2641585541282
  0
ARC
  8
DETAIL
  6
CONTINUOUS
 62
     5
 10
328.52047493400278
 20
-102.46980522600821
 30
0.0
 40
1.9999999999999989
 50
96.735841445747397
 51
190.00000000006949
  0
ARC
  8
DETAIL
  6
CONTINUOUS
 62
     5
 10
210.82999765600471
 20
-200.3027522380016
 30
0.0
 40
1.9999999999999989
 50
162.73584144567161
 51
256.00000000007782
  0
ARC
  8
DETAIL
  6
CONTINUOUS
 62
     5
 10
-478.90081022599043
 20
-208.6147784060031
 30
0.0
 40
5.9999999999999956
 50
256.00000000007782
 51
76.000000000077804
  0
ARC
  8
DETAIL
  6
CONTINUOUS
 62
     5
 10
-483.04075267399639
 20
-215.82748385801281
 30
0.0
 40
1.9999999999999989
 50
76.000000000077804
 51
169.2641585543488
  0
ARC
  8
DETAIL
  6
CONTINUOUS
 62
     5
 10
-345.00000000000182
 20
-242.0000000000164
 30
0.0
 40
142.49999999999989
 50
103.26415855423529
 51
162.73584144567161
  0
ARC
  8
DETAIL
  6
CONTINUOUS
 62
     5
 10
-345.00000000000182
 20
-242.0000000000164
 30
0.0
 40
142.49999999999989
 50
169.2641585543488
 51
280.73584144577069
  0
ARC
  8
DETAIL
  6
CONTINUOUS
 62
     5
 10
-345.00000000000182
 20
-242.0000000000164
 30
0.0
 40
142.49999999999989
 50
287.26415855433709
 51
346.73584144568463
  0
ARC
  8
DETAIL
  6
CONTINUOUS
 62
     5
 10
-345.00000000000182
 20
-242.0000000000164
 30
0.0
 40
142.49999999999989
 50
353.26415855435761
 51
96.735841445747397
  0
CIRCLE
  8
DETAIL
  6
CONTINUOUS
 62
     5
 10
-345.00000000000182
 20
-242.0000000000164
 30
0.0
 40
128.99999999999989
  0
CIRCLE
  8
DETAIL
  6
CONTINUOUS
 62
     5
 10
-345.00000000000182
 20
-242.0000000000164
 30
0.0
 40
120.9999999999999
  0
ARC
  8
DETAIL
  6
CONTINUOUS
 62
     5
 10
-209.0965300839998
 20
-265.96344851800131
 30
0.0
 40
5.9999999999999956
 50
80.000000000047706
 51
260.00000000004769
  0
ARC
  8
DETAIL
  6
CONTINUOUS
 62
     5
 10
-208.24817606799661
 20
-274.23644911400521
 30
0.0
 40
1.9999999999999989
 50
346.73584144577649
 51
80.000000000047706
  0
ARC
  8
DETAIL
  6
CONTINUOUS
 62
     5
 10
-205.4698052259937
 20
-258.47952506599722
 30
0.0
 40
1.9999999999999989
 50
260.00000000004769
 51
353.26415855435761
  0
ARC
  8
DETAIL
  6
CONTINUOUS
 62
     5
 10
-495.87127970399712
 20
-402.39999999999958
 30
0.0
 40
1.599999999999999
 50
270.0
 51
349.99999999993042
  0
ARC
  8
DETAIL
  6
CONTINUOUS
 62
     5
 10
-496.19999999999351
 20
-402.20000000000249
 30
0.0
 40
0.9999999999999994
 50
270.0
 51
0.0
  0
ARC
  8
DETAIL
  6
CONTINUOUS
 62
     5
 10
-495.87127970399712
 20
-402.39999999999958
 30
0.0
 40
0.7999999999999996
 50
270.0
 51
349.99999999993042
  0
ARC
  8
DETAIL
  6
CONTINUOUS
 62
     5
 10
-496.19999999999351
 20
-402.20000000000249
 30
0.0
 40
0.4999999999999997
 50
270.0
 51
0.0
  0
ARC
  8
DETAIL
  6
CONTINUOUS
 62
     5
 10
-311.61477840799671
 20
-375.90081022601407
 30
0.0
 40
5.9999999999999956
 50
13.999999999920631
 51
193.99999999992059
  0
ARC
  8
DETAIL
  6
CONTINUOUS
 62
     5
 10
-318.82748385999912
 20
-380.04075267400373
 30
0.0
 40
1.9999999999999989
 50
280.73584144577069
 51
13.999999999920631
  0
ARC
  8
DETAIL
  6
CONTINUOUS
 62
     5
 10
-303.30275223799441
 20
-376.17000234399347
 30
0.0
 40
1.9999999999999989
 50
193.99999999992059
 51
287.26415855433709
  0
ARC
  8
DETAIL
  6
CONTINUOUS
 62
     5
 10
344.99999999999818
 20
-242.0000000000164
 30
0.0
 40
142.49999999999989
 50
103.26415855423529
 51
162.73584144567161
  0
ARC
  8
DETAIL
  6
CONTINUOUS
 62
     5
 10
344.99999999999818
 20
-242.0000000000164
 30
0.0
 40
142.49999999999989
 50
169.2641585543488
 51
280.73584144577069
  0
ARC
  8
DETAIL
  6
CONTINUOUS
 62
     5
 10
344.99999999999818
 20
-242.0000000000164
 30
0.0
 40
142.49999999999989
 50
287.26415855433709
 51
346.73584144568463
  0
ARC
  8
DETAIL
  6
CONTINUOUS
 62
     5
 10
344.99999999999818
 20
-242.0000000000164
 30
0.0
 40
142.49999999999989
 50
353.26415855435761
 51
96.735841445747397
  0
CIRCLE
  8
DETAIL
  6
CONTINUOUS
 62
     5
 10
344.99999999999818
 20
-242.0000000000164
 30
0.0
 40
128.99999999999989
  0
CIRCLE
  8
DETAIL
  6
CONTINUOUS
 62
     5
 10
344.99999999999818
 20
-242.0000000000164
 30
0.0
 40
120.9999999999999
  0
ARC
  8
DETAIL
  6
CONTINUOUS
 62
     5
 10
211.09918977400591
 20
-208.6147784060031
 30
0.0
 40
5.9999999999999956
 50
256.00000000007782
 51
76.000000000077804
  0
ARC
  8
DETAIL
  6
CONTINUOUS
 62
     5
 10
206.95924732600361
 20
-215.82748385801281
 30
0.0
 40
1.9999999999999989
 50
76.000000000077804
 51
169.26415855424079
  0
ARC
  8
DETAIL
  6
CONTINUOUS
 62
     5
 10
480.90346991600018
 20
-265.96344851800131
 30
0.0
 40
5.9999999999999956
 50
80.000000000047706
 51
260.00000000004769
  0
ARC
  8
DETAIL
  6
CONTINUOUS
 62
     5
 10
481.75182393200339
 20
-274.23644911400521
 30
0.0
 40
1.9999999999999989
 50
346.73584144568463
 51
80.000000000047706
  0
ARC
  8
DETAIL
  6
CONTINUOUS
 62
     5
 10
484.53019477400449
 20
-258.47952506599722
 30
0.0
 40
1.9999999999999989
 50
260.00000000004769
 51
353.2641585541607
  0
ARC
  8
DETAIL
  6
CONTINUOUS
 62
     5
 10
378.38522159200329
 20
-375.90081022601407
 30
0.0
 40
5.9999999999999956
 50
13.999999999920631
 51
193.99999999992059
  0
ARC
  8
DETAIL
  6
CONTINUOUS
 62
     5
 10
371.17251614000088
 20
-380.04075267400373
 30
0.0
 40
1.9999999999999989
 50
280.73584144577069
 51
13.999999999920631
  0
ARC
  8
DETAIL
  6
CONTINUOUS
 62
     5
 10
386.69724776200559
 20
-376.17000234399347
 30
0.0
 40
1.9999999999999989
 50
193.99999999992059
 51
287.26415855433709
  0
ARC
  8
DETAIL
  6
CONTINUOUS
 62
     5
 10
495.87127970599983
 20
-402.39999999999958
 30
0.0
 40
1.599999999999999
 50
190.00000000006949
 51
270.0
  0
ARC
  8
DETAIL
  6
CONTINUOUS
 62
     5
 10
500.95000000000618
 20
-402.95000000000249
 30
0.0
 40
1.0499999999999989
 50
270.00000000010431
 51
90.000019847840207
  0
ARC
  8
DETAIL
  6
CONTINUOUS
 62
     5
 10
496.20000000000618
 20
-402.20000000000249
 30
0.0
 40
0.9999999999999994
 50
180.0
 51
257.74252274769771
  0
ARC
  8
DETAIL
  6
CONTINUOUS
 62
     5
 10
495.87127970599983
 20
-402.39999999999958
 30
0.0
 40
0.7999999999999996
 50
189.99999999993889
 51
270.0
  0
ARC
  8
DETAIL
  6
CONTINUOUS
 62
     5
 10
496.20000000000618
 20
-402.20000000000249
 30
0.0
 40
0.4999999999999997
 50
180.0
 51
270.0
  0
ARC
  8
DETAIL
  6
CONTINUOUS
 62
     5
 10
500.95000000000618
 20
-402.95000000000249
 30
0.0
 40
0.2499999999999999
 50
270.00000000041689
 51
90.000019847840207
  0
CIRCLE
  8
DETAIL
  6
CONTINUOUS
 62
     5
 10
441.87362902199311
 20
-145.12637097700099
 30
0.0
 40
4.6999999999999984
  0
CIRCLE
  8
DETAIL
  6
CONTINUOUS
 62
     5
 10
441.87362902199311
 20
-338.87362902300259
 30
0.0
 40
4.6999999999999984
  0
CIRCLE
  8
DETAIL
  6
CONTINUOUS
 62
     5
 10
248.12637097799231
 20
-338.87362902300259
 30
0.0
 40
4.6999999999999984
  0
CIRCLE
  8
DETAIL
  6
CONTINUOUS
 62
     5
 10
248.12637097799231
 20
-145.12637097700099
 30
0.0
 40
4.6999999999999984
  0
CIRCLE
  8
DETAIL
  6
CONTINUOUS
 62
     5
 10
-248.12637097800689
 20
-145.12637097700099
 30
0.0
 40
4.6999999999999984
  0
CIRCLE
  8
DETAIL
  6
CONTINUOUS
 62
     5
 10
-248.12637097800689
 20
-338.87362902300259
 30
0.0
 40
4.6999999999999984
  0
CIRCLE
  8
DETAIL
  6
CONTINUOUS
 62
     5
 10
-441.87362902200772
 20
-338.87362902300259
 30
0.0
 40
4.6999999999999984
  0
CIRCLE
  8
DETAIL
  6
CONTINUOUS
 62
     5
 10
-441.87362902200579
 20
-145.12637097700099
 30
0.0
 40
4.6999999999999984
  0
LINE
  8
BASIS
  6
DASHDOT
 62
     6
 10
-510.05027084936961
 20
-242.0000000000164
 30
0.0
 11
510.05027108842478
 21
-242.0000000000164
 31
0.0
  0
LINE
  8
BASIS
  6
DASHDOT
 62
     6
 10
-345.00000000000182
 20
-79.806950680083901
 30
0.0
 11
-345.00000000000182
 21
-404.19304931994878
 31
0.0
  0
LINE
  8
BASIS
  6
DASHDOT
 62
     6
 10
344.99999999999818
 20
-84.845756862732742
 30
0.0
 11
344.99999999999818
 21
-399.05424313730151
 31
0.0
  0
ARC
  8
DETAIL
  6
CONTINUOUS
 62
     5
 10
500.95000000000618
 20
-1.0500000000029099
 30
0.0
 40
1.0499999999999989
 50
270.00000000010431
 51
90.000019847840207
  0
ARC
  8
DETAIL
  6
CONTINUOUS
 62
     5
 10
500.95000000000618
 20
-1.0500000000029099
 30
0.0
 40
0.2499999999999999
 50
270.00000000041689
 51
90.000019847840207
  0
LINE
  8
DETAIL
  6
CONTINUOUS
 62
     5
 10
497.69999999999891
 20
-2.1000000000058212
 30
0.0
 11
500.95000000000618
 21
-2.1000000000058212
 31
0.0
  0
LINE
  8
DETAIL
  6
CONTINUOUS
 62
     5
 10
500.95000000000618
 20
-401.89999999999958
 30
0.0
 11
497.69999999999891
 21
-401.89999999999958
 31
0.0
  0
LINE
  8
DETAIL
  6
CONTINUOUS
 62
     5
 10
-497.70000000000073
 20
-1.3000000000029099
 30
0.0
 11
-497.70000000000073
 21
-2.1000000000058212
 31
0.0
  0
LINE
  8
DETAIL
  6
CONTINUOUS
 62
     5
 10
-497.70000000000073
 20
-401.89999999999958
 30
0.0
 11
-497.70000000000073
 21
-402.69999999998799
 31
0.0
  0
LINE
  8
DETAIL
  6
CONTINUOUS
 62
     5
 10
-497.70000000000073
 20
-2.1000000000058212
 30
0.0
 11
-500.95000000000982
 21
-2.1000000000058212
 31
0.0
  0
LINE
  8
DETAIL
  6
CONTINUOUS
 62
     5
 10
-496.19999999999351
 20
-1.3000000000029099
 30
0.0
 11
-500.95000000000982
 21
-1.3000000000029099
 31
0.0
  0
LINE
  8
DETAIL
  6
CONTINUOUS
 62
     5
 10
-500.95000000000982
 20
-402.69999999998799
 30
0.0
 11
-496.19999999999351
 21
-402.69999999998799
 31
0.0
  0
LINE
  8
DETAIL
  6
CONTINUOUS
 62
     5
 10
-500.95000000000982
 20
-401.89999999999958
 30
0.0
 11
-497.70000000000073
 21
-401.89999999999958
 31
0.0
  0
ARC
  8
DETAIL
  6
CONTINUOUS
 62
     5
 10
-500.95000000000982
 20
-402.95000000000249
 30
0.0
 40
1.0499999999999989
 50
90.000000000104222
 51
269.9999823998815
  0
ARC
  8
DETAIL
  6
CONTINUOUS
 62
     5
 10
-500.95000000000982
 20
-402.95000000000249
 30
0.0
 40
0.2499999999999999
 50
90.00000000041689
 51
269.9999823998815
  0
LINE
  8
DETAIL
  6
CONTINUOUS
 62
     5
 10
487.21438631000092
 20
-2.1000000000058212
 30
0.0
 11
-487.21438630999728
 21
-2.1000000000058212
 31
0.0
  0
LINE
  8
BASIS
  6
DASHDOT
 62
     6
 10
-565.44825048700477
 20
-202.00000000000551
 30
0.0
 11
565.44825069841136
 21
-202.00000000000551
 31
0.0
  0
LINE
  8
DETAIL
  6
CONTINUOUS
 62
     5
 10
-505.09999963626427
 20
-804.39999999999054
 30
0.0
 11
-505.09999963626427
 21
-803.79999999999927
 31
0.0
  0
LINE
  8
DETAIL
  6
CONTINUOUS
 62
     5
 10
-500.69999963626111
 20
-807.19999999999345
 30
0.0
 11
-500.69999963626111
 21
-806.69999999999345
 31
0.0
  0
LINE
  8
DETAIL
  6
CONTINUOUS
 62
     5
 10
-500.69999963626111
 20
-405.30000000000842
 30
0.0
 11
-500.69999963626111
 21
-404.80000000000842
 31
0.0
  0
LINE
  8
DETAIL
  6
CONTINUOUS
 62
     5
 10
-499.19999963626111
 20
-804.49999999999636
 30
0.0
 11
-499.19999963626111
 21
-718.39999999801148
 31
0.0
  0
LINE
  8
DETAIL
  6
CONTINUOUS
 62
     5
 10
-495.69999963626111
 20
-806.19999999999345
 30
0.0
 11
-495.69999963626111
 21
-405.79999999999382
 31
0.0
  0
LINE
  8
DETAIL
  6
CONTINUOUS
 62
     5
 10
-495.19999963627009
 20
-406.79999999999382
 30
0.0
 11
-495.19999963627009
 21
-405.79999999999382
 31
0.0
  0
LINE
  8
DETAIL
  6
CONTINUOUS
 62
     5
 10
-495.19999963627009
 20
-805.19999999999345
 30
0.0
 11
-495.19999963627009
 21
-806.19999999999345
 31
0.0
  0
LINE
  8
DETAIL
  6
CONTINUOUS
 62
     5
 10
-494.19999963626111
 20
-404.80000000000842
 30
0.0
 11
-494.19999963626111
 21
-406.79999999999382
 31
0.0
  0
LINE
  8
DETAIL
  6
CONTINUOUS
 62
     5
 10
-494.19999963626111
 20
-805.19999999999345
 30
0.0
 11
-494.19999963626111
 21
-807.19999999999345
 31
0.0
  0
LINE
  8
DETAIL
  6
CONTINUOUS
 62
     5
 10
-492.79999963626142
 20
-807.99999999999636
 30
0.0
 11
-492.79999963626142
 21
-807.19999999999345
 31
0.0
  0
LINE
  8
DETAIL
  6
CONTINUOUS
 62
     5
 10
-489.79999963626869
 20
-682.1883376500009
 30
0.0
 11
-489.79999963626869
 21
-609.71166234799239
 31
0.0
  0
LINE
  8
DETAIL
  6
CONTINUOUS
 62
     5
 10
-489.19999963626111
 20
-802.200000000008
 30
0.0
 11
-489.19999963626111
 21
-800.99999999999636
 31
0.0
  0
LINE
  8
DETAIL
  6
CONTINUOUS
 62
     5
 10
-489.19999963626111
 20
-409.79999999999382
 30
0.0
 11
-489.19999963626111
 21
-411.00000000000551
 31
0.0
  0
LINE
  8
DETAIL
  6
CONTINUOUS
 62
     5
 10
-480.69999963626111
 20
-414.00000000000551
 30
0.0
 11
-480.69999963626111
 21
-593.950000000008
 31
0.0
  0
LINE
  8
DETAIL
  6
CONTINUOUS
 62
     5
 10
-480.69999963626111
 20
-697.950000000008
 30
0.0
 11
-480.69999963626111
 21
-797.99999999999636
 31
0.0
  0
LINE
  8
DETAIL
  6
CONTINUOUS
 62
     5
 10
-495.08343313826123
 20
-405.46108145799923
 30
0.0
 11
-494.84734567426131
 21
-406.79999999999382
 31
0.0
  0
LINE
  8
DETAIL
  6
CONTINUOUS
 62
     5
 10
-494.29558693626132
 20
-405.322162914008
 30
0.0
 11
-494.21098967226681
 21
-405.80193783999681
 31
0.0
  0
LINE
  8
DETAIL
  6
CONTINUOUS
 62
     5
 10
-494.84734567426131
 20
-805.19999999999345
 30
0.0
 11
-495.08343313826123
 21
-806.53891854200265
 31
0.0
  0
LINE
  8
DETAIL
  6
CONTINUOUS
 62
     5
 10
-494.19999963626111
 20
-806.13573456876884
 30
0.0
 11
-494.29558693626132
 21
-806.6778370840002
 31
0.0
  0
LINE
  8
DETAIL
  6
CONTINUOUS
 62
     5
 10
-489.79999963626869
 20
-609.71166234799239
 30
0.0
 11
-480.69999963626111
 21
-593.950000000008
 31
0.0
  0
LINE
  8
DETAIL
  6
CONTINUOUS
 62
     5
 10
-317.43655240026777
 20
-781.35234159799438
 30
0.0
 11
-316.88689204226472
 21
-783.55690888199751
 31
0.0
  0
LINE
  8
DETAIL
  6
CONTINUOUS
 62
     5
 10
-374.87229467226462
 20
-511.1384191499892
 30
0.0
 11
-375.26683324626362
 21
-508.90087971199682
 31
0.0
  0
LINE
  8
DETAIL
  6
CONTINUOUS
 62
     5
 10
-305.24334332826771
 20
-780.65384613599599
 30
0.0
 11
-305.793003686269
 21
-778.44927885199286
 31
0.0
  0
LINE
  8
DETAIL
  6
CONTINUOUS
 62
     5
 10
-363.44914020826758
 20
-506.81710157999618
 30
0.0
 11
-363.05460163626589
 21
-509.05464101798862
 31
0.0
  0
LINE
  8
DETAIL
  6
CONTINUOUS
 62
     5
 10
-510.19999963626827
 20
-803.79999999999927
 30
0.0
 11
-510.58091706826599
 21
-804.26357513999028
 31
0.0
  0
LINE
  8
DETAIL
  6
CONTINUOUS
 62
     5
 10
489.26730128173398
 20
-807.99999999999636
 30
0.0
 11
487.16730128172821
 21
-805.89999999999054
 31
0.0
  0
LINE
  8
DETAIL
  6
CONTINUOUS
 62
     5
 10
-500.94999963626111
 20
-403.99999999999091
 30
0.0
 11
-495.87127934026472
 21
-403.99999999999091
 31
0.0
  0
LINE
  8
DETAIL
  6
CONTINUOUS
 62
     5
 10
-492.84708502826652
 20
-403.99999999999091
 30
0.0
 11
492.84708575573308
 21
-403.99999999999091
 31
0.0
  0
LINE
  8
DETAIL
  6
CONTINUOUS
 62
     5
 10
495.87128006973398
 20
-403.99999999999091
 30
0.0
 11
500.95000036373858
 21
-403.99999999999091
 31
0.0
  0
LINE
  8
DETAIL
  6
CONTINUOUS
 62
     5
 10
-500.94999963626111
 20
-404.80000000000842
 30
0.0
 11
-495.87127934026472
 21
-404.80000000000842
 31
0.0
  0
LINE
  8
DETAIL
  6
CONTINUOUS
 62
     5
 10
-494.19999963626111
 20
-404.80000000000842
 30
0.0
 11
-488.5143859462496
 21
-404.80000000000842
 31
0.0
  0
LINE
  8
DETAIL
  6
CONTINUOUS
 62
     5
 10
495.87128006973398
 20
-404.80000000000842
 30
0.0
 11
500.95000036373858
 21
-404.80000000000842
 31
0.0
  0
LINE
  8
DETAIL
  6
CONTINUOUS
 62
     5
 10
488.51438667371622
 20
-404.80000000000842
 30
0.0
 11
492.84708575573308
 21
-404.80000000000842
 31
0.0
  0
LINE
  8
DETAIL
  6
CONTINUOUS
 62
     5
 10
496.20000036373858
 20
-405.30000000000842
 30
0.0
 11
500.95000036373858
 21
-405.30000000000842
 31
0.0
  0
LINE
  8
DETAIL
  6
CONTINUOUS
 62
     5
 10
-495.69999963626111
 20
-406.79999999999382
 30
0.0
 11
-492.19999963626287
 21
-406.79999999999382
 31
0.0
  0
LINE
  8
DETAIL
  6
CONTINUOUS
 62
     5
 10
492.20000036373858
 20
-406.79999999999382
 30
0.0
 11
495.70000036373858
 21
-406.79999999999382
 31
0.0
  0
LINE
  8
DETAIL
  6
CONTINUOUS
 62
     5
 10
-483.69999963626111
 20
-411.00000000000551
 30
0.0
 11
-489.19999963626111
 21
-411.00000000000551
 31
0.0
  0
LINE
  8
DETAIL
  6
CONTINUOUS
 62
     5
 10
-492.19999963626287
 20
-805.19999999999345
 30
0.0
 11
-489.19999963626111
 21
-802.200000000008
 31
0.0
  0
LINE
  8
DETAIL
  6
CONTINUOUS
 62
     5
 10
-483.69999963626111
 20
-800.99999999999636
 30
0.0
 11
-480.69999963626111
 21
-797.99999999999636
 31
0.0
  0
LINE
  8
DETAIL
  6
CONTINUOUS
 62
     5
 10
-489.26730055427288
 20
-807.99999999999636
 30
0.0
 11
-487.16730055426342
 21
-805.89999999999054
 31
0.0
  0
LINE
  8
DETAIL
  6
CONTINUOUS
 62
     5
 10
210.3461542277328
 20
-606.24334368999553
 30
0.0
 11
212.55072151173039
 21
-606.79300404800597
 31
0.0
  0
LINE
  8
DETAIL
  6
CONTINUOUS
 62
     5
 10
209.64765876373531
 20
-618.43655276399659
 30
0.0
 11
207.44309148174031
 21
-617.8868924060007
 31
0.0
  0
LINE
  8
DETAIL
  6
CONTINUOUS
 62
     5
 10
484.18289878173351
 20
-664.4491405719964
 30
0.0
 11
481.94535934573469
 21
-664.05460199999652
 31
0.0
  0
LINE
  8
DETAIL
  6
CONTINUOUS
 62
     5
 10
479.8615812137341
 20
-675.87229503600247
 30
0.0
 11
482.09912064973292
 21
-676.26683360800234
 31
0.0
  0
LINE
  8
DETAIL
  6
CONTINUOUS
 62
     5
 10
217.633200301736
 20
-623.05613496799924
 30
0.0
 11
218.0930091457376
 21
-623.05613496799924
 31
0.0
  0
LINE
  8
DETAIL
  6
CONTINUOUS
 62
     5
 10
-208.0546406542671
 20
-664.05460199999652
 30
0.0
 11
-205.81710121826649
 21
-664.4491405719964
 31
0.0
  0
LINE
  8
DETAIL
  6
CONTINUOUS
 62
     5
 10
-207.9008793502671
 20
-676.26683360800234
 30
0.0
 11
-210.13841878626769
 21
-675.87229503600247
 31
0.0
  0
LINE
  8
DETAIL
  6
CONTINUOUS
 62
     5
 10
-477.44927848826961
 20
-606.79300404800597
 30
0.0
 11
-479.65384577226718
 21
-606.24334368999553
 31
0.0
  0
LINE
  8
DETAIL
  6
CONTINUOUS
 62
     5
 10
-482.55690851825972
 20
-617.8868924060007
 30
0.0
 11
-480.35234123626469
 21
-618.43655276399659
 31
0.0
  0
LINE
  8
DETAIL
  6
CONTINUOUS
 62
     5
 10
-483.69999963626111
 20
-800.99999999999636
 30
0.0
 11
-489.19999963626111
 21
-800.99999999999636
 31
0.0
  0
LINE
  8
DETAIL
  6
CONTINUOUS
 62
     5
 10
-510.19999963626827
 20
-803.79999999999927
 30
0.0
 11
-499.19999963626111
 21
-803.79999999999927
 31
0.0
  0
LINE
  8
DETAIL
  6
CONTINUOUS
 62
     5
 10
-509.59999963626427
 20
-804.39999999999054
 30
0.0
 11
-500.39999963626718
 21
-804.39999999999054
 31
0.0
  0
LINE
  8
DETAIL
  6
CONTINUOUS
 62
     5
 10
-499.19999963626111
 20
-804.49999999999636
 30
0.0
 11
-495.69999963626111
 21
-804.49999999999636
 31
0.0
  0
LINE
  8
DETAIL
  6
CONTINUOUS
 62
     5
 10
-509.59999963626427
 20
-804.99999999999636
 30
0.0
 11
-500.39999963626718
 21
-804.99999999999636
 31
0.0
  0
LINE
  8
DETAIL
  6
CONTINUOUS
 62
     5
 10
-495.69999963626111
 20
-805.19999999999345
 30
0.0
 11
-492.19999963626287
 21
-805.19999999999345
 31
0.0
  0
LINE
  8
DETAIL
  6
CONTINUOUS
 62
     5
 10
492.80000036373531
 20
-805.19999999999345
 30
0.0
 11
495.70000036373858
 21
-805.19999999999345
 31
0.0
  0
LINE
  8
DETAIL
  6
CONTINUOUS
 62
     5
 10
496.20000036373858
 20
-806.69999999999345
 30
0.0
 11
500.95000036373858
 21
-806.69999999999345
 31
0.0
  0
LINE
  8
DETAIL
  6
CONTINUOUS
 62
     5
 10
500.95000036373858
 20
-807.19999999999345
 30
0.0
 11
495.87128006973398
 21
-807.19999999999345
 31
0.0
  0
LINE
  8
DETAIL
  6
CONTINUOUS
 62
     5
 10
-488.46730055426809
 20
-807.19999999999345
 30
0.0
 11
-494.19999963626111
 21
-807.19999999999345
 31
0.0
  0
LINE
  8
DETAIL
  6
CONTINUOUS
 62
     5
 10
-500.94999963626111
 20
-807.19999999999345
 30
0.0
 11
-495.87127934026472
 21
-807.19999999999345
 31
0.0
  0
LINE
  8
DETAIL
  6
CONTINUOUS
 62
     5
 10
488.46730128173112
 20
-807.19999999999345
 30
0.0
 11
492.80000036373531
 21
-807.19999999999345
 31
0.0
  0
LINE
  8
DETAIL
  6
CONTINUOUS
 62
     5
 10
500.95000036373858
 20
-807.99999999999636
 30
0.0
 11
495.87128006973398
 21
-807.99999999999636
 31
0.0
  0
LINE
  8
DETAIL
  6
CONTINUOUS
 62
     5
 10
-500.94999963626111
 20
-807.99999999999636
 30
0.0
 11
-495.87127934026472
 21
-807.99999999999636
 31
0.0
  0
LINE
  8
DETAIL
  6
CONTINUOUS
 62
     5
 10
-492.79999963626142
 20
-807.99999999999636
 30
0.0
 11
492.80000036373531
 21
-807.99999999999636
 31
0.0
  0
LINE
  8
DETAIL
  6
CONTINUOUS
 62
     5
 10
-489.31438594625621
 20
-403.99999999998909
 30
0.0
 11
-487.21438594626312
 21
-406.10000000001128
 31
0.0
  0
LINE
  8
DETAIL
  6
CONTINUOUS
 62
     5
 10
-480.69999963626111
 20
-414.00000000000551
 30
0.0
 11
-483.69999963626111
 21
-411.00000000000551
 31
0.0
  0
LINE
  8
DETAIL
  6
CONTINUOUS
 62
     5
 10
-489.19999963626111
 20
-409.79999999999382
 30
0.0
 11
-492.19999963626287
 21
-406.79999999999382
 31
0.0
  0
LINE
  8
DETAIL
  6
CONTINUOUS
 62
     5
 10
489.31438667372282
 20
-403.99999999999091
 30
0.0
 11
487.21438667373332
 21
-406.10000000001128
 31
0.0
  0
LINE
  8
DETAIL
  6
CONTINUOUS
 62
     5
 10
373.11310795773528
 20
-783.55690888199751
 30
0.0
 11
372.56344759973399
 21
-781.35234159799438
 31
0.0
  0
LINE
  8
DETAIL
  6
CONTINUOUS
 62
     5
 10
322.46743512573272
 20
-519.02164149599412
 30
0.0
 11
322.46743512573272
 21
-518.55905113599874
 31
0.0
  0
LINE
  8
DETAIL
  6
CONTINUOUS
 62
     5
 10
323.06054923973528
 20
-518.91872643400711
 30
0.0
 11
323.06054923973528
 21
-518.45212498999172
 31
0.0
  0
LINE
  8
DETAIL
  6
CONTINUOUS
 62
     5
 10
384.206996313731
 20
-778.44927885199286
 30
0.0
 11
384.75665667173422
 21
-780.65384613599599
 31
0.0
  0
LINE
  8
DETAIL
  6
CONTINUOUS
 62
     5
 10
314.7331667537328
 20
-508.90087971199682
 30
0.0
 11
315.12770532773538
 21
-511.1384191499892
 31
0.0
  0
LINE
  8
DETAIL
  6
CONTINUOUS
 62
     5
 10
326.94539836373218
 20
-509.05464101798862
 30
0.0
 11
326.55085979173418
 21
-506.81710157999618
 31
0.0
  0
LINE
  8
DETAIL
  6
CONTINUOUS
 62
     5
 10
-480.69999963626111
 20
-697.950000000008
 30
0.0
 11
-489.79999963626869
 21
-682.1883376500009
 31
0.0
  0
LINE
  8
DETAIL
  6
CONTINUOUS
 62
     5
 10
494.2955876637352
 20
-806.6778370840002
 30
0.0
 11
494.03500511372658
 21
-805.19999999999345
 31
0.0
  0
LINE
  8
DETAIL
  6
CONTINUOUS
 62
     5
 10
494.03500511372658
 20
-406.79999999999382
 30
0.0
 11
494.2955876637352
 21
-405.322162914008
 31
0.0
  0
LINE
  8
DETAIL
  6
CONTINUOUS
 62
     5
 10
495.0834338657387
 20
-806.53891854200265
 30
0.0
 11
494.84734640173701
 21
-805.19999999999345
 31
0.0
  0
LINE
  8
DETAIL
  6
CONTINUOUS
 62
     5
 10
492.20000036373858
 20
-406.79999999999382
 30
0.0
 11
492.20000036373858
 21
-404.80000000000842
 31
0.0
  0
LINE
  8
DETAIL
  6
CONTINUOUS
 62
     5
 10
492.80000036373531
 20
-805.19999999999345
 30
0.0
 11
492.80000036373531
 21
-807.99999999999636
 31
0.0
  0
LINE
  8
DETAIL
  6
CONTINUOUS
 62
     5
 10
494.84734640173701
 20
-406.79999999999382
 30
0.0
 11
495.0834338657387
 21
-405.46108145799923
 31
0.0
  0
LINE
  8
DETAIL
  6
CONTINUOUS
 62
     5
 10
495.20000036372949
 20
-806.19999999999345
 30
0.0
 11
495.20000036372949
 21
-805.19999999999345
 31
0.0
  0
LINE
  8
DETAIL
  6
CONTINUOUS
 62
     5
 10
495.20000036372949
 20
-405.79999999999382
 30
0.0
 11
495.20000036372949
 21
-406.79999999999382
 31
0.0
  0
LINE
  8
DETAIL
  6
CONTINUOUS
 62
     5
 10
495.70000036373858
 20
-405.79999999999382
 30
0.0
 11
495.70000036373858
 21
-806.19999999999345
 31
0.0
  0
LINE
  8
DETAIL
  6
CONTINUOUS
 62
     5
 10
497.70000036372949
 20
-404.80000000000842
 30
0.0
 11
497.70000036372949
 21
-406.10000000001128
 31
0.0
  0
LINE
  8
DETAIL
  6
CONTINUOUS
 62
     5
 10
497.70000036372949
 20
-805.89999999999054
 30
0.0
 11
497.70000036372949
 21
-806.69999999999345
 31
0.0
  0
LINE
  8
DETAIL
  6
CONTINUOUS
 62
     5
 10
500.70000036373858
 20
-404.80000000000842
 30
0.0
 11
500.70000036373858
 21
-405.30000000000842
 31
0.0
  0
LINE
  8
DETAIL
  6
CONTINUOUS
 62
     5
 10
500.70000036373858
 20
-806.69999999999345
 30
0.0
 11
500.70000036373858
 21
-807.19999999999345
 31
0.0
  0
ARC
  8
DETAIL
  6
CONTINUOUS
 62
     5
 10
-495.87127934026472
 20
-405.59999999999673
 30
0.0
 40
1.599999999999999
 50
9.9999999999522906
 51
90.0
  0
ARC
  8
DETAIL
  6
CONTINUOUS
 62
     5
 10
-500.94999963626111
 20
-405.04999999999382
 30
0.0
 40
1.0499999999999989
 50
89.999999999895778
 51
269.9999823998815
  0
ARC
  8
DETAIL
  6
CONTINUOUS
 62
     5
 10
-496.19999963626111
 20
-405.79999999999382
 30
0.0
 40
0.9999999999999994
 50
0.0
 51
90.0
  0
ARC
  8
DETAIL
  6
CONTINUOUS
 62
     5
 10
-495.87127934026472
 20
-405.59999999999673
 30
0.0
 40
0.7999999999999996
 50
9.9999999999522906
 51
90.0
  0
ARC
  8
DETAIL
  6
CONTINUOUS
 62
     5
 10
-496.19999963626111
 20
-405.79999999999382
 30
0.0
 40
0.4999999999999997
 50
0.0
 51
90.0
  0
ARC
  8
DETAIL
  6
CONTINUOUS
 62
     5
 10
-500.94999963626111
 20
-405.04999999999382
 30
0.0
 40
0.2499999999999999
 50
89.99999999958311
 51
269.9999823998815
  0
ARC
  8
DETAIL
  6
CONTINUOUS
 62
     5
 10
-479.1700019802629
 20
-604.30275223800709
 30
0.0
 40
1.9999999999999989
 50
162.73584144567161
 51
256.00000000007782
  0
ARC
  8
DETAIL
  6
CONTINUOUS
 62
     5
 10
-368.96344815426158
 20
-510.09653008399619
 30
0.0
 40
5.9999999999999956
 50
190.00000000006949
 51
9.9999999999522906
  0
ARC
  8
DETAIL
  6
CONTINUOUS
 62
     5
 10
-377.23644875226819
 20
-509.24817606800212
 30
0.0
 40
1.9999999999999989
 50
9.9999999999522906
 51
103.2641585541282
  0
ARC
  8
DETAIL
  6
CONTINUOUS
 62
     5
 10
-361.47952470226483
 20
-506.46980522599921
 30
0.0
 40
1.9999999999999989
 50
96.735841445747397
 51
190.00000000006949
  0
ARC
  8
DETAIL
  6
CONTINUOUS
 62
     5
 10
495.87128006973398
 20
-405.59999999999673
 30
0.0
 40
1.599999999999999
 50
90.0
 51
169.99999999993051
  0
ARC
  8
DETAIL
  6
CONTINUOUS
 62
     5
 10
496.20000036373858
 20
-405.79999999999382
 30
0.0
 40
0.9999999999999994
 50
102.25747725230229
 51
180.0
  0
ARC
  8
DETAIL
  6
CONTINUOUS
 62
     5
 10
495.87128006973398
 20
-405.59999999999673
 30
0.0
 40
0.7999999999999996
 50
90.0
 51
169.99999999993051
  0
ARC
  8
DETAIL
  6
CONTINUOUS
 62
     5
 10
496.20000036373858
 20
-405.79999999999382
 30
0.0
 40
0.4999999999999997
 50
90.0
 51
180.0
  0
ARC
  8
DETAIL
  6
CONTINUOUS
 62
     5
 10
321.03655184573842
 20
-510.09653008399619
 30
0.0
 40
5.9999999999999956
 50
190.00000000006949
 51
9.9999999999522906
  0
ARC
  8
DETAIL
  6
CONTINUOUS
 62
     5
 10
312.76355124773357
 20
-509.24817606800212
 30
0.0
 40
1.9999999999999989
 50
9.9999999999522906
 51
103.2641585541282
  0
ARC
  8
DETAIL
  6
CONTINUOUS
 62
     5
 10
328.52047529773517
 20
-506.46980522599921
 30
0.0
 40
1.9999999999999989
 50
96.735841445747397
 51
190.00000000006949
  0
ARC
  8
DETAIL
  6
CONTINUOUS
 62
     5
 10
210.8299980197371
 20
-604.30275223800709
 30
0.0
 40
1.9999999999999989
 50
162.73584144567161
 51
256.00000000007782
  0
ARC
  8
DETAIL
  6
CONTINUOUS
 62
     5
 10
-478.90080986225979
 20
-612.614778405994
 30
0.0
 40
5.9999999999999956
 50
256.00000000007782
 51
76.000000000077804
  0
ARC
  8
DETAIL
  6
CONTINUOUS
 62
     5
 10
-483.040752310264
 20
-619.82748385800369
 30
0.0
 40
1.9999999999999989
 50
76.000000000077804
 51
169.2641585543488
  0
ARC
  8
DETAIL
  6
CONTINUOUS
 62
     5
 10
-344.99999963626942
 20
-646.00000000000728
 30
0.0
 40
142.49999999999989
 50
103.26415855423529
 51
162.73584144567161
  0
ARC
  8
DETAIL
  6
CONTINUOUS
 62
     5
 10
-344.99999963626942
 20
-646.00000000000728
 30
0.0
 40
142.49999999999989
 50
169.2641585543488
 51
280.73584144577069
  0
ARC
  8
DETAIL
  6
CONTINUOUS
 62
     5
 10
-344.99999963626942
 20
-646.00000000000728
 30
0.0
 40
142.49999999999989
 50
287.26415855433709
 51
346.73584144568463
  0
ARC
  8
DETAIL
  6
CONTINUOUS
 62
     5
 10
-344.99999963626942
 20
-646.00000000000728
 30
0.0
 40
142.49999999999989
 50
353.26415855435761
 51
96.735841445747397
  0
CIRCLE
  8
DETAIL
  6
CONTINUOUS
 62
     5
 10
-344.99999963626942
 20
-646.00000000000728
 30
0.0
 40
128.99999999999989
  0
CIRCLE
  8
DETAIL
  6
CONTINUOUS
 62
     5
 10
-344.99999963626942
 20
-646.00000000000728
 30
0.0
 40
120.9999999999999
  0
ARC
  8
DETAIL
  6
CONTINUOUS
 62
     5
 10
-209.0965297202674
 20
-669.96344851800677
 30
0.0
 40
5.9999999999999956
 50
80.000000000047706
 51
260.00000000004769
  0
ARC
  8
DETAIL
  6
CONTINUOUS
 62
     5
 10
-208.24817570426421
 20
-678.23644911399606
 30
0.0
 40
1.9999999999999989
 50
346.73584144577649
 51
80.000000000047706
  0
ARC
  8
DETAIL
  6
CONTINUOUS
 62
     5
 10
-205.46980486226309
 20
-662.47952506600268
 30
0.0
 40
1.9999999999999989
 50
260.00000000004769
 51
353.26415855435761
  0
ARC
  8
DETAIL
  6
CONTINUOUS
 62
     5
 10
-475.59999963626427
 20
-761.69192476399985
 30
0.0
 40
55.099999999999952
 50
180.11240372497949
 51
230.5902214089223
  0
ARC
  8
DETAIL
  6
CONTINUOUS
 62
     5
 10
-495.87127934026472
 20
-806.39999999999054
 30
0.0
 40
1.599999999999999
 50
270.0
 51
349.99999999993042
  0
ARC
  8
DETAIL
  6
CONTINUOUS
 62
     5
 10
-500.39999963626718
 20
-803.79999999999927
 30
0.0
 40
1.1999999999999991
 50
270.0
 51
0.0
  0
ARC
  8
DETAIL
  6
CONTINUOUS
 62
     5
 10
-496.19999963626111
 20
-806.19999999999345
 30
0.0
 40
0.9999999999999994
 50
270.0
 51
0.0
  0
ARC
  8
DETAIL
  6
CONTINUOUS
 62
     5
 10
-495.87127934026472
 20
-806.39999999999054
 30
0.0
 40
0.7999999999999996
 50
270.0
 51
349.99999999993042
  0
ARC
  8
DETAIL
  6
CONTINUOUS
 62
     5
 10
-500.39999963626718
 20
-803.79999999999927
 30
0.0
 40
0.5999999999999996
 50
270.0
 51
0.0
  0
ARC
  8
DETAIL
  6
CONTINUOUS
 62
     5
 10
-509.59999963626427
 20
-804.39999999999054
 30
0.0
 40
0.5999999999999996
 50
90.0
 51
270.0
  0
ARC
  8
DETAIL
  6
CONTINUOUS
 62
     5
 10
-496.19999963626111
 20
-806.19999999999345
 30
0.0
 40
0.4999999999999997
 50
270.0
 51
0.0
  0
ARC
  8
DETAIL
  6
CONTINUOUS
 62
     5
 10
-311.61477804426431
 20
-779.90081022600498
 30
0.0
 40
5.9999999999999956
 50
13.999999999920631
 51
193.99999999992059
  0
ARC
  8
DETAIL
  6
CONTINUOUS
 62
     5
 10
-318.82748349626672
 20
-784.04075267399458
 30
0.0
 40
1.9999999999999989
 50
280.73584144577069
 51
13.999999999920631
  0
ARC
  8
DETAIL
  6
CONTINUOUS
 62
     5
 10
-303.30275187426201
 20
-780.17000234399893
 30
0.0
 40
1.9999999999999989
 50
193.99999999992059
 51
287.26415855433709
  0
ARC
  8
DETAIL
  6
CONTINUOUS
 62
     5
 10
345.00000036373058
 20
-646.00000000000728
 30
0.0
 40
142.49999999999989
 50
103.26415855423529
 51
162.73584144567161
  0
ARC
  8
DETAIL
  6
CONTINUOUS
 62
     5
 10
345.00000036373058
 20
-646.00000000000728
 30
0.0
 40
142.49999999999989
 50
169.2641585543488
 51
280.73584144577069
  0
ARC
  8
DETAIL
  6
CONTINUOUS
 62
     5
 10
345.00000036373058
 20
-646.00000000000728
 30
0.0
 40
142.49999999999989
 50
287.26415855433709
 51
346.73584144568463
  0
ARC
  8
DETAIL
  6
CONTINUOUS
 62
     5
 10
345.00000036373058
 20
-646.00000000000728
 30
0.0
 40
142.49999999999989
 50
353.26415855435761
 51
96.735841445747397
  0
CIRCLE
  8
DETAIL
  6
CONTINUOUS
 62
     5
 10
345.00000036373058
 20
-646.00000000000728
 30
0.0
 40
128.99999999999989
  0
CIRCLE
  8
DETAIL
  6
CONTINUOUS
 62
     5
 10
345.00000036373058
 20
-646.00000000000728
 30
0.0
 40
120.9999999999999
  0
ARC
  8
DETAIL
  6
CONTINUOUS
 62
     5
 10
211.09919013774021
 20
-612.614778405994
 30
0.0
 40
5.9999999999999956
 50
256.00000000007782
 51
76.000000000077804
  0
ARC
  8
DETAIL
  6
CONTINUOUS
 62
     5
 10
206.959247689736
 20
-619.82748385800369
 30
0.0
 40
1.9999999999999989
 50
76.000000000077804
 51
169.26415855424079
  0
ARC
  8
DETAIL
  6
CONTINUOUS
 62
     5
 10
480.90347027973257
 20
-669.96344851800677
 30
0.0
 40
5.9999999999999956
 50
80.000000000047706
 51
260.00000000004769
  0
ARC
  8
DETAIL
  6
CONTINUOUS
 62
     5
 10
481.75182429573579
 20
-678.23644911399606
 30
0.0
 40
1.9999999999999989
 50
346.73584144568463
 51
80.000000000047706
  0
ARC
  8
DETAIL
  6
CONTINUOUS
 62
     5
 10
484.5301951377387
 20
-662.47952506600268
 30
0.0
 40
1.9999999999999989
 50
260.00000000004769
 51
353.2641585541607
  0
ARC
  8
DETAIL
  6
CONTINUOUS
 62
     5
 10
378.38522195573569
 20
-779.90081022600498
 30
0.0
 40
5.9999999999999956
 50
13.999999999920631
 51
193.99999999992059
  0
ARC
  8
DETAIL
  6
CONTINUOUS
 62
     5
 10
371.17251650373328
 20
-784.04075267399458
 30
0.0
 40
1.9999999999999989
 50
280.73584144577069
 51
13.999999999920631
  0
ARC
  8
DETAIL
  6
CONTINUOUS
 62
     5
 10
386.69724812573799
 20
-780.17000234399893
 30
0.0
 40
1.9999999999999989
 50
193.99999999992059
 51
287.26415855433709
  0
ARC
  8
DETAIL
  6
CONTINUOUS
 62
     5
 10
495.87128006973398
 20
-806.39999999999054
 30
0.0
 40
1.599999999999999
 50
190.00000000006949
 51
270.0
  0
ARC
  8
DETAIL
  6
CONTINUOUS
 62
     5
 10
500.95000036373858
 20
-806.94999999999345
 30
0.0
 40
1.0499999999999989
 50
270.00000000010431
 51
90.000019847840207
  0
ARC
  8
DETAIL
  6
CONTINUOUS
 62
     5
 10
496.20000036373858
 20
-806.19999999999345
 30
0.0
 40
0.9999999999999994
 50
180.0
 51
270.0
  0
ARC
  8
DETAIL
  6
CONTINUOUS
 62
     5
 10
495.87128006973398
 20
-806.39999999999054
 30
0.0
 40
0.7999999999999996
 50
189.99999999993889
 51
270.0
  0
ARC
  8
DETAIL
  6
CONTINUOUS
 62
     5
 10
496.20000036373858
 20
-806.19999999999345
 30
0.0
 40
0.4999999999999997
 50
180.0
 51
270.0
  0
ARC
  8
DETAIL
  6
CONTINUOUS
 62
     5
 10
500.95000036373858
 20
-806.94999999999345
 30
0.0
 40
0.2499999999999999
 50
270.00000000041689
 51
90.000019847840207
  0
CIRCLE
  8
DETAIL
  6
CONTINUOUS
 62
     5
 10
441.87362938572551
 20
-549.12637097700645
 30
0.0
 40
4.6999999999999984
  0
CIRCLE
  8
DETAIL
  6
CONTINUOUS
 62
     5
 10
441.87362938572551
 20
-742.87362902299355
 30
0.0
 40
4.6999999999999984
  0
CIRCLE
  8
DETAIL
  6
CONTINUOUS
 62
     5
 10
248.12637134172471
 20
-742.87362902299355
 30
0.0
 40
4.6999999999999984
  0
CIRCLE
  8
DETAIL
  6
CONTINUOUS
 62
     5
 10
248.12637134172471
 20
-549.12637097700645
 30
0.0
 40
4.6999999999999984
  0
CIRCLE
  8
DETAIL
  6
CONTINUOUS
 62
     5
 10
-248.12637061427449
 20
-549.12637097700645
 30
0.0
 40
4.6999999999999984
  0
CIRCLE
  8
DETAIL
  6
CONTINUOUS
 62
     5
 10
-248.12637061427449
 20
-742.87362902299355
 30
0.0
 40
4.6999999999999984
  0
CIRCLE
  8
DETAIL
  6
CONTINUOUS
 62
     5
 10
-441.87362865827532
 20
-742.87362902299355
 30
0.0
 40
4.6999999999999984
  0
CIRCLE
  8
DETAIL
  6
CONTINUOUS
 62
     5
 10
-441.87362865827532
 20
-549.12637097700645
 30
0.0
 40
4.6999999999999984
  0
LINE
  8
BASIS
  6
DASHDOT
 62
     6
 10
-510.05027070953662
 20
-646.00000000000728
 30
0.0
 11
510.05027122826141
 21
-646.00000000000728
 31
0.0
  0
LINE
  8
BASIS
  6
DASHDOT
 62
     6
 10
-344.99999963626942
 20
-483.80695068007481
 30
0.0
 11
-344.99999963626942
 21
-808.19304931993975
 31
0.0
  0
LINE
  8
BASIS
  6
DASHDOT
 62
     6
 10
345.00000036373058
 20
-488.89575686272292
 30
0.0
 11
345.00000036373058
 21
-803.10424313729163
 31
0.0
  0
ARC
  8
DETAIL
  6
CONTINUOUS
 62
     5
 10
500.95000036373858
 20
-405.05000000000842
 30
0.0
 40
1.0499999999999989
 50
270.00000000010431
 51
90.000019847840207
  0
ARC
  8
DETAIL
  6
CONTINUOUS
 62
     5
 10
500.95000036373858
 20
-405.05000000000842
 30
0.0
 40
0.2499999999999999
 50
270.00000000041689
 51
90.000019847840207
  0
LINE
  8
DETAIL
  6
CONTINUOUS
 62
     5
 10
497.70000036372949
 20
-406.10000000001128
 30
0.0
 11
500.95000036373858
 21
-406.10000000001128
 31
0.0
  0
LINE
  8
DETAIL
  6
CONTINUOUS
 62
     5
 10
500.95000036373858
 20
-805.89999999999054
 30
0.0
 11
497.70000036372949
 21
-805.89999999999054
 31
0.0
  0
LINE
  8
DETAIL
  6
CONTINUOUS
 62
     5
 10
-497.69999963626827
 20
-405.30000000000842
 30
0.0
 11
-497.69999963626827
 21
-406.10000000001128
 31
0.0
  0
LINE
  8
DETAIL
  6
CONTINUOUS
 62
     5
 10
-497.69999963626827
 20
-805.89999999999054
 30
0.0
 11
-497.69999963626827
 21
-806.69999999999345
 31
0.0
  0
LINE
  8
DETAIL
  6
CONTINUOUS
 62
     5
 10
-497.69999963626827
 20
-406.10000000001128
 30
0.0
 11
-500.94999963627743
 21
-406.10000000001128
 31
0.0
  0
LINE
  8
DETAIL
  6
CONTINUOUS
 62
     5
 10
-496.19999963626111
 20
-405.30000000000842
 30
0.0
 11
-500.94999963627743
 21
-405.30000000000842
 31
0.0
  0
LINE
  8
DETAIL
  6
CONTINUOUS
 62
     5
 10
-500.94999963627743
 20
-806.69999999999345
 30
0.0
 11
-496.19999963626111
 21
-806.69999999999345
 31
0.0
  0
LINE
  8
DETAIL
  6
CONTINUOUS
 62
     5
 10
-500.94999963627743
 20
-805.89999999999054
 30
0.0
 11
-497.69999963626827
 21
-805.89999999999054
 31
0.0
  0
ARC
  8
DETAIL
  6
CONTINUOUS
 62
     5
 10
-500.94999963627743
 20
-806.94999999999345
 30
0.0
 40
1.0499999999999989
 50
90.000000000104222
 51
269.9999823998815
  0
ARC
  8
DETAIL
  6
CONTINUOUS
 62
     5
 10
-500.94999963627743
 20
-806.94999999999345
 30
0.0
 40
0.2499999999999999
 50
90.00000000041689
 51
269.9999823998815
  0
LINE
  8
DETAIL
  6
CONTINUOUS
 62
     5
 10
-487.16730055426342
 20
-805.89999999999054
 30
0.0
 11
487.16730128172821
 21
-805.89999999999054
 31
0.0
  0
LINE
  8
DETAIL
  6
CONTINUOUS
 62
     5
 10
487.21438667373332
 20
-406.10000000001128
 30
0.0
 11
-487.21438594626312
 21
-406.10000000001128
 31
0.0
  0
LINE
  8
BASIS
  6
DASHDOT
 62
     6
 10
-565.44825034716996
 20
-606.00000000001091
 30
0.0
 11
565.44825083824435
 21
-606.00000000001091
 31
0.0
  0
LINE
  8
DETAIL
  6
CONTINUOUS
 62
     5
 10
-611.29999999999382
 20
-411.49999999801179
 30
0.0
 11
-611.29999999999382
 21
-711.59999999801221
 31
0.0
  0
LINE
  8
DETAIL
  6
CONTINUOUS
 62
     5
 10
-610.69999999998981
 20
-712.89999999800057
 30
0.0
 11
-610.69999999998981
 21
-711.59999999801221
 31
0.0
  0
LINE
  8
DETAIL
  6
CONTINUOUS
 62
     5
 10
-610.69999999998981
 20
-106.2999999979947
 30
0.0
 11
-610.69999999998981
 21
-411.49999999801179
 31
0.0
  0
LINE
  8
DETAIL
  6
CONTINUOUS
 62
     5
 10
-566.59999999998945
 20
-412.99999999798268
 30
0.0
 11
-566.59999999998945
 21
-402.99999999799729
 31
0.0
  0
LINE
  8
DETAIL
  6
CONTINUOUS
 62
     5
 10
-565.43356526798379
 20
-412.99999999798268
 30
0.0
 11
-565.43356526798379
 21
-402.99999999799729
 31
0.0
  0
LINE
  8
DETAIL
  6
CONTINUOUS
 62
     5
 10
-562.30000000000109
 20
-402.99999999799729
 30
0.0
 11
-562.30000000000109
 21
-412.99999999798268
 31
0.0
  0
LINE
  8
DETAIL
  6
CONTINUOUS
 62
     5
 10
-560.59999999998945
 20
-404.19999999800888
 30
0.0
 11
-560.59999999998945
 21
-384.2005689960115
 31
0.0
  0
LINE
  8
DETAIL
  6
CONTINUOUS
 62
     5
 10
-560.59999999998945
 20
-412.99999999798268
 30
0.0
 11
-560.59999999998945
 21
-430.36807636800768
 31
0.0
  0
LINE
  8
DETAIL
  6
CONTINUOUS
 62
     5
 10
-552.59999999998945
 20
-404.19999999800888
 30
0.0
 11
-552.59999999998945
 21
-384.2005689960115
 31
0.0
  0
LINE
  8
DETAIL
  6
CONTINUOUS
 62
     5
 10
-552.59999999998945
 20
-412.99999999798268
 30
0.0
 11
-552.59999999998945
 21
-430.36550693000572
 31
0.0
  0
LINE
  8
DETAIL
  6
CONTINUOUS
 62
     5
 10
-550.89999999997599
 20
-402.99999999799729
 30
0.0
 11
-550.89999999997599
 21
-412.99999999798268
 31
0.0
  0
LINE
  8
DETAIL
  6
CONTINUOUS
 62
     5
 10
-548.50000000000364
 20
-382.79999999799838
 30
0.0
 11
-548.50000000000364
 21
-363.79999999798378
 31
0.0
  0
LINE
  8
DETAIL
  6
CONTINUOUS
 62
     5
 10
-548.50000000000364
 20
-425.19999999799262
 30
0.0
 11
-548.50000000000364
 21
-444.19999999799262
 31
0.0
  0
LINE
  8
DETAIL
  6
CONTINUOUS
 62
     5
 10
-547.73256776998096
 20
-412.99999999798268
 30
0.0
 11
-547.73256776998096
 21
-402.99999999799729
 31
0.0
  0
LINE
  8
DETAIL
  6
CONTINUOUS
 62
     5
 10
-546.59999999998945
 20
-402.99999999799729
 30
0.0
 11
-546.59999999998945
 21
-412.99999999798268
 31
0.0
  0
LINE
  8
DETAIL
  6
CONTINUOUS
 62
     5
 10
-543.99999999998181
 20
-400.7999999980002
 30
0.0
 11
-543.99999999998181
 21
-407.19999999799438
 31
0.0
  0
LINE
  8
DETAIL
  6
CONTINUOUS
 62
     5
 10
-538.30000000002474
 20
-382.79999999799838
 30
0.0
 11
-538.30000000002474
 21
-376.99999999799547
 31
0.0
  0
LINE
  8
DETAIL
  6
CONTINUOUS
 62
     5
 10
-538.30000000002474
 20
-425.19999999799262
 30
0.0
 11
-538.30000000002474
 21
-430.99999999801003
 31
0.0
  0
LINE
  8
DETAIL
  6
CONTINUOUS
 62
     5
 10
-528.30000000002474
 20
-384.79999999799838
 30
0.0
 11
-528.30000000002474
 21
-376.99999999799547
 31
0.0
  0
LINE
  8
DETAIL
  6
CONTINUOUS
 62
     5
 10
-528.30000000002474
 20
-423.19999999800712
 30
0.0
 11
-528.30000000002474
 21
-430.99999999801003
 31
0.0
  0
LINE
  8
DETAIL
  6
CONTINUOUS
 62
     5
 10
-554.15760783197584
 20
-435.27079684999438
 30
0.0
 11
-552.59999999998945
 21
-430.36550693000572
 31
0.0
  0
LINE
  8
DETAIL
  6
CONTINUOUS
 62
     5
 10
-498.99999999998357
 20
-389.14903320000121
 30
0.0
 11
-498.99999999998357
 21
-388.99999999801179
 31
0.0
  0
LINE
  8
DETAIL
  6
CONTINUOUS
 62
     5
 10
-498.99999999998357
 20
-418.85096679801609
 30
0.0
 11
-498.99999999998357
 21
-419.00001043244077
 31
0.0
  0
LINE
  8
DETAIL
  6
CONTINUOUS
 62
     5
 10
-508.38822509797859
 20
-399.86274169800708
 30
0.0
 11
-499.93725829997669
 21
-391.41177489999058
 31
0.0
  0
LINE
  8
DETAIL
  6
CONTINUOUS
 62
     5
 10
-506.12548339798923
 20
-402.1254833979965
 30
0.0
 11
-497.67451659998551
 21
-393.6745165999946
 31
0.0
  0
LINE
  8
DETAIL
  6
CONTINUOUS
 62
     5
 10
-495.80000000000109
 20
-105.09999999801219
 30
0.0
 11
-609.49999999997635
 21
-105.09999999801219
 31
0.0
  0
LINE
  8
DETAIL
  6
CONTINUOUS
 62
     5
 10
-545.50000000000728
 20
-360.79999999799838
 30
0.0
 11
-495.80000000000109
 21
-360.7999999980002
 31
0.0
  0
LINE
  8
DETAIL
  6
CONTINUOUS
 62
     5
 10
-552.59999999998945
 20
-384.19999999800888
 30
0.0
 11
-560.59999999998945
 21
-384.19999999800888
 31
0.0
  0
LINE
  8
DETAIL
  6
CONTINUOUS
 62
     5
 10
-543.30000000002474
 20
-387.79999999799838
 30
0.0
 11
-543.50000000000364
 21
-387.79999999799838
 31
0.0
  0
LINE
  8
DETAIL
  6
CONTINUOUS
 62
     5
 10
-525.30000000002474
 20
-387.79999999799838
 30
0.0
 11
-495.69999999999351
 21
-387.7999999980002
 31
0.0
  0
LINE
  8
DETAIL
  6
CONTINUOUS
 62
     5
 10
-543.99999999998181
 20
-400.7999999980002
 30
0.0
 11
-510.65096679796619
 21
-400.7999999980002
 31
0.0
  0
LINE
  8
DETAIL
  6
CONTINUOUS
 62
     5
 10
-566.59999999998945
 20
-402.99999999799729
 30
0.0
 11
-560.59999999998945
 21
-402.99999999799729
 31
0.0
  0
LINE
  8
DETAIL
  6
CONTINUOUS
 62
     5
 10
-552.59999999998945
 20
-402.99999999799729
 30
0.0
 11
-546.59999999998945
 21
-402.99999999799729
 31
0.0
  0
LINE
  8
DETAIL
  6
CONTINUOUS
 62
     5
 10
-510.65096679796619
 20
-403.99999999801179
 30
0.0
 11
-543.99999999998181
 21
-403.99999999801179
 31
0.0
  0
LINE
  8
DETAIL
  6
CONTINUOUS
 62
     5
 10
-552.59999999998945
 20
-404.19999999800888
 30
0.0
 11
-560.59999999998945
 21
-404.19999999800888
 31
0.0
  0
LINE
  8
DETAIL
  6
CONTINUOUS
 62
     5
 10
-543.99999999998181
 20
-407.19999999799438
 30
0.0
 11
-510.65096679796619
 21
-407.19999999799438
 31
0.0
  0
LINE
  8
DETAIL
  6
CONTINUOUS
 62
     5
 10
-610.69999999998981
 20
-411.49999999801179
 30
0.0
 11
-611.29999999999382
 21
-411.49999999801179
 31
0.0
  0
LINE
  8
DETAIL
  6
CONTINUOUS
 62
     5
 10
-566.59999999998945
 20
-412.99999999798268
 30
0.0
 11
-546.59999999998945
 21
-412.99999999798268
 31
0.0
  0
LINE
  8
DETAIL
  6
CONTINUOUS
 62
     5
 10
-543.30000000002474
 20
-420.19999999799262
 30
0.0
 11
-543.50000000000364
 21
-420.19999999799262
 31
0.0
  0
LINE
  8
DETAIL
  6
CONTINUOUS
 62
     5
 10
-525.30000000002474
 20
-420.19999999799262
 30
0.0
 11
-495.69999963626111
 21
-420.19999999799262
 31
0.0
  0
LINE
  8
DETAIL
  6
CONTINUOUS
 62
     5
 10
-556.06381456598865
 20
-436.66550692999408
 30
0.0
 11
-557.13711191799484
 21
-436.66550692999408
 31
0.0
  0
LINE
  8
DETAIL
  6
CONTINUOUS
 62
     5
 10
-545.50000000000728
 20
-447.19999999797801
 30
0.0
 11
-495.80000000000109
 21
-447.19999999797977
 31
0.0
  0
LINE
  8
DETAIL
  6
CONTINUOUS
 62
     5
 10
-611.29999999999382
 20
-711.59999999801221
 30
0.0
 11
-610.69999999998981
 21
-711.59999999801221
 31
0.0
  0
LINE
  8
DETAIL
  6
CONTINUOUS
 62
     5
 10
-495.80000000000109
 20
-714.09999999801221
 30
0.0
 11
-609.49999999997635
 21
-714.09999999801221
 31
0.0
  0
LINE
  8
DETAIL
  6
CONTINUOUS
 62
     5
 10
-506.12548339798923
 20
-405.87451660000619
 30
0.0
 11
-497.67451659998551
 21
-414.32548339799359
 31
0.0
  0
LINE
  8
DETAIL
  6
CONTINUOUS
 62
     5
 10
-508.38822509797859
 20
-408.13725829800211
 30
0.0
 11
-499.93725829997669
 21
-416.58822509799762
 31
0.0
  0
LINE
  8
DETAIL
  6
CONTINUOUS
 62
     5
 10
-560.59999999998945
 20
-430.36807636800768
 30
0.0
 11
-559.04333105600199
 21
-435.2707577879828
 31
0.0
  0
ARC
  8
DETAIL
  6
CONTINUOUS
 62
     5
 10
-609.49999999997635
 20
-106.2999999979947
 30
0.0
 40
1.1999999999999991
 50
90.0
 51
180.0
  0
ARC
  8
DETAIL
  6
CONTINUOUS
 62
     5
 10
-502.19999999999351
 20
-389.14903320000121
 30
0.0
 40
6.3999999999999968
 50
315.00000000000921
 51
0.0
  0
ARC
  8
DETAIL
  6
CONTINUOUS
 62
     5
 10
-510.65096679796619
 20
-397.59999999801772
 30
0.0
 40
6.3999999999999968
 50
270.0
 51
315.00000000000921
  0
ARC
  8
DETAIL
  6
CONTINUOUS
 62
     5
 10
-543.50000000000364
 20
-382.79999999799838
 30
0.0
 40
4.9999999999999973
 50
180.0
 51
270.0
  0
ARC
  8
DETAIL
  6
CONTINUOUS
 62
     5
 10
-533.30000000002474
 20
-376.99999999799547
 30
0.0
 40
4.9999999999999973
 50
0.0
 51
180.0
  0
ARC
  8
DETAIL
  6
CONTINUOUS
 62
     5
 10
-543.30000000002474
 20
-382.79999999799838
 30
0.0
 40
4.9999999999999973
 50
270.0
 51
0.0
  0
ARC
  8
DETAIL
  6
CONTINUOUS
 62
     5
 10
-510.65096679796619
 20
-397.59999999801772
 30
0.0
 40
3.199999999999998
 50
270.0
 51
315.00000000000921
  0
ARC
  8
DETAIL
  6
CONTINUOUS
 62
     5
 10
-502.19999999999351
 20
-389.14903320000121
 30
0.0
 40
3.199999999999998
 50
315.00000000000921
 51
0.0
  0
ARC
  8
DETAIL
  6
CONTINUOUS
 62
     5
 10
-545.50000000000728
 20
-363.79999999798378
 30
0.0
 40
2.9999999999999978
 50
90.0
 51
180.0
  0
ARC
  8
DETAIL
  6
CONTINUOUS
 62
     5
 10
-525.30000000002474
 20
-384.79999999799838
 30
0.0
 40
2.9999999999999978
 50
180.0
 51
270.0
  0
CIRCLE
  8
DETAIL
  6
CONTINUOUS
 62
     5
 10
-581.59999999998945
 20
-406.99999999799729
 30
0.0
 40
13.0
  0
CIRCLE
  8
DETAIL
  6
CONTINUOUS
 62
     5
 10
-581.59999999998945
 20
-433.99999999799729
 30
0.0
 40
13.0
  0
ARC
  8
DETAIL
  6
CONTINUOUS
 62
     5
 10
-533.30000000002474
 20
-430.99999999801003
 30
0.0
 40
4.9999999999999973
 50
180.0
 51
0.0
  0
ARC
  8
DETAIL
  6
CONTINUOUS
 62
     5
 10
-543.30000000002474
 20
-425.19999999799262
 30
0.0
 40
4.9999999999999973
 50
0.0
 51
90.0
  0
ARC
  8
DETAIL
  6
CONTINUOUS
 62
     5
 10
-543.50000000000364
 20
-425.19999999799262
 30
0.0
 40
4.9999999999999973
 50
90.0
 51
180.0
  0
ARC
  8
DETAIL
  6
CONTINUOUS
 62
     5
 10
-545.50000000000728
 20
-444.19999999799262
 30
0.0
 40
2.9999999999999978
 50
180.0
 51
270.0
  0
ARC
  8
DETAIL
  6
CONTINUOUS
 62
     5
 10
-525.30000000002474
 20
-423.19999999800712
 30
0.0
 40
2.9999999999999978
 50
90.0
 51
180.0
  0
ARC
  8
DETAIL
  6
CONTINUOUS
 62
     5
 10
-557.13711191799484
 20
-434.66550693000858
 30
0.0
 40
1.9999999999999989
 50
197.61536088913641
 51
270.0
  0
ARC
  8
DETAIL
  6
CONTINUOUS
 62
     5
 10
-556.06381456598865
 20
-434.66550693000858
 30
0.0
 40
1.9999999999999989
 50
270.0
 51
342.38346499348052
  0
ARC
  8
DETAIL
  6
CONTINUOUS
 62
     5
 10
-502.19999999999351
 20
-418.85096679801609
 30
0.0
 40
6.3999999999999968
 50
0.0
 51
44.999999999990777
  0
ARC
  8
DETAIL
  6
CONTINUOUS
 62
     5
 10
-510.65096679796619
 20
-410.39999999800602
 30
0.0
 40
6.3999999999999968
 50
44.999999999990777
 51
90.0
  0
ARC
  8
DETAIL
  6
CONTINUOUS
 62
     5
 10
-502.19999999999351
 20
-418.85096679801609
 30
0.0
 40
3.199999999999998
 50
0.0
 51
44.999999999990777
  0
ARC
  8
DETAIL
  6
CONTINUOUS
 62
     5
 10
-510.65096679796619
 20
-410.39999999800602
 30
0.0
 40
3.199999999999998
 50
44.999999999990777
 51
90.0
  0
CIRCLE
  8
DETAIL
  6
CONTINUOUS
 62
     5
 10
-585.99999999998363
 20
-668.84999999799402
 30
0.0
 40
13.0
  0
ARC
  8
DETAIL
  6
CONTINUOUS
 62
     5
 10
-609.49999999997635
 20
-712.89999999800057
 30
0.0
 40
1.1999999999999991
 50
180.0
 51
270.0
  0
LINE
  8
DETAIL
  6
CONTINUOUS
 62
     5
 10
-498.99999999998357
 20
-418.99999999801179
 30
0.0
 11
-499.00498875025198
 21
-419.24236831142053
 31
0.0
  0
LINE
  8
DETAIL
  6
CONTINUOUS
 62
     5
 10
-499.00498875025198
 20
-419.24236831142053
 30
0.0
 11
-499.03019293849792
 21
-419.48963996567142
 31
0.0
  0
LINE
  8
DETAIL
  6
CONTINUOUS
 62
     5
 10
-499.03019293849792
 20
-419.48963996567142
 30
0.0
 11
-499.0909694708825
 21
-419.72087518396074
 31
0.0
  0
LINE
  8
DETAIL
  6
CONTINUOUS
 62
     5
 10
-499.0909694708825
 20
-419.72087518396074
 30
0.0
 11
-499.20267525356684
 21
-419.91513418948495
 31
0.0
  0
LINE
  8
DETAIL
  6
CONTINUOUS
 62
     5
 10
-499.20267525356684
 20
-419.91513418948495
 30
0.0
 11
-499.37644397049121
 21
-420.05474939289553
 31
0.0
  0
LINE
  8
DETAIL
  6
CONTINUOUS
 62
     5
 10
-499.37644397049121
 20
-420.05474939289553
 30
0.0
 11
-499.59752524730618
 21
-420.14210838697772
 31
0.0
  0
LINE
  8
DETAIL
  6
CONTINUOUS
 62
     5
 10
-499.59752524730618
 20
-420.14210838697772
 30
0.0
 11
-499.84136707938029
 21
-420.18719314860812
 31
0.0
  0
LINE
  8
DETAIL
  6
CONTINUOUS
 62
     5
 10
-499.84136707938029
 20
-420.18719314860812
 30
0.0
 11
-500.0833989499788
 21
-420.19999999799438
 31
0.0
  0
LINE
  8
DETAIL
  6
CONTINUOUS
 62
     5
 10
-498.99999999998357
 20
-388.99999999801179
 30
0.0
 11
-499.00111638208779
 21
-388.84729207700644
 31
0.0
  0
LINE
  8
DETAIL
  6
CONTINUOUS
 62
     5
 10
-499.00111638208779
 20
-388.84729207700644
 30
0.0
 11
-499.00761532949684
 21
-388.69363844176098
 31
0.0
  0
LINE
  8
DETAIL
  6
CONTINUOUS
 62
     5
 10
-499.00761532949684
 20
-388.69363844176098
 30
0.0
 11
-499.02422154385505
 21
-388.54133452631828
 31
0.0
  0
LINE
  8
DETAIL
  6
CONTINUOUS
 62
     5
 10
-499.02422154385505
 20
-388.54133452631828
 30
0.0
 11
-499.05565972680648
 21
-388.39267576472128
 31
0.0
  0
LINE
  8
DETAIL
  6
CONTINUOUS
 62
     5
 10
-499.05565972680648
 20
-388.39267576472128
 30
0.0
 11
-499.10665457999585
 21
-388.24995759101284
 31
0.0
  0
LINE
  8
DETAIL
  6
CONTINUOUS
 62
     5
 10
-499.10665457999585
 20
-388.24995759101284
 30
0.0
 11
-499.18149074922826
 21
-388.11685041713929
 31
0.0
  0
LINE
  8
DETAIL
  6
CONTINUOUS
 62
     5
 10
-499.18149074922826
 20
-388.11685041713929
 30
0.0
 11
-499.28243059394003
 21
-388.00334339649942
 31
0.0
  0
LINE
  8
DETAIL
  6
CONTINUOUS
 62
     5
 10
-499.28243059394003
 20
-388.00334339649942
 30
0.0
 11
-499.40877223786578
 21
-387.9186746368735
 31
0.0
  0
LINE
  8
DETAIL
  6
CONTINUOUS
 62
     5
 10
-499.40877223786578
 20
-387.9186746368735
 30
0.0
 11
-499.5502889180043
 21
-387.86183292400352
 31
0.0
  0
LINE
  8
DETAIL
  6
CONTINUOUS
 62
     5
 10
-499.5502889180043
 20
-387.86183292400352
 30
0.0
 11
-499.57229529770217
 21
-387.85539922350904
 31
0.0
  0
LINE
  8
DETAIL
  6
CONTINUOUS
 62
     5
 10
-499.57229529770217
 20
-387.85539922350904
 30
0.0
 11
-499.59444344018823
 21
-387.84943828869461
 31
0.0
  0
LINE
  8
DETAIL
  6
CONTINUOUS
 62
     5
 10
-499.59444344018823
 20
-387.84943828869461
 30
0.0
 11
-499.6167159968208
 21
-387.84392951185094
 31
0.0
  0
LINE
  8
DETAIL
  6
CONTINUOUS
 62
     5
 10
-499.6167159968208
 20
-387.84392951185094
 30
0.0
 11
-499.63909561895844
 21
-387.8388522852685
 31
0.0
  0
LINE
  8
DETAIL
  6
CONTINUOUS
 62
     5
 10
-499.63909561895844
 20
-387.8388522852685
 30
0.0
 11
-499.66156495795963
 21
-387.83418600123838
 31
0.0
  0
LINE
  8
DETAIL
  6
CONTINUOUS
 62
     5
 10
-499.66156495795963
 20
-387.83418600123838
 30
0.0
 11
-499.68410666518287
 21
-387.82991005205122
 31
0.0
  0
LINE
  8
DETAIL
  6
CONTINUOUS
 62
     5
 10
-499.68410666518287
 20
-387.82991005205122
 30
0.0
 11
-499.70670339198659
 21
-387.82600382999772
 31
0.0
  0
LINE
  8
DETAIL
  6
CONTINUOUS
 62
     5
 10
-524.19999963626105
 20
-718.99999999800275
 30
0.0
 11
-524.19999963626105
 21
-714.09999999801221
 31
0.0
  0
LINE
  8
DETAIL
  6
CONTINUOUS
 62
     5
 10
-516.19999963626105
 20
-718.39999999801148
 30
0.0
 11
-516.19999963626105
 21
-714.09999999801221
 31
0.0
  0
LINE
  8
DETAIL
  6
CONTINUOUS
 62
     5
 10
-515.69999963626287
 20
-718.39999999801148
 30
0.0
 11
-515.69999963626287
 21
-720.9999999979882
 31
0.0
  0
LINE
  8
DETAIL
  6
CONTINUOUS
 62
     5
 10
-495.79999963626688
 20
-718.39999999801148
 30
0.0
 11
-516.19998226025746
 21
-718.39999999801148
 31
0.0
  0
LINE
  8
DETAIL
  6
CONTINUOUS
 62
     5
 10
-521.69999963626105
 20
-718.99999999800275
 30
0.0
 11
-524.19999963626105
 21
-718.99999999800275
 31
0.0
  0
LINE
  8
DETAIL
  6
CONTINUOUS
 62
     5
 10
-515.69999963626287
 20
-720.9999999979882
 30
0.0
 11
-519.69999963626105
 21
-720.9999999979882
 31
0.0
  0
ARC
  8
DETAIL
  6
CONTINUOUS
 62
     5
 10
-521.69999963626105
 20
-719.9999999980173
 30
0.0
 40
0.9999999999999994
 50
0.0
 51
90.0
  0
ARC
  8
DETAIL
  6
CONTINUOUS
 62
     5
 10
-519.69999963626105
 20
-719.9999999980173
 30
0.0
 40
0.9999999999999994
 50
180.0
 51
270.0
  0
LINE
  8
DETAIL
  6
CONTINUOUS
 62
     5
 10
-530.69989360410545
 20
-761.80002070625414
 30
0.0
 11
-530.69989360410545
 21
-714.09999999801221
 31
0.0
  0
LINE
  8
DETAIL
  6
CONTINUOUS
 62
     5
 10
-522.70000000000073
 20
-105.09999999801219
 30
0.0
 11
-522.70000000000073
 21
-77.999999998011845
 31
0.0
  0
LINE
  8
DETAIL
  6
CONTINUOUS
 62
     5
 10
-514.70000000000073
 20
-105.09999999801219
 30
0.0
 11
-514.70000000000073
 21
-78.399999998006024
 31
0.0
  0
LINE
  8
DETAIL
  6
CONTINUOUS
 62
     5
 10
-514.20000000000073
 20
-75.999999997997293
 30
0.0
 11
-514.20000000000073
 21
-78.399999998006024
 31
0.0
  0
LINE
  8
DETAIL
  6
CONTINUOUS
 62
     5
 10
-518.20000000000073
 20
-75.999999997997293
 30
0.0
 11
-514.20000000000073
 21
-75.999999997997293
 31
0.0
  0
LINE
  8
DETAIL
  6
CONTINUOUS
 62
     5
 10
-522.70000000000073
 20
-77.999999998011845
 30
0.0
 11
-520.20000000000255
 21
-77.999999998011845
 31
0.0
  0
LINE
  8
DETAIL
  6
CONTINUOUS
 62
     5
 10
-514.70000000000073
 20
-86.999999997997293
 30
0.0
 11
-518.20000000000073
 21
-86.999999997997293
 31
0.0
  0
LINE
  8
DETAIL
  6
CONTINUOUS
 62
     5
 10
-520.20000000000255
 20
-88.999999998026396
 30
0.0
 11
-522.70000000000073
 21
-88.999999998026396
 31
0.0
  0
ARC
  8
DETAIL
  6
CONTINUOUS
 62
     5
 10
-520.20000000000255
 20
-87.999999998011845
 30
0.0
 40
0.9999999999999994
 50
270.0
 51
0.0
  0
ARC
  8
DETAIL
  6
CONTINUOUS
 62
     5
 10
-518.20000000000073
 20
-87.999999998011845
 30
0.0
 40
0.9999999999999994
 50
90.0
 51
180.0
  0
ARC
  8
DETAIL
  6
CONTINUOUS
 62
     5
 10
-520.20000000000255
 20
-76.999999998011845
 30
0.0
 40
0.9999999999999994
 50
270.0
 51
0.0
  0
ARC
  8
DETAIL
  6
CONTINUOUS
 62
     5
 10
-518.20000000000073
 20
-76.999999998011845
 30
0.0
 40
0.9999999999999994
 50
90.0
 51
180.0
  0
LINE
  8
DETAIL
  6
CONTINUOUS
 62
     5
 10
508.28822509999742
 20
-399.86274170001519
 30
0.0
 11
499.83725829999639
 21
-391.41177490000518
 31
0.0
  0
LINE
  8
DETAIL
  6
CONTINUOUS
 62
     5
 10
506.02548339999339
 20
-402.12548340001922
 30
0.0
 11
497.57451660199331
 21
-393.67451660000921
 31
0.0
  0
LINE
  8
DETAIL
  6
CONTINUOUS
 62
     5
 10
545.49999999999454
 20
-360.80000000000842
 30
0.0
 11
495.69999999999891
 21
-360.80000000000842
 31
0.0
  0
LINE
  8
DETAIL
  6
CONTINUOUS
 62
     5
 10
495.70000000000442
 20
-387.80000000000842
 30
0.0
 11
525.29999999999745
 21
-387.80000000000842
 31
0.0
  0
LINE
  8
DETAIL
  6
CONTINUOUS
 62
     5
 10
543.29999999999745
 20
-387.80000000000842
 30
0.0
 11
543.49999999999454
 21
-387.80000000000842
 31
0.0
  0
LINE
  8
DETAIL
  6
CONTINUOUS
 62
     5
 10
510.55096679999588
 20
-400.80000000000842
 30
0.0
 11
543.899999999996
 21
-400.80000000000842
 31
0.0
  0
LINE
  8
DETAIL
  6
CONTINUOUS
 62
     5
 10
543.899999999996
 20
-404.00000000000551
 30
0.0
 11
510.55096679999588
 21
-404.00000000000551
 31
0.0
  0
LINE
  8
DETAIL
  6
CONTINUOUS
 62
     5
 10
510.55096679999588
 20
-407.2000000000171
 30
0.0
 11
543.899999999996
 21
-407.2000000000171
 31
0.0
  0
LINE
  8
DETAIL
  6
CONTINUOUS
 62
     5
 10
495.70000036373858
 20
-420.2000000000171
 30
0.0
 11
525.29999999999745
 21
-420.2000000000171
 31
0.0
  0
LINE
  8
DETAIL
  6
CONTINUOUS
 62
     5
 10
543.29999999999745
 20
-420.2000000000171
 30
0.0
 11
543.49999999999454
 21
-420.2000000000171
 31
0.0
  0
LINE
  8
DETAIL
  6
CONTINUOUS
 62
     5
 10
545.49999999999454
 20
-447.2000000000171
 30
0.0
 11
495.69999999999891
 21
-447.2000000000171
 31
0.0
  0
LINE
  8
DETAIL
  6
CONTINUOUS
 62
     5
 10
506.02548339999339
 20
-405.87451660000619
 30
0.0
 11
497.57451660199331
 21
-414.32548340001631
 31
0.0
  0
LINE
  8
DETAIL
  6
CONTINUOUS
 62
     5
 10
508.28822509999742
 20
-408.13725830001022
 30
0.0
 11
499.83725829999639
 21
-416.58822510000567
 31
0.0
  0
LINE
  8
DETAIL
  6
CONTINUOUS
 62
     5
 10
498.899999999996
 20
-388.99998962715841
 30
0.0
 11
498.899999999996
 21
-389.14903320001582
 31
0.0
  0
LINE
  8
DETAIL
  6
CONTINUOUS
 62
     5
 10
498.899999999996
 20
-418.8509668000097
 30
0.0
 11
498.899999999996
 21
-419.00000000002001
 31
0.0
  0
LINE
  8
DETAIL
  6
CONTINUOUS
 62
     5
 10
528.29999999999745
 20
-384.80000000000842
 30
0.0
 11
528.29999999999745
 21
-377.00000000000551
 31
0.0
  0
LINE
  8
DETAIL
  6
CONTINUOUS
 62
     5
 10
528.29999999999745
 20
-423.20000000000249
 30
0.0
 11
528.29999999999745
 21
-431.00000000000551
 31
0.0
  0
LINE
  8
DETAIL
  6
CONTINUOUS
 62
     5
 10
538.29999999999745
 20
-382.80000000000842
 30
0.0
 11
538.29999999999745
 21
-377.00000000000551
 31
0.0
  0
LINE
  8
DETAIL
  6
CONTINUOUS
 62
     5
 10
538.29999999999745
 20
-425.20000000000249
 30
0.0
 11
538.29999999999745
 21
-431.00000000000551
 31
0.0
  0
LINE
  8
DETAIL
  6
CONTINUOUS
 62
     5
 10
543.899999999996
 20
-400.80000000000842
 30
0.0
 11
543.899999999996
 21
-407.2000000000171
 31
0.0
  0
LINE
  8
DETAIL
  6
CONTINUOUS
 62
     5
 10
548.49999999999454
 20
-382.80000000000842
 30
0.0
 11
548.49999999999454
 21
-363.80000000000842
 31
0.0
  0
LINE
  8
DETAIL
  6
CONTINUOUS
 62
     5
 10
548.49999999999454
 20
-425.20000000000249
 30
0.0
 11
548.49999999999454
 21
-444.20000000000249
 31
0.0
  0
ARC
  8
DETAIL
  6
CONTINUOUS
 62
     5
 10
502.09999999999309
 20
-389.14903320001582
 30
0.0
 40
6.3999999999999968
 50
180.0
 51
224.99999999999079
  0
ARC
  8
DETAIL
  6
CONTINUOUS
 62
     5
 10
510.55096679999588
 20
-397.59999999999673
 30
0.0
 40
6.3999999999999968
 50
224.99999999999079
 51
270.0
  0
ARC
  8
DETAIL
  6
CONTINUOUS
 62
     5
 10
533.29999999999745
 20
-377.00000000000551
 30
0.0
 40
4.9999999999999973
 50
0.0
 51
180.0
  0
ARC
  8
DETAIL
  6
CONTINUOUS
 62
     5
 10
543.29999999999745
 20
-382.80000000000842
 30
0.0
 40
4.9999999999999973
 50
180.0
 51
270.0
  0
ARC
  8
DETAIL
  6
CONTINUOUS
 62
     5
 10
543.49999999999454
 20
-382.80000000000842
 30
0.0
 40
4.9999999999999973
 50
270.0
 51
0.0
  0
ARC
  8
DETAIL
  6
CONTINUOUS
 62
     5
 10
502.09999999999309
 20
-389.14903320001582
 30
0.0
 40
3.199999999999998
 50
180.0
 51
224.99999999999079
  0
ARC
  8
DETAIL
  6
CONTINUOUS
 62
     5
 10
510.55096679999588
 20
-397.59999999999673
 30
0.0
 40
3.199999999999998
 50
224.99999999999079
 51
270.0
  0
ARC
  8
DETAIL
  6
CONTINUOUS
 62
     5
 10
545.49999999999454
 20
-363.80000000000842
 30
0.0
 40
2.9999999999999978
 50
0.0
 51
90.0
  0
ARC
  8
DETAIL
  6
CONTINUOUS
 62
     5
 10
525.29999999999745
 20
-384.80000000000842
 30
0.0
 40
2.9999999999999978
 50
270.0
 51
0.0
  0
ARC
  8
DETAIL
  6
CONTINUOUS
 62
     5
 10
502.09999999999309
 20
-418.8509668000097
 30
0.0
 40
6.3999999999999968
 50
135.00000000000921
 51
180.0
  0
ARC
  8
DETAIL
  6
CONTINUOUS
 62
     5
 10
510.55096679999588
 20
-410.39999999999958
 30
0.0
 40
6.3999999999999968
 50
90.0
 51
135.00000000000921
  0
ARC
  8
DETAIL
  6
CONTINUOUS
 62
     5
 10
543.49999999999454
 20
-425.20000000000249
 30
0.0
 40
4.9999999999999973
 50
0.0
 51
90.0
  0
ARC
  8
DETAIL
  6
CONTINUOUS
 62
     5
 10
533.29999999999745
 20
-431.00000000000551
 30
0.0
 40
4.9999999999999973
 50
180.0
 51
0.0
  0
ARC
  8
DETAIL
  6
CONTINUOUS
 62
     5
 10
543.29999999999745
 20
-425.20000000000249
 30
0.0
 40
4.9999999999999973
 50
90.0
 51
180.0
  0
ARC
  8
DETAIL
  6
CONTINUOUS
 62
     5
 10
510.55096679999588
 20
-410.39999999999958
 30
0.0
 40
3.199999999999998
 50
90.0
 51
134.99999999986181
  0
ARC
  8
DETAIL
  6
CONTINUOUS
 62
     5
 10
502.09999999999309
 20
-418.8509668000097
 30
0.0
 40
3.199999999999998
 50
135.00000000000921
 51
180.0
  0
ARC
  8
DETAIL
  6
CONTINUOUS
 62
     5
 10
545.49999999999454
 20
-444.20000000000249
 30
0.0
 40
2.9999999999999978
 50
270.0
 51
0.0
  0
ARC
  8
DETAIL
  6
CONTINUOUS
 62
     5
 10
525.29999999999745
 20
-423.20000000000249
 30
0.0
 40
2.9999999999999978
 50
0.0
 51
90.0
  0
LINE
  8
DETAIL
  6
CONTINUOUS
 62
     5
 10
-494.19999963626111
 20
-403.19999999997339
 30
0.0
 11
-488.5143859462496
 21
-403.19999999997339
 31
0.0
  0
LINE
  8
DETAIL
  6
CONTINUOUS
 62
     5
 10
-489.31438594625621
 20
-403.99999999999272
 30
0.0
 11
-487.21438594626312
 21
-401.89999999997048
 31
0.0
  0
LINE
  8
DETAIL
  6
CONTINUOUS
 62
     5
 10
-492.84708502826652
 20
-404.80000000000842
 30
0.0
 11
-492.84708502826652
 21
-403.19999999997339
 31
0.0
  0
LINE
  8
DETAIL
  6
CONTINUOUS
 62
     5
 10
488.51438667371622
 20
-403.19999999997339
 30
0.0
 11
492.84708575573308
 21
-403.19999999997339
 31
0.0
  0
LINE
  8
DETAIL
  6
CONTINUOUS
 62
     5
 10
489.31438667372282
 20
-403.99999999999091
 30
0.0
 11
487.21438667373332
 21
-401.89999999997048
 31
0.0
  0
LINE
  8
DETAIL
  6
CONTINUOUS
 62
     5
 10
492.20000036373858
 20
-401.19999999998799
 30
0.0
 11
492.20000036373858
 21
-403.19999999997339
 31
0.0
  0
LINE
  8
DETAIL
  6
CONTINUOUS
 62
     5
 10
492.84708575573308
 20
-406.79999999999382
 30
0.0
 11
492.84708575573308
 21
-401.19999999998799
 31
0.0
  0
LINE
  8
DETAIL
  6
CONTINUOUS
 62
     5
 10
487.21438667373332
 20
-401.89999999997048
 30
0.0
 11
-487.21438594626312
 21
-401.89999999997048
 31
0.0
  0
LINE
  8
SIZE
  6
CONTINUOUS
 62
    30
 10
-501.99999999999272
 20
18.950000161266871
 30
0.0
 11
-501.99999999999272
 21
311.05395896871232
 31
0.0
  0
LINE
  8
SIZE
  6
CONTINUOUS
 62
    30
 10
502.00000000000551
 20
18.950000181863292
 30
0.0
 11
502.00000000000551
 21
311.05395896871232
 31
0.0
  0
LINE
  8
SIZE
  6
CONTINUOUS
 62
    30
 10
-489.99999999999272
 20
291.05395896871232
 30
0.0
 11
490.00000000000551
 21
291.05395896871232
 31
0.0
  0
CIRCLE
  8
SIZE
  6
CONTINUOUS
 62
    30
 10
-501.99999999999272
 20
291.05395896871232
 30
0.0
 40
6.0
  0
LINE
  8
SIZE
  6
CONTINUOUS
 62
    30
 10
-501.99999999999272
 20
291.05395896871232
 30
0.0
 11
-489.99999999999272
 21
291.05395896871232
 31
0.0
  0
CIRCLE
  8
SIZE
  6
CONTINUOUS
 62
    30
 10
502.00000000000551
 20
291.05395896871232
 30
0.0
 40
6.0
  0
LINE
  8
SIZE
  6
CONTINUOUS
 62
    30
 10
502.00000000000551
 20
291.05395896871232
 30
0.0
 11
490.00000000000551
 21
291.05395896871232
 31
0.0
  0
TEXT
  8
SIZE
  6
CONTINUOUS
 62
    30
 10
-103.10399999999363
 20
316.05395896871232
 30
0.0
 40
64.0
  1
1004
 50
0.0
 41
0.9
 51
0.0
  7
STANDARD
 71
     0
 72
     1
 11
0.0000000000063665
 21
316.05395896871232
 31
0.0
210
0.0
220
0.0
230
1.0
  0
POINT
  8
DEFPOINTS
  6
CONTINUOUS
 62
    30
 10
-501.99999999999272
 20
-1.0499998387331291
 30
0.0
  0
POINT
  8
DEFPOINTS
  6
CONTINUOUS
 62
    30
 10
502.00000000000551
 20
-1.0499998181367121
 30
0.0
  0
POINT
  8
DEFPOINTS
  6
CONTINUOUS
 62
    30
 10
502.00000000000551
 20
291.05395896871232
 30
0.0
  0
LINE
  8
SIZE
  6
CONTINUOUS
 62
    30
 10
344.99999999999818
 20
-64.845756862732742
 30
0.0
 11
344.99999999999818
 21
185.55951982625081
 31
0.0
  0
LINE
  8
SIZE
  6
CONTINUOUS
 62
    30
 10
-345.00000000000182
 20
-59.806950680083901
 30
0.0
 11
-345.00000000000182
 21
185.55951982625081
 31
0.0
  0
LINE
  8
SIZE
  6
CONTINUOUS
 62
    30
 10
332.99999999999818
 20
165.55951982625081
 30
0.0
 11
-333.00000000000182
 21
165.55951982625081
 31
0.0
  0
CIRCLE
  8
SIZE
  6
CONTINUOUS
 62
    30
 10
344.99999999999818
 20
165.55951982625081
 30
0.0
 40
6.0
  0
LINE
  8
SIZE
  6
CONTINUOUS
 62
    30
 10
344.99999999999818
 20
165.55951982625081
 30
0.0
 11
332.99999999999818
 21
165.55951982625081
 31
0.0
  0
CIRCLE
  8
SIZE
  6
CONTINUOUS
 62
    30
 10
-345.00000000000182
 20
165.55951982625081
 30
0.0
 40
6.0
  0
LINE
  8
SIZE
  6
CONTINUOUS
 62
    30
 10
-345.00000000000182
 20
165.55951982625081
 30
0.0
 11
-333.00000000000182
 21
165.55951982625081
 31
0.0
  0
TEXT
  8
SIZE
  6
CONTINUOUS
 62
    30
 10
-80.928000000001816
 20
190.55951982625081
 30
0.0
 40
64.0
  1
690
 50
0.0
 41
0.9
 51
0.0
  7
STANDARD
 71
     0
 72
     1
 11
-0.000000000001819
 21
190.55951982625081
 31
0.0
210
0.0
220
0.0
230
1.0
  0
POINT
  8
DEFPOINTS
  6
CONTINUOUS
 62
    30
 10
344.99999999999818
 20
-84.845756862732742
 30
0.0
  0
POINT
  8
DEFPOINTS
  6
CONTINUOUS
 62
    30
 10
-345.00000000000182
 20
-79.806950680083901
 30
0.0
  0
POINT
  8
DEFPOINTS
  6
CONTINUOUS
 62
    30
 10
-345.00000000000182
 20
165.55951982625081
 30
0.0
  0
LINE
  8
SIZE
  6
CONTINUOUS
 62
    30
 10
-610.69999999997708
 20
-732.89999999800057
 30
0.0
 11
-610.69999999997708
 21
-1012.3100063333241
 31
0.0
  0
LINE
  8
SIZE
  6
CONTINUOUS
 62
    30
 10
-495.69999963626111
 20
-826.19999999999345
 30
0.0
 11
-495.69999963626111
 21
-1012.3100063333241
 31
0.0
  0
LINE
  8
SIZE
  6
CONTINUOUS
 62
    30
 10
-507.69999963626111
 20
-992.31000633332405
 30
0.0
 11
-598.69999999997708
 21
-992.31000633332405
 31
0.0
  0
LINE
  8
SIZE
  6
CONTINUOUS
 62
    30
 10
-610.69999999997708
 20
-992.31000633332405
 30
0.0
 11
-798.87142857140623
 21
-992.31000633332405
 31
0.0
  0
CIRCLE
  8
SIZE
  6
CONTINUOUS
 62
    30
 10
-495.69999963626111
 20
-992.31000633332405
 30
0.0
 40
6.0
  0
LINE
  8
SIZE
  6
CONTINUOUS
 62
    30
 10
-495.69999963626111
 20
-992.31000633332405
 30
0.0
 11
-507.69999963626111
 21
-992.31000633332405
 31
0.0
  0
CIRCLE
  8
SIZE
  6
CONTINUOUS
 62
    30
 10
-610.69999999997708
 20
-992.31000633332405
 30
0.0
 40
6.0
  0
LINE
  8
SIZE
  6
CONTINUOUS
 62
    30
 10
-610.69999999997708
 20
-992.31000633332405
 30
0.0
 11
-598.69999999997708
 21
-992.31000633332405
 31
0.0
  0
TEXT
  8
SIZE
  6
CONTINUOUS
 62
    30
 10
-779.61771428569193
 20
-967.31000633332405
 30
0.0
 40
64.0
  1
115
 50
0.0
 41
0.9
 51
0.0
  7
STANDARD
 71
     0
 72
     1
 11
-710.78571428569194
 21
-967.31000633332405
 31
0.0
210
0.0
220
0.0
230
1.0
  0
POINT
  8
DEFPOINTS
  6
CONTINUOUS
 62
    30
 10
-610.69999999997708
 20
-712.89999999800057
 30
0.0
  0
POINT
  8
DEFPOINTS
  6
CONTINUOUS
 62
    30
 10
-495.69999963626111
 20
-806.19999999999345
 30
0.0
  0
POINT
  8
DEFPOINTS
  6
CONTINUOUS
 62
    30
 10
-495.69999963626111
 20
-992.31000633332405
 30
0.0
  0
LINE
  8
SIZE
  6
CONTINUOUS
 62
    30
 10
585.44825069841158
 20
-202.00000000000551
 30
0.0
 11
821.76082995441379
 21
-202.00000000000551
 31
0.0
  0
LINE
  8
SIZE
  6
CONTINUOUS
 62
    30
 10
530.05027108842489
 20
-242.00000000001651
 30
0.0
 11
821.76082995441379
 21
-242.00000000001651
 31
0.0
  0
LINE
  8
SIZE
  6
CONTINUOUS
 62
    30
 10
801.76082995441379
 20
-254.00000000001651
 30
0.0
 11
801.76082995441391
 21
-266.00000000001648
 31
0.0
  0
LINE
  8
SIZE
  6
CONTINUOUS
 62
    30
 10
801.76082995441379
 20
-190.00000000000551
 30
0.0
 11
801.76082995441379
 21
-34.742857142860629
 31
0.0
  0
LINE
  8
SIZE
  6
CONTINUOUS
 62
    30
 10
801.76082995441379
 20
-242.00000000001651
 30
0.0
 11
801.76082995441379
 21
-202.00000000000551
 31
0.0
  0
CIRCLE
  8
SIZE
  6
CONTINUOUS
 62
    30
 10
801.76082995441379
 20
-242.00000000001651
 30
0.0
 40
6.0
  0
LINE
  8
SIZE
  6
CONTINUOUS
 62
    30
 10
801.76082995441379
 20
-242.00000000001651
 30
0.0
 11
801.76082995441379
 21
-254.00000000001651
 31
0.0
  0
CIRCLE
  8
SIZE
  6
CONTINUOUS
 62
    30
 10
801.76082995441379
 20
-202.00000000000551
 30
0.0
 40
6.0
  0
LINE
  8
SIZE
  6
CONTINUOUS
 62
    30
 10
801.76082995441379
 20
-202.00000000000551
 30
0.0
 11
801.76082995441379
 21
-190.00000000000551
 31
0.0
  0
TEXT
  8
SIZE
  6
CONTINUOUS
 62
    30
 10
776.76082995441357
 20
-161.09142857143235
 30
0.0
 40
64.0
  1
40
 50
90.0
 41
0.9
 51
0.0
  7
STANDARD
 71
     0
 72
     1
 11
776.76082995441357
 21
-106.3714285714323
 31
0.0
210
0.0
220
0.0
230
1.0
  0
POINT
  8
DEFPOINTS
  6
CONTINUOUS
 62
    30
 10
565.44825069841158
 20
-202.0000000000056
 30
0.0
  0
POINT
  8
DEFPOINTS
  6
CONTINUOUS
 62
    30
 10
510.05027108842501
 20
-242.00000000001651
 30
0.0
  0
POINT
  8
DEFPOINTS
  6
CONTINUOUS
 62
    30
 10
801.76082995441379
 20
-242.00000000001651
 30
0.0
  0
LINE
  8
SIZE
  6
CONTINUOUS
 62
    30
 10
520.9499999874663
 20
-0.0000000000036348
 30
0.0
 11
1103.503710256424
 21
-0.0000000000035411
 31
0.0
  0
LINE
  8
SIZE
  6
CONTINUOUS
 62
    30
 10
520.94999994628995
 20
-807.99999999999318
 30
0.0
 11
1103.503710256424
 21
-807.99999999999307
 31
0.0
  0
LINE
  8
SIZE
  6
CONTINUOUS
 62
    30
 10
1083.503710256424
 20
-12.000000000003549
 30
0.0
 11
1083.503710256424
 21
-795.99999999999307
 31
0.0
  0
CIRCLE
  8
SIZE
  6
CONTINUOUS
 62
    30
 10
1083.503710256424
 20
-0.0000000000035443
 30
0.0
 40
6.0
  0
LINE
  8
SIZE
  6
CONTINUOUS
 62
    30
 10
1083.503710256424
 20
-0.0000000000035443
 30
0.0
 11
1083.503710256424
 21
-12.000000000003544
 31
0.0
  0
CIRCLE
  8
SIZE
  6
CONTINUOUS
 62
    30
 10
1083.503710256424
 20
-807.99999999999307
 30
0.0
 40
6.0
  0
LINE
  8
SIZE
  6
CONTINUOUS
 62
    30
 10
1083.503710256424
 20
-807.99999999999307
 30
0.0
 11
1083.503710256424
 21
-795.99999999999307
 31
0.0
  0
TEXT
  8
SIZE
  6
CONTINUOUS
 62
    30
 10
1058.5037102564229
 20
-484.92799999999852
 30
0.0
 40
64.0
  1
808
 50
90.0
 41
0.9
 51
0.0
  7
STANDARD
 71
     0
 72
     1
 11
1058.5037102564229
 21
-403.99999999999852
 31
0.0
210
0.0
220
0.0
230
1.0
  0
POINT
  8
DEFPOINTS
  6
CONTINUOUS
 62
    30
 10
500.9499999874663
 20
-0.000000000003638
 30
0.0
  0
POINT
  8
DEFPOINTS
  6
CONTINUOUS
 62
    30
 10
500.94999994628978
 20
-807.99999999999318
 30
0.0
  0
POINT
  8
DEFPOINTS
  6
CONTINUOUS
 62
    30
 10
1083.503710256424
 20
-807.99999999999307
 30
0.0
  0
LINE
  8
SIZE
  6
CONTINUOUS
 62
    30
 10
585.44825047447944
 20
-202.00000000000551
 30
0.0
 11
971.94124193894788
 21
-202.00000000000551
 31
0.0
  0
LINE
  8
SIZE
  6
CONTINUOUS
 62
    30
 10
585.44825033464463
 20
-606.00000000001114
 30
0.0
 11
971.941241938948
 21
-606.00000000001103
 31
0.0
  0
LINE
  8
SIZE
  6
CONTINUOUS
 62
    30
 10
951.94124193894788
 20
-214.00000000000551
 30
0.0
 11
951.941241938948
 21
-594.00000000001103
 31
0.0
  0
CIRCLE
  8
SIZE
  6
CONTINUOUS
 62
    30
 10
951.94124193894788
 20
-202.00000000000551
 30
0.0
 40
6.0
  0
LINE
  8
SIZE
  6
CONTINUOUS
 62
    30
 10
951.94124193894788
 20
-202.00000000000551
 30
0.0
 11
951.94124193894788
 21
-214.00000000000551
 31
0.0
  0
CIRCLE
  8
SIZE
  6
CONTINUOUS
 62
    30
 10
951.941241938948
 20
-606.00000000001103
 30
0.0
 40
6.0
  0
LINE
  8
SIZE
  6
CONTINUOUS
 62
    30
 10
951.941241938948
 20
-606.00000000001103
 30
0.0
 11
951.941241938948
 21
-594.00000000001103
 31
0.0
  0
TEXT
  8
SIZE
  6
CONTINUOUS
 62
    30
 10
926.94124193894766
 20
-486.08000000000857
 30
0.0
 40
64.0
  1
404
 50
90.0
 41
0.9
 51
0.0
  7
STANDARD
 71
     0
 72
     1
 11
926.94124193894766
 21
-404.00000000000853
 31
0.0
210
0.0
220
0.0
230
1.0
  0
POINT
  8
DEFPOINTS
  6
CONTINUOUS
 62
    30
 10
565.44825047447944
 20
-202.0000000000056
 30
0.0
  0
POINT
  8
DEFPOINTS
  6
CONTINUOUS
 62
    30
 10
565.44825033464463
 20
-606.00000000001114
 30
0.0
  0
POINT
  8
DEFPOINTS
  6
CONTINUOUS
 62
    30
 10
951.941241938948
 20
-606.00000000001103
 30
0.0
  0
LINE
  8
SIZE
  6
CONTINUOUS
 62
    30
 10
585.44825083824458
 20
-606.00000000001114
 30
0.0
 11
821.76082995441391
 21
-606.00000000001103
 31
0.0
  0
LINE
  8
SIZE
  6
CONTINUOUS
 62
    30
 10
530.05027122826164
 20
-646.0000000000075
 30
0.0
 11
821.76082995441391
 21
-646.00000000000739
 31
0.0
  0
LINE
  8
SIZE
  6
CONTINUOUS
 62
    30
 10
801.76082995441391
 20
-658.00000000000739
 30
0.0
 11
801.76082995441391
 21
-670.00000000000739
 31
0.0
  0
LINE
  8
SIZE
  6
CONTINUOUS
 62
    30
 10
801.76082995441391
 20
-594.00000000001103
 30
0.0
 11
801.76082995441391
 21
-438.7428571428681
 31
0.0
  0
LINE
  8
SIZE
  6
CONTINUOUS
 62
    30
 10
801.76082995441391
 20
-646.00000000000739
 30
0.0
 11
801.76082995441391
 21
-606.00000000001103
 31
0.0
  0
CIRCLE
  8
SIZE
  6
CONTINUOUS
 62
    30
 10
801.76082995441391
 20
-646.00000000000739
 30
0.0
 40
6.0
  0
LINE
  8
SIZE
  6
CONTINUOUS
 62
    30
 10
801.76082995441391
 20
-646.00000000000739
 30
0.0
 11
801.76082995441391
 21
-658.00000000000739
 31
0.0
  0
CIRCLE
  8
SIZE
  6
CONTINUOUS
 62
    30
 10
801.76082995441391
 20
-606.00000000001103
 30
0.0
 40
6.0
  0
LINE
  8
SIZE
  6
CONTINUOUS
 62
    30
 10
801.76082995441391
 20
-606.00000000001103
 30
0.0
 11
801.76082995441391
 21
-594.00000000001103
 31
0.0
  0
TEXT
  8
SIZE
  6
CONTINUOUS
 62
    30
 10
776.76082995441357
 20
-565.09142857143979
 30
0.0
 40
64.0
  1
40
 50
90.0
 41
0.9
 51
0.0
  7
STANDARD
 71
     0
 72
     1
 11
776.76082995441357
 21
-510.37142857143971
 31
0.0
210
0.0
220
0.0
230
1.0
  0
POINT
  8
DEFPOINTS
  6
CONTINUOUS
 62
    30
 10
565.44825083824458
 20
-606.00000000001114
 30
0.0
  0
POINT
  8
DEFPOINTS
  6
CONTINUOUS
 62
    30
 10
510.05027122826158
 20
-646.0000000000075
 30
0.0
  0
POINT
  8
DEFPOINTS
  6
CONTINUOUS
 62
    30
 10
801.76082995441391
 20
-646.00000000000739
 30
0.0
  0
POINT
  8
ARRANGE
  6
CONTINUOUS
 62
     1
 10
0.0
 20
0.0
 30
0.0
 50
270.0
  0
CIRCLE
  8
ARRANGE
  6
CONTINUOUS
 62
     1
 10
0.0
 20
0.0
 30
0.0
 40
40.0
  0
LINE
  8
BASIS
  6
DASHDOT
 62
     6
 10
-522.50000000000909
 20
-454.00001249801238
 30
0.0
 11
-522.50000000000909
 21
-353.99998749801131
 31
0.0
  0
LINE
  8
BASIS
  6
DASHDOT
 62
     6
 10
572.50001249999877
 20
-403.99999999801548
 30
0.0
 11
472.49998749999759
 21
-403.99999999801548
 31
0.0
  0
LINE
  8
BASIS
  6
DASHDOT
 62
     6
 10
-472.4999875000085
 20
-403.99999999800463
 30
0.0
 11
-572.50001250000605
 21
-403.99999999800463
 31
0.0
  0
LINE
  8
BASIS
  6
DASHDOT
 62
     6
 10
522.49999999999818
 20
-454.00001249801608
 30
0.0
 11
522.49999999999818
 21
-353.99998749801489
 31
0.0
  0
LINE
  8
SIZE
  6
CONTINUOUS
 62
    30
 10
522.49999999999818
 20
-333.99998749801489
 30
0.0
 11
522.49999999999818
 21
433.26527741695651
 31
0.0
  0
LINE
  8
SIZE
  6
CONTINUOUS
 62
    30
 10
-522.50000000000909
 20
-333.99998749801131
 30
0.0
 11
-522.50000000000909
 21
433.26527741695651
 31
0.0
  0
LINE
  8
SIZE
  6
CONTINUOUS
 62
    30
 10
510.49999999999818
 20
413.26527741695651
 30
0.0
 11
-510.50000000000909
 21
413.26527741695651
 31
0.0
  0
CIRCLE
  8
SIZE
  6
CONTINUOUS
 62
    30
 10
522.49999999999818
 20
413.26527741695651
 30
0.0
 40
6.0
  0
LINE
  8
SIZE
  6
CONTINUOUS
 62
    30
 10
522.49999999999818
 20
413.26527741695651
 30
0.0
 11
510.49999999999818
 21
413.26527741695651
 31
0.0
  0
CIRCLE
  8
SIZE
  6
CONTINUOUS
 62
    30
 10
-522.50000000000909
 20
413.26527741695651
 30
0.0
 40
6.0
  0
LINE
  8
SIZE
  6
CONTINUOUS
 62
    30
 10
-522.50000000000909
 20
413.26527741695651
 30
0.0
 11
-510.50000000000909
 21
413.26527741695651
 31
0.0
  0
TEXT
  8
SIZE
  6
CONTINUOUS
 62
    30
 10
-102.52800000000546
 20
438.26527741695651
 30
0.0
 40
64.0
  1
1045
 50
0.0
 41
0.9
 51
0.0
  7
STANDARD
 71
     0
 72
     1
 11
-0.000000000005457
 21
438.26527741695651
 31
0.0
210
0.0
220
0.0
230
1.0
  0
POINT
  8
DEFPOINTS
  6
CONTINUOUS
 62
    30
 10
522.49999999999818
 20
-353.99998749801489
 30
0.0
  0
POINT
  8
DEFPOINTS
  6
CONTINUOUS
 62
    30
 10
-522.50000000000909
 20
-353.99998749801131
 30
0.0
  0
POINT
  8
DEFPOINTS
  6
CONTINUOUS
 62
    30
 10
-522.50000000000909
 20
413.26527741695651
 30
0.0
  0
LINE
  8
SIZE
  6
CONTINUOUS
 62
    30
 10
-548.50000000000364
 20
-343.79999999798378
 30
0.0
 11
-548.50000000000364
 21
433.26527741698737
 31
0.0
  0
LINE
  8
SIZE
  6
CONTINUOUS
 62
    30
 10
-522.50000000000909
 20
-333.99998749801131
 30
0.0
 11
-522.50000000000909
 21
433.26527741698737
 31
0.0
  0
LINE
  8
SIZE
  6
CONTINUOUS
 62
    30
 10
-510.50000000000909
 20
413.26527741698737
 30
0.0
 11
-498.50000000000909
 21
413.26527741698737
 31
0.0
  0
LINE
  8
SIZE
  6
CONTINUOUS
 62
    30
 10
-560.50000000000364
 20
413.26527741698737
 30
0.0
 11
-713.2142857142918
 21
413.26527741698737
 31
0.0
  0
LINE
  8
SIZE
  6
CONTINUOUS
 62
    30
 10
-522.50000000000909
 20
413.26527741698737
 30
0.0
 11
-548.50000000000364
 21
413.26527741698737
 31
0.0
  0
CIRCLE
  8
SIZE
  6
CONTINUOUS
 62
    30
 10
-522.50000000000909
 20
413.26527741698737
 30
0.0
 40
6.0
  0
LINE
  8
SIZE
  6
CONTINUOUS
 62
    30
 10
-522.50000000000909
 20
413.26527741698737
 30
0.0
 11
-510.50000000000909
 21
413.26527741698737
 31
0.0
  0
CIRCLE
  8
SIZE
  6
CONTINUOUS
 62
    30
 10
-548.50000000000364
 20
413.26527741698737
 30
0.0
 40
6.0
  0
LINE
  8
SIZE
  6
CONTINUOUS
 62
    30
 10
-548.50000000000364
 20
413.26527741698737
 30
0.0
 11
-560.50000000000364
 21
413.26527741698737
 31
0.0
  0
TEXT
  8
SIZE
  6
CONTINUOUS
 62
    30
 10
-696.52514285714892
 20
438.26527741698737
 30
0.0
 40
64.0
  1
26
 50
0.0
 41
0.9
 51
0.0
  7
STANDARD
 71
     0
 72
     1
 11
-642.95714285714894
 21
438.26527741698737
 31
0.0
210
0.0
220
0.0
230
1.0
  0
POINT
  8
DEFPOINTS
  6
CONTINUOUS
 62
    30
 10
-548.50000000000364
 20
-363.79999999798378
 30
0.0
  0
POINT
  8
DEFPOINTS
  6
CONTINUOUS
 62
    30
 10
-522.50000000000909
 20
-353.99998749801131
 30
0.0
  0
POINT
  8
DEFPOINTS
  6
CONTINUOUS
 62
    30
 10
-522.50000000000909
 20
413.26527741698737
 30
0.0
  0
CIRCLE
  8
FIX
  6
CONTINUOUS
 62
    11
 10
-522.50000000000909
 20
-403.99999999801179
 30
0.0
 40
7.5
  0
CIRCLE
  8
FIX
  6
CONTINUOUS
 62
    11
 10
522.49999999999818
 20
-403.99999999801548
 30
0.0
 40
7.5
  0
LINE
  8
OUTLINE
  6
CONTINUOUS
 62
     3
 10
-510.58091743228402
 20
-3.7364248596632019
 30
0.0
 11
-510.20000000000073
 21
-4.2000000000025466
 31
0.0
  0
LINE
  8
OUTLINE
  6
CONTINUOUS
 62
     3
 10
-510.20000000000073
 20
-4.2000000000025466
 30
0.0
 11
-509.59999999999673
 21
-4.1999999999966349
 31
0.0
  0
ARC
  8
OUTLINE
  6
CONTINUOUS
 62
     3
 10
-509.59999999999673
 20
-3.6000000000010459
 30
0.0
 40
0.599999999995589
 50
90.0
 51
270.0
  0
LINE
  8
OUTLINE
  6
CONTINUOUS
 62
     3
 10
-509.59999999999673
 20
-3.000000000005457
 30
0.0
 11
-500.39999999999958
 21
-3.1000000000058212
 31
0.0
  0
ARC
  8
OUTLINE
  6
CONTINUOUS
 62
     3
 10
-500.31809785169713
 20
-4.2151976564038574
 30
0.0
 40
1.1182011333978485
 50
0.7787403843171319
 51
94.200365459916952
  0
LINE
  8
OUTLINE
  6
CONTINUOUS
 62
     3
 10
-499.19999999999891
 20
-4.2000000000018636
 30
0.0
 11
-499.19999999999351
 21
-3.6000000000058212
 31
0.0
  0
LINE
  8
OUTLINE
  6
CONTINUOUS
 62
     3
 10
-499.19999999999351
 20
-3.6000000000058212
 30
0.0
 11
-495.69999999999351
 21
-3.6000000000058212
 31
0.0
  0
LINE
  8
OUTLINE
  6
CONTINUOUS
 62
     3
 10
-495.69999999999351
 20
-3.6000000000058212
 30
0.0
 11
-495.69999999999351
 21
-1.8000000000029099
 31
0.0
  0
ARC
  8
OUTLINE
  6
CONTINUOUS
 62
     3
 10
-496.19999999999504
 20
-1.8000000000044527
 30
0.0
 40
0.5000000000015429
 50
0.0
 51
90.0
  0
LINE
  8
OUTLINE
  6
CONTINUOUS
 62
     3
 10
-496.19999999999351
 20
-1.3000000000029099
 30
0.0
 11
-497.70000000000073
 21
-1.3000000000029099
 31
0.0
  0
LINE
  8
OUTLINE
  6
CONTINUOUS
 62
     3
 10
-497.70000000000073
 20
-1.3000000000029099
 30
0.0
 11
-497.70000000000073
 21
-2.1000000000058212
 31
0.0
  0
LINE
  8
OUTLINE
  6
CONTINUOUS
 62
     3
 10
-497.70000000000073
 20
-2.1000000000058212
 30
0.0
 11
-500.9614123693209
 21
-2.0999379780885188
 31
0.0
  0
ARC
  8
OUTLINE
  6
CONTINUOUS
 62
     3
 10
-500.94999999999368
 20
-1.0500000000029706
 30
0.0
 40
1.0500000000000145
 50
90.0
 51
269.37724431278275
  0
LINE
  8
OUTLINE
  6
CONTINUOUS
 62
     3
 10
-500.94999999999351
 20
-0.0000000000029559
 30
0.0
 11
-495.87127970399712
 21
-0.0000000000059117
 31
0.0
  0
ARC
  8
OUTLINE
  6
CONTINUOUS
 62
     3
 10
-495.87127970399519
 20
-1.600000000004151
 30
0.0
 40
1.5999999999982393
 50
9.9999999999159286
 51
90.0
  0
LINE
  8
OUTLINE
  6
CONTINUOUS
 62
     3
 10
-494.29558729917699
 20
-1.3221629157396819
 30
0.0
 11
-494.19999999999351
 21
-1.864265431506283
 31
0.0
  0
LINE
  8
OUTLINE
  6
CONTINUOUS
 62
     3
 10
-494.19999999999351
 20
-1.864265431506283
 30
0.0
 11
-494.19999999999351
 21
-0.8000000000029104
 31
0.0
  0
LINE
  8
OUTLINE
  6
CONTINUOUS
 62
     3
 10
-494.19999999999351
 20
-0.8000000000029104
 30
0.0
 11
-492.84708539199892
 21
-0.8000000000029104
 31
0.0
  0
LINE
  8
OUTLINE
  6
CONTINUOUS
 62
     3
 10
-492.84708539199892
 20
-0.8000000000029104
 30
0.0
 11
-492.84708539199892
 21
0.0
 31
0.0
  0
LINE
  8
OUTLINE
  6
CONTINUOUS
 62
     3
 10
-492.84708539199892
 20
0.0
 30
0.0
 11
492.84708539200068
 21
0.0
 31
0.0
  0
LINE
  8
OUTLINE
  6
CONTINUOUS
 62
     3
 10
492.84708539200068
 20
0.0
 30
0.0
 11
492.84708539200068
 21
-2.799999999988358
 31
0.0
  0
LINE
  8
OUTLINE
  6
CONTINUOUS
 62
     3
 10
492.84708539200068
 20
-2.799999999988358
 30
0.0
 11
494.03500474999601
 21
-2.799999999988358
 31
0.0
  0
LINE
  8
OUTLINE
  6
CONTINUOUS
 62
     3
 10
494.03500474999601
 20
-2.799999999988358
 30
0.0
 11
494.29558730117969
 21
-1.322162915736953
 31
0.0
  0
ARC
  8
OUTLINE
  6
CONTINUOUS
 62
     3
 10
495.87127970601279
 20
-1.6000000000152965
 30
0.0
 40
1.6000000000152965
 50
90.0
 51
169.99999999968736
  0
LINE
  8
OUTLINE
  6
CONTINUOUS
 62
     3
 10
495.87127970599983
 20
0.0
 30
0.0
 11
500.95000000000618
 21
0.0
 31
0.0
  0
ARC
  8
OUTLINE
  6
CONTINUOUS
 62
     3
 10
500.95000000000709
 20
-1.0500000000014325
 30
0.0
 40
1.0500000000014325
 50
270.0
 51
90.0
  0
LINE
  8
OUTLINE
  6
CONTINUOUS
 62
     3
 10
500.950000000008
 20
-2.1000000000028649
 30
0.0
 11
497.69999999999891
 21
-2.1000000000058212
 31
0.0
  0
LINE
  8
OUTLINE
  6
CONTINUOUS
 62
     3
 10
497.69999999999891
 20
-2.1000000000058212
 30
0.0
 11
497.69999999999891
 21
-1.3000000000029099
 31
0.0
  0
LINE
  8
OUTLINE
  6
CONTINUOUS
 62
     3
 10
497.69999999999891
 20
-1.3000000000029099
 30
0.0
 11
496.20000000000618
 21
-1.3000000000029099
 31
0.0
  0
ARC
  8
OUTLINE
  6
CONTINUOUS
 62
     3
 10
496.20000000000954
 20
-1.8000000000080432
 30
0.0
 40
0.5000000000051332
 50
90.0
 51
180.0
  0
LINE
  8
OUTLINE
  6
CONTINUOUS
 62
     3
 10
495.70000000000442
 20
-1.8000000000029099
 30
0.0
 11
495.69999999999891
 21
-360.80000000000842
 31
0.0
  0
LINE
  8
OUTLINE
  6
CONTINUOUS
 62
     3
 10
495.69999999999891
 20
-360.80000000000842
 30
0.0
 11
545.49999999999454
 21
-360.80000000000842
 31
0.0
  0
ARC
  8
OUTLINE
  6
CONTINUOUS
 62
     3
 10
545.49999999999579
 20
-363.80000000000717
 30
0.0
 40
2.9999999999987774
 50
0.0
 51
90.0
  0
LINE
  8
OUTLINE
  6
CONTINUOUS
 62
     3
 10
548.49999999999454
 20
-363.80000000000842
 30
0.0
 11
548.49999999999454
 21
-382.80000000000842
 31
0.0
  0
ARC
  8
OUTLINE
  6
CONTINUOUS
 62
     3
 10
543.399999999996
 20
-382.70000000000994
 30
0.0
 40
5.1009802979412564
 50
181.12330271405881
 51
358.87669728594119
  0
LINE
  8
OUTLINE
  6
CONTINUOUS
 62
     3
 10
538.29999999999745
 20
-382.80000000000842
 30
0.0
 11
538.29999999999745
 21
-377.00000000000551
 31
0.0
  0
ARC
  8
OUTLINE
  6
CONTINUOUS
 62
     3
 10
533.29999999999745
 20
-377.00000000000551
 30
0.0
 40
5.0
 50
0.0
 51
180.0
  0
LINE
  8
OUTLINE
  6
CONTINUOUS
 62
     3
 10
528.29999999999745
 20
-377.00000000000551
 30
0.0
 11
528.29999999999745
 21
-384.80000000000842
 31
0.0
  0
ARC
  8
OUTLINE
  6
CONTINUOUS
 62
     3
 10
525.2999999999987
 20
-384.80000000000967
 30
0.0
 40
2.9999999999987774
 50
270.0
 51
0.0
  0
LINE
  8
OUTLINE
  6
CONTINUOUS
 62
     3
 10
525.29999999999745
 20
-387.80000000000842
 30
0.0
 11
499.98339895199751
 21
-387.80000000000842
 31
0.0
  0
ARC
  8
OUTLINE
  6
CONTINUOUS
 62
     3
 10
500.21407835522393
 20
-389.09732872359422
 30
0.0
 40
1.3176778073996875
 50
100.08244681617668
 51
175.7640567822408
  0
LINE
  8
OUTLINE
  6
CONTINUOUS
 62
     3
 10
498.899999999996
 20
-389.00000000000682
 30
0.0
 11
498.89999999999242
 21
-389.14903320001582
 31
0.0
  0
ARC
  8
OUTLINE
  6
CONTINUOUS
 62
     3
 10
502.06877878865816
 20
-389.16196544957182
 30
0.0
 40
3.1688051777564952
 50
179.76616884457428
 51
225.23383114337548
  0
LINE
  8
OUTLINE
  6
CONTINUOUS
 62
     3
 10
499.83725829999639
 20
-391.41177490000518
 30
0.0
 11
508.28822509999742
 21
-399.86274170001519
 31
0.0
  0
ARC
  8
OUTLINE
  6
CONTINUOUS
 62
     3
 10
510.55096680043033
 20
-397.59999999796651
 30
0.0
 40
3.2000000020419255
 50
225.00000002045681
 51
270.0
  0
LINE
  8
OUTLINE
  6
CONTINUOUS
 62
     3
 10
510.55096679999588
 20
-400.80000000000842
 30
0.0
 11
543.899999999996
 21
-400.80000000000842
 31
0.0
  0
LINE
  8
OUTLINE
  6
CONTINUOUS
 62
     3
 10
543.899999999996
 20
-400.80000000000842
 30
0.0
 11
543.899999999996
 21
-407.2000000000171
 31
0.0
  0
LINE
  8
OUTLINE
  6
CONTINUOUS
 62
     3
 10
543.899999999996
 20
-407.2000000000171
 30
0.0
 11
510.55096679999588
 21
-407.2000000000171
 31
0.0
  0
ARC
  8
OUTLINE
  6
CONTINUOUS
 62
     3
 10
510.55096679993068
 20
-410.39999999990187
 30
0.0
 40
3.1999999998847408
 50
90.0
 51
135.00000000026557
  0
LINE
  8
OUTLINE
  6
CONTINUOUS
 62
     3
 10
508.28822510020473
 20
-408.13725830019689
 30
0.0
 11
499.83725830019648
 21
-416.58822510021281
 31
0.0
  0
ARC
  8
OUTLINE
  6
CONTINUOUS
 62
     3
 10
502.0999999999878
 20
-418.85096680000885
 30
0.0
 40
3.1999999999953741
 50
134.99999999994026
 51
180.0
  0
LINE
  8
OUTLINE
  6
CONTINUOUS
 62
     3
 10
498.89999999999242
 20
-418.8509668000097
 30
0.0
 11
498.899999999996
 21
-419.00000000000409
 31
0.0
  0
ARC
  8
OUTLINE
  6
CONTINUOUS
 62
     3
 10
500.21407835522393
 20
-418.9026712764167
 30
0.0
 40
1.3176778073996878
 50
184.2359432177592
 51
259.91755318382343
  0
LINE
  8
OUTLINE
  6
CONTINUOUS
 62
     3
 10
499.98339895199751
 20
-420.20000000000249
 30
0.0
 11
525.29999999999745
 21
-420.2000000000171
 31
0.0
  0
ARC
  8
OUTLINE
  6
CONTINUOUS
 62
     3
 10
525.30000000002292
 20
-423.19999999999163
 30
0.0
 40
2.9999999999745173
 50
0.0
 51
90.0
  0
LINE
  8
OUTLINE
  6
CONTINUOUS
 62
     3
 10
528.29999999999745
 20
-423.20000000000249
 30
0.0
 11
528.29999999999745
 21
-431.00000000000551
 31
0.0
  0
ARC
  8
OUTLINE
  6
CONTINUOUS
 62
     3
 10
533.29999999999745
 20
-431.00000000000551
 30
0.0
 40
5.0
 50
180.0
 51
0.0
  0
LINE
  8
OUTLINE
  6
CONTINUOUS
 62
     3
 10
538.29999999999745
 20
-431.00000000000551
 30
0.0
 11
538.29999999999745
 21
-425.20000000000249
 31
0.0
  0
ARC
  8
OUTLINE
  6
CONTINUOUS
 62
     3
 10
543.399999999996
 20
-425.30000000000098
 30
0.0
 40
5.1009802979412564
 50
1.1233027140587524
 51
178.87669728594119
  0
LINE
  8
OUTLINE
  6
CONTINUOUS
 62
     3
 10
548.49999999999454
 20
-425.20000000000249
 30
0.0
 11
548.49999999999454
 21
-444.20000000000249
 31
0.0
  0
ARC
  8
OUTLINE
  6
CONTINUOUS
 62
     3
 10
545.49999999997056
 20
-444.19999999999311
 30
0.0
 40
3.000000000024007
 50
270.0
 51
0.0
  0
LINE
  8
OUTLINE
  6
CONTINUOUS
 62
     3
 10
545.49999999999454
 20
-447.2000000000171
 30
0.0
 11
495.69999999999891
 21
-447.2000000000171
 31
0.0
  0
LINE
  8
OUTLINE
  6
CONTINUOUS
 62
     3
 10
495.69999999999891
 20
-447.2000000000171
 30
0.0
 11
495.70000036373858
 21
-806.19999999999345
 31
0.0
  0
ARC
  8
OUTLINE
  6
CONTINUOUS
 62
     3
 10
496.20000036374012
 20
-806.19999999999186
 30
0.0
 40
0.5000000000015429
 50
180.0
 51
270.0
  0
LINE
  8
OUTLINE
  6
CONTINUOUS
 62
     3
 10
496.20000036373858
 20
-806.69999999999345
 30
0.0
 11
497.70000036372949
 21
-806.69999999999345
 31
0.0
  0
LINE
  8
OUTLINE
  6
CONTINUOUS
 62
     3
 10
497.70000036372949
 20
-806.69999999999345
 30
0.0
 11
497.70000036372949
 21
-805.89999999999054
 31
0.0
  0
LINE
  8
OUTLINE
  6
CONTINUOUS
 62
     3
 10
497.70000036372949
 20
-805.89999999999054
 30
0.0
 11
500.95000036373858
 21
-805.89999999999054
 31
0.0
  0
ARC
  8
OUTLINE
  6
CONTINUOUS
 62
     3
 10
500.95000036373858
 20
-806.94999999999345
 30
0.0
 40
1.0500000000029106
 50
270.0
 51
90.0
  0
LINE
  8
OUTLINE
  6
CONTINUOUS
 62
     3
 10
500.95000036373858
 20
-807.99999999999636
 30
0.0
 11
495.87128006973398
 21
-807.99999999999056
 31
0.0
  0
ARC
  8
OUTLINE
  6
CONTINUOUS
 62
     3
 10
495.87128006973541
 20
-806.39999999998781
 30
0.0
 40
1.6000000000027019
 50
190.00000000014677
 51
270.0
  0
LINE
  8
OUTLINE
  6
CONTINUOUS
 62
     3
 10
494.29558766491391
 20
-806.67783708425941
 30
0.0
 11
494.03500511372658
 21
-805.19999999999345
 31
0.0
  0
LINE
  8
OUTLINE
  6
CONTINUOUS
 62
     3
 10
494.03500511372658
 20
-805.19999999999345
 30
0.0
 11
492.80000036373531
 21
-805.19999999999345
 31
0.0
  0
LINE
  8
OUTLINE
  6
CONTINUOUS
 62
     3
 10
492.80000036373531
 20
-805.19999999999345
 30
0.0
 11
492.80000036373531
 21
-807.19999999999357
 31
0.0
  0
LINE
  8
OUTLINE
  6
CONTINUOUS
 62
     3
 10
492.80000036373531
 20
-807.19999999999357
 30
0.0
 11
492.80000036373531
 21
-807.99999999999625
 31
0.0
  0
LINE
  8
OUTLINE
  6
CONTINUOUS
 62
     3
 10
492.80000036373531
 20
-807.99999999999625
 30
0.0
 11
-492.79999963626142
 21
-807.99999999999636
 31
0.0
  0
LINE
  8
OUTLINE
  6
CONTINUOUS
 62
     3
 10
-492.79999963626142
 20
-807.99999999999636
 30
0.0
 11
-492.79999963626142
 21
-807.19999999999345
 31
0.0
  0
LINE
  8
OUTLINE
  6
CONTINUOUS
 62
     3
 10
-492.79999963626142
 20
-807.19999999999345
 30
0.0
 11
-494.19999963626111
 21
-807.19999999999345
 31
0.0
  0
LINE
  8
OUTLINE
  6
CONTINUOUS
 62
     3
 10
-494.19999963626111
 20
-807.19999999999345
 30
0.0
 11
-494.19999963626111
 21
-806.13573456876884
 31
0.0
  0
LINE
  8
OUTLINE
  6
CONTINUOUS
 62
     3
 10
-494.19999963626111
 20
-806.13573456876884
 30
0.0
 11
-494.29558693544459
 21
-806.67783708425941
 31
0.0
  0
ARC
  8
OUTLINE
  6
CONTINUOUS
 62
     3
 10
-495.87127934026654
 20
-806.39999999998736
 30
0.0
 40
1.6000000000032266
 50
270.0
 51
349.99999999984004
  0
LINE
  8
OUTLINE
  6
CONTINUOUS
 62
     3
 10
-495.87127934026472
 20
-807.99999999999056
 30
0.0
 11
-500.94999963627561
 21
-807.99999999999341
 31
0.0
  0
ARC
  8
OUTLINE
  6
CONTINUOUS
 62
     3
 10
-500.94999963627652
 20
-806.94999999999345
 30
0.0
 40
1.0499999999999545
 50
90.0
 51
270.0
  0
LINE
  8
OUTLINE
  6
CONTINUOUS
 62
     3
 10
-500.94999963627743
 20
-805.8999999999935
 30
0.0
 11
-497.69999963626827
 21
-805.89999999999054
 31
0.0
  0
LINE
  8
OUTLINE
  6
CONTINUOUS
 62
     3
 10
-497.69999963626827
 20
-805.89999999999054
 30
0.0
 11
-497.69999963626827
 21
-806.69999999999345
 31
0.0
  0
LINE
  8
OUTLINE
  6
CONTINUOUS
 62
     3
 10
-497.69999963626827
 20
-806.69999999999345
 30
0.0
 11
-496.19999963626111
 21
-806.69999999999345
 31
0.0
  0
ARC
  8
OUTLINE
  6
CONTINUOUS
 62
     3
 10
-496.19999963626265
 20
-806.19999999999186
 30
0.0
 40
0.5000000000015429
 50
270.0
 51
0.0
  0
LINE
  8
OUTLINE
  6
CONTINUOUS
 62
     3
 10
-495.69999963626111
 20
-806.19999999999345
 30
0.0
 11
-495.69999963626111
 21
-804.49999999999636
 31
0.0
  0
LINE
  8
OUTLINE
  6
CONTINUOUS
 62
     3
 10
-495.69999963626111
 20
-804.49999999999636
 30
0.0
 11
-499.19999963626111
 21
-804.49999999999636
 31
0.0
  0
LINE
  8
OUTLINE
  6
CONTINUOUS
 62
     3
 10
-499.19999963626111
 20
-804.49999999999636
 30
0.0
 11
-499.19999963626111
 21
-803.79999999999927
 31
0.0
  0
ARC
  8
OUTLINE
  6
CONTINUOUS
 62
     3
 10
-500.39999963627247
 20
-803.7999999999879
 30
0.0
 40
1.2000000000113691
 50
270.0
 51
0.0
  0
LINE
  8
OUTLINE
  6
CONTINUOUS
 62
     3
 10
-500.39999963626718
 20
-804.99999999999932
 30
0.0
 11
-509.59999963632072
 21
-804.99999999999056
 31
0.0
  0
ARC
  8
OUTLINE
  6
CONTINUOUS
 62
     3
 10
-509.59999963629252
 20
-804.39999999999054
 30
0.0
 40
0.6000000000000229
 50
90.0
 51
270.0
  0
LINE
  8
OUTLINE
  6
CONTINUOUS
 62
     3
 10
-509.59999963626427
 20
-803.79999999999052
 30
0.0
 11
-510.19999963626827
 21
-803.79999999999927
 31
0.0
  0
LINE
  8
OUTLINE
  6
CONTINUOUS
 62
     3
 10
-510.19999963626827
 20
-803.79999999999927
 30
0.0
 11
-510.58091706717642
 21
-804.26357513947539
 31
0.0
  0
ARC
  8
OUTLINE
  6
CONTINUOUS
 62
     3
 10
-475.59999963626535
 20
-761.69192476399974
 30
0.0
 40
55.099999999999611
 50
180.11240372498742
 51
230.59022140942466
  0
LINE
  8
OUTLINE
  6
CONTINUOUS
 62
     3
 10
-530.69989360410545
 20
-761.80002070626006
 30
0.0
 11
-530.69989360410545
 21
-714.09999999801221
 31
0.0
  0
LINE
  8
OUTLINE
  6
CONTINUOUS
 62
     3
 10
-530.69989360410545
 20
-714.09999999801221
 30
0.0
 11
-609.49999999997635
 21
-714.09999999800061
 31
0.0
  0
ARC
  8
OUTLINE
  6
CONTINUOUS
 62
     3
 10
-609.49999999997669
 20
-712.89999999800023
 30
0.0
 40
1.2000000000004039
 50
180.0
 51
270.0
  0
LINE
  8
OUTLINE
  6
CONTINUOUS
 62
     3
 10
-610.69999999997708
 20
-712.89999999800023
 30
0.0
 11
-610.69999999998981
 21
-711.59999999801221
 31
0.0
  0
LINE
  8
OUTLINE
  6
CONTINUOUS
 62
     3
 10
-610.69999999998981
 20
-711.59999999801221
 30
0.0
 11
-611.29999999999382
 21
-711.59999999801221
 31
0.0
  0
LINE
  8
OUTLINE
  6
CONTINUOUS
 62
     3
 10
-611.29999999999382
 20
-711.59999999801221
 30
0.0
 11
-611.29999999999382
 21
-411.49999999801179
 31
0.0
  0
LINE
  8
OUTLINE
  6
CONTINUOUS
 62
     3
 10
-611.29999999999382
 20
-411.49999999801179
 30
0.0
 11
-610.69999999997708
 21
-106.29999999151779
 31
0.0
  0
ARC
  8
OUTLINE
  6
CONTINUOUS
 62
     3
 10
-609.49999999997669
 20
-106.2999999979951
 30
0.0
 40
1.2000000000004036
 50
90.0
 51
180.0
  0
LINE
  8
OUTLINE
  6
CONTINUOUS
 62
     3
 10
-609.49999999997635
 20
-105.0999999979947
 30
0.0
 11
-530.69999999999345
 21
-105.09999999800679
 31
0.0
  0
LINE
  8
OUTLINE
  6
CONTINUOUS
 62
     3
 10
-530.69999999999345
 20
-105.09999999800679
 30
0.0
 11
-530.69999999999709
 21
-46.308075234008363
 31
0.0
  0
ARC
  8
OUTLINE
  6
CONTINUOUS
 62
     3
 10
-475.5999999999965
 20
-46.308075234009138
 30
0.0
 40
55.100000000000612
 50
129.40977859242707
 51
180.0
  0
ARC
  8
DETAIL
  6
CONTINUOUS
 62
     5
 10
500.21407835522223
 20
-389.09732872359302
 30
0.0
 40
1.317677807398252
 50
100.0824468161247
 51
175.76405678229369
  0
ARC
  8
DETAIL
  6
CONTINUOUS
 62
     5
 10
500.21407835522223
 20
-418.90267127641789
 30
0.0
 40
1.317677807398252
 50
184.23594321770631
 51
259.91755318387533
  0
TEXT
  8
NOTE
  6
CONTINUOUS
 62
     4
 10
-423.66478401023409
 20
-274.48845329460619
 30
0.0
 40
64.065641025638456
  1
SA1
 41
0.9
  0
TEXT
  8
NOTE
  6
CONTINUOUS
 62
     4
 10
265.66499752251372
 20
-274.48845329460619
 30
0.0
 40
64.065641025638456
  1
RA1
 41
0.9
  0
TEXT
  8
NOTE
  6
CONTINUOUS
 62
     4
 10
-423.66478364650169
 20
-678.48845329459709
 30
0.0
 40
64.065641025638456
  1
SA2
 41
0.9
  0
TEXT
  8
NOTE
  6
CONTINUOUS
 62
     4
 10
265.66499788624611
 20
-678.48845329459709
 30
0.0
 40
64.065641025638456
  1
RA2
 41
0.9
  0
LINE
  8
SIZE
  6
CONTINUOUS
 62
    30
 10
-863.84178963015461
 20
-480.28812399604999
 30
0.0
 11
-471.69489695071923
 21
-605.53516186559534
 31
0.0
  0
LINE
  8
SIZE
  6
CONTINUOUS
 62
    30
 10
-218.3051033539343
 20
-686.46483813442126
 30
0.0
 11
-206.87398484580851
 21
-690.11580097361639
 31
0.0
  0
TEXT
  8
SIZE
  6
CONTINUOUS
 62
    30
 10
-847.06568264907492
 20
-459.40206138931563
 30
0.0
 40
64.0
  1
φ242
 50
342.28713845070808
 41
0.9
 51
0.0
  7
STANDARD
 71
     0
 72
     1
 11
-737.05259812687245
 21
-494.53892775373032
 31
0.0
210
0.0
220
0.0
230
1.0
  0
LINE
  8
SIZE
  6
CONTINUOUS
 62
    30
 10
-229.73622186206009
 20
-682.81387529522601
 30
0.0
 11
-460.26377844259338
 21
-609.18612470479047
 31
0.0
  0
CIRCLE
  8
SIZE
  6
CONTINUOUS
 62
    30
 10
-229.73622186206009
 20
-682.81387529522601
 30
0.0
 40
6.0
  0
LINE
  8
SIZE
  6
CONTINUOUS
 62
    30
 10
-229.73622186206009
 20
-682.81387529522601
 30
0.0
 11
-218.3051033539343
 21
-686.46483813442126
 31
0.0
  0
CIRCLE
  8
SIZE
  6
CONTINUOUS
 62
    30
 10
-460.26377844259338
 20
-609.18612470479047
 30
0.0
 40
6.0
  0
LINE
  8
SIZE
  6
CONTINUOUS
 62
    30
 10
-460.26377844259338
 20
-609.18612470479047
 30
0.0
 11
-471.69489695071917
 21
-605.53516186559523
 31
0.0
  0
POINT
  8
DEFPOINTS
  6
CONTINUOUS
 62
    30
 10
-460.26377844259338
 20
-609.18612470479047
 30
0.0
  0
POINT
  8
DEFPOINTS
  6
CONTINUOUS
 62
    30
 10
-229.73622186206009
 20
-682.81387529522601
 30
0.0
  0
LINE
  8
SIZE
  6
CONTINUOUS
 62
    30
 10
-883.78606674092271
 20
-792.22520454462847
 30
0.0
 11
-481.07752786522809
 21
-682.93110412029921
 31
0.0
  0
LINE
  8
SIZE
  6
CONTINUOUS
 62
    30
 10
-208.9224724394164
 20
-609.06889587971591
 30
0.0
 11
-197.34140625108409
 21
-605.92582318862719
 31
0.0
  0
TEXT
  8
SIZE
  6
CONTINUOUS
 62
    30
 10
-880.48802266990572
 20
-765.42577285099833
 30
0.0
 40
64.0
  1
φ258
 50
15.184180437030932
 41
0.9
 51
0.0
  7
STANDARD
 71
     0
 72
     1
 11
-769.58773285043583
 21
-735.32770876113386
 31
0.0
210
0.0
220
0.0
230
1.0
  0
LINE
  8
SIZE
  6
CONTINUOUS
 62
    30
 10
-220.50353862774861
 20
-612.21196857080452
 30
0.0
 11
-469.49646167689582
 21
-679.7880314292106
 31
0.0
  0
CIRCLE
  8
SIZE
  6
CONTINUOUS
 62
    30
 10
-220.50353862774861
 20
-612.21196857080452
 30
0.0
 40
6.0
  0
LINE
  8
SIZE
  6
CONTINUOUS
 62
    30
 10
-220.50353862774861
 20
-612.21196857080452
 30
0.0
 11
-208.92247243941634
 21
-609.06889587971591
 31
0.0
  0
CIRCLE
  8
SIZE
  6
CONTINUOUS
 62
    30
 10
-469.49646167689582
 20
-679.7880314292106
 30
0.0
 40
6.0
  0
LINE
  8
SIZE
  6
CONTINUOUS
 62
    30
 10
-469.49646167689582
 20
-679.7880314292106
 30
0.0
 11
-481.07752786522809
 21
-682.93110412029921
 31
0.0
  0
POINT
  8
DEFPOINTS
  6
CONTINUOUS
 62
    30
 10
-469.49646167689582
 20
-679.7880314292106
 30
0.0
  0
POINT
  8
DEFPOINTS
  6
CONTINUOUS
 62
    30
 10
-220.50353862774861
 20
-612.21196857080452
 30
0.0
  0
LINE
  8
SIZE
  6
CONTINUOUS
 62
    30
 10
-863.84178976995861
 20
-76.288123996058488
 30
0.0
 11
-471.69489709052482
 21
-201.53516186560361
 31
0.0
  0
LINE
  8
SIZE
  6
CONTINUOUS
 62
    30
 10
-218.30510349374001
 20
-282.46483813442973
 30
0.0
 11
-206.87398498561419
 21
-286.11580097362491
 31
0.0
  0
TEXT
  8
SIZE
  6
CONTINUOUS
 62
    30
 10
-847.0656827888788
 20
-55.402061389324146
 30
0.0
 40
64.0
  1
φ242
 50
342.28713845070803
 41
0.9
 51
0.0
  7
STANDARD
 71
     0
 72
     1
 11
-737.05259826667634
 21
-90.538927753738932
 31
0.0
210
0.0
220
0.0
230
1.0
  0
LINE
  8
SIZE
  6
CONTINUOUS
 62
    30
 10
-229.7362220018658
 20
-278.81387529523448
 30
0.0
 11
-460.26377858239903
 21
-205.1861247047988
 31
0.0
  0
CIRCLE
  8
SIZE
  6
CONTINUOUS
 62
    30
 10
-229.7362220018658
 20
-278.81387529523448
 30
0.0
 40
6.0
  0
LINE
  8
SIZE
  6
CONTINUOUS
 62
    30
 10
-229.7362220018658
 20
-278.81387529523448
 30
0.0
 11
-218.30510349374003
 21
-282.46483813442973
 31
0.0
  0
CIRCLE
  8
SIZE
  6
CONTINUOUS
 62
    30
 10
-460.26377858239903
 20
-205.1861247047988
 30
0.0
 40
6.0
  0
LINE
  8
SIZE
  6
CONTINUOUS
 62
    30
 10
-460.26377858239903
 20
-205.1861247047988
 30
0.0
 11
-471.69489709052482
 21
-201.53516186560358
 31
0.0
  0
POINT
  8
DEFPOINTS
  6
CONTINUOUS
 62
    30
 10
-460.26377858239903
 20
-205.1861247047988
 30
0.0
  0
POINT
  8
DEFPOINTS
  6
CONTINUOUS
 62
    30
 10
-229.7362220018658
 20
-278.81387529523448
 30
0.0
  0
LINE
  8
SIZE
  6
CONTINUOUS
 62
    30
 10
-883.78606688072659
 20
-388.22520454463711
 30
0.0
 11
-481.07752800503192
 21
-278.93110412030831
 31
0.0
  0
LINE
  8
SIZE
  6
CONTINUOUS
 62
    30
 10
-208.92247257922031
 20
-205.06889587972549
 30
0.0
 11
-197.3414063908881
 21
-201.92582318863691
 31
0.0
  0
TEXT
  8
SIZE
  6
CONTINUOUS
 62
    30
 10
-880.48802280970949
 20
-361.42577285100703
 30
0.0
 40
64.0
  1
φ258
 50
15.184180437030875
 41
0.9
 51
0.0
  7
STANDARD
 71
     0
 72
     1
 11
-769.5877329902396
 21
-331.32770876114262
 31
0.0
210
0.0
220
0.0
230
1.0
  0
LINE
  8
SIZE
  6
CONTINUOUS
 62
    30
 10
-220.50353876755261
 20
-208.21196857081409
 30
0.0
 11
-469.49646181669959
 21
-275.7880314292197
 31
0.0
  0
CIRCLE
  8
SIZE
  6
CONTINUOUS
 62
    30
 10
-220.50353876755261
 20
-208.21196857081409
 30
0.0
 40
6.0
  0
LINE
  8
SIZE
  6
CONTINUOUS
 62
    30
 10
-220.50353876755261
 20
-208.21196857081409
 30
0.0
 11
-208.92247257922034
 21
-205.06889587972549
 31
0.0
  0
CIRCLE
  8
SIZE
  6
CONTINUOUS
 62
    30
 10
-469.49646181669959
 20
-275.7880314292197
 30
0.0
 40
6.0
  0
LINE
  8
SIZE
  6
CONTINUOUS
 62
    30
 10
-469.49646181669959
 20
-275.7880314292197
 30
0.0
 11
-481.07752800503187
 21
-278.93110412030831
 31
0.0
  0
POINT
  8
DEFPOINTS
  6
CONTINUOUS
 62
    30
 10
-469.49646181669959
 20
-275.7880314292197
 30
0.0
  0
POINT
  8
DEFPOINTS
  6
CONTINUOUS
 62
    30
 10
-220.50353876755261
 20
-208.21196857081409
 30
0.0
  0
TEXT
  8
ETC
  6
CONTINUOUS
 62
    61
 10
1461.6612355194959
 20
779.09322688715383
 30
0.0
 40
64.065641025638456
  1
LGH-160RVX3-E_2
 41
0.9
  0
TEXT
  8
ETC
  6
CONTINUOUS
 62
    61
 10
1457.470948192316
 20
661.01693706718379
 30
0.0
 40
64.065641025638456
  1
LOSSNAY
 41
0.9
  0
TEXT
  8
ETC
  6
CONTINUOUS
 62
    61
 10
1508.2243478749699
 20
552.75724236261715
 30
0.0
 40
40.041025641024042
  1
LGH-160RVX3-E
 50
0.0
 41
0.9
 51
0.0
  7
STANDARD
 71
     0
 11
0.0
 21
0.0
 31
0.0
210
0.0
220
0.0
230
1.0
  0
TEXT
  8
NOTE
  6
CONTINUOUS
 62
     4
 10
-388.50078330774159
 20
-1001.5879117508994
 30
0.0
 40
69.0
  1
Power supply
 50
0.0
 41
0.9
 51
0.0
  7
STANDARD
 71
     0
 11
0.0
 21
0.0
 31
0.0
210
0.0
220
0.0
230
1.0
  0
TEXT
  8
NOTE
  6
CONTINUOUS
 62
     4
 10
-388.50078330774159
 20
-1115.4379117508993
 30
0.0
 40
69.0
  1
cable opening
 50
0.0
 41
0.9
 51
0.0
  7
STANDARD
 71
     0
 11
0.0
 21
0.0
 31
0.0
210
0.0
220
0.0
230
1.0
  0
LINE
  8
NOTE
  6
CONTINUOUS
 62
     4
 10
-398.50078330774159
 20
-1139.5879117508989
 30
0.0
 11
253.19921669225849
 21
-1139.5879117508989
 31
0.0
  0
LINE
  8
NOTE
  6
CONTINUOUS
 62
     4
 10
-582.42653876384225
 20
-704.90803582714443
 30
0.0
 11
-585.99999999998363
 21
-668.84999999799402
 31
0.0
  0
LINE
  8
NOTE
  6
CONTINUOUS
 62
     4
 10
-585.99999999998363
 20
-668.84999999799402
 30
0.0
 11
-564.8762295104018
 21
-698.29041258623693
 31
0.0
  0
LINE
  8
NOTE
  6
CONTINUOUS
 62
     4
 10
-585.99999999998363
 20
-668.84999999799402
 30
0.0
 11
-561.30276827426042
 21
-734.34844841538734
 31
0.0
  0
LINE
  8
NOTE
  6
CONTINUOUS
 62
     4
 10
-561.30276827426042
 20
-734.34844841538734
 30
0.0
 11
-408.50078330774159
 21
-1139.5879117508989
 31
0.0
  0
LINE
  8
NOTE
  6
CONTINUOUS
 62
     4
 10
-408.50078330774159
 20
-1139.5879117508989
 30
0.0
 11
-398.50078330774159
 21
-1139.5879117508989
 31
0.0
  0
TEXT
  8
NOTE
  6
CONTINUOUS
 62
     4
 10
664.00888520892659
 20
346.22969861754967
 30
0.0
 40
69.0
  1
Ceiling suspension fixture
 50
0.0
 41
0.9
 51
0.0
  7
STANDARD
 71
     0
 11
0.0
 21
0.0
 31
0.0
210
0.0
220
0.0
230
1.0
  0
TEXT
  8
NOTE
  6
CONTINUOUS
 62
     4
 10
664.00888520892659
 20
232.37969861754968
 30
0.0
 40
69.0
  1
(4-15X30 oval)
 50
0.0
 41
0.9
 51
0.0
  7
STANDARD
 71
     0
 11
0.0
 21
0.0
 31
0.0
210
0.0
220
0.0
230
1.0
  0
LINE
  8
NOTE
  6
CONTINUOUS
 62
     4
 10
654.00888520892659
 20
195.08684147469239
 30
0.0
 11
1870.5231709232121
 21
195.08684147469239
 31
0.0
  0
LINE
  8
NOTE
  6
CONTINUOUS
 62
     4
 10
538.64828257016552
 20
-371.56259667853811
 30
0.0
 11
522.50001221721504
 21
-403.99999697003068
 31
0.0
  0
LINE
  8
NOTE
  6
CONTINUOUS
 62
     4
 10
522.50001221721504
 20
-403.99999697003068
 30
0.0
 11
520.26606992455834
 21
-367.83425247478243
 31
0.0
  0
LINE
  8
NOTE
  6
CONTINUOUS
 62
     4
 10
522.50001221721504
 20
-403.99999697003068
 30
0.0
 11
536.4143402775087
 21
-335.39685218328987
 31
0.0
  0
LINE
  8
NOTE
  6
CONTINUOUS
 62
     4
 10
536.41434027750881
 20
-335.39685218328992
 30
0.0
 11
644.00888520892659
 21
195.08684147469239
 31
0.0
  0
LINE
  8
NOTE
  6
CONTINUOUS
 62
     4
 10
644.00888520892659
 20
195.08684147469239
 30
0.0
 11
654.00888520892659
 21
195.08684147469239
 31
0.0
  0
ENDSEC
  0
EOF
