  0
SECTION
  2
HEADER
  9
$ACADVER
  1
AC1009
  9
$DWGCODEPAGE
  3
dos932
  9
$INSBASE
 10
0.0
 20
0.0
 30
0.0
  9
$EXTMIN
 10
-1317.411788445213
 20
-1265.39610741357
 30
-0.0015258207003583
  9
$EXTMAX
 10
2785.734571721096
 20
1304.8095791656631
 30
0.0000000349246037
  9
$LIMMIN
 10
-2970.0
 20
-2100.0
  9
$LIMMAX
 10
2970.0
 20
2100.0
  9
$ORTHOMODE
 70
     1
  9
$REGENMODE
 70
     1
  9
$FILLMODE
 70
     1
  9
$QTEXTMODE
 70
     0
  9
$MIRRTEXT
 70
     0
  9
$LTSCALE
 40
20.0
  9
$ATTMODE
 70
     1
  9
$TEXTSIZE
 40
64.0
  9
$TRACEWID
 40
0.05
  9
$TEXTSTYLE
  7
STANDARD
  9
$CLAYER
  8
SIZE
  9
$CELTYPE
  6
CONTINUOUS
  9
$CECOLOR
 62
     7
  9
$DIMSCALE
 40
1.0
  9
$DIMASZ
 40
12.0
  9
$DIMEXO
 40
20.0
  9
$DIMDLI
 40
200.0
  9
$DIMRND
 40
0.0
  9
$DIMDLE
 40
0.0
  9
$DIMEXE
 40
20.0
  9
$DIMTP
 40
0.0
  9
$DIMTM
 40
0.0
  9
$DIMTXT
 40
64.0
  9
$DIMCEN
 40
0.09
  9
$DIMTSZ
 40
0.0
  9
$DIMTOL
 70
     0
  9
$DIMLIM
 70
     0
  9
$DIMTIH
 70
     0
  9
$DIMTOH
 70
     0
  9
$DIMSE1
 70
     0
  9
$DIMSE2
 70
     0
  9
$DIMTAD
 70
     1
  9
$DIMZIN
 70
     8
  9
$DIMBLK
  1

  9
$DIMASO
 70
     1
  9
$DIMSHO
 70
     0
  9
$DIMPOST
  1

  9
$DIMAPOST
  1

  9
$DIMALT
 70
     0
  9
$DIMALTD
 70
     2
  9
$DIMALTF
 40
25.399999999999999
  9
$DIMLFAC
 40
1.0
  9
$DIMTOFL
 70
     1
  9
$DIMTVP
 40
0.0
  9
$DIMTIX
 70
     1
  9
$DIMSOXD
 70
     0
  9
$DIMSAH
 70
     0
  9
$DIMBLK1
  1

  9
$DIMBLK2
  1

  9
$DIMSTYLE
  2
STANDARD
  9
$DIMCLRD
 70
     7
  9
$DIMCLRE
 70
     7
  9
$DIMCLRT
 70
     7
  9
$DIMTFAC
 40
1.0
  9
$DIMGAP
 40
25.0
  9
$LUNITS
 70
     2
  9
$LUPREC
 70
     4
  9
$SKETCHINC
 40
0.1
  9
$FILLETRAD
 40
3.0
  9
$AUNITS
 70
     1
  9
$AUPREC
 70
     3
  9
$MENU
  1
ACAD
  9
$ELEVATION
 40
0.0
  9
$PELEVATION
 40
0.0
  9
$THICKNESS
 40
0.0
  9
$LIMCHECK
 70
     0
  9
$CHAMFERA
 40
0.0
  9
$CHAMFERB
 40
0.0
  9
$SKPOLY
 70
     0
  9
$TDCREATE
 40
2453019.62301037
  9
$TDUPDATE
 40
2460045.429440961
  9
$TDINDWG
 40
1.7130599653
  9
$TDUSRTIMER
 40
1.7130599653
  9
$USRTIMER
 70
     1
  9
$ANGBASE
 50
0.0
  9
$ANGDIR
 70
     0
  9
$PDMODE
 70
     3
  9
$PDSIZE
 40
-2.0
  9
$PLINEWID
 40
0.0
  9
$SPLFRAME
 70
     0
  9
$SPLINETYPE
 70
     6
  9
$SPLINESEGS
 70
     8
  9
$SURFTAB1
 70
     6
  9
$SURFTAB2
 70
     6
  9
$SURFTYPE
 70
     6
  9
$SURFU
 70
     6
  9
$SURFV
 70
     6
  9
$UCSNAME
  2

  9
$UCSORG
 10
0.0
 20
0.0
 30
0.0
  9
$UCSXDIR
 10
1.0
 20
0.0
 30
0.0
  9
$UCSYDIR
 10
0.0
 20
1.0
 30
0.0
  9
$PUCSNAME
  2

  9
$PUCSORG
 10
0.0
 20
0.0
 30
0.0
  9
$PUCSXDIR
 10
1.0
 20
0.0
 30
0.0
  9
$PUCSYDIR
 10
0.0
 20
1.0
 30
0.0
  9
$USERI1
 70
     0
  9
$USERI2
 70
     0
  9
$USERI3
 70
     0
  9
$USERI4
 70
     0
  9
$USERI5
 70
     0
  9
$USERR1
 40
20.0
  9
$USERR2
 40
0.0
  9
$USERR3
 40
0.0
  9
$USERR4
 40
0.0
  9
$USERR5
 40
0.0
  9
$WORLDVIEW
 70
     1
  9
$SHADEDGE
 70
     3
  9
$SHADEDIF
 70
    70
  9
$TILEMODE
 70
     1
  9
$MAXACTVP
 70
    48
  9
$PINSBASE
 10
0.0
 20
0.0
 30
0.0
  9
$PLIMCHECK
 70
     0
  9
$PEXTMIN
 10
-100000000000000000000.0
 20
-100000000000000000000.0
 30
-100000000000000000000.0
  9
$PEXTMAX
 10
100000000000000000000.0
 20
100000000000000000000.0
 30
100000000000000000000.0
  9
$PLIMMIN
 10
0.0
 20
0.0
  9
$PLIMMAX
 10
12.0
 20
9.0
  9
$UNITMODE
 70
     0
  9
$VISRETAIN
 70
     0
  9
$PLINEGEN
 70
     0
  9
$PSLTSCALE
 70
     0
  9
$TREEDEPTH
 70
  3020
  9
$ATTDIA
 70
     0
  9
$ATTREQ
 70
     1
  9
$BLIPMODE
 70
     1
  9
$COORDS
 70
     1
  9
$DRAGMODE
 70
     2
  9
$OSMODE
 70
     0
  9
$HANDLING
 70
     0
  9
$HANDSEED
  5
F14A
  0
ENDSEC
  0
SECTION
  2
TABLES
  0
TABLE
  2
LTYPE
 70
     2
  0
LTYPE
  2
CONTINUOUS
 70
     0
  3
実線
 72
    65
 73
     0
 40
0.0
  0
LTYPE
  2
DASHDOT
 70
     0
  3
____ _ ____ _ ____ _ ____ _ ____ _ ____ _ ____
 72
    65
 73
     4
 40
5.5
 49
4.0
 49
-0.6
 49
0.3
 49
-0.6
  0
ENDTAB
  0
TABLE
  2
LAYER
 70
    12
  0
LAYER
  2
0
 70
     0
 62
     7
  6
CONTINUOUS
  0
LAYER
  2
BASIS
 70
     0
 62
     6
  6
DASHDOT
  0
LAYER
  2
OUTLINE
 70
     0
 62
     3
  6
CONTINUOUS
  0
LAYER
  2
DETAIL
 70
     0
 62
     5
  6
CONTINUOUS
  0
LAYER
  2
SIZE
 70
     0
 62
    30
  6
CONTINUOUS
  0
LAYER
  2
ARRANGE
 70
     0
 62
     1
  6
CONTINUOUS
  0
LAYER
  2
DEFPOINTS
 70
     0
 62
     7
  6
CONTINUOUS
  0
LAYER
  2
ETC
 70
     0
 62
    61
  6
CONTINUOUS
  0
LAYER
  2
FIX
 70
     0
 62
    11
  6
CONTINUOUS
  0
LAYER
  2
NOTE
 70
     0
 62
     4
  6
CONTINUOUS
  0
LAYER
  2
SERVICESPACE
 70
     0
 62
     2
  6
DASHDOT
  0
LAYER
  2
SYMBOLLINE
 70
    64
 62
    15
  6
CONTINUOUS
  0
ENDTAB
  0
TABLE
  2
STYLE
 70
     1
  0
STYLE
  2
STANDARD
 70
     0
 40
64.0
 41
0.9
 50
0.0
 71
     0
 42
64.0
  3
SIMPLEX.shx
  4
BIGFONT.shx
  0
ENDTAB
  0
TABLE
  2
APPID
 70
    19
  0
APPID
  2
ACAD
 70
     0
  0
APPID
  2
AUTOCAD_POSTSCRIPT_FIGURE
 70
     0
  0
APPID
  2
ACAD_EXEMPT_FROM_CAD_STANDARDS
 70
     0
  0
APPID
  2
ACAD_PSEXT
 70
     0
  0
APPID
  2
ACAUTHENVIRON
 70
     0
  0
APPID
  2
GENIUS_GENOENT_13
 70
     0
  0
APPID
  2
GENIUS_GENCFG_13
 70
     0
  0
APPID
  2
GENIUS_GENCFG0_13
 70
     0
  0
APPID
  2
GENIUS_GENCFG1_13
 70
     0
  0
APPID
  2
GENIUS_GENCFG2_13
 70
     0
  0
APPID
  2
GENIUS_GENCFG3_13
 70
     0
  0
APPID
  2
GENIUS_GENCFG4_13
 70
     0
  0
APPID
  2
GENIUS_GEVCFG0_13
 70
     0
  0
APPID
  2
CONTENTBLOCKICON
 70
     0
  0
APPID
  2
CONTENTBLOCKDESCRIPTION
 70
     0
  0
APPID
  2
ACAD_NAV_VCDISPLAY
 70
     0
  0
APPID
  2
ACAD_MLEADERVER
 70
     0
  0
APPID
  2
ACDBDYNAMICBLOCKTRUENAME
 70
     0
  0
APPID
  2
ACDBDYNAMICBLOCKGUID
 70
     0
  0
ENDTAB
  0
TABLE
  2
DIMSTYLE
 70
     1
  0
DIMSTYLE
  2
STANDARD
 70
     0
  3

  4

  5
_ORIGIN
  6

  7

 40
1.0
 41
12.0
 42
20.0
 43
200.0
 44
20.0
 45
0.0
 46
0.0
 47
0.0
 48
0.0
140
64.0
141
0.09
142
0.0
143
25.399999999999999
144
1.0
145
0.0
146
1.0
147
25.0
 71
     0
 72
     0
 73
     0
 74
     0
 75
     0
 76
     0
 77
     1
 78
     8
170
     0
171
     2
172
     1
173
     0
174
     1
175
     0
176
     7
177
     7
178
     7
  0
ENDTAB
  0
TABLE
  2
VIEW
 70
     1
  0
VIEW
  2
ALL
 70
     0
 40
4282.6198079999986
 10
0.0
 20
41.309904000000003
 41
5940.0
 11
0.0
 21
0.0
 31
1.0
 12
0.0
 22
0.0
 32
0.0
 42
50.0
 43
0.0
 44
0.0
 50
0.0
 71
     0
  0
ENDTAB
  0
TABLE
  2
UCS
 70
     0
  0
ENDTAB
  0
TABLE
  2
VPORT
 70
     1
  0
VPORT
  2
*ACTIVE
 70
     0
 10
0.0
 20
0.0
 11
1.0
 21
1.0
 12
734.16139163794139
 22
19.706735876046881
 13
0.0
 23
0.0
 14
1.0
 24
1.0
 15
0.0
 25
0.0
 16
0.0
 26
0.0
 36
1.0
 17
0.0
 27
0.0
 37
0.0
 40
2587.5719412182821
 41
1.781285231116122
 42
50.0
 43
0.0
 44
0.0
 50
0.0
 51
0.0
 71
     0
 72
  1000
 73
     1
 74
     3
 75
     0
 76
     0
 77
     0
 78
     0
  0
ENDTAB
  0
ENDSEC
  0
SECTION
  2
BLOCKS
  0
BLOCK
  8
0
  2
_ORIGIN
 70
     0
 10
0.0
 20
0.0
 30
0.0
  3
_ORIGIN
  1
_ORIGIN
  0
CIRCLE
  8
0
  6
CONTINUOUS
 62
     7
 10
0.0
 20
0.0
 30
0.0
 40
0.5
  0
LINE
  8
0
  6
CONTINUOUS
 62
     7
 10
0.0
 20
0.0
 30
0.0
 11
-1.0
 21
0.0
 31
0.0
  0
ENDBLK
  8
0
  0
ENDSEC
  0
SECTION
  2
ENTITIES
  0
LINE
  8
DETAIL
  6
CONTINUOUS
 62
     5
 10
502.0
 20
557.84708539201984
 30
0.0
 11
497.20000000000158
 21
562.6470853920182
 31
0.0
  0
LINE
  8
DETAIL
  6
CONTINUOUS
 62
     5
 10
488.04708539199243
 20
571.80000000000291
 30
0.0
 11
492.84708539199983
 21
567.00000000001455
 31
0.0
  0
LINE
  8
DETAIL
  6
CONTINUOUS
 62
     5
 10
-491.19999999999709
 20
570.50000000001455
 30
0.0
 11
-494.19999999999709
 21
567.50000000001455
 31
0.0
  0
LINE
  8
DETAIL
  6
CONTINUOUS
 62
     5
 10
-497.70000000000442
 20
564.00000000001455
 30
0.0
 11
-500.699999999998
 21
561.00000000001455
 31
0.0
  0
LINE
  8
DETAIL
  6
CONTINUOUS
 62
     5
 10
-502.0
 20
557.84708539201711
 30
0.0
 11
-497.19999999999709
 21
562.6470853920182
 31
0.0
  0
LINE
  8
DETAIL
  6
CONTINUOUS
 62
     5
 10
-488.04708539199243
 20
571.80000000000291
 30
0.0
 11
-492.84708539199983
 21
567.00000000001455
 31
0.0
  0
LINE
  8
DETAIL
  6
CONTINUOUS
 62
     5
 10
488.04708539199328
 20
571.80000000000291
 30
0.0
 11
-488.04708539199243
 21
571.80000000000291
 31
0.0
  0
LINE
  8
DETAIL
  6
CONTINUOUS
 62
     5
 10
-489.34708539199261
 20
570.50000000001455
 30
0.0
 11
-491.19999999999709
 21
570.50000000001455
 31
0.0
  0
LINE
  8
DETAIL
  6
CONTINUOUS
 62
     5
 10
-494.699999999998
 20
566.00000000001455
 30
0.0
 11
-494.19999999999709
 21
566.00000000001455
 31
0.0
  0
LINE
  8
DETAIL
  6
CONTINUOUS
 62
     5
 10
-494.699999999998
 20
565.5
 30
0.0
 11
-494.19999999999709
 21
565.5
 31
0.0
  0
LINE
  8
DETAIL
  6
CONTINUOUS
 62
     5
 10
-494.19999999999709
 20
565.00000000001455
 30
0.0
 11
-492.84708539199983
 21
565.00000000001455
 31
0.0
  0
LINE
  8
DETAIL
  6
CONTINUOUS
 62
     5
 10
492.84708539199983
 20
565.00000000001455
 30
0.0
 11
494.59999999999673
 21
565.00000000001455
 31
0.0
  0
LINE
  8
DETAIL
  6
CONTINUOUS
 62
     5
 10
-497.70000000000442
 20
564.00000000001455
 30
0.0
 11
-495.20000000000528
 21
564.00000000001455
 31
0.0
  0
LINE
  8
DETAIL
  6
CONTINUOUS
 62
     5
 10
-497.19999999999709
 20
562.6470853920182
 30
0.0
 11
-492.84708539199983
 21
562.6470853920182
 31
0.0
  0
LINE
  8
DETAIL
  6
CONTINUOUS
 62
     5
 10
492.84708539199983
 20
562.6470853920182
 30
0.0
 11
497.20000000000158
 21
562.6470853920182
 31
0.0
  0
LINE
  8
DETAIL
  6
CONTINUOUS
 62
     5
 10
-541.29999999999563
 20
210.80000000001749
 30
0.0
 11
-541.29999999999563
 21
217.80000000001749
 31
0.0
  0
LINE
  8
DETAIL
  6
CONTINUOUS
 62
     5
 10
-523.79999999999563
 20
224.80000000001749
 30
0.0
 11
-523.71460486599972
 21
225.7760708360147
 31
0.0
  0
LINE
  8
DETAIL
  6
CONTINUOUS
 62
     5
 10
-524.12078172199745
 20
207.74964206601729
 30
0.0
 11
-533.29416298800061
 21
188.077262456005
 31
0.0
  0
LINE
  8
DETAIL
  6
CONTINUOUS
 62
     5
 10
-522.12690459000532
 20
206.81988189001279
 30
0.0
 11
-531.3002858560003
 21
187.14750228200859
 31
0.0
  0
LINE
  8
DETAIL
  6
CONTINUOUS
 62
     5
 10
-474.02318840626782
 20
-573.29999999998836
 30
0.0
 11
-465.99999999999733
 21
-642.79999999998563
 31
0.0
  0
LINE
  8
DETAIL
  6
CONTINUOUS
 62
     5
 10
-515.80000000000382
 20
224.80000000001749
 30
0.0
 11
-515.9448667759998
 21
226.4558348360151
 31
0.0
  0
LINE
  8
DETAIL
  6
CONTINUOUS
 62
     5
 10
-534.29999999999563
 20
220.80000000001749
 30
0.0
 11
-534.29999999999563
 21
207.80000000001749
 31
0.0
  0
LINE
  8
DETAIL
  6
CONTINUOUS
 62
     5
 10
-533.30000000000291
 20
220.80000000001749
 30
0.0
 11
-533.30000000000291
 21
207.80000000001749
 31
0.0
  0
LINE
  8
DETAIL
  6
CONTINUOUS
 62
     5
 10
-531.79999999999563
 20
211.70000000001161
 30
0.0
 11
-531.79999999999563
 21
216.90000000002331
 31
0.0
  0
LINE
  8
DETAIL
  6
CONTINUOUS
 62
     5
 10
-528.30000000000382
 20
221.80000000001749
 30
0.0
 11
-528.30000000000382
 21
222.80000000001749
 31
0.0
  0
LINE
  8
DETAIL
  6
CONTINUOUS
 62
     5
 10
-522.40000000000327
 20
220.80000000001749
 30
0.0
 11
-522.40000000000327
 21
220.30000000001749
 31
0.0
  0
LINE
  8
DETAIL
  6
CONTINUOUS
 62
     5
 10
-522.30000000000291
 20
224.00000000001461
 30
0.0
 11
-522.30000000000291
 21
224.80000000001749
 31
0.0
  0
LINE
  8
DETAIL
  6
CONTINUOUS
 62
     5
 10
-521.29999999999563
 20
220.30000000001749
 30
0.0
 11
-521.29999999999563
 21
216.80000000000291
 31
0.0
  0
LINE
  8
DETAIL
  6
CONTINUOUS
 62
     5
 10
-518.30000000000291
 20
220.30000000001749
 30
0.0
 11
-518.30000000000291
 21
216.80000000000291
 31
0.0
  0
LINE
  8
DETAIL
  6
CONTINUOUS
 62
     5
 10
-517.30000000000291
 20
224.00000000001461
 30
0.0
 11
-517.30000000000291
 21
224.80000000001749
 31
0.0
  0
LINE
  8
DETAIL
  6
CONTINUOUS
 62
     5
 10
-517.19999999999709
 20
220.80000000001749
 30
0.0
 11
-517.19999999999709
 21
220.30000000001749
 31
0.0
  0
LINE
  8
DETAIL
  6
CONTINUOUS
 62
     5
 10
-510.20000000000528
 20
-223.99999999998539
 30
0.0
 11
-510.20000000000528
 21
-223.3999999999796
 31
0.0
  0
LINE
  8
DETAIL
  6
CONTINUOUS
 62
     5
 10
-510.20000000000528
 20
224.00000000001461
 30
0.0
 11
-510.20000000000528
 21
223.4000000000087
 31
0.0
  0
LINE
  8
DETAIL
  6
CONTINUOUS
 62
     5
 10
-510.20000000000528
 20
222.80000000001749
 30
0.0
 11
-510.20000000000528
 21
-222.79999999998839
 31
0.0
  0
LINE
  8
DETAIL
  6
CONTINUOUS
 62
     5
 10
-508.79999999999558
 20
224.00000000001461
 30
0.0
 11
-508.79999999999558
 21
224.80000000001749
 31
0.0
  0
LINE
  8
DETAIL
  6
CONTINUOUS
 62
     5
 10
-508.51163546800029
 20
-223.3999999999796
 30
0.0
 11
-508.51163546800029
 21
-222.79999999998839
 31
0.0
  0
LINE
  8
DETAIL
  6
CONTINUOUS
 62
     5
 10
-508.51163546800029
 20
223.4000000000087
 30
0.0
 11
-508.51163546800029
 21
222.80000000001749
 31
0.0
  0
LINE
  8
DETAIL
  6
CONTINUOUS
 62
     5
 10
-502.0
 20
557.84708539201711
 30
0.0
 11
-502.0
 21
-557.847085391988
 31
0.0
  0
LINE
  8
DETAIL
  6
CONTINUOUS
 62
     5
 10
-500.699999999998
 20
561.00000000001455
 30
0.0
 11
-500.699999999998
 21
559.1470853920182
 31
0.0
  0
LINE
  8
DETAIL
  6
CONTINUOUS
 62
     5
 10
-500.699999999998
 20
-559.14708539198909
 30
0.0
 11
-500.699999999998
 21
-560.99999999998545
 31
0.0
  0
LINE
  8
DETAIL
  6
CONTINUOUS
 62
     5
 10
-495.69999999999709
 20
565.00000000001455
 30
0.0
 11
-495.69999999999709
 21
564.00000000001455
 31
0.0
  0
LINE
  8
DETAIL
  6
CONTINUOUS
 62
     5
 10
-495.699999999998
 20
-563.99999999998545
 30
0.0
 11
-495.699999999998
 21
-564.99999999998545
 31
0.0
  0
LINE
  8
DETAIL
  6
CONTINUOUS
 62
     5
 10
-495.20000000000528
 20
565.00000000001455
 30
0.0
 11
-495.20000000000528
 21
-564.99999999998545
 31
0.0
  0
LINE
  8
DETAIL
  6
CONTINUOUS
 62
     5
 10
-494.699999999998
 20
562.6470853920182
 30
0.0
 11
-494.699999999998
 21
564.5
 31
0.0
  0
LINE
  8
DETAIL
  6
CONTINUOUS
 62
     5
 10
-494.699999999998
 20
-562.64708539198909
 30
0.0
 11
-494.699999999998
 21
-564.49999999998545
 31
0.0
  0
LINE
  8
DETAIL
  6
CONTINUOUS
 62
     5
 10
-494.199999999998
 20
-567.49999999998545
 30
0.0
 11
-494.199999999998
 21
-564.99999999998545
 31
0.0
  0
LINE
  8
DETAIL
  6
CONTINUOUS
 62
     5
 10
-494.19999999999709
 20
567.50000000001455
 30
0.0
 11
-494.19999999999709
 21
565.00000000001455
 31
0.0
  0
LINE
  8
DETAIL
  6
CONTINUOUS
 62
     5
 10
-492.84708539199983
 20
567.00000000001455
 30
0.0
 11
-492.84708539199983
 21
562.6470853920182
 31
0.0
  0
LINE
  8
DETAIL
  6
CONTINUOUS
 62
     5
 10
-492.84708539199983
 20
-562.64708539198909
 30
0.0
 11
-492.84708539199983
 21
-566.99999999998545
 31
0.0
  0
LINE
  8
DETAIL
  6
CONTINUOUS
 62
     5
 10
-465.99999999999733
 20
-642.79999999998563
 30
0.0
 11
-465.99999999999733
 21
-650.79999999998563
 31
0.0
  0
LINE
  8
DETAIL
  6
CONTINUOUS
 62
     5
 10
-502.0
 20
229.88425623600779
 30
0.0
 11
-529.9710574139981
 21
227.43710580602061
 31
0.0
  0
LINE
  8
DETAIL
  6
CONTINUOUS
 62
     5
 10
-502.0
 20
227.6758525939949
 30
0.0
 11
-529.77931477999846
 21
225.24547747001631
 31
0.0
  0
LINE
  8
DETAIL
  6
CONTINUOUS
 62
     5
 10
-523.79862218599737
 20
224.80000000001749
 30
0.0
 11
-515.80137781400026
 21
224.80000000001749
 31
0.0
  0
LINE
  8
DETAIL
  6
CONTINUOUS
 62
     5
 10
-502.0
 20
224.00000000001461
 30
0.0
 11
-530.09999999999764
 21
224.00000000001461
 31
0.0
  0
LINE
  8
DETAIL
  6
CONTINUOUS
 62
     5
 10
-502.0
 20
223.4000000000087
 30
0.0
 11
-510.20000000000528
 21
223.4000000000087
 31
0.0
  0
LINE
  8
DETAIL
  6
CONTINUOUS
 62
     5
 10
-508.51163546800029
 20
222.9000000000087
 30
0.0
 11
-506.29999999999472
 21
222.9000000000087
 31
0.0
  0
LINE
  8
DETAIL
  6
CONTINUOUS
 62
     5
 10
-530.990653517998
 20
222.80000000001749
 30
0.0
 11
-502.0
 21
222.80000000001749
 31
0.0
  0
LINE
  8
DETAIL
  6
CONTINUOUS
 62
     5
 10
-530.29662449600528
 20
221.80000000001749
 30
0.0
 11
-510.20000000000528
 21
221.80000000001749
 31
0.0
  0
LINE
  8
DETAIL
  6
CONTINUOUS
 62
     5
 10
-538.30000000000291
 20
220.80000000001749
 30
0.0
 11
-533.30000000000291
 21
220.80000000001749
 31
0.0
  0
LINE
  8
DETAIL
  6
CONTINUOUS
 62
     5
 10
-522.40000000000327
 20
220.30000000001749
 30
0.0
 11
-517.19999999999709
 21
220.30000000001749
 31
0.0
  0
LINE
  8
DETAIL
  6
CONTINUOUS
 62
     5
 10
-532.30000000000291
 20
216.90000000002331
 30
0.0
 11
-531.79999999999563
 21
216.90000000002331
 31
0.0
  0
LINE
  8
DETAIL
  6
CONTINUOUS
 62
     5
 10
-518.30000000000291
 20
216.80000000000291
 30
0.0
 11
-521.29999999999563
 21
216.80000000000291
 31
0.0
  0
LINE
  8
DETAIL
  6
CONTINUOUS
 62
     5
 10
-531.79999999999563
 20
215.80000000000291
 30
0.0
 11
-528.78108336199512
 21
215.80000000000291
 31
0.0
  0
LINE
  8
DETAIL
  6
CONTINUOUS
 62
     5
 10
-531.79999999999563
 20
212.80000000001749
 30
0.0
 11
-526.68046074800077
 21
212.80000000001749
 31
0.0
  0
LINE
  8
DETAIL
  6
CONTINUOUS
 62
     5
 10
-532.30000000000291
 20
211.70000000001161
 30
0.0
 11
-531.79999999999563
 21
211.70000000001161
 31
0.0
  0
LINE
  8
DETAIL
  6
CONTINUOUS
 62
     5
 10
-538.30000000000291
 20
207.80000000001749
 30
0.0
 11
-533.30000000000291
 21
207.80000000001749
 31
0.0
  0
LINE
  8
DETAIL
  6
CONTINUOUS
 62
     5
 10
-223.9999999999973
 20
-642.79999999998563
 30
0.0
 11
-223.9999999999973
 21
-650.79999999998563
 31
0.0
  0
LINE
  8
DETAIL
  6
CONTINUOUS
 62
     5
 10
-215.9999999999973
 20
-573.49999999998545
 30
0.0
 11
-215.9999999999973
 21
-571.79999999998836
 31
0.0
  0
LINE
  8
DETAIL
  6
CONTINUOUS
 62
     5
 10
-514.98032203599723
 20
-222.79999999998839
 30
0.0
 11
-510.97920730600072
 21
-218.93616841999761
 31
0.0
  0
LINE
  8
DETAIL
  6
CONTINUOUS
 62
     5
 10
-514.53359004399772
 20
-224.03679223998921
 30
0.0
 11
-514.49549056399792
 21
-223.99999999998539
 31
0.0
  0
LINE
  8
DETAIL
  6
CONTINUOUS
 62
     5
 10
-510.20000000000528
 20
-219.85189297799661
 30
0.0
 11
-513.25285418800286
 21
-222.79999999998839
 31
0.0
  0
LINE
  8
DETAIL
  6
CONTINUOUS
 62
     5
 10
-215.9999999999973
 20
-573.49999999998545
 30
0.0
 11
-223.9999999999973
 21
-642.79999999998563
 31
0.0
  0
LINE
  8
BASIS
  6
DASHDOT
 62
     6
 10
-568.77754512835236
 20
0.0
 30
0.0
 11
568.77754512835145
 21
0.0
 31
0.0
  0
LINE
  8
DETAIL
  6
CONTINUOUS
 62
     5
 10
216.00000000000449
 20
-573.49999999998545
 30
0.0
 11
224.00000000000179
 21
-642.79999999998563
 31
0.0
  0
LINE
  8
DETAIL
  6
CONTINUOUS
 62
     5
 10
-530.09999999999764
 20
-222.79999999998839
 30
0.0
 11
-502.0
 21
-222.79999999998839
 31
0.0
  0
LINE
  8
DETAIL
  6
CONTINUOUS
 62
     5
 10
-510.20000000000528
 20
-223.3999999999796
 30
0.0
 11
-502.0
 21
-223.3999999999796
 31
0.0
  0
LINE
  8
DETAIL
  6
CONTINUOUS
 62
     5
 10
-530.09999999999764
 20
-223.99999999998539
 30
0.0
 11
-502.0
 21
-223.99999999998539
 31
0.0
  0
LINE
  8
DETAIL
  6
CONTINUOUS
 62
     5
 10
-502.0
 20
-226.0999999999913
 30
0.0
 11
-513.699999999998
 21
-226.0999999999913
 31
0.0
  0
LINE
  8
DETAIL
  6
CONTINUOUS
 62
     5
 10
-502.0
 20
-227.29999999998839
 30
0.0
 11
-513.699999999998
 21
-227.29999999998839
 31
0.0
  0
LINE
  8
DETAIL
  6
CONTINUOUS
 62
     5
 10
216.00000000000449
 20
-571.79999999998836
 30
0.0
 11
216.00000000000449
 21
-573.49999999998545
 31
0.0
  0
LINE
  8
DETAIL
  6
CONTINUOUS
 62
     5
 10
224.00000000000179
 20
-642.79999999998563
 30
0.0
 11
224.00000000000179
 21
-650.79999999998563
 31
0.0
  0
LINE
  8
DETAIL
  6
CONTINUOUS
 62
     5
 10
-530.95050886200079
 20
222.73384365602399
 30
0.0
 11
-522.45809641199594
 21
210.60542174200239
 31
0.0
  0
LINE
  8
DETAIL
  6
CONTINUOUS
 62
     5
 10
-532.75264336000055
 20
221.47197549602421
 30
0.0
 11
-524.26023090999752
 21
209.34355358201719
 31
0.0
  0
LINE
  8
DETAIL
  6
CONTINUOUS
 62
     5
 10
-510.97920730600072
 20
-218.93616841999761
 30
0.0
 11
-510.20000000000528
 21
-219.74306120598339
 31
0.0
  0
LINE
  8
DETAIL
  6
CONTINUOUS
 62
     5
 10
-512.66330656399805
 20
-222.23068047598639
 30
0.0
 11
-513.49689660799777
 21
-221.367472715996
 31
0.0
  0
LINE
  8
DETAIL
  6
CONTINUOUS
 62
     5
 10
466.00000000000182
 20
-642.79999999998563
 30
0.0
 11
466.00000000000182
 21
-650.79999999998563
 31
0.0
  0
LINE
  8
DETAIL
  6
CONTINUOUS
 62
     5
 10
492.84708539199983
 20
567.00000000001455
 30
0.0
 11
492.84708539199983
 21
562.6470853920182
 31
0.0
  0
LINE
  8
DETAIL
  6
CONTINUOUS
 62
     5
 10
492.84708539199983
 20
-562.64708539198909
 30
0.0
 11
492.84708539199983
 21
-566.99999999998545
 31
0.0
  0
LINE
  8
DETAIL
  6
CONTINUOUS
 62
     5
 10
495.19999999999351
 20
-564.49999999998545
 30
0.0
 11
495.19999999999351
 21
564.40000000002328
 31
0.0
  0
LINE
  8
DETAIL
  6
CONTINUOUS
 62
     5
 10
495.70000000000249
 20
-564.49999999998545
 30
0.0
 11
495.70000000000249
 21
-562.64708539198909
 31
0.0
  0
LINE
  8
DETAIL
  6
CONTINUOUS
 62
     5
 10
495.70000000000249
 20
564.40000000002328
 30
0.0
 11
495.70000000000249
 21
562.6470853920182
 31
0.0
  0
LINE
  8
DETAIL
  6
CONTINUOUS
 62
     5
 10
502.0
 20
-557.84708539199164
 30
0.0
 11
502.0
 21
557.84708539201984
 31
0.0
  0
LINE
  8
DETAIL
  6
CONTINUOUS
 62
     5
 10
-497.199999999998
 20
-562.64708539198909
 30
0.0
 11
-492.84708539199983
 21
-562.64708539198909
 31
0.0
  0
LINE
  8
DETAIL
  6
CONTINUOUS
 62
     5
 10
492.84708539199983
 20
-562.64708539198909
 30
0.0
 11
497.20000000000158
 21
-562.64708539198909
 31
0.0
  0
LINE
  8
DETAIL
  6
CONTINUOUS
 62
     5
 10
-497.70000000000528
 20
-563.99999999998545
 30
0.0
 11
-495.20000000000528
 21
-563.99999999998545
 31
0.0
  0
LINE
  8
DETAIL
  6
CONTINUOUS
 62
     5
 10
-494.199999999998
 20
-564.99999999998545
 30
0.0
 11
-492.84708539199983
 21
-564.99999999998545
 31
0.0
  0
LINE
  8
DETAIL
  6
CONTINUOUS
 62
     5
 10
492.84708539199983
 20
-564.99999999998545
 30
0.0
 11
494.70000000000158
 21
-564.99999999998545
 31
0.0
  0
LINE
  8
DETAIL
  6
CONTINUOUS
 62
     5
 10
-494.699999999998
 20
-565.49999999998545
 30
0.0
 11
-494.199999999998
 21
-565.49999999998545
 31
0.0
  0
LINE
  8
DETAIL
  6
CONTINUOUS
 62
     5
 10
-494.699999999998
 20
-565.99999999998545
 30
0.0
 11
-494.199999999998
 21
-565.99999999998545
 31
0.0
  0
LINE
  8
DETAIL
  6
CONTINUOUS
 62
     5
 10
-491.199999999998
 20
-570.49999999998545
 30
0.0
 11
-489.34708539199261
 21
-570.49999999998545
 31
0.0
  0
LINE
  8
DETAIL
  6
CONTINUOUS
 62
     5
 10
-488.04708539199783
 20
-571.79999999998745
 30
0.0
 11
488.04708539199601
 21
-571.79999999998745
 31
0.0
  0
LINE
  8
DETAIL
  6
CONTINUOUS
 62
     5
 10
216.00000000000449
 20
-573.49999999998545
 30
0.0
 11
474.00000000117421
 21
-573.49999999998545
 31
0.0
  0
LINE
  8
DETAIL
  6
CONTINUOUS
 62
     5
 10
474.00000000117421
 20
-573.49999999998545
 30
0.0
 11
466.00000000000182
 21
-642.79999999998563
 31
0.0
  0
LINE
  8
DETAIL
  6
CONTINUOUS
 62
     5
 10
-465.99999999999733
 20
-642.79999999998563
 30
0.0
 11
-223.9999999999973
 21
-642.79999999998563
 31
0.0
  0
LINE
  8
DETAIL
  6
CONTINUOUS
 62
     5
 10
224.00000000000179
 20
-642.79999999998563
 30
0.0
 11
466.00000000000182
 21
-642.79999999998563
 31
0.0
  0
LINE
  8
DETAIL
  6
CONTINUOUS
 62
     5
 10
-465.99983178000281
 20
-650.79999999998563
 30
0.0
 11
-224.00016821999819
 21
-650.79999999998563
 31
0.0
  0
LINE
  8
DETAIL
  6
CONTINUOUS
 62
     5
 10
224.00000000000179
 20
-650.79999999998563
 30
0.0
 11
466.00000000000182
 21
-650.79999999998563
 31
0.0
  0
LINE
  8
DETAIL
  6
CONTINUOUS
 62
     5
 10
-488.04708539199783
 20
-571.79999999998745
 30
0.0
 11
-492.84708539199983
 21
-566.99999999998545
 31
0.0
  0
LINE
  8
DETAIL
  6
CONTINUOUS
 62
     5
 10
-502.0
 20
-557.84708539198709
 30
0.0
 11
-497.199999999998
 21
-562.64708539198909
 31
0.0
  0
LINE
  8
DETAIL
  6
CONTINUOUS
 62
     5
 10
-500.699999999998
 20
-560.99999999998545
 30
0.0
 11
-497.70000000000528
 21
-563.99999999998545
 31
0.0
  0
LINE
  8
DETAIL
  6
CONTINUOUS
 62
     5
 10
-494.199999999998
 20
-567.49999999998545
 30
0.0
 11
-491.199999999998
 21
-570.49999999998545
 31
0.0
  0
LINE
  8
DETAIL
  6
CONTINUOUS
 62
     5
 10
488.04708539199783
 20
-571.79999999998836
 30
0.0
 11
492.84708539199983
 21
-566.99999999998545
 31
0.0
  0
LINE
  8
DETAIL
  6
CONTINUOUS
 62
     5
 10
502.0
 20
-557.84708539199164
 30
0.0
 11
497.20000000000158
 21
-562.64708539198909
 31
0.0
  0
ARC
  8
DETAIL
  6
CONTINUOUS
 62
     5
 10
-494.699999999998
 20
565.00000000001455
 30
0.0
 40
0.9999999999999994
 50
90.0
 51
180.0
  0
ARC
  8
DETAIL
  6
CONTINUOUS
 62
     5
 10
-494.699999999998
 20
565.00000000001455
 30
0.0
 40
0.4999999999999997
 50
90.0
 51
180.0
  0
ARC
  8
DETAIL
  6
CONTINUOUS
 62
     5
 10
-494.19999999999709
 20
564.5
 30
0.0
 40
0.4999999999999997
 50
90.0
 51
180.0
  0
ARC
  8
DETAIL
  6
CONTINUOUS
 62
     5
 10
-525.5708741799981
 20
208.4258312840102
 30
0.0
 40
3.799999999999998
 50
335.00000000002382
 51
35.000000000007503
  0
ARC
  8
DETAIL
  6
CONTINUOUS
 62
     5
 10
-529.63986559199748
 20
223.65156595401641
 30
0.0
 40
3.799999999999998
 50
94.999999999973639
 51
215.0000000000075
  0
ARC
  8
DETAIL
  6
CONTINUOUS
 62
     5
 10
-538.30000000000291
 20
210.80000000001749
 30
0.0
 40
2.9999999999999978
 50
180.0
 51
270.0
  0
ARC
  8
DETAIL
  6
CONTINUOUS
 62
     5
 10
-538.30000000000291
 20
217.80000000001749
 30
0.0
 40
2.9999999999999978
 50
90.0
 51
180.0
  0
ARC
  8
DETAIL
  6
CONTINUOUS
 62
     5
 10
-508.79999999999558
 20
222.20526315801541
 30
0.0
 40
2.5947368419999979
 50
15.530332036905101
 51
27.475020287680159
  0
ARC
  8
DETAIL
  6
CONTINUOUS
 62
     5
 10
-508.79999999999558
 20
222.20526315801541
 30
0.0
 40
2.5947368419999979
 50
43.835513774734977
 51
90.0
  0
ARC
  8
DETAIL
  6
CONTINUOUS
 62
     5
 10
-532.30000000000291
 20
220.80000000001749
 30
0.0
 40
1.9999999999999989
 50
119.2024115138976
 51
180.0
  0
ARC
  8
DETAIL
  6
CONTINUOUS
 62
     5
 10
-525.5708741799981
 20
208.4258312840102
 30
0.0
 40
1.599999999999999
 50
335.00000000002382
 51
35.000000000007503
  0
ARC
  8
DETAIL
  6
CONTINUOUS
 62
     5
 10
-529.63986559199748
 20
223.65156595401641
 30
0.0
 40
1.599999999999999
 50
94.999999999973639
 51
215.0000000000075
  0
ARC
  8
DETAIL
  6
CONTINUOUS
 62
     5
 10
-532.29722442199363
 20
187.61238237000359
 30
0.0
 40
1.099999999999999
 50
155.0000000000239
 51
335.00000000002382
  0
ARC
  8
DETAIL
  6
CONTINUOUS
 62
     5
 10
-516.199999999998
 20
220.80000000001749
 30
0.0
 40
0.9999999999999994
 50
90.0
 51
180.0
  0
ARC
  8
DETAIL
  6
CONTINUOUS
 62
     5
 10
-523.39999999999964
 20
220.80000000001749
 30
0.0
 40
0.9999999999999994
 50
0.0
 51
90.0
  0
ARC
  8
DETAIL
  6
CONTINUOUS
 62
     5
 10
-532.30000000000291
 20
220.80000000001749
 30
0.0
 40
0.9999999999999994
 50
123.917070095393
 51
180.0
  0
ARC
  8
DETAIL
  6
CONTINUOUS
 62
     5
 10
-532.30000000000291
 20
210.70000000001161
 30
0.0
 40
0.9999999999999994
 50
90.0
 51
170.99999999998099
  0
ARC
  8
DETAIL
  6
CONTINUOUS
 62
     5
 10
-532.30000000000291
 20
217.9000000000087
 30
0.0
 40
0.9999999999999994
 50
189.00000000001901
 51
270.0
  0
ARC
  8
DETAIL
  6
CONTINUOUS
 62
     5
 10
-530.09999999999764
 20
223.4000000000087
 30
0.0
 40
0.5999999999999996
 50
90.0
 51
270.0
  0
ARC
  8
DETAIL
  6
CONTINUOUS
 62
     5
 10
-506.19999999999709
 20
222.9000000000087
 30
0.0
 40
0.1
 50
180.0
 51
270.0
  0
ARC
  8
DETAIL
  6
CONTINUOUS
 62
     5
 10
494.59999999999673
 20
564.40000000002328
 30
0.0
 40
1.099999999999999
 50
0.0
 51
90.0
  0
ARC
  8
DETAIL
  6
CONTINUOUS
 62
     5
 10
494.59999999999673
 20
564.40000000002328
 30
0.0
 40
0.5999999999999996
 50
0.0
 51
90.0
  0
ARC
  8
DETAIL
  6
CONTINUOUS
 62
     5
 10
-513.699999999998
 20
-224.8999999999796
 30
0.0
 40
2.399999999999999
 50
157.9642197071918
 51
270.0
  0
ARC
  8
DETAIL
  6
CONTINUOUS
 62
     5
 10
-513.699999999998
 20
-224.8999999999796
 30
0.0
 40
1.1999999999999991
 50
134.0000000000301
 51
270.0
  0
ARC
  8
DETAIL
  6
CONTINUOUS
 62
     5
 10
-530.09999999999764
 20
-223.3999999999796
 30
0.0
 40
0.5999999999999996
 50
90.0
 51
270.0
  0
ARC
  8
DETAIL
  6
CONTINUOUS
 62
     5
 10
-494.699999999998
 20
-564.99999999998545
 30
0.0
 40
0.9999999999999994
 50
180.0
 51
270.0
  0
ARC
  8
DETAIL
  6
CONTINUOUS
 62
     5
 10
-494.199999999998
 20
-564.49999999998545
 30
0.0
 40
0.4999999999999997
 50
180.0
 51
270.0
  0
ARC
  8
DETAIL
  6
CONTINUOUS
 62
     5
 10
-494.699999999998
 20
-564.99999999998545
 30
0.0
 40
0.4999999999999997
 50
180.0
 51
270.0
  0
ARC
  8
DETAIL
  6
CONTINUOUS
 62
     5
 10
494.70000000000158
 20
-564.49999999998545
 30
0.0
 40
0.9999999999999994
 50
270.0
 51
0.0
  0
ARC
  8
DETAIL
  6
CONTINUOUS
 62
     5
 10
494.70000000000158
 20
-564.49999999998545
 30
0.0
 40
0.4999999999999997
 50
270.0
 51
0.0
  0
LINE
  8
DETAIL
  6
CONTINUOUS
 62
     5
 10
-510.20000000000528
 20
224.00000000001461
 30
0.0
 11
-510.35945305897366
 21
223.94843750001417
 31
0.0
  0
LINE
  8
DETAIL
  6
CONTINUOUS
 62
     5
 10
-510.35945305897366
 20
223.94843750001417
 30
0.0
 11
-510.4792773567537
 21
223.81250000001322
 31
0.0
  0
LINE
  8
DETAIL
  6
CONTINUOUS
 62
     5
 10
-510.4792773567537
 20
223.81250000001322
 30
0.0
 11
-510.55468387915869
 21
223.6203125000124
 31
0.0
  0
LINE
  8
DETAIL
  6
CONTINUOUS
 62
     5
 10
-510.55468387915869
 20
223.6203125000124
 30
0.0
 11
-510.5808836120018
 21
223.40000000001237
 31
0.0
  0
LINE
  8
DETAIL
  6
CONTINUOUS
 62
     5
 10
-510.5808836120018
 20
223.40000000001237
 30
0.0
 11
-510.55468387915863
 21
223.17968750001347
 31
0.0
  0
LINE
  8
DETAIL
  6
CONTINUOUS
 62
     5
 10
-510.55468387915863
 20
223.17968750001347
 30
0.0
 11
-510.4792773567537
 21
222.98750000001522
 31
0.0
  0
LINE
  8
DETAIL
  6
CONTINUOUS
 62
     5
 10
-510.4792773567537
 20
222.98750000001522
 30
0.0
 11
-510.35945305897366
 21
222.85156250001677
 31
0.0
  0
LINE
  8
DETAIL
  6
CONTINUOUS
 62
     5
 10
-510.35945305897366
 20
222.85156250001677
 30
0.0
 11
-510.20000000000528
 21
222.80000000001749
 31
0.0
  0
LINE
  8
DETAIL
  6
CONTINUOUS
 62
     5
 10
-510.20000000000528
 20
-223.99999999998539
 30
0.0
 11
-510.35945305897366
 21
-223.94843749998495
 31
0.0
  0
LINE
  8
DETAIL
  6
CONTINUOUS
 62
     5
 10
-510.35945305897366
 20
-223.94843749998495
 30
0.0
 11
-510.4792773567537
 21
-223.81249999998406
 31
0.0
  0
LINE
  8
DETAIL
  6
CONTINUOUS
 62
     5
 10
-510.4792773567537
 20
-223.81249999998406
 30
0.0
 11
-510.55468387915869
 21
-223.62031249998324
 31
0.0
  0
LINE
  8
DETAIL
  6
CONTINUOUS
 62
     5
 10
-510.55468387915869
 20
-223.62031249998324
 30
0.0
 11
-510.5808836120018
 21
-223.39999999998324
 31
0.0
  0
LINE
  8
DETAIL
  6
CONTINUOUS
 62
     5
 10
-510.5808836120018
 20
-223.39999999998324
 30
0.0
 11
-510.55468387915863
 21
-223.17968749998437
 31
0.0
  0
LINE
  8
DETAIL
  6
CONTINUOUS
 62
     5
 10
-510.55468387915863
 20
-223.17968749998437
 30
0.0
 11
-510.4792773567537
 21
-222.98749999998611
 31
0.0
  0
LINE
  8
DETAIL
  6
CONTINUOUS
 62
     5
 10
-510.4792773567537
 20
-222.98749999998611
 30
0.0
 11
-510.35945305897366
 21
-222.85156249998766
 31
0.0
  0
LINE
  8
DETAIL
  6
CONTINUOUS
 62
     5
 10
-510.35945305897366
 20
-222.85156249998766
 30
0.0
 11
-510.20000000000528
 21
-222.79999999998839
 31
0.0
  0
LINE
  8
DETAIL
  6
CONTINUOUS
 62
     5
 10
-215.9999999999973
 20
-573.29999999998836
 30
0.0
 11
-474.02318840626782
 21
-573.29999999998836
 31
0.0
  0
LINE
  8
DETAIL
  6
CONTINUOUS
 62
     5
 10
-474.02318840626782
 20
-573.29999999998836
 30
0.0
 11
-474.02318840626782
 21
-571.79999999998836
 31
0.0
  0
LINE
  8
DETAIL
  6
CONTINUOUS
 62
     5
 10
473.99999999999733
 20
-571.79999999998836
 30
0.0
 11
473.99999999999733
 21
-573.49999999998545
 31
0.0
  0
LINE
  8
BASIS
  6
DASHDOT
 62
     6
 10
0.0
 20
-651.49047982735647
 30
0.0
 11
0.0
 21
651.49047982735647
 31
0.0
  0
LINE
  8
DETAIL
  6
CONTINUOUS
 62
     5
 10
-492.84708539199983
 20
565.5
 30
0.0
 11
494.59999999999673
 21
565.5
 31
0.0
  0
LINE
  8
DETAIL
  6
CONTINUOUS
 62
     5
 10
-492.84708539199983
 20
-565.49999999998545
 30
0.0
 11
494.70000000000158
 21
-565.49999999998545
 31
0.0
  0
LINE
  8
DETAIL
  6
CONTINUOUS
 62
     5
 10
-1.784218308544951
 20
-390.70000002897001
 30
0.0
 11
-0.7692183084727731
 21
-390.2000000289263
 31
0.0
  0
LINE
  8
BASIS
  6
DASHDOT
 62
     6
 10
-345.0
 20
-674.54386575858825
 30
0.0
 11
-345.0
 21
-545.13333358710224
 31
0.0
  0
LINE
  8
BASIS
  6
DASHDOT
 62
     6
 10
345.0
 20
-674.54386575858825
 30
0.0
 11
345.0
 21
-545.13333358710224
 31
0.0
  0
LINE
  8
SERVICESPACE
  6
DASHDOT
 62
     2
 10
-502.61730091906071
 20
-572.20000008483476
 30
0.0
 11
-1202.0000009657781
 21
-572.20000008483476
 31
0.0
  0
LINE
  8
SERVICESPACE
  6
DASHDOT
 62
     2
 10
-502.61730091905969
 20
571.80000000000291
 30
0.0
 11
-1202.0000009657781
 21
571.80000000000291
 31
0.0
  0
LINE
  8
SERVICESPACE
  6
DASHDOT
 62
     2
 10
-1202.0000009657781
 20
-572.20000008483476
 30
0.0
 11
-1202.0000009657781
 21
571.80000000000291
 31
0.0
  0
LINE
  8
BASIS
  6
DASHDOT
 62
     6
 10
-345.0
 20
509.73290805108257
 30
0.0
 11
-345.0
 21
678.07333798801119
 31
0.0
  0
LINE
  8
BASIS
  6
DASHDOT
 62
     6
 10
345.0
 20
524.28125708443986
 30
0.0
 11
345.0
 21
678.07333798801119
 31
0.0
  0
LINE
  8
DETAIL
  6
CONTINUOUS
 62
     5
 10
-480.0
 20
615.80000000000018
 30
0.0
 11
-210.0
 21
615.80000000000018
 31
0.0
  0
LINE
  8
DETAIL
  6
CONTINUOUS
 62
     5
 10
210.0
 20
615.80000000000018
 30
0.0
 11
479.99999999999909
 21
615.80000000000018
 31
0.0
  0
LINE
  8
DETAIL
  6
CONTINUOUS
 62
     5
 10
-480.0
 20
571.80000000000291
 30
0.0
 11
-480.0
 21
615.80000000000018
 31
0.0
  0
LINE
  8
DETAIL
  6
CONTINUOUS
 62
     5
 10
-210.0
 20
571.80000000000291
 30
0.0
 11
-210.0
 21
615.80000000000018
 31
0.0
  0
LINE
  8
DETAIL
  6
CONTINUOUS
 62
     5
 10
210.0
 20
571.80000000000291
 30
0.0
 11
210.0
 21
615.80000000000018
 31
0.0
  0
LINE
  8
DETAIL
  6
CONTINUOUS
 62
     5
 10
479.99999999999909
 20
571.80000000000291
 30
0.0
 11
479.99999999999909
 21
615.80000000000018
 31
0.0
  0
LINE
  8
DETAIL
  6
CONTINUOUS
 62
     5
 10
-611.30000000000018
 20
-273.19999999999709
 30
0.0
 11
-611.30000000000018
 21
-452.59999999999133
 31
0.0
  0
LINE
  8
DETAIL
  6
CONTINUOUS
 62
     5
 10
-610.70000000000255
 20
-261.89999999999418
 30
0.0
 11
-610.70000000000255
 21
-452.59999999999133
 31
0.0
  0
LINE
  8
DETAIL
  6
CONTINUOUS
 62
     5
 10
-601.60000000000309
 20
-453.19999999998248
 30
0.0
 11
-601.60000000000309
 21
-453.79999999998842
 31
0.0
  0
LINE
  8
DETAIL
  6
CONTINUOUS
 62
     5
 10
-566.60000000000309
 20
-453.32449979998643
 30
0.0
 11
-566.60000000000309
 21
-453.19999999998248
 31
0.0
  0
LINE
  8
DETAIL
  6
CONTINUOUS
 62
     5
 10
-562.30000000000018
 20
-460.09999999999133
 30
0.0
 11
-562.30000000000018
 21
-463.69999999998248
 31
0.0
  0
LINE
  8
DETAIL
  6
CONTINUOUS
 62
     5
 10
-561.10000000000309
 20
-462.75
 30
0.0
 11
-561.10000000000309
 21
-461.04999999998842
 31
0.0
  0
LINE
  8
DETAIL
  6
CONTINUOUS
 62
     5
 10
-560.60000000000309
 20
-481.29943100200029
 30
0.0
 11
-560.60000000000309
 21
-461.29999999998842
 31
0.0
  0
LINE
  8
DETAIL
  6
CONTINUOUS
 62
     5
 10
-560.30000000000746
 20
-455.79999999998842
 30
0.0
 11
-560.30000000000746
 21
-460.09999999999133
 31
0.0
  0
LINE
  8
DETAIL
  6
CONTINUOUS
 62
     5
 10
-559.10000000000309
 20
-461.04999999998842
 30
0.0
 11
-559.10000000000309
 21
-457.05000000000291
 31
0.0
  0
LINE
  8
DETAIL
  6
CONTINUOUS
 62
     5
 10
-554.10000000000309
 20
-457.05000000000291
 30
0.0
 11
-554.10000000000309
 21
-461.04999999998842
 31
0.0
  0
LINE
  8
DETAIL
  6
CONTINUOUS
 62
     5
 10
-552.90000000000509
 20
-459.85000000000582
 30
0.0
 11
-552.90000000000509
 21
-456.25
 31
0.0
  0
LINE
  8
DETAIL
  6
CONTINUOUS
 62
     5
 10
-552.60000000000309
 20
-481.29943100200029
 30
0.0
 11
-552.60000000000309
 21
-461.29999999998842
 31
0.0
  0
LINE
  8
DETAIL
  6
CONTINUOUS
 62
     5
 10
-552.10000000000309
 20
-461.04999999998842
 30
0.0
 11
-552.10000000000309
 21
-462.75
 31
0.0
  0
LINE
  8
DETAIL
  6
CONTINUOUS
 62
     5
 10
-550.900000000006
 20
-463.69999999998248
 30
0.0
 11
-550.900000000006
 21
-459.85000000000582
 31
0.0
  0
LINE
  8
DETAIL
  6
CONTINUOUS
 62
     5
 10
-546.60000000000309
 20
-453.19999999998248
 30
0.0
 11
-546.60000000000309
 21
-453.32449979998643
 31
0.0
  0
LINE
  8
DETAIL
  6
CONTINUOUS
 62
     5
 10
-552.90000000000509
 20
-456.25
 30
0.0
 11
-547.73256777200277
 21
-453.3381929499883
 31
0.0
  0
LINE
  8
DETAIL
  6
CONTINUOUS
 62
     5
 10
-502.00000000000267
 20
-260.69999999999709
 30
0.0
 11
-609.50000000000546
 21
-260.69999999999709
 31
0.0
  0
LINE
  8
DETAIL
  6
CONTINUOUS
 62
     5
 10
-611.30000000000018
 20
-273.19999999999709
 30
0.0
 11
-610.70000000000255
 21
-273.19999999999709
 31
0.0
  0
LINE
  8
DETAIL
  6
CONTINUOUS
 62
     5
 10
-609.50000000000546
 20
-452.69999999999709
 30
0.0
 11
-502.00000000000267
 21
-452.69999999999709
 31
0.0
  0
LINE
  8
DETAIL
  6
CONTINUOUS
 62
     5
 10
-610.10000000000309
 20
-453.19999999998248
 30
0.0
 11
-601.60000000000309
 21
-453.19999999998248
 31
0.0
  0
LINE
  8
DETAIL
  6
CONTINUOUS
 62
     5
 10
-601.60000000000309
 20
-453.79999999998842
 30
0.0
 11
-610.10000000000309
 21
-453.79999999998842
 31
0.0
  0
LINE
  8
DETAIL
  6
CONTINUOUS
 62
     5
 10
-596.00000000000273
 20
-455.09999999999133
 30
0.0
 11
-593.39502824800275
 21
-455.09999999999133
 31
0.0
  0
LINE
  8
DETAIL
  6
CONTINUOUS
 62
     5
 10
-591.60000000000309
 20
-455.69999999999709
 30
0.0
 11
-571.60000000000309
 21
-455.69999999999709
 31
0.0
  0
LINE
  8
DETAIL
  6
CONTINUOUS
 62
     5
 10
-559.10000000000309
 20
-457.05000000000291
 30
0.0
 11
-554.10000000000309
 21
-457.05000000000291
 31
0.0
  0
LINE
  8
DETAIL
  6
CONTINUOUS
 62
     5
 10
-550.900000000006
 20
-459.85000000000582
 30
0.0
 11
-552.90000000000509
 21
-459.85000000000582
 31
0.0
  0
LINE
  8
DETAIL
  6
CONTINUOUS
 62
     5
 10
-560.30000000000746
 20
-460.09999999999133
 30
0.0
 11
-562.30000000000018
 21
-460.09999999999133
 31
0.0
  0
LINE
  8
DETAIL
  6
CONTINUOUS
 62
     5
 10
-561.10000000000309
 20
-461.04999999998842
 30
0.0
 11
-559.10000000000309
 21
-461.04999999998842
 31
0.0
  0
LINE
  8
DETAIL
  6
CONTINUOUS
 62
     5
 10
-554.10000000000309
 20
-461.04999999998842
 30
0.0
 11
-552.10000000000309
 21
-461.04999999998842
 31
0.0
  0
LINE
  8
DETAIL
  6
CONTINUOUS
 62
     5
 10
-552.60000000000309
 20
-461.29999999998842
 30
0.0
 11
-560.60000000000309
 21
-461.29999999998842
 31
0.0
  0
LINE
  8
DETAIL
  6
CONTINUOUS
 62
     5
 10
-552.10000000000309
 20
-462.75
 30
0.0
 11
-552.60000000000309
 21
-462.75
 31
0.0
  0
LINE
  8
DETAIL
  6
CONTINUOUS
 62
     5
 10
-560.60000000000309
 20
-462.75
 30
0.0
 11
-561.10000000000309
 21
-462.75
 31
0.0
  0
LINE
  8
DETAIL
  6
CONTINUOUS
 62
     5
 10
-550.900000000006
 20
-463.69999999998248
 30
0.0
 11
-552.60000000000309
 21
-463.69999999998248
 31
0.0
  0
LINE
  8
DETAIL
  6
CONTINUOUS
 62
     5
 10
-560.60000000000309
 20
-463.69999999998248
 30
0.0
 11
-562.30000000000018
 21
-463.69999999998248
 31
0.0
  0
LINE
  8
DETAIL
  6
CONTINUOUS
 62
     5
 10
-552.60000000000309
 20
-481.29999999998842
 30
0.0
 11
-560.60000000000309
 21
-481.29999999998842
 31
0.0
  0
LINE
  8
DETAIL
  6
CONTINUOUS
 62
     5
 10
-565.4335652700056
 20
-453.27395994598919
 30
0.0
 11
-560.30000000000746
 21
-455.79999999998842
 31
0.0
  0
ARC
  8
DETAIL
  6
CONTINUOUS
 62
     5
 10
-609.50000000000546
 20
-261.89999999999418
 30
0.0
 40
1.1999999999999991
 50
90.0
 51
180.0
  0
ARC
  8
DETAIL
  6
CONTINUOUS
 62
     5
 10
-596.00000000000273
 20
-452.09999999999133
 30
0.0
 40
2.9999999999999978
 50
191.5696901938332
 51
270.0
  0
ARC
  8
DETAIL
  6
CONTINUOUS
 62
     5
 10
-571.60000000000309
 20
-452.69999999999709
 30
0.0
 40
2.9999999999999978
 50
270.0
 51
0.0
  0
ARC
  8
DETAIL
  6
CONTINUOUS
 62
     5
 10
-591.60000000000309
 20
-452.69999999999709
 30
0.0
 40
2.9999999999999978
 50
180.0
 51
270.0
  0
ARC
  8
DETAIL
  6
CONTINUOUS
 62
     5
 10
-546.60000000000309
 20
-452.69999999999709
 30
0.0
 40
1.2999999999999989
 50
209.40091419727881
 51
231.31781254650701
  0
ARC
  8
DETAIL
  6
CONTINUOUS
 62
     5
 10
-566.60000000000309
 20
-452.69999999999709
 30
0.0
 40
1.2999999999999989
 50
308.68218745349299
 51
333.7998851587484
  0
ARC
  8
DETAIL
  6
CONTINUOUS
 62
     5
 10
-610.10000000000309
 20
-452.59999999999133
 30
0.0
 40
1.1999999999999991
 50
180.0
 51
270.0
  0
ARC
  8
DETAIL
  6
CONTINUOUS
 62
     5
 10
-609.50000000000546
 20
-451.49999999998539
 30
0.0
 40
1.1999999999999991
 50
180.0
 51
270.0
  0
ARC
  8
DETAIL
  6
CONTINUOUS
 62
     5
 10
-610.10000000000309
 20
-452.59999999999133
 30
0.0
 40
0.5999999999999996
 50
180.0
 51
270.0
  0
ARC
  8
DETAIL
  6
CONTINUOUS
 62
     5
 10
-566.10000000000309
 20
-453.19999999998248
 30
0.0
 40
0.4999999999999997
 50
90.0
 51
180.0
  0
ARC
  8
DETAIL
  6
CONTINUOUS
 62
     5
 10
-547.10000000000309
 20
-453.19999999998248
 30
0.0
 40
0.4999999999999997
 50
0.0
 51
90.0
  0
ARC
  8
DETAIL
  6
CONTINUOUS
 62
     5
 10
-547.10000000000309
 20
-453.32449979998643
 30
0.0
 40
0.4999999999999997
 50
231.31781254650701
 51
0.0
  0
ARC
  8
DETAIL
  6
CONTINUOUS
 62
     5
 10
-566.10000000000309
 20
-453.32449979998643
 30
0.0
 40
0.4999999999999997
 50
180.0
 51
308.68218745349299
  0
LINE
  8
DETAIL
  6
CONTINUOUS
 62
     5
 10
-548.40000000000509
 20
546.50000000001728
 30
0.0
 11
-502.10000000000309
 21
546.50000000001728
 31
0.0
  0
LINE
  8
DETAIL
  6
CONTINUOUS
 62
     5
 10
502.099999999994
 20
546.50000000001728
 30
0.0
 11
548.49999999999636
 21
546.50000000001728
 31
0.0
  0
LINE
  8
DETAIL
  6
CONTINUOUS
 62
     5
 10
-540.40000000000509
 20
545.00000000000273
 30
0.0
 11
-502.00000000000267
 21
545.00000000000273
 31
0.0
  0
LINE
  8
DETAIL
  6
CONTINUOUS
 62
     5
 10
548.49999999999636
 20
543.30000000000564
 30
0.0
 11
502.099999999994
 21
543.30000000000564
 31
0.0
  0
LINE
  8
DETAIL
  6
CONTINUOUS
 62
     5
 10
-543.09970601400255
 20
543.30000000000564
 30
0.0
 11
-548.40000000000509
 21
543.30000000000564
 31
0.0
  0
LINE
  8
BASIS
  6
DASHDOT
 62
     6
 10
572.50001249999514
 20
505.00000000000267
 30
0.0
 11
472.4999874999985
 21
505.00000000000267
 31
0.0
  0
LINE
  8
BASIS
  6
DASHDOT
 62
     6
 10
-472.3999875000045
 20
505.00000000000267
 30
0.0
 11
-572.40001250000205
 21
505.00000000000267
 31
0.0
  0
LINE
  8
DETAIL
  6
CONTINUOUS
 62
     5
 10
-548.50000000000273
 20
-466.69999999998532
 30
0.0
 11
-548.50000000000273
 21
-463.50000000000267
 31
0.0
  0
LINE
  8
DETAIL
  6
CONTINUOUS
 62
     5
 10
-548.50000000000273
 20
-543.29999999999109
 30
0.0
 11
-548.50000000000273
 21
-546.49999999998818
 31
0.0
  0
LINE
  8
DETAIL
  6
CONTINUOUS
 62
     5
 10
-548.40000000000509
 20
543.30000000000564
 30
0.0
 11
-548.40000000000509
 21
546.50000000001728
 31
0.0
  0
LINE
  8
DETAIL
  6
CONTINUOUS
 62
     5
 10
-548.40000000000509
 20
466.69999999999982
 30
0.0
 11
-548.40000000000509
 21
463.50000000001728
 31
0.0
  0
LINE
  8
DETAIL
  6
CONTINUOUS
 62
     5
 10
-543.50000000000273
 20
-541.99999999998818
 30
0.0
 11
-543.50000000000273
 21
-467.99999999998818
 31
0.0
  0
LINE
  8
DETAIL
  6
CONTINUOUS
 62
     5
 10
-543.40000000000509
 20
468.00000000000267
 30
0.0
 11
-543.40000000000509
 21
542.00000000000273
 31
0.0
  0
LINE
  8
DETAIL
  6
CONTINUOUS
 62
     5
 10
-548.40000000000509
 20
466.69999999999982
 30
0.0
 11
-502.10000000000309
 21
466.69999999999982
 31
0.0
  0
LINE
  8
DETAIL
  6
CONTINUOUS
 62
     5
 10
543.19970601399473
 20
466.69999999999982
 30
0.0
 11
548.49999999999636
 21
466.69999999999982
 31
0.0
  0
LINE
  8
DETAIL
  6
CONTINUOUS
 62
     5
 10
540.49999999999636
 20
465.00000000000267
 30
0.0
 11
501.99999999999358
 21
465.00000000000267
 31
0.0
  0
LINE
  8
DETAIL
  6
CONTINUOUS
 62
     5
 10
-548.40000000000509
 20
463.50000000001728
 30
0.0
 11
-502.10000000000309
 21
463.50000000001728
 31
0.0
  0
LINE
  8
DETAIL
  6
CONTINUOUS
 62
     5
 10
502.099999999994
 20
463.50000000001728
 30
0.0
 11
548.49999999999636
 21
463.50000000001728
 31
0.0
  0
LINE
  8
DETAIL
  6
CONTINUOUS
 62
     5
 10
-530.00000000000728
 20
-512.50000000000273
 30
0.0
 11
-530.00000000000728
 21
-497.50000000000267
 31
0.0
  0
LINE
  8
DETAIL
  6
CONTINUOUS
 62
     5
 10
-529.89999999999964
 20
497.50000000000267
 30
0.0
 11
-529.89999999999964
 21
512.50000000000273
 31
0.0
  0
LINE
  8
BASIS
  6
DASHDOT
 62
     6
 10
-522.50000000000728
 20
-555.00001249999332
 30
0.0
 11
-522.50000000000728
 21
-454.99998749999207
 31
0.0
  0
LINE
  8
BASIS
  6
DASHDOT
 62
     6
 10
-522.40000000000327
 20
454.99998750000941
 30
0.0
 11
-522.40000000000327
 21
555.00001249999605
 31
0.0
  0
LINE
  8
DETAIL
  6
CONTINUOUS
 62
     5
 10
-515.00000000000819
 20
-497.50000000000267
 30
0.0
 11
-515.00000000000819
 21
-512.50000000000273
 31
0.0
  0
LINE
  8
DETAIL
  6
CONTINUOUS
 62
     5
 10
-514.90000000000055
 20
512.50000000000273
 30
0.0
 11
-514.90000000000055
 21
497.50000000000267
 31
0.0
  0
LINE
  8
DETAIL
  6
CONTINUOUS
 62
     5
 10
-548.50000000000273
 20
-463.50000000000267
 30
0.0
 11
-502.19999999999982
 21
-463.50000000000267
 31
0.0
  0
LINE
  8
DETAIL
  6
CONTINUOUS
 62
     5
 10
502.099999999994
 20
-463.50000000000267
 30
0.0
 11
548.49999999999636
 21
-463.50000000000267
 31
0.0
  0
LINE
  8
DETAIL
  6
CONTINUOUS
 62
     5
 10
-540.50000000000273
 20
-464.99999999998818
 30
0.0
 11
-502.00000000000267
 21
-464.99999999998818
 31
0.0
  0
LINE
  8
DETAIL
  6
CONTINUOUS
 62
     5
 10
548.49999999999636
 20
-466.69999999998532
 30
0.0
 11
502.099999999994
 21
-466.69999999998532
 31
0.0
  0
LINE
  8
DETAIL
  6
CONTINUOUS
 62
     5
 10
-543.19970601400291
 20
-466.69999999998532
 30
0.0
 11
-548.50000000000273
 21
-466.69999999998532
 31
0.0
  0
LINE
  8
BASIS
  6
DASHDOT
 62
     6
 10
572.50001249999877
 20
-504.99999999999551
 30
0.0
 11
472.49998750000032
 21
-504.99999999999551
 31
0.0
  0
LINE
  8
BASIS
  6
DASHDOT
 62
     6
 10
-472.49998750000668
 20
-504.99999999998539
 30
0.0
 11
-572.50001250000423
 21
-504.99999999998539
 31
0.0
  0
LINE
  8
DETAIL
  6
CONTINUOUS
 62
     5
 10
-548.50000000000273
 20
-543.29999999999109
 30
0.0
 11
-502.19999999999982
 21
-543.29999999999109
 31
0.0
  0
LINE
  8
DETAIL
  6
CONTINUOUS
 62
     5
 10
543.19970601399382
 20
-543.29999999999109
 30
0.0
 11
548.49999999999636
 21
-543.29999999999109
 31
0.0
  0
LINE
  8
DETAIL
  6
CONTINUOUS
 62
     5
 10
540.49999999999636
 20
-545.00000000000273
 30
0.0
 11
501.99999999999358
 21
-545.00000000000273
 31
0.0
  0
LINE
  8
DETAIL
  6
CONTINUOUS
 62
     5
 10
-548.50000000000273
 20
-546.49999999998818
 30
0.0
 11
-502.19999999999982
 21
-546.49999999998818
 31
0.0
  0
LINE
  8
DETAIL
  6
CONTINUOUS
 62
     5
 10
502.099999999994
 20
-546.49999999998818
 30
0.0
 11
548.49999999999636
 21
-546.49999999998818
 31
0.0
  0
LINE
  8
DETAIL
  6
CONTINUOUS
 62
     5
 10
515.0
 20
-512.50000000000273
 30
0.0
 11
515.0
 21
-497.50000000000267
 31
0.0
  0
LINE
  8
DETAIL
  6
CONTINUOUS
 62
     5
 10
515.0
 20
497.50000000000267
 30
0.0
 11
515.0
 21
512.50000000000273
 31
0.0
  0
LINE
  8
BASIS
  6
DASHDOT
 62
     6
 10
522.5
 20
-555.00001249999605
 30
0.0
 11
522.5
 21
-454.99998749999492
 31
0.0
  0
LINE
  8
BASIS
  6
DASHDOT
 62
     6
 10
522.49999999999727
 20
454.99998750000941
 30
0.0
 11
522.49999999999727
 21
555.00001249999605
 31
0.0
  0
LINE
  8
DETAIL
  6
CONTINUOUS
 62
     5
 10
529.99999999999909
 20
512.50000000000273
 30
0.0
 11
529.99999999999909
 21
497.50000000000267
 31
0.0
  0
LINE
  8
DETAIL
  6
CONTINUOUS
 62
     5
 10
529.99999999999909
 20
-497.50000000000267
 30
0.0
 11
529.99999999999909
 21
-512.50000000000273
 31
0.0
  0
LINE
  8
DETAIL
  6
CONTINUOUS
 62
     5
 10
543.49999999999636
 20
542.00000000000273
 30
0.0
 11
543.49999999999636
 21
468.00000000000267
 31
0.0
  0
LINE
  8
DETAIL
  6
CONTINUOUS
 62
     5
 10
543.49999999999636
 20
-467.99999999998818
 30
0.0
 11
543.49999999999636
 21
-541.99999999998818
 31
0.0
  0
LINE
  8
DETAIL
  6
CONTINUOUS
 62
     5
 10
548.49999999999636
 20
-466.69999999998532
 30
0.0
 11
548.49999999999636
 21
-463.50000000000267
 31
0.0
  0
LINE
  8
DETAIL
  6
CONTINUOUS
 62
     5
 10
548.49999999999636
 20
543.30000000000564
 30
0.0
 11
548.49999999999636
 21
546.50000000001728
 31
0.0
  0
LINE
  8
DETAIL
  6
CONTINUOUS
 62
     5
 10
548.49999999999636
 20
466.69999999999982
 30
0.0
 11
548.49999999999636
 21
463.50000000001728
 31
0.0
  0
LINE
  8
DETAIL
  6
CONTINUOUS
 62
     5
 10
548.49999999999636
 20
-543.29999999999109
 30
0.0
 11
548.49999999999636
 21
-546.49999999998818
 31
0.0
  0
ARC
  8
DETAIL
  6
CONTINUOUS
 62
     5
 10
-522.39999999999964
 20
512.50000000000273
 30
0.0
 40
7.4999999999999956
 50
0.0
 51
180.0
  0
ARC
  8
DETAIL
  6
CONTINUOUS
 62
     5
 10
-522.39999999999964
 20
497.50000000000267
 30
0.0
 40
7.4999999999999956
 50
180.0
 51
0.0
  0
CIRCLE
  8
DETAIL
  6
CONTINUOUS
 62
     5
 10
-518.40000000000691
 20
533.00000000000273
 30
0.0
 40
6.9999999999999956
  0
CIRCLE
  8
DETAIL
  6
CONTINUOUS
 62
     5
 10
-531.39999999999964
 20
477.00000000000267
 30
0.0
 40
6.9999999999999956
  0
ARC
  8
DETAIL
  6
CONTINUOUS
 62
     5
 10
-502.10000000000309
 20
540.10000000000855
 30
0.0
 40
6.3999999999999968
 50
89.101090683509454
 51
90.0
  0
ARC
  8
DETAIL
  6
CONTINUOUS
 62
     5
 10
-502.10000000000309
 20
469.90000000001152
 30
0.0
 40
6.3999999999999968
 50
270.0
 51
270.90084208829381
  0
ARC
  8
DETAIL
  6
CONTINUOUS
 62
     5
 10
-540.40000000000509
 20
468.00000000000267
 30
0.0
 40
2.9999999999999978
 50
180.0
 51
205.70578225262511
  0
ARC
  8
DETAIL
  6
CONTINUOUS
 62
     5
 10
-540.40000000000509
 20
542.00000000000273
 30
0.0
 40
2.9999999999999978
 50
90.0
 51
180.0
  0
CIRCLE
  8
DETAIL
  6
CONTINUOUS
 62
     5
 10
-531.39999999999964
 20
533.00000000000273
 30
0.0
 40
2.9999999999999978
  0
CIRCLE
  8
DETAIL
  6
CONTINUOUS
 62
     5
 10
-518.40000000000691
 20
477.00000000000267
 30
0.0
 40
2.9999999999999978
  0
ARC
  8
DETAIL
  6
CONTINUOUS
 62
     5
 10
522.5
 20
497.50000000000267
 30
0.0
 40
7.4999999999999956
 50
180.0
 51
0.0
  0
ARC
  8
DETAIL
  6
CONTINUOUS
 62
     5
 10
522.5
 20
512.50000000000273
 30
0.0
 40
7.4999999999999956
 50
0.0
 51
180.0
  0
CIRCLE
  8
DETAIL
  6
CONTINUOUS
 62
     5
 10
531.49999999999181
 20
533.00000000000273
 30
0.0
 40
6.9999999999999956
  0
CIRCLE
  8
DETAIL
  6
CONTINUOUS
 62
     5
 10
518.5
 20
477.00000000000267
 30
0.0
 40
6.9999999999999956
  0
ARC
  8
DETAIL
  6
CONTINUOUS
 62
     5
 10
540.49999999999636
 20
542.00000000000273
 30
0.0
 40
2.9999999999999978
 50
0.0
 51
25.705782252625159
  0
ARC
  8
DETAIL
  6
CONTINUOUS
 62
     5
 10
540.49999999999636
 20
468.00000000000267
 30
0.0
 40
2.9999999999999978
 50
270.0
 51
0.0
  0
CIRCLE
  8
DETAIL
  6
CONTINUOUS
 62
     5
 10
531.49999999999181
 20
477.00000000000267
 30
0.0
 40
2.9999999999999978
  0
CIRCLE
  8
DETAIL
  6
CONTINUOUS
 62
     5
 10
518.5
 20
533.00000000000273
 30
0.0
 40
2.9999999999999978
  0
ARC
  8
DETAIL
  6
CONTINUOUS
 62
     5
 10
-540.50000000000273
 20
-467.99999999998818
 30
0.0
 40
2.9999999999999978
 50
90.0
 51
180.0
  0
ARC
  8
DETAIL
  6
CONTINUOUS
 62
     5
 10
-502.19999999999982
 20
-469.89999999999691
 30
0.0
 40
6.3999999999999968
 50
88.204088814509177
 51
90.0
  0
ARC
  8
DETAIL
  6
CONTINUOUS
 62
     5
 10
-540.50000000000273
 20
-541.99999999998818
 30
0.0
 40
2.9999999999999978
 50
180.0
 51
205.70578225262511
  0
ARC
  8
DETAIL
  6
CONTINUOUS
 62
     5
 10
-522.50000000000546
 20
-497.50000000000267
 30
0.0
 40
7.4999999999999956
 50
0.0
 51
180.0
  0
ARC
  8
DETAIL
  6
CONTINUOUS
 62
     5
 10
-522.50000000000546
 20
-512.50000000000273
 30
0.0
 40
7.4999999999999956
 50
180.0
 51
0.0
  0
CIRCLE
  8
DETAIL
  6
CONTINUOUS
 62
     5
 10
-518.50000000000455
 20
-477.00000000000267
 30
0.0
 40
6.9999999999999956
  0
CIRCLE
  8
DETAIL
  6
CONTINUOUS
 62
     5
 10
-531.5
 20
-532.99999999998818
 30
0.0
 40
6.9999999999999956
  0
ARC
  8
DETAIL
  6
CONTINUOUS
 62
     5
 10
-502.19999999999982
 20
-540.099999999994
 30
0.0
 40
6.3999999999999968
 50
270.0
 51
271.79951107257972
  0
CIRCLE
  8
DETAIL
  6
CONTINUOUS
 62
     5
 10
-531.5
 20
-477.00000000000267
 30
0.0
 40
2.9999999999999978
  0
CIRCLE
  8
DETAIL
  6
CONTINUOUS
 62
     5
 10
-518.50000000000455
 20
-532.99999999998818
 30
0.0
 40
2.9999999999999978
  0
ARC
  8
DETAIL
  6
CONTINUOUS
 62
     5
 10
522.5
 20
-512.50000000000273
 30
0.0
 40
7.4999999999999956
 50
180.0
 51
0.0
  0
ARC
  8
DETAIL
  6
CONTINUOUS
 62
     5
 10
522.5
 20
-497.50000000000267
 30
0.0
 40
7.4999999999999956
 50
0.0
 51
180.0
  0
CIRCLE
  8
DETAIL
  6
CONTINUOUS
 62
     5
 10
531.49999999999181
 20
-477.00000000000267
 30
0.0
 40
6.9999999999999956
  0
CIRCLE
  8
DETAIL
  6
CONTINUOUS
 62
     5
 10
518.5
 20
-532.99999999998818
 30
0.0
 40
6.9999999999999956
  0
ARC
  8
DETAIL
  6
CONTINUOUS
 62
     5
 10
540.49999999999636
 20
-467.99999999998818
 30
0.0
 40
2.9999999999999978
 50
0.0
 51
25.705782252625159
  0
ARC
  8
DETAIL
  6
CONTINUOUS
 62
     5
 10
540.49999999999636
 20
-541.99999999998818
 30
0.0
 40
2.9999999999999978
 50
270.0
 51
0.0
  0
CIRCLE
  8
DETAIL
  6
CONTINUOUS
 62
     5
 10
531.49999999999181
 20
-532.99999999998818
 30
0.0
 40
2.9999999999999978
  0
CIRCLE
  8
DETAIL
  6
CONTINUOUS
 62
     5
 10
518.5
 20
-477.00000000000267
 30
0.0
 40
2.9999999999999978
  0
LINE
  8
SIZE
  6
CONTINUOUS
 62
    30
 10
508.04708539199351
 20
571.80000000000314
 30
0.0
 11
958.61282300304197
 21
571.80000000000325
 31
0.0
  0
LINE
  8
SIZE
  6
CONTINUOUS
 62
    30
 10
508.04708539199618
 20
-571.79999999998768
 30
0.0
 11
958.61282300304219
 21
-571.79999999998756
 31
0.0
  0
LINE
  8
SIZE
  6
CONTINUOUS
 62
    30
 10
938.61282300304197
 20
559.80000000000325
 30
0.0
 11
938.61282300304219
 21
-559.79999999998756
 31
0.0
  0
CIRCLE
  8
SIZE
  6
CONTINUOUS
 62
    30
 10
938.61282300304197
 20
571.80000000000325
 30
0.0
 40
6.0
  0
LINE
  8
SIZE
  6
CONTINUOUS
 62
    30
 10
938.61282300304197
 20
571.80000000000325
 30
0.0
 11
938.61282300304197
 21
559.80000000000325
 31
0.0
  0
CIRCLE
  8
SIZE
  6
CONTINUOUS
 62
    30
 10
938.61282300304219
 20
-571.79999999998756
 30
0.0
 40
6.0
  0
LINE
  8
SIZE
  6
CONTINUOUS
 62
    30
 10
938.61282300304219
 20
-571.79999999998756
 30
0.0
 11
938.61282300304219
 21
-559.79999999998756
 31
0.0
  0
TEXT
  8
SIZE
  6
CONTINUOUS
 62
    30
 10
913.61282300304185
 20
-96.767999999992469
 30
0.0
 40
64.0
  1
1144
 50
90.0
 41
0.9
 51
0.0
  7
STANDARD
 71
     0
 72
     1
 11
913.61282300304185
 21
0.0000000000075645
 31
0.0
210
0.0
220
0.0
230
1.0
  0
POINT
  8
DEFPOINTS
  6
CONTINUOUS
 62
    30
 10
488.04708539199351
 20
571.80000000000314
 30
0.0
  0
POINT
  8
DEFPOINTS
  6
CONTINUOUS
 62
    30
 10
488.04708539199618
 20
-571.79999999998768
 30
0.0
  0
POINT
  8
DEFPOINTS
  6
CONTINUOUS
 62
    30
 10
938.61282300304219
 20
-571.79999999998756
 30
0.0
  0
LINE
  8
SIZE
  6
CONTINUOUS
 62
    30
 10
485.99983178000213
 20
-650.79999999998586
 30
0.0
 11
958.61282300303208
 21
-650.79999999998574
 31
0.0
  0
LINE
  8
SIZE
  6
CONTINUOUS
 62
    30
 10
507.84708539199642
 20
-571.79999999998768
 30
0.0
 11
958.61282300303208
 21
-571.79999999998756
 31
0.0
  0
LINE
  8
SIZE
  6
CONTINUOUS
 62
    30
 10
938.61282300303208
 20
-583.79999999998756
 30
0.0
 11
938.61282300303208
 21
-638.79999999998574
 31
0.0
  0
LINE
  8
SIZE
  6
CONTINUOUS
 62
    30
 10
938.61282300303208
 20
-650.79999999998574
 30
0.0
 11
938.61282300303219
 21
-803.31428571427364
 31
0.0
  0
CIRCLE
  8
SIZE
  6
CONTINUOUS
 62
    30
 10
938.61282300303208
 20
-571.79999999998756
 30
0.0
 40
6.0
  0
LINE
  8
SIZE
  6
CONTINUOUS
 62
    30
 10
938.61282300303208
 20
-571.79999999998756
 30
0.0
 11
938.61282300303208
 21
-583.79999999998756
 31
0.0
  0
CIRCLE
  8
SIZE
  6
CONTINUOUS
 62
    30
 10
938.61282300303208
 20
-650.79999999998574
 30
0.0
 40
6.0
  0
LINE
  8
SIZE
  6
CONTINUOUS
 62
    30
 10
938.61282300303208
 20
-650.79999999998574
 30
0.0
 11
938.61282300303208
 21
-638.79999999998574
 31
0.0
  0
TEXT
  8
SIZE
  6
CONTINUOUS
 62
    30
 10
913.61282300303174
 20
-786.62514285713075
 30
0.0
 40
64.0
  1
79
 50
90.0
 41
0.9
 51
0.0
  7
STANDARD
 71
     0
 72
     1
 11
913.61282300303174
 21
-733.05714285713077
 31
0.0
210
0.0
220
0.0
230
1.0
  0
POINT
  8
DEFPOINTS
  6
CONTINUOUS
 62
    30
 10
465.99983178000213
 20
-650.79999999998586
 30
0.0
  0
POINT
  8
DEFPOINTS
  6
CONTINUOUS
 62
    30
 10
487.84708539199642
 20
-571.79999999998768
 30
0.0
  0
POINT
  8
DEFPOINTS
  6
CONTINUOUS
 62
    30
 10
938.61282300303208
 20
-571.79999999998756
 30
0.0
  0
LINE
  8
SIZE
  6
CONTINUOUS
 62
    30
 10
507.84708539199369
 20
571.80000000000314
 30
0.0
 11
958.61282300303185
 21
571.80000000000325
 31
0.0
  0
LINE
  8
SIZE
  6
CONTINUOUS
 62
    30
 10
499.99999999999932
 20
615.80000000000041
 30
0.0
 11
958.61282300303185
 21
615.80000000000052
 31
0.0
  0
LINE
  8
SIZE
  6
CONTINUOUS
 62
    30
 10
938.61282300303185
 20
559.80000000000325
 30
0.0
 11
938.61282300303185
 21
547.80000000000325
 31
0.0
  0
LINE
  8
SIZE
  6
CONTINUOUS
 62
    30
 10
938.61282300303185
 20
627.80000000000052
 30
0.0
 11
938.61282300303174
 21
785.80000000000075
 31
0.0
  0
LINE
  8
SIZE
  6
CONTINUOUS
 62
    30
 10
938.61282300303185
 20
571.80000000000325
 30
0.0
 11
938.61282300303185
 21
615.80000000000052
 31
0.0
  0
CIRCLE
  8
SIZE
  6
CONTINUOUS
 62
    30
 10
938.61282300303185
 20
571.80000000000325
 30
0.0
 40
6.0
  0
LINE
  8
SIZE
  6
CONTINUOUS
 62
    30
 10
938.61282300303185
 20
571.80000000000325
 30
0.0
 11
938.61282300303185
 21
559.80000000000325
 31
0.0
  0
CIRCLE
  8
SIZE
  6
CONTINUOUS
 62
    30
 10
938.61282300303185
 20
615.80000000000052
 30
0.0
 40
6.0
  0
LINE
  8
SIZE
  6
CONTINUOUS
 62
    30
 10
938.61282300303185
 20
615.80000000000052
 30
0.0
 11
938.61282300303185
 21
627.80000000000052
 31
0.0
  0
TEXT
  8
SIZE
  6
CONTINUOUS
 62
    30
 10
913.61282300303174
 20
658.08000000000027
 30
0.0
 40
64.0
  1
44
 50
90.0
 41
0.9
 51
0.0
  7
STANDARD
 71
     0
 72
     1
 11
913.61282300303174
 21
712.8000000000003
 31
0.0
210
0.0
220
0.0
230
1.0
  0
POINT
  8
DEFPOINTS
  6
CONTINUOUS
 62
    30
 10
487.84708539199369
 20
571.80000000000314
 30
0.0
  0
POINT
  8
DEFPOINTS
  6
CONTINUOUS
 62
    30
 10
479.99999999999932
 20
615.80000000000041
 30
0.0
  0
POINT
  8
DEFPOINTS
  6
CONTINUOUS
 62
    30
 10
938.61282300303185
 20
615.80000000000052
 30
0.0
  0
LINE
  8
SIZE
  6
CONTINUOUS
 62
    30
 10
-502.0
 20
577.84708539201711
 30
0.0
 11
-501.99999999999989
 21
1058.1262011560079
 31
0.0
  0
LINE
  8
SIZE
  6
CONTINUOUS
 62
    30
 10
502.0
 20
577.84708539201984
 30
0.0
 11
502.00000000000011
 21
1058.1262011560079
 31
0.0
  0
LINE
  8
SIZE
  6
CONTINUOUS
 62
    30
 10
-489.99999999999989
 20
1038.1262011560079
 30
0.0
 11
490.00000000000011
 21
1038.1262011560079
 31
0.0
  0
CIRCLE
  8
SIZE
  6
CONTINUOUS
 62
    30
 10
-501.99999999999989
 20
1038.1262011560079
 30
0.0
 40
6.0
  0
LINE
  8
SIZE
  6
CONTINUOUS
 62
    30
 10
-501.99999999999989
 20
1038.1262011560079
 30
0.0
 11
-489.99999999999989
 21
1038.1262011560079
 31
0.0
  0
CIRCLE
  8
SIZE
  6
CONTINUOUS
 62
    30
 10
502.00000000000011
 20
1038.1262011560079
 30
0.0
 40
6.0
  0
LINE
  8
SIZE
  6
CONTINUOUS
 62
    30
 10
502.00000000000011
 20
1038.1262011560079
 30
0.0
 11
490.00000000000011
 21
1038.1262011560079
 31
0.0
  0
TEXT
  8
SIZE
  6
CONTINUOUS
 62
    30
 10
-103.10399999999994
 20
1063.1262011560079
 30
0.0
 40
64.0
  1
1004
 50
0.0
 41
0.9
 51
0.0
  7
STANDARD
 71
     0
 72
     1
 11
0.0000000000000568
 21
1063.1262011560079
 31
0.0
210
0.0
220
0.0
230
1.0
  0
POINT
  8
DEFPOINTS
  6
CONTINUOUS
 62
    30
 10
-502.0
 20
557.84708539201711
 30
0.0
  0
POINT
  8
DEFPOINTS
  6
CONTINUOUS
 62
    30
 10
502.0
 20
557.84708539201984
 30
0.0
  0
POINT
  8
DEFPOINTS
  6
CONTINUOUS
 62
    30
 10
502.00000000000011
 20
1038.1262011560079
 30
0.0
  0
LINE
  8
SIZE
  6
CONTINUOUS
 62
    30
 10
345.0
 20
698.07333798801119
 30
0.0
 11
345.0
 21
802.57987004977258
 31
0.0
  0
LINE
  8
SIZE
  6
CONTINUOUS
 62
    30
 10
-345.0
 20
698.07333798801119
 30
0.0
 11
-345.0
 21
802.57987004977258
 31
0.0
  0
LINE
  8
SIZE
  6
CONTINUOUS
 62
    30
 10
333.0
 20
782.57987004977258
 30
0.0
 11
-333.0
 21
782.57987004977258
 31
0.0
  0
CIRCLE
  8
SIZE
  6
CONTINUOUS
 62
    30
 10
345.0
 20
782.57987004977258
 30
0.0
 40
6.0
  0
LINE
  8
SIZE
  6
CONTINUOUS
 62
    30
 10
345.0
 20
782.57987004977258
 30
0.0
 11
333.0
 21
782.57987004977258
 31
0.0
  0
CIRCLE
  8
SIZE
  6
CONTINUOUS
 62
    30
 10
-345.0
 20
782.57987004977258
 30
0.0
 40
6.0
  0
LINE
  8
SIZE
  6
CONTINUOUS
 62
    30
 10
-345.0
 20
782.57987004977258
 30
0.0
 11
-333.0
 21
782.57987004977258
 31
0.0
  0
TEXT
  8
SIZE
  6
CONTINUOUS
 62
    30
 10
-80.927999999999997
 20
807.57987004977258
 30
0.0
 40
64.0
  1
690
 50
0.0
 41
0.9
 51
0.0
  7
STANDARD
 71
     0
 72
     1
 11
0.0
 21
807.57987004977258
 31
0.0
210
0.0
220
0.0
230
1.0
  0
POINT
  8
DEFPOINTS
  6
CONTINUOUS
 62
    30
 10
345.0
 20
678.07333798801119
 30
0.0
  0
POINT
  8
DEFPOINTS
  6
CONTINUOUS
 62
    30
 10
-345.0
 20
678.07333798801119
 30
0.0
  0
POINT
  8
DEFPOINTS
  6
CONTINUOUS
 62
    30
 10
-345.0
 20
782.57987004977258
 30
0.0
  0
LINE
  8
SIZE
  6
CONTINUOUS
 62
    30
 10
210.0
 20
635.80000000000018
 30
0.0
 11
210.0
 21
921.54896217880923
 31
0.0
  0
LINE
  8
SIZE
  6
CONTINUOUS
 62
    30
 10
479.99999999999909
 20
635.80000000000018
 30
0.0
 11
479.99999999999909
 21
921.54896217880923
 31
0.0
  0
LINE
  8
SIZE
  6
CONTINUOUS
 62
    30
 10
222.0
 20
901.54896217880923
 30
0.0
 11
467.99999999999909
 21
901.54896217880923
 31
0.0
  0
CIRCLE
  8
SIZE
  6
CONTINUOUS
 62
    30
 10
210.0
 20
901.54896217880923
 30
0.0
 40
6.0
  0
LINE
  8
SIZE
  6
CONTINUOUS
 62
    30
 10
210.0
 20
901.54896217880923
 30
0.0
 11
222.0
 21
901.54896217880923
 31
0.0
  0
CIRCLE
  8
SIZE
  6
CONTINUOUS
 62
    30
 10
479.99999999999909
 20
901.54896217880923
 30
0.0
 40
6.0
  0
LINE
  8
SIZE
  6
CONTINUOUS
 62
    30
 10
479.99999999999909
 20
901.54896217880923
 30
0.0
 11
467.99999999999909
 21
901.54896217880923
 31
0.0
  0
TEXT
  8
SIZE
  6
CONTINUOUS
 62
    30
 10
264.07199999999949
 20
926.54896217880923
 30
0.0
 40
64.0
  1
270
 50
0.0
 41
0.9
 51
0.0
  7
STANDARD
 71
     0
 72
     1
 11
344.99999999999949
 21
926.54896217880923
 31
0.0
210
0.0
220
0.0
230
1.0
  0
POINT
  8
DEFPOINTS
  6
CONTINUOUS
 62
    30
 10
210.0
 20
615.80000000000018
 30
0.0
  0
POINT
  8
DEFPOINTS
  6
CONTINUOUS
 62
    30
 10
479.99999999999909
 20
615.80000000000018
 30
0.0
  0
POINT
  8
DEFPOINTS
  6
CONTINUOUS
 62
    30
 10
479.99999999999909
 20
901.54896217880923
 30
0.0
  0
LINE
  8
SIZE
  6
CONTINUOUS
 62
    30
 10
-480.0
 20
635.80000000000018
 30
0.0
 11
-480.0
 21
921.54896217880741
 31
0.0
  0
LINE
  8
SIZE
  6
CONTINUOUS
 62
    30
 10
-210.0
 20
635.80000000000018
 30
0.0
 11
-210.0
 21
921.54896217880741
 31
0.0
  0
LINE
  8
SIZE
  6
CONTINUOUS
 62
    30
 10
-468.0
 20
901.54896217880741
 30
0.0
 11
-222.0
 21
901.54896217880741
 31
0.0
  0
CIRCLE
  8
SIZE
  6
CONTINUOUS
 62
    30
 10
-480.0
 20
901.54896217880741
 30
0.0
 40
6.0
  0
LINE
  8
SIZE
  6
CONTINUOUS
 62
    30
 10
-480.0
 20
901.54896217880741
 30
0.0
 11
-468.0
 21
901.54896217880741
 31
0.0
  0
CIRCLE
  8
SIZE
  6
CONTINUOUS
 62
    30
 10
-210.0
 20
901.54896217880741
 30
0.0
 40
6.0
  0
LINE
  8
SIZE
  6
CONTINUOUS
 62
    30
 10
-210.0
 20
901.54896217880741
 30
0.0
 11
-222.0
 21
901.54896217880741
 31
0.0
  0
TEXT
  8
SIZE
  6
CONTINUOUS
 62
    30
 10
-425.928
 20
926.54896217880741
 30
0.0
 40
64.0
  1
270
 50
0.0
 41
0.9
 51
0.0
  7
STANDARD
 71
     0
 72
     1
 11
-345.0
 21
926.54896217880741
 31
0.0
210
0.0
220
0.0
230
1.0
  0
POINT
  8
DEFPOINTS
  6
CONTINUOUS
 62
    30
 10
-480.0
 20
615.80000000000018
 30
0.0
  0
POINT
  8
DEFPOINTS
  6
CONTINUOUS
 62
    30
 10
-210.0
 20
615.80000000000018
 30
0.0
  0
POINT
  8
DEFPOINTS
  6
CONTINUOUS
 62
    30
 10
-210.0
 20
901.54896217880741
 30
0.0
  0
LINE
  8
SIZE
  6
CONTINUOUS
 62
    30
 10
345.0
 20
-694.54386575858825
 30
0.0
 11
345.0
 21
-858.30370840557589
 31
0.0
  0
LINE
  8
SIZE
  6
CONTINUOUS
 62
    30
 10
-345.0
 20
-694.54386575858825
 30
0.0
 11
-345.0
 21
-858.30370840557589
 31
0.0
  0
LINE
  8
SIZE
  6
CONTINUOUS
 62
    30
 10
333.0
 20
-838.30370840557589
 30
0.0
 11
-333.0
 21
-838.30370840557589
 31
0.0
  0
CIRCLE
  8
SIZE
  6
CONTINUOUS
 62
    30
 10
345.0
 20
-838.30370840557589
 30
0.0
 40
6.0
  0
LINE
  8
SIZE
  6
CONTINUOUS
 62
    30
 10
345.0
 20
-838.30370840557589
 30
0.0
 11
333.0
 21
-838.30370840557589
 31
0.0
  0
CIRCLE
  8
SIZE
  6
CONTINUOUS
 62
    30
 10
-345.0
 20
-838.30370840557589
 30
0.0
 40
6.0
  0
LINE
  8
SIZE
  6
CONTINUOUS
 62
    30
 10
-345.0
 20
-838.30370840557589
 30
0.0
 11
-333.0
 21
-838.30370840557589
 31
0.0
  0
TEXT
  8
SIZE
  6
CONTINUOUS
 62
    30
 10
-80.927999999999997
 20
-813.30370840557589
 30
0.0
 40
64.0
  1
690
 50
0.0
 41
0.9
 51
0.0
  7
STANDARD
 71
     0
 72
     1
 11
0.0
 21
-813.30370840557589
 31
0.0
210
0.0
220
0.0
230
1.0
  0
POINT
  8
DEFPOINTS
  6
CONTINUOUS
 62
    30
 10
345.0
 20
-674.54386575858825
 30
0.0
  0
POINT
  8
DEFPOINTS
  6
CONTINUOUS
 62
    30
 10
-345.0
 20
-674.54386575858825
 30
0.0
  0
POINT
  8
DEFPOINTS
  6
CONTINUOUS
 62
    30
 10
-345.0
 20
-838.30370840557589
 30
0.0
  0
LINE
  8
SIZE
  6
CONTINUOUS
 62
    30
 10
522.5
 20
-575.00001249999605
 30
0.0
 11
522.5
 21
-1265.3013192777651
 31
0.0
  0
LINE
  8
SIZE
  6
CONTINUOUS
 62
    30
 10
-522.50000000000728
 20
-575.00001249999332
 30
0.0
 11
-522.50000000000728
 21
-1265.3013192777651
 31
0.0
  0
LINE
  8
SIZE
  6
CONTINUOUS
 62
    30
 10
510.5
 20
-1245.3013192777651
 30
0.0
 11
-510.50000000000728
 21
-1245.3013192777651
 31
0.0
  0
CIRCLE
  8
SIZE
  6
CONTINUOUS
 62
    30
 10
522.5
 20
-1245.3013192777651
 30
0.0
 40
6.0
  0
LINE
  8
SIZE
  6
CONTINUOUS
 62
    30
 10
522.5
 20
-1245.3013192777651
 30
0.0
 11
510.5
 21
-1245.3013192777651
 31
0.0
  0
CIRCLE
  8
SIZE
  6
CONTINUOUS
 62
    30
 10
-522.50000000000728
 20
-1245.3013192777651
 30
0.0
 40
6.0
  0
LINE
  8
SIZE
  6
CONTINUOUS
 62
    30
 10
-522.50000000000728
 20
-1245.3013192777651
 30
0.0
 11
-510.50000000000728
 21
-1245.3013192777651
 31
0.0
  0
TEXT
  8
SIZE
  6
CONTINUOUS
 62
    30
 10
-102.52800000000364
 20
-1220.3013192777651
 30
0.0
 40
64.0
  1
1045
 50
0.0
 41
0.9
 51
0.0
  7
STANDARD
 71
     0
 72
     1
 11
-0.000000000003638
 21
-1220.3013192777651
 31
0.0
210
0.0
220
0.0
230
1.0
  0
POINT
  8
DEFPOINTS
  6
CONTINUOUS
 62
    30
 10
522.5
 20
-555.00001249999605
 30
0.0
  0
POINT
  8
DEFPOINTS
  6
CONTINUOUS
 62
    30
 10
-522.50000000000728
 20
-555.00001249999332
 30
0.0
  0
POINT
  8
DEFPOINTS
  6
CONTINUOUS
 62
    30
 10
-522.50000000000728
 20
-1245.3013192777651
 30
0.0
  0
LINE
  8
SIZE
  6
CONTINUOUS
 62
    30
 10
592.50001249999536
 20
505.00000000000301
 30
0.0
 11
802.14945901795477
 21
505.00000000000301
 31
0.0
  0
LINE
  8
SIZE
  6
CONTINUOUS
 62
    30
 10
592.500012499999
 20
-504.99999999999568
 30
0.0
 11
802.149459017955
 21
-504.99999999999562
 31
0.0
  0
LINE
  8
SIZE
  6
CONTINUOUS
 62
    30
 10
782.14945901795477
 20
493.00000000000301
 30
0.0
 11
782.149459017955
 21
-492.99999999999562
 31
0.0
  0
CIRCLE
  8
SIZE
  6
CONTINUOUS
 62
    30
 10
782.14945901795477
 20
505.00000000000301
 30
0.0
 40
6.0
  0
LINE
  8
SIZE
  6
CONTINUOUS
 62
    30
 10
782.14945901795477
 20
505.00000000000301
 30
0.0
 11
782.14945901795477
 21
493.00000000000301
 31
0.0
  0
CIRCLE
  8
SIZE
  6
CONTINUOUS
 62
    30
 10
782.149459017955
 20
-504.99999999999562
 30
0.0
 40
6.0
  0
LINE
  8
SIZE
  6
CONTINUOUS
 62
    30
 10
782.149459017955
 20
-504.99999999999562
 30
0.0
 11
782.149459017955
 21
-492.99999999999562
 31
0.0
  0
TEXT
  8
SIZE
  6
CONTINUOUS
 62
    30
 10
757.14945901795465
 20
-96.767999999996547
 30
0.0
 40
64.0
  1
1010
 50
90.0
 41
0.9
 51
0.0
  7
STANDARD
 71
     0
 72
     1
 11
757.14945901795465
 21
0.0000000000034814
 31
0.0
210
0.0
220
0.0
230
1.0
  0
POINT
  8
DEFPOINTS
  6
CONTINUOUS
 62
    30
 10
572.50001249999536
 20
505.00000000000301
 30
0.0
  0
POINT
  8
DEFPOINTS
  6
CONTINUOUS
 62
    30
 10
572.500012499999
 20
-504.99999999999568
 30
0.0
  0
POINT
  8
DEFPOINTS
  6
CONTINUOUS
 62
    30
 10
782.149459017955
 20
-504.99999999999562
 30
0.0
  0
LINE
  8
SIZE
  6
CONTINUOUS
 62
    30
 10
-548.50000000000273
 20
-566.49999999998818
 30
0.0
 11
-548.50000000000273
 21
-1265.301319277756
 31
0.0
  0
LINE
  8
SIZE
  6
CONTINUOUS
 62
    30
 10
-522.50000000000728
 20
-575.00001249999332
 30
0.0
 11
-522.50000000000728
 21
-1265.301319277756
 31
0.0
  0
LINE
  8
SIZE
  6
CONTINUOUS
 62
    30
 10
-510.50000000000728
 20
-1245.301319277756
 30
0.0
 11
-498.50000000000728
 21
-1245.301319277756
 31
0.0
  0
LINE
  8
SIZE
  6
CONTINUOUS
 62
    30
 10
-560.50000000000273
 20
-1245.301319277756
 30
0.0
 11
-713.2142857142909
 21
-1245.301319277756
 31
0.0
  0
LINE
  8
SIZE
  6
CONTINUOUS
 62
    30
 10
-522.50000000000728
 20
-1245.301319277756
 30
0.0
 11
-548.50000000000273
 21
-1245.301319277756
 31
0.0
  0
CIRCLE
  8
SIZE
  6
CONTINUOUS
 62
    30
 10
-522.50000000000728
 20
-1245.301319277756
 30
0.0
 40
6.0
  0
LINE
  8
SIZE
  6
CONTINUOUS
 62
    30
 10
-522.50000000000728
 20
-1245.301319277756
 30
0.0
 11
-510.50000000000728
 21
-1245.301319277756
 31
0.0
  0
CIRCLE
  8
SIZE
  6
CONTINUOUS
 62
    30
 10
-548.50000000000273
 20
-1245.301319277756
 30
0.0
 40
6.0
  0
LINE
  8
SIZE
  6
CONTINUOUS
 62
    30
 10
-548.50000000000273
 20
-1245.301319277756
 30
0.0
 11
-560.50000000000273
 21
-1245.301319277756
 31
0.0
  0
TEXT
  8
SIZE
  6
CONTINUOUS
 62
    30
 10
-696.52514285714801
 20
-1220.301319277756
 30
0.0
 40
64.0
  1
26
 50
0.0
 41
0.9
 51
0.0
  7
STANDARD
 71
     0
 72
     1
 11
-642.95714285714803
 21
-1220.301319277756
 31
0.0
210
0.0
220
0.0
230
1.0
  0
POINT
  8
DEFPOINTS
  6
CONTINUOUS
 62
    30
 10
-548.50000000000273
 20
-546.49999999998818
 30
0.0
  0
POINT
  8
DEFPOINTS
  6
CONTINUOUS
 62
    30
 10
-522.50000000000728
 20
-555.00001249999332
 30
0.0
  0
POINT
  8
DEFPOINTS
  6
CONTINUOUS
 62
    30
 10
-522.50000000000728
 20
-1245.301319277756
 30
0.0
  0
LINE
  8
SIZE
  6
CONTINUOUS
 62
    30
 10
224.00000000000179
 20
-670.79999999998563
 30
0.0
 11
224.00000000000179
 21
-1004.345538959122
 31
0.0
  0
LINE
  8
SIZE
  6
CONTINUOUS
 62
    30
 10
466.00000000000182
 20
-670.79999999998563
 30
0.0
 11
466.00000000000182
 21
-1004.345538959122
 31
0.0
  0
LINE
  8
SIZE
  6
CONTINUOUS
 62
    30
 10
212.00000000000179
 20
-984.34553895912177
 30
0.0
 11
200.00000000000179
 21
-984.34553895912177
 31
0.0
  0
LINE
  8
SIZE
  6
CONTINUOUS
 62
    30
 10
478.00000000000182
 20
-984.34553895912177
 30
0.0
 11
490.00000000000182
 21
-984.34553895912177
 31
0.0
  0
LINE
  8
SIZE
  6
CONTINUOUS
 62
    30
 10
224.00000000000179
 20
-984.34553895912177
 30
0.0
 11
466.00000000000182
 21
-984.34553895912177
 31
0.0
  0
CIRCLE
  8
SIZE
  6
CONTINUOUS
 62
    30
 10
224.00000000000179
 20
-984.34553895912177
 30
0.0
 40
6.0
  0
LINE
  8
SIZE
  6
CONTINUOUS
 62
    30
 10
224.00000000000179
 20
-984.34553895912177
 30
0.0
 11
212.00000000000179
 21
-984.34553895912177
 31
0.0
  0
CIRCLE
  8
SIZE
  6
CONTINUOUS
 62
    30
 10
466.00000000000182
 20
-984.34553895912177
 30
0.0
 40
6.0
  0
LINE
  8
SIZE
  6
CONTINUOUS
 62
    30
 10
466.00000000000182
 20
-984.34553895912177
 30
0.0
 11
478.00000000000182
 21
-984.34553895912177
 31
0.0
  0
TEXT
  8
SIZE
  6
CONTINUOUS
 62
    30
 10
229.51200000000182
 20
-959.34553895912177
 30
0.0
 40
64.0
  1
φ242
 50
0.0
 41
0.9
 51
0.0
  7
STANDARD
 71
     0
 72
     1
 11
345.00000000000182
 21
-959.34553895912177
 31
0.0
210
0.0
220
0.0
230
1.0
  0
POINT
  8
DEFPOINTS
  6
CONTINUOUS
 62
    30
 10
224.00000000000179
 20
-650.79999999998563
 30
0.0
  0
POINT
  8
DEFPOINTS
  6
CONTINUOUS
 62
    30
 10
466.00000000000182
 20
-650.79999999998563
 30
0.0
  0
POINT
  8
DEFPOINTS
  6
CONTINUOUS
 62
    30
 10
466.00000000000182
 20
-984.34553895912177
 30
0.0
  0
LINE
  8
SIZE
  6
CONTINUOUS
 62
    30
 10
216.00000000000449
 20
-593.49999999998545
 30
0.0
 11
216.00000000000449
 21
-1131.4705812685279
 31
0.0
  0
LINE
  8
SIZE
  6
CONTINUOUS
 62
    30
 10
474.00000000117421
 20
-593.49999999998545
 30
0.0
 11
474.0000000011741
 21
-1131.4705812685279
 31
0.0
  0
LINE
  8
SIZE
  6
CONTINUOUS
 62
    30
 10
228.00000000000449
 20
-1111.4705812685279
 30
0.0
 11
462.0000000011741
 21
-1111.4705812685279
 31
0.0
  0
CIRCLE
  8
SIZE
  6
CONTINUOUS
 62
    30
 10
216.00000000000449
 20
-1111.4705812685279
 30
0.0
 40
6.0
  0
LINE
  8
SIZE
  6
CONTINUOUS
 62
    30
 10
216.00000000000449
 20
-1111.4705812685279
 30
0.0
 11
228.00000000000449
 21
-1111.4705812685279
 31
0.0
  0
CIRCLE
  8
SIZE
  6
CONTINUOUS
 62
    30
 10
474.0000000011741
 20
-1111.4705812685279
 30
0.0
 40
6.0
  0
LINE
  8
SIZE
  6
CONTINUOUS
 62
    30
 10
474.0000000011741
 20
-1111.4705812685279
 30
0.0
 11
462.0000000011741
 21
-1111.4705812685279
 31
0.0
  0
TEXT
  8
SIZE
  6
CONTINUOUS
 62
    30
 10
230.08800000058929
 20
-1086.4705812685279
 30
0.0
 40
64.0
  1
φ258
 50
0.0
 41
0.9
 51
0.0
  7
STANDARD
 71
     0
 72
     1
 11
345.0000000005893
 21
-1086.4705812685279
 31
0.0
210
0.0
220
0.0
230
1.0
  0
POINT
  8
DEFPOINTS
  6
CONTINUOUS
 62
    30
 10
216.00000000000449
 20
-573.49999999998545
 30
0.0
  0
POINT
  8
DEFPOINTS
  6
CONTINUOUS
 62
    30
 10
474.00000000117421
 20
-573.49999999998545
 30
0.0
  0
POINT
  8
DEFPOINTS
  6
CONTINUOUS
 62
    30
 10
474.0000000011741
 20
-1111.4705812685279
 30
0.0
  0
LINE
  8
SIZE
  6
CONTINUOUS
 62
    30
 10
-610.70000000000255
 20
-472.59999999999133
 30
0.0
 11
-610.70000000000255
 21
-1131.4705812685199
 31
0.0
  0
LINE
  8
SIZE
  6
CONTINUOUS
 62
    30
 10
-495.699999999998
 20
-584.99999999998545
 30
0.0
 11
-495.69999999999811
 21
-1131.4705812685199
 31
0.0
  0
LINE
  8
SIZE
  6
CONTINUOUS
 62
    30
 10
-507.69999999999811
 20
-1111.4705812685199
 30
0.0
 11
-598.70000000000255
 21
-1111.4705812685199
 31
0.0
  0
LINE
  8
SIZE
  6
CONTINUOUS
 62
    30
 10
-610.70000000000255
 20
-1111.4705812685199
 30
0.0
 11
-798.87142857143351
 21
-1111.4705812685199
 31
0.0
  0
CIRCLE
  8
SIZE
  6
CONTINUOUS
 62
    30
 10
-495.69999999999811
 20
-1111.4705812685199
 30
0.0
 40
6.0
  0
LINE
  8
SIZE
  6
CONTINUOUS
 62
    30
 10
-495.69999999999811
 20
-1111.4705812685199
 30
0.0
 11
-507.69999999999811
 21
-1111.4705812685199
 31
0.0
  0
CIRCLE
  8
SIZE
  6
CONTINUOUS
 62
    30
 10
-610.70000000000255
 20
-1111.4705812685199
 30
0.0
 40
6.0
  0
LINE
  8
SIZE
  6
CONTINUOUS
 62
    30
 10
-610.70000000000255
 20
-1111.4705812685199
 30
0.0
 11
-598.70000000000255
 21
-1111.4705812685199
 31
0.0
  0
TEXT
  8
SIZE
  6
CONTINUOUS
 62
    30
 10
-779.61771428571922
 20
-1086.4705812685199
 30
0.0
 40
64.0
  1
115
 50
0.0
 41
0.9
 51
0.0
  7
STANDARD
 71
     0
 72
     1
 11
-710.78571428571922
 21
-1086.4705812685199
 31
0.0
210
0.0
220
0.0
230
1.0
  0
POINT
  8
DEFPOINTS
  6
CONTINUOUS
 62
    30
 10
-610.70000000000255
 20
-452.59999999999133
 30
0.0
  0
POINT
  8
DEFPOINTS
  6
CONTINUOUS
 62
    30
 10
-495.699999999998
 20
-564.99999999998545
 30
0.0
  0
POINT
  8
DEFPOINTS
  6
CONTINUOUS
 62
    30
 10
-495.69999999999811
 20
-1111.4705812685199
 30
0.0
  0
LINE
  8
SIZE
  6
CONTINUOUS
 62
    30
 10
-502.0
 20
577.84708539201711
 30
0.0
 11
-501.99999999999989
 21
1058.1262011560009
 31
0.0
  0
LINE
  8
SIZE
  6
CONTINUOUS
 62
    30
 10
-1202.0000009657781
 20
591.80000000000291
 30
0.0
 11
-1202.0000009657781
 21
1058.1262011560009
 31
0.0
  0
LINE
  8
SIZE
  6
CONTINUOUS
 62
    30
 10
-514.0
 20
1038.1262011560009
 30
0.0
 11
-1190.0000009657781
 21
1038.1262011560009
 31
0.0
  0
CIRCLE
  8
SIZE
  6
CONTINUOUS
 62
    30
 10
-501.99999999999989
 20
1038.1262011560009
 30
0.0
 40
6.0
  0
LINE
  8
SIZE
  6
CONTINUOUS
 62
    30
 10
-501.99999999999989
 20
1038.1262011560009
 30
0.0
 11
-513.99999999999989
 21
1038.1262011560009
 31
0.0
  0
CIRCLE
  8
SIZE
  6
CONTINUOUS
 62
    30
 10
-1202.0000009657781
 20
1038.1262011560009
 30
0.0
 40
6.0
  0
LINE
  8
SIZE
  6
CONTINUOUS
 62
    30
 10
-1202.0000009657781
 20
1038.1262011560009
 30
0.0
 11
-1190.0000009657781
 21
1038.1262011560009
 31
0.0
  0
TEXT
  8
SIZE
  6
CONTINUOUS
 62
    30
 10
-1173.4080004828888
 20
1063.1262011560009
 30
0.0
 40
64.0
  1
more than 600
 50
0.0
 41
0.9
 51
0.0
  7
STANDARD
 71
     0
 72
     1
 11
-852.00000048288894
 21
1063.1262011560009
 31
0.0
210
0.0
220
0.0
230
1.0
  0
POINT
  8
DEFPOINTS
  6
CONTINUOUS
 62
    30
 10
-502.0
 20
557.84708539201711
 30
0.0
  0
POINT
  8
DEFPOINTS
  6
CONTINUOUS
 62
    30
 10
-1202.0000009657781
 20
571.80000000000291
 30
0.0
  0
POINT
  8
DEFPOINTS
  6
CONTINUOUS
 62
    30
 10
-1202.0000009657781
 20
1038.1262011560009
 30
0.0
  0
LINE
  8
SIZE
  6
CONTINUOUS
 62
    30
 10
-652.00000093002018
 20
245.09999997241539
 30
0.0
 11
-652.00000093002018
 21
921.54896217881014
 31
0.0
  0
LINE
  8
SIZE
  6
CONTINUOUS
 62
    30
 10
-502.0
 20
577.84708539201711
 30
0.0
 11
-502.0
 21
921.54896217881014
 31
0.0
  0
LINE
  8
SIZE
  6
CONTINUOUS
 62
    30
 10
-514.0
 20
901.54896217881014
 30
0.0
 11
-640.00000093002018
 21
901.54896217881014
 31
0.0
  0
LINE
  8
SIZE
  6
CONTINUOUS
 62
    30
 10
-652.00000093002018
 20
901.54896217881014
 30
0.0
 11
-1175.3485723585929
 21
901.54896217881014
 31
0.0
  0
CIRCLE
  8
SIZE
  6
CONTINUOUS
 62
    30
 10
-502.0
 20
901.54896217881014
 30
0.0
 40
6.0
  0
LINE
  8
SIZE
  6
CONTINUOUS
 62
    30
 10
-502.0
 20
901.54896217881014
 30
0.0
 11
-514.0
 21
901.54896217881014
 31
0.0
  0
CIRCLE
  8
SIZE
  6
CONTINUOUS
 62
    30
 10
-652.00000093002018
 20
901.54896217881014
 30
0.0
 40
6.0
  0
LINE
  8
SIZE
  6
CONTINUOUS
 62
    30
 10
-652.00000093002018
 20
901.54896217881014
 30
0.0
 11
-640.00000093002018
 21
901.54896217881014
 31
0.0
  0
TEXT
  8
SIZE
  6
CONTINUOUS
 62
    30
 10
-1155.5462866443074
 20
926.54896217881014
 30
0.0
 40
64.0
  1
150 to 250
 50
0.0
 41
0.9
 51
0.0
  7
STANDARD
 71
     0
 72
     1
 11
-919.67428664430747
 21
926.54896217881014
 31
0.0
210
0.0
220
0.0
230
1.0
  0
POINT
  8
DEFPOINTS
  6
CONTINUOUS
 62
    30
 10
-652.00000093002018
 20
225.09999997241539
 30
0.0
  0
POINT
  8
DEFPOINTS
  6
CONTINUOUS
 62
    30
 10
-502.0
 20
557.84708539201711
 30
0.0
  0
POINT
  8
DEFPOINTS
  6
CONTINUOUS
 62
    30
 10
-502.0
 20
901.54896217881014
 30
0.0
  0
POINT
  8
ARRANGE
  6
CONTINUOUS
 62
     1
 10
0.0
 20
0.0
 30
0.0
 50
270.0
  0
CIRCLE
  8
ARRANGE
  6
CONTINUOUS
 62
     1
 10
0.0
 20
0.0
 30
0.0
 40
40.0
  0
CIRCLE
  8
FIX
  6
CONTINUOUS
 62
    11
 10
-522.50000000000728
 20
-504.99999999999272
 30
0.0
 40
7.5
  0
CIRCLE
  8
FIX
  6
CONTINUOUS
 62
    11
 10
-522.50000000000728
 20
505.00000000000267
 30
0.0
 40
7.5
  0
CIRCLE
  8
FIX
  6
CONTINUOUS
 62
    11
 10
522.49999999999727
 20
505.00000000000267
 30
0.0
 40
7.5
  0
CIRCLE
  8
FIX
  6
CONTINUOUS
 62
    11
 10
522.5
 20
-504.99999999999551
 30
0.0
 40
7.5
  0
LINE
  8
SERVICESPACE
  6
DASHDOT
 62
     2
 10
-1102.00000093002
 20
-224.90000002758461
 30
0.0
 11
-1102.00000093002
 21
225.09999997241539
 31
0.0
  0
LINE
  8
SERVICESPACE
  6
DASHDOT
 62
     2
 10
-1102.00000093002
 20
225.09999997241539
 30
0.0
 11
-652.00000093002018
 21
225.09999997241539
 31
0.0
  0
LINE
  8
SERVICESPACE
  6
DASHDOT
 62
     2
 10
-652.00000093002018
 20
225.09999997241539
 30
0.0
 11
-652.00000093002018
 21
-224.90000002758461
 31
0.0
  0
LINE
  8
SERVICESPACE
  6
DASHDOT
 62
     2
 10
-652.00000093002018
 20
-224.90000002758461
 30
0.0
 11
-1102.00000093002
 21
-224.90000002758461
 31
0.0
  0
TEXT
  8
NOTE
  6
CONTINUOUS
 62
     4
 10
-1095.0160009300257
 20
126.49999997241537
 30
0.0
 40
64.0
  1
Inspection
 50
0.0
 41
0.9
 51
0.0
  7
STANDARD
 71
     0
 72
     1
 11
-877.00000093002564
 21
126.49999997241537
 31
0.0
210
0.0
220
0.0
230
1.0
  0
TEXT
  8
NOTE
  6
CONTINUOUS
 62
     4
 10
-1042.6000009300255
 20
20.899999972415372
 30
0.0
 40
64.0
  1
opening
 50
0.0
 41
0.9
 51
0.0
  7
STANDARD
 71
     0
 72
     1
 11
-877.00000093002552
 21
20.899999972415372
 31
0.0
210
0.0
220
0.0
230
1.0
  0
TEXT
  8
NOTE
  6
CONTINUOUS
 62
     4
 10
-1067.3680009300256
 20
-84.700000027584622
 30
0.0
 40
64.0
  1
450X450
 50
0.0
 41
0.9
 51
0.0
  7
STANDARD
 71
     0
 72
     1
 11
-877.00000093002552
 21
-84.700000027584622
 31
0.0
210
0.0
220
0.0
230
1.0
  0
TEXT
  8
NOTE
  6
CONTINUOUS
 62
     4
 10
-1046.3440009300257
 20
-190.30000002758462
 30
0.0
 40
64.0
  1
or more
 50
0.0
 41
0.9
 51
0.0
  7
STANDARD
 71
     0
 72
     1
 11
-877.00000093002564
 21
-190.30000002758462
 31
0.0
210
0.0
220
0.0
230
1.0
  0
LINE
  8
OUTLINE
  6
CONTINUOUS
 62
     3
 10
502.099999999994
 20
-463.50000000000267
 30
0.0
 11
548.49999999999636
 21
-463.50000000000267
 31
0.0
  0
LINE
  8
OUTLINE
  6
CONTINUOUS
 62
     3
 10
548.49999999999636
 20
-463.50000000000267
 30
0.0
 11
548.49999999999636
 21
-466.69999999998532
 31
0.0
  0
LINE
  8
OUTLINE
  6
CONTINUOUS
 62
     3
 10
548.49999999999636
 20
-466.69999999998532
 30
0.0
 11
543.20370116691447
 21
-466.69999999998532
 31
0.0
  0
ARC
  8
OUTLINE
  6
CONTINUOUS
 62
     3
 10
540.49999999998795
 20
-467.99999999998943
 30
0.0
 40
3.0000000000083773
 50
0.0
 51
25.679288619466547
  0
LINE
  8
OUTLINE
  6
CONTINUOUS
 62
     3
 10
543.49999999999636
 20
-467.99999999998818
 30
0.0
 11
543.49999999999636
 21
-541.99999999998818
 31
0.0
  0
LINE
  8
OUTLINE
  6
CONTINUOUS
 62
     3
 10
543.49999999999636
 20
-541.99999999998818
 30
0.0
 11
543.20370116691447
 21
-543.29999999999109
 31
0.0
  0
LINE
  8
OUTLINE
  6
CONTINUOUS
 62
     3
 10
543.20370116691447
 20
-543.29999999999109
 30
0.0
 11
548.49999999999636
 21
-543.29999999999109
 31
0.0
  0
LINE
  8
OUTLINE
  6
CONTINUOUS
 62
     3
 10
548.49999999999636
 20
-543.29999999999109
 30
0.0
 11
548.49999999999636
 21
-546.49999999998818
 31
0.0
  0
LINE
  8
OUTLINE
  6
CONTINUOUS
 62
     3
 10
548.49999999999636
 20
-546.49999999998818
 30
0.0
 11
502.099999999994
 21
-546.49999999998818
 31
0.0
  0
LINE
  8
OUTLINE
  6
CONTINUOUS
 62
     3
 10
502.099999999994
 20
-546.49999999998818
 30
0.0
 11
502.0
 21
-557.84708539199164
 31
0.0
  0
LINE
  8
OUTLINE
  6
CONTINUOUS
 62
     3
 10
502.0
 20
-557.84708539199164
 30
0.0
 11
497.20000000000158
 21
-562.64708539198909
 31
0.0
  0
LINE
  8
OUTLINE
  6
CONTINUOUS
 62
     3
 10
497.20000000000158
 20
-562.64708539198909
 30
0.0
 11
495.70000000000249
 21
-562.64708539198909
 31
0.0
  0
LINE
  8
OUTLINE
  6
CONTINUOUS
 62
     3
 10
495.70000000000249
 20
-562.64708539198909
 30
0.0
 11
495.70000000000249
 21
-564.49999999998545
 31
0.0
  0
ARC
  8
OUTLINE
  6
CONTINUOUS
 62
     3
 10
494.70000000000152
 20
-564.49999999998454
 30
0.0
 40
1.0000000000009508
 50
270.0
 51
0.0
  0
LINE
  8
OUTLINE
  6
CONTINUOUS
 62
     3
 10
494.70000000000158
 20
-565.49999999998545
 30
0.0
 11
492.84708539199983
 21
-565.49999999998545
 31
0.0
  0
LINE
  8
OUTLINE
  6
CONTINUOUS
 62
     3
 10
492.84708539199983
 20
-565.49999999998545
 30
0.0
 11
492.84708539199983
 21
-566.99999999998545
 31
0.0
  0
LINE
  8
OUTLINE
  6
CONTINUOUS
 62
     3
 10
492.84708539199983
 20
-566.99999999998545
 30
0.0
 11
488.04708539199783
 21
-571.79999999998836
 31
0.0
  0
LINE
  8
OUTLINE
  6
CONTINUOUS
 62
     3
 10
488.04708539199783
 20
-571.79999999998836
 30
0.0
 11
473.99999999999733
 21
-571.79999999998836
 31
0.0
  0
LINE
  8
OUTLINE
  6
CONTINUOUS
 62
     3
 10
473.99999999999733
 20
-571.79999999998836
 30
0.0
 11
473.99999999860762
 21
-573.49999999999454
 31
0.0
  0
LINE
  8
OUTLINE
  6
CONTINUOUS
 62
     3
 10
473.99999999860762
 20
-573.49999999999454
 30
0.0
 11
466.00000000000182
 21
-642.79999999998563
 31
0.0
  0
LINE
  8
OUTLINE
  6
CONTINUOUS
 62
     3
 10
466.00000000000182
 20
-642.79999999998563
 30
0.0
 11
465.99983178000281
 21
-650.79999999998563
 31
0.0
  0
LINE
  8
OUTLINE
  6
CONTINUOUS
 62
     3
 10
465.99983178000281
 20
-650.79999999998563
 30
0.0
 11
224.00000000000179
 21
-650.79999999998563
 31
0.0
  0
LINE
  8
OUTLINE
  6
CONTINUOUS
 62
     3
 10
224.00000000000179
 20
-650.79999999998563
 30
0.0
 11
224.00000000000179
 21
-642.79999999998563
 31
0.0
  0
LINE
  8
OUTLINE
  6
CONTINUOUS
 62
     3
 10
224.00000000000179
 20
-642.79999999998563
 30
0.0
 11
216.00000000000449
 21
-573.49999999998545
 31
0.0
  0
LINE
  8
OUTLINE
  6
CONTINUOUS
 62
     3
 10
216.00000000000449
 20
-573.49999999998545
 30
0.0
 11
216.00000000000449
 21
-571.79999999998836
 31
0.0
  0
LINE
  8
OUTLINE
  6
CONTINUOUS
 62
     3
 10
216.00000000000449
 20
-571.79999999998836
 30
0.0
 11
-215.9999999999973
 21
-571.79999999998836
 31
0.0
  0
LINE
  8
OUTLINE
  6
CONTINUOUS
 62
     3
 10
-215.9999999999973
 20
-571.79999999998836
 30
0.0
 11
-215.9999999999973
 21
-573.29999999998836
 31
0.0
  0
LINE
  8
OUTLINE
  6
CONTINUOUS
 62
     3
 10
-215.9999999999973
 20
-573.29999999998836
 30
0.0
 11
-223.9999999999973
 21
-642.79999999998563
 31
0.0
  0
LINE
  8
OUTLINE
  6
CONTINUOUS
 62
     3
 10
-223.9999999999973
 20
-642.79999999998563
 30
0.0
 11
-223.9999999999973
 21
-650.79999999998563
 31
0.0
  0
LINE
  8
OUTLINE
  6
CONTINUOUS
 62
     3
 10
-223.9999999999973
 20
-650.79999999998563
 30
0.0
 11
-465.99983178000281
 21
-650.79999999998563
 31
0.0
  0
LINE
  8
OUTLINE
  6
CONTINUOUS
 62
     3
 10
-465.99983178000281
 20
-650.79999999998563
 30
0.0
 11
-465.99983178000281
 21
-642.79999999998563
 31
0.0
  0
LINE
  8
OUTLINE
  6
CONTINUOUS
 62
     3
 10
-465.99983178000281
 20
-642.79999999998563
 30
0.0
 11
-474.02318840626782
 21
-573.29999999998836
 31
0.0
  0
LINE
  8
OUTLINE
  6
CONTINUOUS
 62
     3
 10
-474.02318840626782
 20
-573.29999999998836
 30
0.0
 11
-474.02318840626782
 21
-571.79999999998745
 31
0.0
  0
LINE
  8
OUTLINE
  6
CONTINUOUS
 62
     3
 10
-474.02318840626782
 20
-571.79999999998745
 30
0.0
 11
-488.04708539199783
 21
-571.79999999998745
 31
0.0
  0
LINE
  8
OUTLINE
  6
CONTINUOUS
 62
     3
 10
-488.04708539199783
 20
-571.79999999998745
 30
0.0
 11
-489.34708539199261
 21
-570.49999999998545
 31
0.0
  0
LINE
  8
OUTLINE
  6
CONTINUOUS
 62
     3
 10
-489.34708539199261
 20
-570.49999999998545
 30
0.0
 11
-491.199999999998
 21
-570.49999999998545
 31
0.0
  0
LINE
  8
OUTLINE
  6
CONTINUOUS
 62
     3
 10
-491.199999999998
 20
-570.49999999998545
 30
0.0
 11
-494.199999999998
 21
-567.49999999998545
 31
0.0
  0
LINE
  8
OUTLINE
  6
CONTINUOUS
 62
     3
 10
-494.199999999998
 20
-567.49999999998545
 30
0.0
 11
-494.199999999998
 21
-565.99999999998545
 31
0.0
  0
LINE
  8
OUTLINE
  6
CONTINUOUS
 62
     3
 10
-494.199999999998
 20
-565.99999999998545
 30
0.0
 11
-494.699999999998
 21
-565.99999999998545
 31
0.0
  0
ARC
  8
OUTLINE
  6
CONTINUOUS
 62
     3
 10
-494.699999999998
 20
-564.99999999998545
 30
0.0
 40
0.9999999999999804
 50
180.0
 51
270.0
  0
LINE
  8
OUTLINE
  6
CONTINUOUS
 62
     3
 10
-495.699999999998
 20
-564.99999999998545
 30
0.0
 11
-495.699999999998
 21
-563.99999999998545
 31
0.0
  0
LINE
  8
OUTLINE
  6
CONTINUOUS
 62
     3
 10
-495.699999999998
 20
-563.99999999998545
 30
0.0
 11
-497.70000000000528
 21
-563.99999999998545
 31
0.0
  0
LINE
  8
OUTLINE
  6
CONTINUOUS
 62
     3
 10
-497.70000000000528
 20
-563.99999999998545
 30
0.0
 11
-500.699999999998
 21
-560.99999999998545
 31
0.0
  0
LINE
  8
OUTLINE
  6
CONTINUOUS
 62
     3
 10
-500.699999999998
 20
-560.99999999998545
 30
0.0
 11
-500.699999999998
 21
-559.14708539198909
 31
0.0
  0
LINE
  8
OUTLINE
  6
CONTINUOUS
 62
     3
 10
-500.699999999998
 20
-559.14708539198909
 30
0.0
 11
-502.0
 21
-557.847085391988
 31
0.0
  0
LINE
  8
OUTLINE
  6
CONTINUOUS
 62
     3
 10
-502.0
 20
-557.847085391988
 30
0.0
 11
-502.19999999999982
 21
-546.49999999998818
 31
0.0
  0
LINE
  8
OUTLINE
  6
CONTINUOUS
 62
     3
 10
-502.19999999999982
 20
-546.49999999998818
 30
0.0
 11
-548.50000000000273
 21
-546.49999999998818
 31
0.0
  0
LINE
  8
OUTLINE
  6
CONTINUOUS
 62
     3
 10
-548.50000000000273
 20
-546.49999999998818
 30
0.0
 11
-548.50000000000273
 21
-543.29999999999109
 31
0.0
  0
LINE
  8
OUTLINE
  6
CONTINUOUS
 62
     3
 10
-548.50000000000273
 20
-543.29999999999109
 30
0.0
 11
-543.20309975642976
 21
-543.30125005543709
 31
0.0
  0
LINE
  8
OUTLINE
  6
CONTINUOUS
 62
     3
 10
-543.20309975642976
 20
-543.30125005543709
 30
0.0
 11
-543.50000000000273
 21
-467.99999999998818
 31
0.0
  0
ARC
  8
OUTLINE
  6
CONTINUOUS
 62
     3
 10
-540.57177782453948
 20
-467.99172251533076
 30
0.0
 40
2.928233874817213
 50
153.82420080241207
 51
180.16196300833542
  0
LINE
  8
OUTLINE
  6
CONTINUOUS
 62
     3
 10
-543.19970601400291
 20
-466.69999999998532
 30
0.0
 11
-548.50000000000273
 21
-466.69999999998532
 31
0.0
  0
LINE
  8
OUTLINE
  6
CONTINUOUS
 62
     3
 10
-548.50000000000273
 20
-466.69999999998532
 30
0.0
 11
-548.50000000000273
 21
-463.50000000000267
 31
0.0
  0
LINE
  8
OUTLINE
  6
CONTINUOUS
 62
     3
 10
-548.50000000000273
 20
-463.50000000000267
 30
0.0
 11
-502.19999999999982
 21
-463.49999999999687
 31
0.0
  0
LINE
  8
OUTLINE
  6
CONTINUOUS
 62
     3
 10
-502.19999999999982
 20
-463.49999999999687
 30
0.0
 11
-502.00000000002092
 21
-452.69999999999709
 31
0.0
  0
LINE
  8
OUTLINE
  6
CONTINUOUS
 62
     3
 10
-502.00000000002092
 20
-452.69999999999709
 30
0.0
 11
-547.09000000000833
 21
-452.70010001002129
 31
0.0
  0
ARC
  8
OUTLINE
  6
CONTINUOUS
 62
     3
 10
-547.09000000000833
 20
-453.20010001002129
 30
0.0
 40
0.4999999999999902
 50
0.0
 51
90.0
  0
LINE
  8
OUTLINE
  6
CONTINUOUS
 62
     3
 10
-546.59000000000833
 20
-453.20010001002129
 30
0.0
 11
-546.59000000000833
 21
-453.32459981003058
 31
0.0
  0
ARC
  8
OUTLINE
  6
CONTINUOUS
 62
     3
 10
-547.09000000000867
 20
-453.32459980987073
 30
0.0
 40
0.5000000000002953
 50
231.3178125642097
 51
0.0
  0
ARC
  8
OUTLINE
  6
CONTINUOUS
 62
     3
 10
-546.59000000001038
 20
-452.70010001003368
 30
0.0
 40
1.2999999999970662
 50
209.40091418818997
 51
231.31781255329986
  0
LINE
  8
OUTLINE
  6
CONTINUOUS
 62
     3
 10
-547.72256777186067
 20
-453.33829296060458
 30
0.0
 11
-552.900000000006
 21
-456.24943100200062
 31
0.0
  0
LINE
  8
OUTLINE
  6
CONTINUOUS
 62
     3
 10
-552.900000000006
 20
-456.24943100200062
 30
0.0
 11
-552.900000000006
 21
-459.84943100199553
 31
0.0
  0
LINE
  8
OUTLINE
  6
CONTINUOUS
 62
     3
 10
-552.900000000006
 20
-459.84943100199553
 30
0.0
 11
-550.90000000000236
 21
-459.84943100199553
 31
0.0
  0
LINE
  8
OUTLINE
  6
CONTINUOUS
 62
     3
 10
-550.90000000000236
 20
-459.84943100199553
 30
0.0
 11
-550.90000000000236
 21
-463.69943100199771
 31
0.0
  0
LINE
  8
OUTLINE
  6
CONTINUOUS
 62
     3
 10
-550.90000000000236
 20
-463.69943100199771
 30
0.0
 11
-552.60000000000309
 21
-463.69943100199771
 31
0.0
  0
LINE
  8
OUTLINE
  6
CONTINUOUS
 62
     3
 10
-552.60000000000309
 20
-463.69943100199771
 30
0.0
 11
-552.60000000000309
 21
-481.29943100200029
 31
0.0
  0
LINE
  8
OUTLINE
  6
CONTINUOUS
 62
     3
 10
-552.60000000000309
 20
-481.29943100200029
 30
0.0
 11
-560.60000000000309
 21
-481.29943100200029
 31
0.0
  0
LINE
  8
OUTLINE
  6
CONTINUOUS
 62
     3
 10
-560.60000000000309
 20
-481.29943100200029
 30
0.0
 11
-560.60000000000309
 21
-463.69943100199771
 31
0.0
  0
LINE
  8
OUTLINE
  6
CONTINUOUS
 62
     3
 10
-560.60000000000309
 20
-463.69943100199771
 30
0.0
 11
-562.30000000000018
 21
-463.69943100199771
 31
0.0
  0
LINE
  8
OUTLINE
  6
CONTINUOUS
 62
     3
 10
-562.30000000000018
 20
-463.69943100199771
 30
0.0
 11
-562.30000000000018
 21
-460.09943100199553
 31
0.0
  0
LINE
  8
OUTLINE
  6
CONTINUOUS
 62
     3
 10
-562.30000000000018
 20
-460.09943100199553
 30
0.0
 11
-560.30000000000746
 21
-460.09943100199553
 31
0.0
  0
LINE
  8
OUTLINE
  6
CONTINUOUS
 62
     3
 10
-560.30000000000746
 20
-460.09943100199553
 30
0.0
 11
-560.30000000000746
 21
-455.79943100199671
 31
0.0
  0
LINE
  8
OUTLINE
  6
CONTINUOUS
 62
     3
 10
-560.30000000000746
 20
-455.79943100199671
 30
0.0
 11
-565.43356526978005
 21
-453.27339094909212
 31
0.0
  0
ARC
  8
OUTLINE
  6
CONTINUOUS
 62
     3
 10
-566.60000000002424
 20
-452.69943100268506
 30
0.0
 40
1.2999999999997596
 50
308.68274796754326
 51
333.79988516739365
  0
ARC
  8
OUTLINE
  6
CONTINUOUS
 62
     3
 10
-566.10000000000798
 20
-453.32393080263836
 30
0.0
 40
0.5000000000005866
 50
180.0
 51
308.68364479670117
  0
LINE
  8
OUTLINE
  6
CONTINUOUS
 62
     3
 10
-566.60000000000855
 20
-453.32393080263859
 30
0.0
 11
-566.60000000000855
 21
-453.19943100263839
 31
0.0
  0
ARC
  8
OUTLINE
  6
CONTINUOUS
 62
     3
 10
-566.10000000000878
 20
-453.19943100263816
 30
0.0
 40
0.4999999999997962
 50
90.0
 51
180.0
  0
LINE
  8
OUTLINE
  6
CONTINUOUS
 62
     3
 10
-566.10000000000855
 20
-452.69943100263839
 30
0.0
 11
-568.60000000000309
 21
-452.69999999999709
 31
0.0
  0
ARC
  8
OUTLINE
  6
CONTINUOUS
 62
     3
 10
-571.60000000000298
 20
-452.69999999999715
 30
0.0
 40
2.9999999999999418
 50
270.0
 51
0.0
  0
LINE
  8
OUTLINE
  6
CONTINUOUS
 62
     3
 10
-571.60000000000309
 20
-455.69999999999709
 30
0.0
 11
-591.60000000000309
 21
-455.69999999999709
 31
0.0
  0
ARC
  8
OUTLINE
  6
CONTINUOUS
 62
     3
 10
-591.60088299493862
 20
-452.71753632550968
 30
0.0
 40
2.9824638051981336
 50
233.01794915866344
 51
270.01696311746946
  0
LINE
  8
OUTLINE
  6
CONTINUOUS
 62
     3
 10
-593.39502824800275
 20
-455.09999999999133
 30
0.0
 11
-596.00000000000273
 21
-455.09999999999133
 31
0.0
  0
ARC
  8
OUTLINE
  6
CONTINUOUS
 62
     3
 10
-596.00000000000296
 20
-452.0999999999915
 30
0.0
 40
2.9999999999998455
 50
191.56969019383541
 51
270.0
  0
LINE
  8
OUTLINE
  6
CONTINUOUS
 62
     3
 10
-598.9390444518167
 20
-452.70167907579679
 30
0.0
 11
-609.50000000000546
 21
-452.69999999999709
 31
0.0
  0
ARC
  8
OUTLINE
  6
CONTINUOUS
 62
     3
 10
-609.49999999998602
 20
-451.49999999997789
 30
0.0
 40
1.200000000019229
 50
180.0
 51
270.0
  0
LINE
  8
OUTLINE
  6
CONTINUOUS
 62
     3
 10
-610.70000000000528
 20
-451.49999999998539
 30
0.0
 11
-610.70000000000255
 21
-452.59999999999133
 31
0.0
  0
ARC
  8
OUTLINE
  6
CONTINUOUS
 62
     3
 10
-610.10000000001764
 20
-452.59999999999764
 30
0.0
 40
0.59999999998487
 50
180.0
 51
270.0
  0
LINE
  8
OUTLINE
  6
CONTINUOUS
 62
     3
 10
-610.10000000000309
 20
-453.19999999998248
 30
0.0
 11
-601.60000000000309
 21
-453.19999999998248
 31
0.0
  0
LINE
  8
OUTLINE
  6
CONTINUOUS
 62
     3
 10
-601.60000000000309
 20
-453.19999999998248
 30
0.0
 11
-601.60000000000309
 21
-453.79999999998842
 31
0.0
  0
LINE
  8
OUTLINE
  6
CONTINUOUS
 62
     3
 10
-601.60000000000309
 20
-453.79999999998842
 30
0.0
 11
-610.10000000000309
 21
-453.79999999999131
 31
0.0
  0
ARC
  8
OUTLINE
  6
CONTINUOUS
 62
     3
 10
-610.10000000000582
 20
-452.59999999999695
 30
0.0
 40
1.1999999999943873
 50
180.0
 51
270.0
  0
LINE
  8
OUTLINE
  6
CONTINUOUS
 62
     3
 10
-611.30000000000018
 20
-452.59999999999133
 30
0.0
 11
-611.30000000000018
 21
-273.19999999999709
 31
0.0
  0
LINE
  8
OUTLINE
  6
CONTINUOUS
 62
     3
 10
-611.30000000000018
 20
-273.19999999999709
 30
0.0
 11
-610.70000000000255
 21
-273.19999999999709
 31
0.0
  0
LINE
  8
OUTLINE
  6
CONTINUOUS
 62
     3
 10
-610.70000000000255
 20
-273.19999999999709
 30
0.0
 11
-610.70000000000255
 21
-261.89999999999418
 31
0.0
  0
ARC
  8
OUTLINE
  6
CONTINUOUS
 62
     3
 10
-609.50000000000239
 20
-261.89999999999452
 30
0.0
 40
1.2000000000001125
 50
90.0
 51
180.0
  0
LINE
  8
OUTLINE
  6
CONTINUOUS
 62
     3
 10
-609.50000000000182
 20
-260.69999999999442
 30
0.0
 11
-502.00000000000267
 21
-260.69999999999709
 31
0.0
  0
LINE
  8
OUTLINE
  6
CONTINUOUS
 62
     3
 10
-502.00000000000267
 20
-260.69999999999709
 30
0.0
 11
-502.0
 21
-227.29999999998839
 31
0.0
  0
LINE
  8
OUTLINE
  6
CONTINUOUS
 62
     3
 10
-502.0
 20
-227.29999999998839
 30
0.0
 11
-513.69999999999709
 21
-227.2999999999943
 31
0.0
  0
ARC
  8
OUTLINE
  6
CONTINUOUS
 62
     3
 10
-513.69999999997924
 20
-224.89999999997741
 30
0.0
 40
2.4000000000168962
 50
157.96421970741653
 51
270.0
  0
LINE
  8
OUTLINE
  6
CONTINUOUS
 62
     3
 10
-515.92467937119272
 20
-223.9995547238066
 30
0.0
 11
-530.09999999999945
 21
-223.99999999998539
 31
0.0
  0
ARC
  8
OUTLINE
  6
CONTINUOUS
 62
     3
 10
-530.09999999999945
 20
-223.3999999999869
 30
0.0
 40
0.5999999999985022
 50
90.0
 51
270.0
  0
LINE
  8
OUTLINE
  6
CONTINUOUS
 62
     3
 10
-530.09999999999945
 20
-222.79999999998839
 30
0.0
 11
-514.98032203599723
 21
-222.79999999998839
 31
0.0
  0
LINE
  8
OUTLINE
  6
CONTINUOUS
 62
     3
 10
-514.98032203599723
 20
-222.79999999998839
 30
0.0
 11
-510.97920730600072
 21
-218.93616841999761
 31
0.0
  0
LINE
  8
OUTLINE
  6
CONTINUOUS
 62
     3
 10
-510.97920730600072
 20
-218.93616841999761
 30
0.0
 11
-510.20000000000528
 21
-219.74306120598339
 31
0.0
  0
LINE
  8
OUTLINE
  6
CONTINUOUS
 62
     3
 10
-510.20000000000528
 20
-219.74306120598339
 30
0.0
 11
-510.20000000000528
 21
221.80000000001749
 31
0.0
  0
LINE
  8
OUTLINE
  6
CONTINUOUS
 62
     3
 10
-510.20000000000528
 20
221.80000000001749
 30
0.0
 11
-516.20000000000073
 21
221.79999999999879
 31
0.0
  0
ARC
  8
OUTLINE
  6
CONTINUOUS
 62
     3
 10
-516.20000000000766
 20
220.80000000000933
 30
0.0
 40
0.9999999999894517
 50
90.0
 51
180.0
  0
LINE
  8
OUTLINE
  6
CONTINUOUS
 62
     3
 10
-517.19999999999709
 20
220.7999999999993
 30
0.0
 11
-517.19999999999709
 21
220.30000000000109
 31
0.0
  0
LINE
  8
OUTLINE
  6
CONTINUOUS
 62
     3
 10
-517.19999999999709
 20
220.30000000000109
 30
0.0
 11
-518.30000000000291
 21
220.2999999999993
 31
0.0
  0
LINE
  8
OUTLINE
  6
CONTINUOUS
 62
     3
 10
-518.30000000000291
 20
220.2999999999993
 30
0.0
 11
-518.30000000000291
 21
216.80000000000291
 31
0.0
  0
LINE
  8
OUTLINE
  6
CONTINUOUS
 62
     3
 10
-518.30000000000291
 20
216.80000000000291
 30
0.0
 11
-521.29999999999927
 21
216.80000000000291
 31
0.0
  0
LINE
  8
OUTLINE
  6
CONTINUOUS
 62
     3
 10
-521.29999999999927
 20
216.80000000000291
 30
0.0
 11
-521.29999999999927
 21
220.2999999999993
 31
0.0
  0
LINE
  8
OUTLINE
  6
CONTINUOUS
 62
     3
 10
-521.29999999999927
 20
220.2999999999993
 30
0.0
 11
-522.39999999999964
 21
220.30000000000109
 31
0.0
  0
LINE
  8
OUTLINE
  6
CONTINUOUS
 62
     3
 10
-522.39999999999964
 20
220.30000000000109
 30
0.0
 11
-522.39999999999964
 21
220.80000000000109
 31
0.0
  0
ARC
  8
OUTLINE
  6
CONTINUOUS
 62
     3
 10
-523.39999999999429
 20
220.8000000000041
 30
0.0
 40
0.9999999999946921
 50
0.0
 51
90.0
  0
LINE
  8
OUTLINE
  6
CONTINUOUS
 62
     3
 10
-523.40000000000146
 20
221.79999999999879
 30
0.0
 11
-530.29662449600528
 21
221.80000000001749
 31
0.0
  0
LINE
  8
OUTLINE
  6
CONTINUOUS
 62
     3
 10
-530.29662449600528
 20
221.80000000001749
 30
0.0
 11
-522.45809641169944
 21
210.60542174214379
 31
0.0
  0
ARC
  8
OUTLINE
  6
CONTINUOUS
 62
     3
 10
-525.57087417659193
 20
208.42583128524939
 30
0.0
 40
3.7999999964991944
 50
334.99999996503971
 51
35.000000014143325
  0
LINE
  8
OUTLINE
  6
CONTINUOUS
 62
     3
 10
-522.12690459000532
 20
206.81988189001279
 30
0.0
 11
-531.30028585625769
 21
187.14750228008779
 31
0.0
  0
ARC
  8
OUTLINE
  6
CONTINUOUS
 62
     3
 10
-532.29722435946985
 20
187.61238250241979
 30
0.0
 40
1.1000000001373935
 50
155.00000772348733
 51
334.99999227814783
  0
LINE
  8
OUTLINE
  6
CONTINUOUS
 62
     3
 10
-533.29416298800061
 20
188.077262456005
 30
0.0
 11
-524.12078172199745
 21
207.74964206601729
 31
0.0
  0
ARC
  8
OUTLINE
  6
CONTINUOUS
 62
     3
 10
-525.57087417161983
 20
208.42583128542606
 30
0.0
 40
1.5999999915301211
 50
334.99999983392559
 51
35.000000143718523
  0
LINE
  8
OUTLINE
  6
CONTINUOUS
 62
     3
 10
-524.26023090999752
 20
209.34355358201719
 30
0.0
 11
-526.68046074800077
 21
212.80000000001749
 31
0.0
  0
LINE
  8
OUTLINE
  6
CONTINUOUS
 62
     3
 10
-526.68046074800077
 20
212.80000000001749
 30
0.0
 11
-527.84708539197891
 21
212.80000000001061
 31
0.0
  0
LINE
  8
OUTLINE
  6
CONTINUOUS
 62
     3
 10
-527.84708539197891
 20
212.80000000001061
 30
0.0
 11
-531.79999999999563
 21
212.80000000001749
 31
0.0
  0
LINE
  8
OUTLINE
  6
CONTINUOUS
 62
     3
 10
-531.79999999999563
 20
212.80000000001749
 30
0.0
 11
-531.799999999992
 21
211.70000000002031
 31
0.0
  0
LINE
  8
OUTLINE
  6
CONTINUOUS
 62
     3
 10
-531.799999999992
 20
211.70000000002031
 30
0.0
 11
-532.29999999998836
 21
211.70000000002031
 31
0.0
  0
ARC
  8
OUTLINE
  6
CONTINUOUS
 62
     3
 10
-532.29999999998734
 20
210.70000000001568
 30
0.0
 40
1.0000000000046383
 50
90.0
 51
180.0
  0
LINE
  8
OUTLINE
  6
CONTINUOUS
 62
     3
 10
-533.299999999992
 20
210.70000000001349
 30
0.0
 11
-533.29999999999745
 21
207.8000000000188
 31
0.0
  0
LINE
  8
OUTLINE
  6
CONTINUOUS
 62
     3
 10
-533.29999999999745
 20
207.8000000000188
 30
0.0
 11
-538.299999999992
 21
207.80000000001931
 31
0.0
  0
ARC
  8
OUTLINE
  6
CONTINUOUS
 62
     3
 10
-538.29999999999211
 20
210.80000000001925
 30
0.0
 40
2.9999999999999418
 50
180.0
 51
270.0
  0
LINE
  8
OUTLINE
  6
CONTINUOUS
 62
     3
 10
-541.299999999992
 20
210.80000000001931
 30
0.0
 11
-541.299999999992
 21
217.80000000002019
 31
0.0
  0
ARC
  8
OUTLINE
  6
CONTINUOUS
 62
     3
 10
-538.29999999999188
 20
217.80000000001962
 30
0.0
 40
3.0000000000000875
 50
90.0
 51
180.0
  0
LINE
  8
OUTLINE
  6
CONTINUOUS
 62
     3
 10
-538.299999999992
 20
220.80000000001971
 30
0.0
 11
-534.299999999992
 21
220.80000000001701
 31
0.0
  0
ARC
  8
OUTLINE
  6
CONTINUOUS
 62
     3
 10
-532.3000000000319
 20
220.80000000004688
 30
0.0
 40
1.9999999999601179
 50
119.20241151358579
 51
180.0
  0
ARC
  8
OUTLINE
  6
CONTINUOUS
 62
     3
 10
-529.6395017865616
 20
223.65104638600855
 30
0.0
 40
3.8005493118595144
 50
95.004781059462289
 51
196.90654327938955
  0
LINE
  8
OUTLINE
  6
CONTINUOUS
 62
     3
 10
-529.97105741443647
 20
227.4371058067652
 30
0.0
 11
-502.0
 21
229.88425623600779
 31
0.0
  0
LINE
  8
OUTLINE
  6
CONTINUOUS
 62
     3
 10
-502.0
 20
229.88425623600779
 30
0.0
 11
-502.04708539198867
 21
463.50079103028429
 31
0.0
  0
LINE
  8
OUTLINE
  6
CONTINUOUS
 62
     3
 10
-502.04708539198867
 20
463.50079103028429
 30
0.0
 11
-548.40000000000509
 21
463.50000000001728
 31
0.0
  0
LINE
  8
OUTLINE
  6
CONTINUOUS
 62
     3
 10
-548.40000000000509
 20
463.50000000001728
 30
0.0
 11
-548.40000000000509
 21
466.69999999999982
 31
0.0
  0
LINE
  8
OUTLINE
  6
CONTINUOUS
 62
     3
 10
-548.40000000000509
 20
466.69999999999982
 30
0.0
 11
-543.10309975643213
 21
466.69874994455381
 31
0.0
  0
LINE
  8
OUTLINE
  6
CONTINUOUS
 62
     3
 10
-543.10309975643213
 20
466.69874994455381
 30
0.0
 11
-543.40000000000509
 21
542.00000000000273
 31
0.0
  0
ARC
  8
OUTLINE
  6
CONTINUOUS
 62
     3
 10
-540.46995587892718
 20
542.00785662364626
 30
0.0
 40
2.9300546544388153
 50
153.83253121027462
 51
180.15363260024446
  0
LINE
  8
OUTLINE
  6
CONTINUOUS
 62
     3
 10
-543.09970601400255
 20
543.30000000000564
 30
0.0
 11
-548.40000000000509
 21
543.30000000000564
 31
0.0
  0
LINE
  8
OUTLINE
  6
CONTINUOUS
 62
     3
 10
-548.40000000000509
 20
543.30000000000564
 30
0.0
 11
-548.40000000000509
 21
546.50000000001728
 31
0.0
  0
LINE
  8
OUTLINE
  6
CONTINUOUS
 62
     3
 10
-548.40000000000509
 20
546.50000000001728
 30
0.0
 11
-502.10000000000309
 21
546.50000000001728
 31
0.0
  0
LINE
  8
OUTLINE
  6
CONTINUOUS
 62
     3
 10
-502.10000000000309
 20
546.50000000001728
 30
0.0
 11
-502.0
 21
557.84708539201711
 31
0.0
  0
LINE
  8
OUTLINE
  6
CONTINUOUS
 62
     3
 10
-502.0
 20
557.84708539201711
 30
0.0
 11
-500.699999999998
 21
559.1470853920182
 31
0.0
  0
LINE
  8
OUTLINE
  6
CONTINUOUS
 62
     3
 10
-500.699999999998
 20
559.1470853920182
 30
0.0
 11
-500.699999999998
 21
561.00000000001455
 31
0.0
  0
LINE
  8
OUTLINE
  6
CONTINUOUS
 62
     3
 10
-500.699999999998
 20
561.00000000001455
 30
0.0
 11
-497.70000000000442
 21
564.00000000001455
 31
0.0
  0
LINE
  8
OUTLINE
  6
CONTINUOUS
 62
     3
 10
-497.70000000000442
 20
564.00000000001455
 30
0.0
 11
-495.69999999999709
 21
564.00000000001455
 31
0.0
  0
LINE
  8
OUTLINE
  6
CONTINUOUS
 62
     3
 10
-495.69999999999709
 20
564.00000000001455
 30
0.0
 11
-495.69999999999709
 21
565.00000000001455
 31
0.0
  0
ARC
  8
OUTLINE
  6
CONTINUOUS
 62
     3
 10
-494.69999999999868
 20
565.00000000001614
 30
0.0
 40
0.9999999999984279
 50
90.0
 51
180.0
  0
LINE
  8
OUTLINE
  6
CONTINUOUS
 62
     3
 10
-494.699999999998
 20
566.00000000001455
 30
0.0
 11
-494.19999999999709
 21
566.00000000001455
 31
0.0
  0
LINE
  8
OUTLINE
  6
CONTINUOUS
 62
     3
 10
-494.19999999999709
 20
566.00000000001455
 30
0.0
 11
-494.19999999999709
 21
567.50000000001455
 31
0.0
  0
LINE
  8
OUTLINE
  6
CONTINUOUS
 62
     3
 10
-494.19999999999709
 20
567.50000000001455
 30
0.0
 11
-491.19999999999709
 21
570.50000000001455
 31
0.0
  0
LINE
  8
OUTLINE
  6
CONTINUOUS
 62
     3
 10
-491.19999999999709
 20
570.50000000001455
 30
0.0
 11
-489.34708539198618
 21
570.50000000000773
 31
0.0
  0
LINE
  8
OUTLINE
  6
CONTINUOUS
 62
     3
 10
-489.34708539198618
 20
570.50000000000773
 30
0.0
 11
-488.04708539199243
 21
571.80000000000291
 31
0.0
  0
LINE
  8
OUTLINE
  6
CONTINUOUS
 62
     3
 10
-488.04708539199243
 20
571.80000000000291
 30
0.0
 11
-480.0
 21
571.80000000000291
 31
0.0
  0
LINE
  8
OUTLINE
  6
CONTINUOUS
 62
     3
 10
-480.0
 20
571.80000000000291
 30
0.0
 11
-480.0
 21
615.80000000000018
 31
0.0
  0
LINE
  8
OUTLINE
  6
CONTINUOUS
 62
     3
 10
-480.0
 20
615.80000000000018
 30
0.0
 11
-210.0
 21
615.80000000000018
 31
0.0
  0
LINE
  8
OUTLINE
  6
CONTINUOUS
 62
     3
 10
-210.0
 20
615.80000000000018
 30
0.0
 11
-210.0
 21
571.80000000000291
 31
0.0
  0
LINE
  8
OUTLINE
  6
CONTINUOUS
 62
     3
 10
-210.0
 20
571.80000000000291
 30
0.0
 11
210.0
 21
571.80000000000291
 31
0.0
  0
LINE
  8
OUTLINE
  6
CONTINUOUS
 62
     3
 10
210.0
 20
571.80000000000291
 30
0.0
 11
210.0
 21
615.80000000000018
 31
0.0
  0
LINE
  8
OUTLINE
  6
CONTINUOUS
 62
     3
 10
210.0
 20
615.80000000000018
 30
0.0
 11
479.99999999999909
 21
615.80000000000018
 31
0.0
  0
LINE
  8
OUTLINE
  6
CONTINUOUS
 62
     3
 10
479.99999999999909
 20
615.80000000000018
 30
0.0
 11
479.99999999999909
 21
571.80000000000291
 31
0.0
  0
LINE
  8
OUTLINE
  6
CONTINUOUS
 62
     3
 10
479.99999999999909
 20
571.80000000000291
 30
0.0
 11
488.04708539199243
 21
571.80000000000291
 31
0.0
  0
LINE
  8
OUTLINE
  6
CONTINUOUS
 62
     3
 10
488.04708539199243
 20
571.80000000000291
 30
0.0
 11
492.84708539199983
 21
567.00000000001455
 31
0.0
  0
LINE
  8
OUTLINE
  6
CONTINUOUS
 62
     3
 10
492.84708539199983
 20
567.00000000001455
 30
0.0
 11
492.84708539199983
 21
565.5
 31
0.0
  0
LINE
  8
OUTLINE
  6
CONTINUOUS
 62
     3
 10
492.84708539199983
 20
565.5
 30
0.0
 11
494.59999999999673
 21
565.5
 31
0.0
  0
ARC
  8
OUTLINE
  6
CONTINUOUS
 62
     3
 10
494.60000000003521
 20
564.40000000003818
 30
0.0
 40
1.0999999999618619
 50
0.0
 51
90.0
  0
LINE
  8
OUTLINE
  6
CONTINUOUS
 62
     3
 10
495.69999999999709
 20
564.40000000002328
 30
0.0
 11
495.70000000000249
 21
562.6470853920182
 31
0.0
  0
LINE
  8
OUTLINE
  6
CONTINUOUS
 62
     3
 10
495.70000000000249
 20
562.6470853920182
 30
0.0
 11
497.20000000000158
 21
562.6470853920182
 31
0.0
  0
LINE
  8
OUTLINE
  6
CONTINUOUS
 62
     3
 10
497.20000000000158
 20
562.6470853920182
 30
0.0
 11
502.0
 21
557.84708539201984
 31
0.0
  0
LINE
  8
OUTLINE
  6
CONTINUOUS
 62
     3
 10
502.0
 20
557.84708539201984
 30
0.0
 11
502.099999999994
 21
546.50000000001728
 31
0.0
  0
LINE
  8
OUTLINE
  6
CONTINUOUS
 62
     3
 10
502.099999999994
 20
546.50000000001728
 30
0.0
 11
548.49999999999636
 21
546.50000000001728
 31
0.0
  0
LINE
  8
OUTLINE
  6
CONTINUOUS
 62
     3
 10
548.49999999999636
 20
546.50000000001728
 30
0.0
 11
548.49999999999636
 21
543.30000000000564
 31
0.0
  0
LINE
  8
OUTLINE
  6
CONTINUOUS
 62
     3
 10
548.49999999999636
 20
543.30000000000564
 30
0.0
 11
543.20370116691447
 21
543.30000000000564
 31
0.0
  0
ARC
  8
OUTLINE
  6
CONTINUOUS
 62
     3
 10
540.34345351171521
 20
541.96431958323376
 30
0.0
 40
3.1567481408596563
 50
0.6476224052940438
 51
25.031666214193422
  0
LINE
  8
OUTLINE
  6
CONTINUOUS
 62
     3
 10
543.49999999999636
 20
542.00000000000273
 30
0.0
 11
543.49999999999636
 21
468.00000000000267
 31
0.0
  0
ARC
  8
OUTLINE
  6
CONTINUOUS
 62
     3
 10
540.50000000000148
 20
468.00000000000085
 30
0.0
 40
2.9999999999949196
 50
334.32071138047434
 51
0.0
  0
LINE
  8
OUTLINE
  6
CONTINUOUS
 62
     3
 10
543.20370116691447
 20
466.69999999999982
 30
0.0
 11
548.49999999999636
 21
466.69999999999982
 31
0.0
  0
LINE
  8
OUTLINE
  6
CONTINUOUS
 62
     3
 10
548.49999999999636
 20
466.69999999999982
 30
0.0
 11
548.49999999999636
 21
463.50000000001728
 31
0.0
  0
LINE
  8
OUTLINE
  6
CONTINUOUS
 62
     3
 10
548.49999999999636
 20
463.50000000001728
 30
0.0
 11
502.099999999994
 21
463.50000000001728
 31
0.0
  0
LINE
  8
OUTLINE
  6
CONTINUOUS
 62
     3
 10
502.099999999994
 20
463.50000000001728
 30
0.0
 11
502.099999999994
 21
-463.50000000000267
 31
0.0
  0
TEXT
  8
NOTE
  6
CONTINUOUS
 62
     4
 10
-395.38861158062542
 20
-729.26868447408833
 30
0.0
 40
64.065641025638456
  1
SA
 41
0.9
  0
TEXT
  8
NOTE
  6
CONTINUOUS
 62
     4
 10
293.94116995212238
 20
-729.26868447408833
 30
0.0
 40
64.065641025638456
  1
RA
 41
0.9
  0
TEXT
  8
NOTE
  6
CONTINUOUS
 62
     4
 10
-395.38861158062542
 20
665.20304344844999
 30
0.0
 40
64.065641025638456
  1
OA
 41
0.9
  0
TEXT
  8
NOTE
  6
CONTINUOUS
 62
     4
 10
293.94116995212238
 20
665.20304344844999
 30
0.0
 40
64.065641025638456
  1
EA
 41
0.9
  0
TEXT
  8
ETC
  6
CONTINUOUS
 62
    61
 10
1909.612201803945
 20
1240.456750398655
 30
0.0
 40
64.065641025638456
  1
LGH-160RVX3-E_1
 41
0.9
  0
TEXT
  8
ETC
  6
CONTINUOUS
 62
    61
 10
1905.421914476766
 20
1122.380460578685
 30
0.0
 40
64.065641025638456
  1
LOSSNAY
 41
0.9
  0
TEXT
  8
ETC
  6
CONTINUOUS
 62
    61
 10
1956.1753141594179
 20
1014.120765874119
 30
0.0
 40
40.041025641024042
  1
LGH-160RVX3-E
 50
0.0
 41
0.9
 51
0.0
  7
STANDARD
 71
     0
 11
0.0
 21
0.0
 31
0.0
210
0.0
220
0.0
230
1.0
  0
TEXT
  8
NOTE
  6
CONTINUOUS
 62
     4
 10
-1304.3541472795923
 20
-688.28941534896239
 30
0.0
 40
69.0
  1
Power supply
 50
0.0
 41
0.9
 51
0.0
  7
STANDARD
 71
     0
 72
     2
 11
-700.12114727959215
 21
-688.28941534896239
 31
0.0
210
0.0
220
0.0
230
1.0
  0
TEXT
  8
NOTE
  6
CONTINUOUS
 62
     4
 10
-1332.2991472795923
 20
-802.13941534896242
 30
0.0
 40
69.0
  1
cable opening
 50
0.0
 41
0.9
 51
0.0
  7
STANDARD
 71
     0
 72
     2
 11
-700.12114727959215
 21
-802.13941534896242
 31
0.0
210
0.0
220
0.0
230
1.0
  0
LINE
  8
NOTE
  6
CONTINUOUS
 62
     4
 10
-690.12114727959215
 20
-826.28941534896239
 30
0.0
 11
-1341.821147279592
 21
-826.28941534896239
 31
0.0
  0
LINE
  8
NOTE
  6
CONTINUOUS
 62
     4
 10
-599.65582936728151
 20
-487.11557892068902
 30
0.0
 11
-581.60000000000309
 21
-455.69999999999709
 31
0.0
  0
LINE
  8
NOTE
  6
CONTINUOUS
 62
     4
 10
-581.60000000000309
 20
-455.69999999999709
 30
0.0
 11
-581.52896285460781
 21
-491.93460399654265
 31
0.0
  0
LINE
  8
NOTE
  6
CONTINUOUS
 62
     4
 10
-581.60000000000309
 20
-455.69999999999709
 30
0.0
 11
-599.58479222188623
 21
-523.35018291723463
 31
0.0
  0
LINE
  8
NOTE
  6
CONTINUOUS
 62
     4
 10
-599.58479222188623
 20
-523.35018291723463
 30
0.0
 11
-680.12114727959215
 21
-826.28941534896239
 31
0.0
  0
LINE
  8
NOTE
  6
CONTINUOUS
 62
     4
 10
-680.12114727959215
 20
-826.28941534896239
 30
0.0
 11
-690.12114727959215
 21
-826.28941534896239
 31
0.0
  0
TEXT
  8
NOTE
  6
CONTINUOUS
 62
     4
 10
664.00888163018044
 20
954.50918810547
 30
0.0
 40
69.0
  1
Ceiling suspension fixture
 50
0.0
 41
0.9
 51
0.0
  7
STANDARD
 71
     0
 11
0.0
 21
0.0
 31
0.0
210
0.0
220
0.0
230
1.0
  0
TEXT
  8
NOTE
  6
CONTINUOUS
 62
     4
 10
664.00888163018044
 20
840.65918810546998
 30
0.0
 40
69.0
  1
(4-15X30 oval)
 50
0.0
 41
0.9
 51
0.0
  7
STANDARD
 71
     0
 11
0.0
 21
0.0
 31
0.0
210
0.0
220
0.0
230
1.0
  0
LINE
  8
NOTE
  6
CONTINUOUS
 62
     4
 10
654.00888163018044
 20
803.36633096261221
 30
0.0
 11
1870.5231673444659
 21
803.36633096261221
 31
0.0
  0
LINE
  8
NOTE
  6
CONTINUOUS
 62
     4
 10
544.38655883678632
 20
533.87784500955809
 30
0.0
 11
522.5000086384689
 21
504.99999028523638
 31
0.0
  0
LINE
  8
NOTE
  6
CONTINUOUS
 62
     4
 10
522.5000086384689
 20
504.99999028523638
 30
0.0
 11
527.01533557126004
 21
540.95222798683869
 31
0.0
  0
LINE
  8
NOTE
  6
CONTINUOUS
 62
     4
 10
522.5000086384689
 20
504.99999028523638
 30
0.0
 11
548.90188576957746
 21
569.83008271116034
 31
0.0
  0
LINE
  8
NOTE
  6
CONTINUOUS
 62
     4
 10
548.90188576957735
 20
569.83008271116046
 30
0.0
 11
644.00888163018044
 21
803.36633096261221
 31
0.0
  0
LINE
  8
NOTE
  6
CONTINUOUS
 62
     4
 10
644.00888163018044
 20
803.36633096261221
 30
0.0
 11
654.00888163018044
 21
803.36633096261221
 31
0.0
  0
ENDSEC
  0
EOF
