  0
SECTION
  2
HEADER
  9
$ACADVER
  1
AC1009
  9
$DWGCODEPAGE
  3
dos932
  9
$INSBASE
 10
0.0
 20
0.0
 30
0.0
  9
$EXTMIN
 10
-1030.9982138930341
 20
-1118.316639468909
 30
-0.0000000000112498
  9
$EXTMAX
 10
1907.0068485301531
 20
634.4604572915232
 30
0.0000000000002956
  9
$LIMMIN
 10
-2970.0
 20
-2100.0
  9
$LIMMAX
 10
2970.0
 20
2100.0
  9
$ORTHOMODE
 70
     1
  9
$REGENMODE
 70
     1
  9
$FILLMODE
 70
     1
  9
$QTEXTMODE
 70
     0
  9
$MIRRTEXT
 70
     0
  9
$LTSCALE
 40
20.0
  9
$ATTMODE
 70
     1
  9
$TEXTSIZE
 40
64.0
  9
$TRACEWID
 40
0.05
  9
$TEXTSTYLE
  7
STANDARD
  9
$CLAYER
  8
SIZE
  9
$CELTYPE
  6
CONTINUOUS
  9
$CECOLOR
 62
     7
  9
$DIMSCALE
 40
1.0
  9
$DIMASZ
 40
12.0
  9
$DIMEXO
 40
20.0
  9
$DIMDLI
 40
200.0
  9
$DIMRND
 40
0.0
  9
$DIMDLE
 40
0.0
  9
$DIMEXE
 40
20.0
  9
$DIMTP
 40
0.0
  9
$DIMTM
 40
0.0
  9
$DIMTXT
 40
64.0
  9
$DIMCEN
 40
0.09
  9
$DIMTSZ
 40
0.0
  9
$DIMTOL
 70
     0
  9
$DIMLIM
 70
     0
  9
$DIMTIH
 70
     0
  9
$DIMTOH
 70
     0
  9
$DIMSE1
 70
     0
  9
$DIMSE2
 70
     0
  9
$DIMTAD
 70
     1
  9
$DIMZIN
 70
     8
  9
$DIMBLK
  1

  9
$DIMASO
 70
     1
  9
$DIMSHO
 70
     0
  9
$DIMPOST
  1

  9
$DIMAPOST
  1

  9
$DIMALT
 70
     0
  9
$DIMALTD
 70
     2
  9
$DIMALTF
 40
25.399999999999999
  9
$DIMLFAC
 40
1.0
  9
$DIMTOFL
 70
     1
  9
$DIMTVP
 40
0.0
  9
$DIMTIX
 70
     1
  9
$DIMSOXD
 70
     0
  9
$DIMSAH
 70
     0
  9
$DIMBLK1
  1

  9
$DIMBLK2
  1

  9
$DIMSTYLE
  2
STANDARD
  9
$DIMCLRD
 70
     7
  9
$DIMCLRE
 70
     7
  9
$DIMCLRT
 70
     7
  9
$DIMTFAC
 40
1.0
  9
$DIMGAP
 40
25.0
  9
$LUNITS
 70
     2
  9
$LUPREC
 70
     4
  9
$SKETCHINC
 40
0.1
  9
$FILLETRAD
 40
3.0
  9
$AUNITS
 70
     1
  9
$AUPREC
 70
     3
  9
$MENU
  1
ACAD
  9
$ELEVATION
 40
0.0
  9
$PELEVATION
 40
0.0
  9
$THICKNESS
 40
0.0
  9
$LIMCHECK
 70
     0
  9
$CHAMFERA
 40
0.0
  9
$CHAMFERB
 40
0.0
  9
$SKPOLY
 70
     0
  9
$TDCREATE
 40
2453019.62301037
  9
$TDUPDATE
 40
2460045.429784907
  9
$TDINDWG
 40
1.716451169
  9
$TDUSRTIMER
 40
1.716451169
  9
$USRTIMER
 70
     1
  9
$ANGBASE
 50
0.0
  9
$ANGDIR
 70
     0
  9
$PDMODE
 70
     3
  9
$PDSIZE
 40
-2.0
  9
$PLINEWID
 40
0.0
  9
$SPLFRAME
 70
     0
  9
$SPLINETYPE
 70
     6
  9
$SPLINESEGS
 70
     8
  9
$SURFTAB1
 70
     6
  9
$SURFTAB2
 70
     6
  9
$SURFTYPE
 70
     6
  9
$SURFU
 70
     6
  9
$SURFV
 70
     6
  9
$UCSNAME
  2

  9
$UCSORG
 10
0.0
 20
0.0
 30
0.0
  9
$UCSXDIR
 10
1.0
 20
0.0
 30
0.0
  9
$UCSYDIR
 10
0.0
 20
1.0
 30
0.0
  9
$PUCSNAME
  2

  9
$PUCSORG
 10
0.0
 20
0.0
 30
0.0
  9
$PUCSXDIR
 10
1.0
 20
0.0
 30
0.0
  9
$PUCSYDIR
 10
0.0
 20
1.0
 30
0.0
  9
$USERI1
 70
     0
  9
$USERI2
 70
     0
  9
$USERI3
 70
     0
  9
$USERI4
 70
     0
  9
$USERI5
 70
     0
  9
$USERR1
 40
20.0
  9
$USERR2
 40
0.0
  9
$USERR3
 40
0.0
  9
$USERR4
 40
0.0
  9
$USERR5
 40
0.0
  9
$WORLDVIEW
 70
     1
  9
$SHADEDGE
 70
     3
  9
$SHADEDIF
 70
    70
  9
$TILEMODE
 70
     1
  9
$MAXACTVP
 70
    48
  9
$PINSBASE
 10
0.0
 20
0.0
 30
0.0
  9
$PLIMCHECK
 70
     0
  9
$PEXTMIN
 10
-100000000000000000000.0
 20
-100000000000000000000.0
 30
-100000000000000000000.0
  9
$PEXTMAX
 10
100000000000000000000.0
 20
100000000000000000000.0
 30
100000000000000000000.0
  9
$PLIMMIN
 10
0.0
 20
0.0
  9
$PLIMMAX
 10
12.0
 20
9.0
  9
$UNITMODE
 70
     0
  9
$VISRETAIN
 70
     0
  9
$PLINEGEN
 70
     0
  9
$PSLTSCALE
 70
     0
  9
$TREEDEPTH
 70
  3020
  9
$ATTDIA
 70
     0
  9
$ATTREQ
 70
     1
  9
$BLIPMODE
 70
     1
  9
$COORDS
 70
     1
  9
$DRAGMODE
 70
     2
  9
$OSMODE
 70
     0
  9
$HANDLING
 70
     0
  9
$HANDSEED
  5
10834
  0
ENDSEC
  0
SECTION
  2
TABLES
  0
TABLE
  2
LTYPE
 70
     2
  0
LTYPE
  2
CONTINUOUS
 70
     0
  3
実線
 72
    65
 73
     0
 40
0.0
  0
LTYPE
  2
DASHDOT
 70
     0
  3
____ _ ____ _ ____ _ ____ _ ____ _ ____ _ ____
 72
    65
 73
     4
 40
5.5
 49
4.0
 49
-0.6
 49
0.3
 49
-0.6
  0
ENDTAB
  0
TABLE
  2
LAYER
 70
    12
  0
LAYER
  2
0
 70
     0
 62
     7
  6
CONTINUOUS
  0
LAYER
  2
BASIS
 70
     0
 62
     6
  6
DASHDOT
  0
LAYER
  2
OUTLINE
 70
     0
 62
     3
  6
CONTINUOUS
  0
LAYER
  2
DETAIL
 70
     0
 62
     5
  6
CONTINUOUS
  0
LAYER
  2
SIZE
 70
     0
 62
    30
  6
CONTINUOUS
  0
LAYER
  2
ARRANGE
 70
     0
 62
     1
  6
CONTINUOUS
  0
LAYER
  2
DEFPOINTS
 70
     0
 62
     7
  6
CONTINUOUS
  0
LAYER
  2
ETC
 70
     0
 62
    61
  6
CONTINUOUS
  0
LAYER
  2
FIX
 70
     0
 62
    11
  6
CONTINUOUS
  0
LAYER
  2
NOTE
 70
     0
 62
     4
  6
CONTINUOUS
  0
LAYER
  2
SERVICESPACE
 70
    64
 62
     2
  6
DASHDOT
  0
LAYER
  2
SYMBOLLINE
 70
    64
 62
    15
  6
CONTINUOUS
  0
ENDTAB
  0
TABLE
  2
STYLE
 70
     1
  0
STYLE
  2
STANDARD
 70
     0
 40
64.0
 41
0.9
 50
0.0
 71
     0
 42
64.0
  3
SIMPLEX.shx
  4
BIGFONT.shx
  0
ENDTAB
  0
TABLE
  2
APPID
 70
    23
  0
APPID
  2
ACAD
 70
     0
  0
APPID
  2
AUTOCAD_POSTSCRIPT_FIGURE
 70
     0
  0
APPID
  2
ACAD_EXEMPT_FROM_CAD_STANDARDS
 70
     0
  0
APPID
  2
ACAD_PSEXT
 70
     0
  0
APPID
  2
ACAUTHENVIRON
 70
     0
  0
APPID
  2
GENIUS_GENOENT_13
 70
     0
  0
APPID
  2
GENIUS_GENCFG_13
 70
     0
  0
APPID
  2
GENIUS_GENCFG0_13
 70
     0
  0
APPID
  2
GENIUS_GENCFG1_13
 70
     0
  0
APPID
  2
GENIUS_GENCFG2_13
 70
     0
  0
APPID
  2
GENIUS_GENCFG3_13
 70
     0
  0
APPID
  2
GENIUS_GENCFG4_13
 70
     0
  0
APPID
  2
GENIUS_GEVCFG0_13
 70
     0
  0
APPID
  2
CONTENTBLOCKICON
 70
     0
  0
APPID
  2
CONTENTBLOCKDESCRIPTION
 70
     0
  0
APPID
  2
ACAD_NAV_VCDISPLAY
 70
     0
  0
APPID
  2
ACAD_MLEADERVER
 70
     0
  0
APPID
  2
ACDBDYNAMICBLOCKTRUENAME
 70
     0
  0
APPID
  2
ACDBDYNAMICBLOCKGUID
 70
     0
  0
APPID
  2
ACAD_DSTYLE_DIMRADIAL_EXTENSION
 70
     0
  0
APPID
  2
GENIUS_GENODEF_13
 70
     0
  0
APPID
  2
GENIUS_GENOBJ-N-CEN_13
 70
     0
  0
APPID
  2
GENIUS_GENCEN_19
 70
     0
  0
ENDTAB
  0
TABLE
  2
DIMSTYLE
 70
     1
  0
DIMSTYLE
  2
STANDARD
 70
     0
  3

  4

  5
_ORIGIN
  6

  7

 40
1.0
 41
12.0
 42
20.0
 43
200.0
 44
20.0
 45
0.0
 46
0.0
 47
0.0
 48
0.0
140
64.0
141
0.09
142
0.0
143
25.399999999999999
144
1.0
145
0.0
146
1.0
147
25.0
 71
     0
 72
     0
 73
     0
 74
     0
 75
     0
 76
     0
 77
     1
 78
     8
170
     0
171
     2
172
     1
173
     0
174
     1
175
     0
176
     7
177
     7
178
     7
  0
ENDTAB
  0
TABLE
  2
VIEW
 70
     1
  0
VIEW
  2
ALL
 70
     0
 40
4282.6198079999986
 10
0.0
 20
41.309904000000003
 41
5940.0
 11
0.0
 21
0.0
 31
1.0
 12
0.0
 22
0.0
 32
0.0
 42
50.0
 43
0.0
 44
0.0
 50
0.0
 71
     0
  0
ENDTAB
  0
TABLE
  2
UCS
 70
     0
  0
ENDTAB
  0
TABLE
  2
VPORT
 70
     1
  0
VPORT
  2
*ACTIVE
 70
     0
 10
0.0
 20
0.0
 11
1.0
 21
1.0
 12
438.00431731855952
 22
-241.92809108869281
 13
0.0
 23
0.0
 14
1.0
 24
1.0
 15
0.0
 25
0.0
 16
0.0
 26
0.0
 36
1.0
 17
0.0
 27
0.0
 37
0.0
 40
1373.144761271589
 41
2.0376811594202899
 42
50.0
 43
0.0
 44
0.0
 50
0.0
 51
0.0
 71
     0
 72
  1000
 73
     1
 74
     3
 75
     0
 76
     0
 77
     0
 78
     0
  0
ENDTAB
  0
ENDSEC
  0
SECTION
  2
BLOCKS
  0
BLOCK
  8
0
  2
_ORIGIN
 70
     0
 10
0.0
 20
0.0
 30
0.0
  3
_ORIGIN
  1
_ORIGIN
  0
CIRCLE
  8
0
  6
CONTINUOUS
 62
     7
 10
0.0
 20
0.0
 30
0.0
 40
0.5
  0
LINE
  8
0
  6
CONTINUOUS
 62
     7
 10
0.0
 20
0.0
 30
0.0
 11
-1.0
 21
0.0
 31
0.0
  0
ENDBLK
  8
0
  0
ENDSEC
  0
SECTION
  2
ENTITIES
  0
LINE
  8
DETAIL
  6
CONTINUOUS
 62
     5
 10
-570.50000000001455
 20
-403.200000000003
 30
0.0
 11
-570.50000000001455
 21
-402.700000000003
 31
0.0
  0
LINE
  8
DETAIL
  6
CONTINUOUS
 62
     5
 10
-570.50000000001455
 20
-1.3000000000029099
 30
0.0
 11
-570.50000000001455
 21
-0.8000000000033651
 31
0.0
  0
LINE
  8
DETAIL
  6
CONTINUOUS
 62
     5
 10
-566.00000000001455
 20
-401.20000000000249
 30
0.0
 11
-566.00000000001455
 21
-2.8000000000033651
 31
0.0
  0
LINE
  8
DETAIL
  6
CONTINUOUS
 62
     5
 10
-565.50000000001455
 20
-402.200000000003
 30
0.0
 11
-565.50000000001455
 21
-401.20000000000249
 31
0.0
  0
LINE
  8
DETAIL
  6
CONTINUOUS
 62
     5
 10
-565.50000000001455
 20
-2.8000000000033651
 30
0.0
 11
-565.50000000001455
 21
-1.8000000000029099
 31
0.0
  0
LINE
  8
DETAIL
  6
CONTINUOUS
 62
     5
 10
-565.00000000001455
 20
-1.8000000000029099
 30
0.0
 11
-565.00000000001455
 21
-2.8000000000033651
 31
0.0
  0
LINE
  8
DETAIL
  6
CONTINUOUS
 62
     5
 10
-565.00000000001455
 20
-401.20000000000249
 30
0.0
 11
-565.00000000001455
 21
-402.200000000003
 31
0.0
  0
LINE
  8
DETAIL
  6
CONTINUOUS
 62
     5
 10
-564.00000000001455
 20
-0.8000000000033651
 30
0.0
 11
-564.00000000001455
 21
-2.8000000000033651
 31
0.0
  0
LINE
  8
DETAIL
  6
CONTINUOUS
 62
     5
 10
-564.00000000001455
 20
-403.200000000003
 30
0.0
 11
-564.00000000001455
 21
-401.20000000000249
 31
0.0
  0
LINE
  8
DETAIL
  6
CONTINUOUS
 62
     5
 10
-562.6470853920182
 20
0.0
 30
0.0
 11
-562.6470853920182
 21
-0.8000000000033651
 31
0.0
  0
LINE
  8
DETAIL
  6
CONTINUOUS
 62
     5
 10
-564.64734604001569
 20
-401.20000000000249
 30
0.0
 11
-564.88343350401556
 21
-402.53891854199719
 31
0.0
  0
LINE
  8
DETAIL
  6
CONTINUOUS
 62
     5
 10
-564.00000000001364
 20
-402.1357345687461
 30
0.0
 11
-564.09558730000572
 21
-402.67783708399469
 31
0.0
  0
LINE
  8
DETAIL
  6
CONTINUOUS
 62
     5
 10
-564.88343350401556
 20
-1.461081458008721
 30
0.0
 11
-564.64734604001569
 21
-2.8000000000033651
 31
0.0
  0
LINE
  8
DETAIL
  6
CONTINUOUS
 62
     5
 10
-564.09558730000572
 20
-1.3221629159957049
 30
0.0
 11
-564.00000000001455
 21
-1.864265431275498
 31
0.0
  0
LINE
  8
DETAIL
  6
CONTINUOUS
 62
     5
 10
-234.4339745960169
 20
-209.450000000003
 30
0.0
 11
-234.4339745960169
 21
-221.84999999999721
 31
0.0
  0
LINE
  8
DETAIL
  6
CONTINUOUS
 62
     5
 10
-234.4339745960169
 20
-194.4500000000028
 30
0.0
 11
-234.4339745960169
 21
-182.05000000000859
 31
0.0
  0
LINE
  8
DETAIL
  6
CONTINUOUS
 62
     5
 10
-231.07696574000869
 20
-209.450000000003
 30
0.0
 11
-231.07696574000869
 21
-221.84999999999721
 31
0.0
  0
LINE
  8
DETAIL
  6
CONTINUOUS
 62
     5
 10
-231.07696574000869
 20
-194.4500000000028
 30
0.0
 11
-231.07696574000869
 21
-182.05000000000859
 31
0.0
  0
LINE
  8
DETAIL
  6
CONTINUOUS
 62
     5
 10
-227.70000000002619
 20
-237.12995170201481
 30
0.0
 11
-227.70000000002619
 21
-231.47004829800289
 31
0.0
  0
LINE
  8
DETAIL
  6
CONTINUOUS
 62
     5
 10
-227.52303426200521
 20
-209.450000000003
 30
0.0
 11
-227.52303426200521
 21
-221.84999999999721
 31
0.0
  0
LINE
  8
DETAIL
  6
CONTINUOUS
 62
     5
 10
-227.52303426200521
 20
-194.4500000000028
 30
0.0
 11
-227.52303426200521
 21
-182.05000000000859
 31
0.0
  0
LINE
  8
DETAIL
  6
CONTINUOUS
 62
     5
 10
-224.80000000000291
 20
-238.30000000000879
 30
0.0
 11
-224.80000000000291
 21
-230.30000000000879
 31
0.0
  0
LINE
  8
DETAIL
  6
CONTINUOUS
 62
     5
 10
-224.16602540400339
 20
-209.450000000003
 30
0.0
 11
-224.16602540400339
 21
-221.84999999999721
 31
0.0
  0
LINE
  8
DETAIL
  6
CONTINUOUS
 62
     5
 10
-224.16602540400339
 20
-194.4500000000028
 30
0.0
 11
-224.16602540400339
 21
-182.05000000000859
 31
0.0
  0
LINE
  8
DETAIL
  6
CONTINUOUS
 62
     5
 10
-224.00000000001461
 20
-4.3000000000029104
 30
0.0
 11
-224.00000000001461
 21
-177.200000000003
 31
0.0
  0
LINE
  8
DETAIL
  6
CONTINUOUS
 62
     5
 10
-224.00000000001461
 20
-179.40000000001419
 30
0.0
 11
-224.00000000001461
 21
-224.6000000000117
 31
0.0
  0
LINE
  8
DETAIL
  6
CONTINUOUS
 62
     5
 10
-224.00000000001461
 20
-226.8000000000084
 30
0.0
 11
-224.00000000001461
 21
-399.79999999999382
 31
0.0
  0
LINE
  8
DETAIL
  6
CONTINUOUS
 62
     5
 10
-222.80000000000291
 20
-3.0999999999912689
 30
0.0
 11
-222.80000000000291
 21
-177.200000000003
 31
0.0
  0
LINE
  8
DETAIL
  6
CONTINUOUS
 62
     5
 10
-222.80000000000291
 20
-179.40000000001419
 30
0.0
 11
-222.80000000000291
 21
-224.6000000000117
 31
0.0
  0
LINE
  8
DETAIL
  6
CONTINUOUS
 62
     5
 10
-222.80000000000291
 20
-401.00000000000551
 30
0.0
 11
-222.80000000000291
 21
-226.8000000000084
 31
0.0
  0
LINE
  8
DETAIL
  6
CONTINUOUS
 62
     5
 10
-221.80000000001749
 20
-214.3000000000084
 30
0.0
 11
-221.80000000001749
 21
-224.6000000000117
 31
0.0
  0
LINE
  8
DETAIL
  6
CONTINUOUS
 62
     5
 10
-221.80000000001749
 20
-226.8000000000084
 30
0.0
 11
-221.80000000001749
 21
-228.3000000000084
 31
0.0
  0
LINE
  8
DETAIL
  6
CONTINUOUS
 62
     5
 10
-221.80000000001749
 20
-254.30000000000879
 30
0.0
 11
-221.80000000001749
 21
-246.1000000000117
 31
0.0
  0
LINE
  8
DETAIL
  6
CONTINUOUS
 62
     5
 10
573.49999999998545
 20
-371.00000000000318
 30
0.0
 11
642.79999999998563
 21
-363.00000000000318
 31
0.0
  0
LINE
  8
DETAIL
  6
CONTINUOUS
 62
     5
 10
-559.11438631001511
 20
0.0
 30
0.0
 11
-557.01438631000929
 21
-2.100000000006276
 31
0.0
  0
LINE
  8
DETAIL
  6
CONTINUOUS
 62
     5
 10
-220.80000000001749
 20
-246.1000000000117
 30
0.0
 11
-220.80000000001749
 21
-248.09999999999721
 31
0.0
  0
LINE
  8
DETAIL
  6
CONTINUOUS
 62
     5
 10
-220.80000000001749
 20
-228.3000000000084
 30
0.0
 11
-220.80000000001749
 21
-217.2999999999947
 31
0.0
  0
LINE
  8
DETAIL
  6
CONTINUOUS
 62
     5
 10
-214.80000000000291
 20
-248.09999999999721
 30
0.0
 11
-214.80000000000291
 21
-251.2999999999943
 31
0.0
  0
LINE
  8
DETAIL
  6
CONTINUOUS
 62
     5
 10
-207.80000000000291
 20
-217.2999999999947
 30
0.0
 11
-207.80000000000291
 21
-248.09999999999721
 31
0.0
  0
LINE
  8
DETAIL
  6
CONTINUOUS
 62
     5
 10
-188.71238237000941
 20
-182.200000000003
 30
0.0
 11
-188.71238237000941
 21
-221.79998952001009
 31
0.0
  0
LINE
  8
DETAIL
  6
CONTINUOUS
 62
     5
 10
-186.51238237001229
 20
-182.200000000003
 30
0.0
 11
-186.51238237001229
 21
-221.79998952001009
 31
0.0
  0
LINE
  8
DETAIL
  6
CONTINUOUS
 62
     5
 10
570.74999999998545
 20
-403.200000000003
 30
0.0
 11
565.67127970397996
 21
-403.200000000003
 31
0.0
  0
LINE
  8
DETAIL
  6
CONTINUOUS
 62
     5
 10
-570.75
 20
-403.200000000003
 30
0.0
 11
-565.67127970601723
 21
-403.200000000003
 31
0.0
  0
LINE
  8
DETAIL
  6
CONTINUOUS
 62
     5
 10
558.31438630999673
 20
-403.200000000003
 30
0.0
 11
563.99999999998545
 21
-403.200000000003
 31
0.0
  0
LINE
  8
DETAIL
  6
CONTINUOUS
 62
     5
 10
565.99999999998545
 20
-402.700000000003
 30
0.0
 11
570.74999999998545
 21
-402.700000000003
 31
0.0
  0
LINE
  8
DETAIL
  6
CONTINUOUS
 62
     5
 10
-566.00000000001455
 20
-401.20000000000249
 30
0.0
 11
-564.00000000001455
 21
-401.20000000000249
 31
0.0
  0
LINE
  8
DETAIL
  6
CONTINUOUS
 62
     5
 10
563.99999999998545
 20
-401.20000000000249
 30
0.0
 11
565.99999999998545
 21
-401.20000000000249
 31
0.0
  0
LINE
  8
DETAIL
  6
CONTINUOUS
 62
     5
 10
222.79999999998839
 20
-401.00000000000551
 30
0.0
 11
-222.80000000000291
 21
-401.00000000000551
 31
0.0
  0
LINE
  8
DETAIL
  6
CONTINUOUS
 62
     5
 10
223.99999999998539
 20
-399.79999999999382
 30
0.0
 11
-224.00000000001461
 21
-399.79999999999382
 31
0.0
  0
LINE
  8
DETAIL
  6
CONTINUOUS
 62
     5
 10
566.30000000000291
 20
-384.50000000000318
 30
0.0
 11
565.99999999998545
 21
-384.50000000000318
 31
0.0
  0
LINE
  8
DETAIL
  6
CONTINUOUS
 62
     5
 10
566.30000000000291
 20
-371.00000000000318
 30
0.0
 11
573.49999999998545
 21
-371.00000000000318
 31
0.0
  0
LINE
  8
DETAIL
  6
CONTINUOUS
 62
     5
 10
642.79999999998563
 20
-363.00000000000318
 30
0.0
 11
650.80000000000018
 21
-363.00000000000318
 31
0.0
  0
LINE
  8
DETAIL
  6
CONTINUOUS
 62
     5
 10
222.23068047598639
 20
-316.40000000000009
 30
0.0
 11
221.02014352999689
 21
-316.40000000000009
 31
0.0
  0
LINE
  8
DETAIL
  6
CONTINUOUS
 62
     5
 10
222.79999999998839
 20
-314.40000000001419
 30
0.0
 11
221.367472715996
 21
-314.40000000001419
 31
0.0
  0
LINE
  8
DETAIL
  6
CONTINUOUS
 62
     5
 10
223.99999999998539
 20
-314.40000000001419
 30
0.0
 11
241.10000000000579
 21
-314.40000000001419
 31
0.0
  0
LINE
  8
DETAIL
  6
CONTINUOUS
 62
     5
 10
222.79999999998839
 20
-268.40000000000009
 30
0.0
 11
221.367472715996
 21
-268.40000000000009
 31
0.0
  0
LINE
  8
DETAIL
  6
CONTINUOUS
 62
     5
 10
223.99999999998539
 20
-268.40000000000009
 30
0.0
 11
241.10000000000579
 21
-268.40000000000009
 31
0.0
  0
LINE
  8
DETAIL
  6
CONTINUOUS
 62
     5
 10
222.23068047598639
 20
-266.40000000000009
 30
0.0
 11
221.02014352999689
 21
-266.40000000000009
 31
0.0
  0
LINE
  8
DETAIL
  6
CONTINUOUS
 62
     5
 10
-222.80000000000291
 20
-254.30000000000879
 30
0.0
 11
-217.80000000000291
 21
-254.30000000000879
 31
0.0
  0
LINE
  8
DETAIL
  6
CONTINUOUS
 62
     5
 10
-207.80000000000291
 20
-248.09999999999721
 30
0.0
 11
-220.80000000001749
 21
-248.09999999999721
 31
0.0
  0
LINE
  8
DETAIL
  6
CONTINUOUS
 62
     5
 10
-220.80000000001749
 20
-247.1000000000117
 30
0.0
 11
-207.80000000000291
 21
-247.1000000000117
 31
0.0
  0
LINE
  8
DETAIL
  6
CONTINUOUS
 62
     5
 10
-220.80000000001749
 20
-246.1000000000117
 30
0.0
 11
-222.80000000000291
 21
-246.1000000000117
 31
0.0
  0
LINE
  8
DETAIL
  6
CONTINUOUS
 62
     5
 10
-224.80000000000291
 20
-238.30000000000879
 30
0.0
 11
-226.78715574399391
 21
-238.1261464000186
 31
0.0
  0
LINE
  8
DETAIL
  6
CONTINUOUS
 62
     5
 10
-224.80000000000291
 20
-230.30000000000879
 30
0.0
 11
-226.78715574399391
 21
-230.47385359999859
 31
0.0
  0
LINE
  8
DETAIL
  6
CONTINUOUS
 62
     5
 10
-224.80000000000291
 20
-236.80000000000879
 30
0.0
 11
-224.00000000001461
 21
-236.80000000000879
 31
0.0
  0
LINE
  8
DETAIL
  6
CONTINUOUS
 62
     5
 10
-224.80000000000291
 20
-231.80000000000879
 30
0.0
 11
-224.00000000001461
 21
-231.80000000000879
 31
0.0
  0
LINE
  8
DETAIL
  6
CONTINUOUS
 62
     5
 10
-220.80000000001749
 20
-228.3000000000084
 30
0.0
 11
-222.80000000000291
 21
-228.3000000000084
 31
0.0
  0
LINE
  8
DETAIL
  6
CONTINUOUS
 62
     5
 10
-191.14697728000459
 20
-226.8000000000084
 30
0.0
 11
-207.80000000000291
 21
-226.8000000000084
 31
0.0
  0
LINE
  8
DETAIL
  6
CONTINUOUS
 62
     5
 10
-220.80000000001749
 20
-226.8000000000084
 30
0.0
 11
-228.86009312800891
 21
-226.8000000000084
 31
0.0
  0
LINE
  8
DETAIL
  6
CONTINUOUS
 62
     5
 10
-191.14697728000459
 20
-224.6000000000117
 30
0.0
 11
-207.80000000000291
 21
-224.6000000000117
 31
0.0
  0
LINE
  8
DETAIL
  6
CONTINUOUS
 62
     5
 10
-220.80000000001749
 20
-224.6000000000117
 30
0.0
 11
-228.86009312800891
 21
-224.6000000000117
 31
0.0
  0
LINE
  8
DETAIL
  6
CONTINUOUS
 62
     5
 10
-234.4339745960169
 20
-221.84999999999721
 30
0.0
 11
-224.16602540400339
 21
-221.84999999999721
 31
0.0
  0
LINE
  8
DETAIL
  6
CONTINUOUS
 62
     5
 10
-210.80000000001749
 20
-214.3000000000084
 30
0.0
 11
-222.80000000000291
 21
-214.3000000000084
 31
0.0
  0
LINE
  8
BASIS
  6
DASHDOT
 62
     6
 10
707.53653402160762
 20
-202.00000000000551
 30
0.0
 11
-667.53653402160671
 21
-202.00000000000551
 31
0.0
  0
LINE
  8
DETAIL
  6
CONTINUOUS
 62
     5
 10
-234.4339745960169
 20
-182.05000000000859
 30
0.0
 11
-224.16602540400339
 21
-182.05000000000859
 31
0.0
  0
LINE
  8
DETAIL
  6
CONTINUOUS
 62
     5
 10
-228.86009312800891
 20
-179.40000000001419
 30
0.0
 11
-191.14697728000459
 21
-179.40000000001419
 31
0.0
  0
LINE
  8
DETAIL
  6
CONTINUOUS
 62
     5
 10
-228.86009312800891
 20
-177.200000000003
 30
0.0
 11
-191.14697728000459
 21
-177.200000000003
 31
0.0
  0
LINE
  8
DETAIL
  6
CONTINUOUS
 62
     5
 10
222.23068047598639
 20
-126.40000000000011
 30
0.0
 11
221.02014352999689
 21
-126.40000000000011
 31
0.0
  0
LINE
  8
DETAIL
  6
CONTINUOUS
 62
     5
 10
222.79999999998839
 20
-124.4000000000149
 30
0.0
 11
221.367472715996
 21
-124.4000000000149
 31
0.0
  0
LINE
  8
DETAIL
  6
CONTINUOUS
 62
     5
 10
223.99999999998539
 20
-124.4000000000149
 30
0.0
 11
241.10000000000579
 21
-124.4000000000149
 31
0.0
  0
LINE
  8
DETAIL
  6
CONTINUOUS
 62
     5
 10
642.79999999998563
 20
-121.0000000000032
 30
0.0
 11
650.80000000000018
 21
-121.0000000000032
 31
0.0
  0
LINE
  8
DETAIL
  6
CONTINUOUS
 62
     5
 10
222.79999999998839
 20
-78.400000000000091
 30
0.0
 11
221.367472715996
 21
-78.400000000000091
 31
0.0
  0
LINE
  8
DETAIL
  6
CONTINUOUS
 62
     5
 10
223.99999999998539
 20
-78.400000000000091
 30
0.0
 11
241.10000000000579
 21
-78.400000000000091
 31
0.0
  0
LINE
  8
DETAIL
  6
CONTINUOUS
 62
     5
 10
222.23068047598639
 20
-76.400000000000091
 30
0.0
 11
221.02014352999689
 21
-76.400000000000091
 31
0.0
  0
LINE
  8
DETAIL
  6
CONTINUOUS
 62
     5
 10
573.49999999998545
 20
-112.99999999899001
 30
0.0
 11
642.79999999998563
 21
-121.0000000000032
 31
0.0
  0
LINE
  8
DETAIL
  6
CONTINUOUS
 62
     5
 10
218.93616841798939
 20
-313.40000000000009
 30
0.0
 11
218.93616841798939
 21
-269.40000000001419
 31
0.0
  0
LINE
  8
DETAIL
  6
CONTINUOUS
 62
     5
 10
218.93616841798939
 20
-123.40000000000011
 30
0.0
 11
218.93616841798939
 21
-79.40000000001487
 31
0.0
  0
LINE
  8
DETAIL
  6
CONTINUOUS
 62
     5
 10
221.367472715996
 20
-76.400000000000091
 30
0.0
 11
221.367472715996
 21
-78.400000000000091
 31
0.0
  0
LINE
  8
DETAIL
  6
CONTINUOUS
 62
     5
 10
221.367472715996
 20
-266.40000000000009
 30
0.0
 11
221.367472715996
 21
-268.40000000000009
 31
0.0
  0
LINE
  8
DETAIL
  6
CONTINUOUS
 62
     5
 10
221.367472715996
 20
-316.40000000000009
 30
0.0
 11
221.367472715996
 21
-314.40000000001419
 31
0.0
  0
LINE
  8
DETAIL
  6
CONTINUOUS
 62
     5
 10
221.367472715996
 20
-126.40000000000011
 30
0.0
 11
221.367472715996
 21
-124.4000000000149
 31
0.0
  0
LINE
  8
DETAIL
  6
CONTINUOUS
 62
     5
 10
222.23068047598639
 20
-76.400000000000091
 30
0.0
 11
222.23068047598639
 21
-78.400000000000091
 31
0.0
  0
LINE
  8
DETAIL
  6
CONTINUOUS
 62
     5
 10
222.23068047598639
 20
-266.40000000000009
 30
0.0
 11
222.23068047598639
 21
-268.40000000000009
 31
0.0
  0
LINE
  8
DETAIL
  6
CONTINUOUS
 62
     5
 10
222.23068047598639
 20
-316.40000000000009
 30
0.0
 11
222.23068047598639
 21
-314.40000000001419
 31
0.0
  0
LINE
  8
DETAIL
  6
CONTINUOUS
 62
     5
 10
222.23068047598639
 20
-126.40000000000011
 30
0.0
 11
222.23068047598639
 21
-124.4000000000149
 31
0.0
  0
LINE
  8
DETAIL
  6
CONTINUOUS
 62
     5
 10
222.79999999998839
 20
-401.00000000000551
 30
0.0
 11
222.79999999998839
 21
-3.0999999999912689
 31
0.0
  0
LINE
  8
DETAIL
  6
CONTINUOUS
 62
     5
 10
223.99999999998539
 20
-399.79999999999382
 30
0.0
 11
223.99999999998539
 21
-4.3000000000029104
 31
0.0
  0
LINE
  8
DETAIL
  6
CONTINUOUS
 62
     5
 10
227.29999999997381
 20
-314.40000000001419
 30
0.0
 11
227.29999999997381
 21
-268.40000000000009
 31
0.0
  0
LINE
  8
DETAIL
  6
CONTINUOUS
 62
     5
 10
227.29999999997381
 20
-124.4000000000149
 30
0.0
 11
227.29999999997381
 21
-78.400000000000091
 31
0.0
  0
LINE
  8
DETAIL
  6
CONTINUOUS
 62
     5
 10
-224.00000000001461
 20
-4.3000000000029104
 30
0.0
 11
223.99999999998451
 21
-4.3000000000031378
 31
0.0
  0
LINE
  8
DETAIL
  6
CONTINUOUS
 62
     5
 10
-222.80000000000291
 20
-3.0999999999912689
 30
0.0
 11
222.79999999998839
 21
-3.0999999999912689
 31
0.0
  0
LINE
  8
DETAIL
  6
CONTINUOUS
 62
     5
 10
-566.00000000001455
 20
-2.8000000000033651
 30
0.0
 11
-564.00000000001455
 21
-2.8000000000033651
 31
0.0
  0
LINE
  8
DETAIL
  6
CONTINUOUS
 62
     5
 10
563.99999999998545
 20
-2.8000000000033651
 30
0.0
 11
565.99999999998545
 21
-2.8000000000033651
 31
0.0
  0
LINE
  8
DETAIL
  6
CONTINUOUS
 62
     5
 10
565.99999999998545
 20
-1.3000000000029099
 30
0.0
 11
570.74999999998545
 21
-1.3000000000029099
 31
0.0
  0
LINE
  8
DETAIL
  6
CONTINUOUS
 62
     5
 10
-570.75
 20
-0.8000000000033651
 30
0.0
 11
-565.67127970601723
 21
-0.8000000000033651
 31
0.0
  0
LINE
  8
DETAIL
  6
CONTINUOUS
 62
     5
 10
-564.00000000001455
 20
-0.8000000000033651
 30
0.0
 11
-558.3143863100122
 21
-0.8000000000031378
 31
0.0
  0
LINE
  8
DETAIL
  6
CONTINUOUS
 62
     5
 10
558.31438630998218
 20
-0.8000000000031378
 30
0.0
 11
563.99999999998545
 21
-0.8000000000033651
 31
0.0
  0
LINE
  8
DETAIL
  6
CONTINUOUS
 62
     5
 10
565.67127970397996
 20
-0.8000000000033651
 30
0.0
 11
570.74999999998545
 21
-0.8000000000033651
 31
0.0
  0
LINE
  8
DETAIL
  6
CONTINUOUS
 62
     5
 10
-570.75
 20
0.0
 30
0.0
 11
-565.67127970601723
 21
0.0
 31
0.0
  0
LINE
  8
DETAIL
  6
CONTINUOUS
 62
     5
 10
-562.6470853920182
 20
0.0
 30
0.0
 11
562.64708539198909
 21
0.0
 31
0.0
  0
LINE
  8
DETAIL
  6
CONTINUOUS
 62
     5
 10
565.67127970397996
 20
0.0
 30
0.0
 11
570.74999999998545
 21
0.0
 31
0.0
  0
LINE
  8
DETAIL
  6
CONTINUOUS
 62
     5
 10
241.10000000000579
 20
-314.40000000001419
 30
0.0
 11
241.10000000000579
 21
-268.40000000000009
 31
0.0
  0
LINE
  8
DETAIL
  6
CONTINUOUS
 62
     5
 10
241.10000000000579
 20
-124.4000000000149
 30
0.0
 11
241.10000000000579
 21
-78.400000000000091
 31
0.0
  0
LINE
  8
DETAIL
  6
CONTINUOUS
 62
     5
 10
559.11438630998509
 20
0.0
 30
0.0
 11
557.01438630998018
 21
-2.100000000006276
 31
0.0
  0
LINE
  8
DETAIL
  6
CONTINUOUS
 62
     5
 10
563.99999999998636
 20
-1.8642654312807281
 30
0.0
 11
564.09558729997661
 21
-1.3221629159957049
 31
0.0
  0
LINE
  8
DETAIL
  6
CONTINUOUS
 62
     5
 10
564.64734603797842
 20
-2.8000000000033651
 30
0.0
 11
564.88343350197829
 21
-1.461081458008721
 31
0.0
  0
LINE
  8
DETAIL
  6
CONTINUOUS
 62
     5
 10
564.09558729997661
 20
-402.67783708399469
 30
0.0
 11
563.99999999998636
 21
-402.1357345687461
 31
0.0
  0
LINE
  8
DETAIL
  6
CONTINUOUS
 62
     5
 10
564.88343350197829
 20
-402.53891854199719
 30
0.0
 11
564.64734603797842
 21
-401.20000000000249
 31
0.0
  0
LINE
  8
DETAIL
  6
CONTINUOUS
 62
     5
 10
562.64708539198909
 20
0.0
 30
0.0
 11
562.64708539198909
 21
-0.8000000000033651
 31
0.0
  0
LINE
  8
DETAIL
  6
CONTINUOUS
 62
     5
 10
563.99999999998545
 20
-403.200000000003
 30
0.0
 11
563.99999999998545
 21
-401.20000000000249
 31
0.0
  0
LINE
  8
DETAIL
  6
CONTINUOUS
 62
     5
 10
563.99999999998545
 20
-2.8000000000033651
 30
0.0
 11
563.99999999998545
 21
-0.8000000000033651
 31
0.0
  0
LINE
  8
DETAIL
  6
CONTINUOUS
 62
     5
 10
564.99999999998545
 20
-402.200000000003
 30
0.0
 11
564.99999999998545
 21
-401.20000000000249
 31
0.0
  0
LINE
  8
DETAIL
  6
CONTINUOUS
 62
     5
 10
564.99999999998545
 20
-2.8000000000033651
 30
0.0
 11
564.99999999998545
 21
-1.8000000000029099
 31
0.0
  0
LINE
  8
DETAIL
  6
CONTINUOUS
 62
     5
 10
565.5
 20
-1.8000000000029099
 30
0.0
 11
565.5
 21
-2.8000000000033651
 31
0.0
  0
LINE
  8
DETAIL
  6
CONTINUOUS
 62
     5
 10
565.5
 20
-401.20000000000249
 30
0.0
 11
565.5
 21
-402.200000000003
 31
0.0
  0
LINE
  8
DETAIL
  6
CONTINUOUS
 62
     5
 10
565.99999999998545
 20
-401.20000000000249
 30
0.0
 11
565.99999999998545
 21
-2.8000000000033651
 31
0.0
  0
LINE
  8
DETAIL
  6
CONTINUOUS
 62
     5
 10
566.30000000000291
 20
-99.50000000001728
 30
0.0
 11
566.30000000000291
 21
-384.49889544400821
 31
0.0
  0
LINE
  8
DETAIL
  6
CONTINUOUS
 62
     5
 10
570.5
 20
-0.8000000000033651
 30
0.0
 11
570.5
 21
-1.3000000000029099
 31
0.0
  0
LINE
  8
DETAIL
  6
CONTINUOUS
 62
     5
 10
570.5
 20
-402.700000000003
 30
0.0
 11
570.5
 21
-403.200000000003
 31
0.0
  0
LINE
  8
DETAIL
  6
CONTINUOUS
 62
     5
 10
573.49999999998545
 20
-112.99999999899001
 30
0.0
 11
573.49999999998545
 21
-371.00000000000318
 31
0.0
  0
LINE
  8
DETAIL
  6
CONTINUOUS
 62
     5
 10
642.79999999998563
 20
-363.00000000000318
 30
0.0
 11
642.79999999998563
 21
-121.0000000000032
 31
0.0
  0
LINE
  8
DETAIL
  6
CONTINUOUS
 62
     5
 10
650.80000000000018
 20
-363.00000000000318
 30
0.0
 11
650.80000000000018
 21
-121.0000000000032
 31
0.0
  0
ARC
  8
DETAIL
  6
CONTINUOUS
 62
     5
 10
-229.30000000001749
 20
-209.450000000003
 30
0.0
 40
5.1339745959999972
 50
0.0
 51
180.0
  0
CIRCLE
  8
DETAIL
  6
CONTINUOUS
 62
     5
 10
-214.30000000001749
 20
-220.80000000000879
 30
0.0
 40
4.6999999999999984
  0
ARC
  8
DETAIL
  6
CONTINUOUS
 62
     5
 10
-217.80000000000291
 20
-251.2999999999943
 30
0.0
 40
2.9999999999999978
 50
270.0
 51
0.0
  0
ARC
  8
DETAIL
  6
CONTINUOUS
 62
     5
 10
-217.80000000000291
 20
-217.2999999999947
 30
0.0
 40
2.9999999999999978
 50
90.0
 51
180.0
  0
ARC
  8
DETAIL
  6
CONTINUOUS
 62
     5
 10
-210.80000000001749
 20
-217.2999999999947
 30
0.0
 40
2.9999999999999978
 50
0.0
 51
90.0
  0
ARC
  8
DETAIL
  6
CONTINUOUS
 62
     5
 10
-222.20526315800089
 20
-224.30000000000879
 30
0.0
 40
2.5947368419999979
 50
133.84961891519441
 51
186.65105007010379
  0
ARC
  8
DETAIL
  6
CONTINUOUS
 62
     5
 10
-222.20526315800089
 20
-244.30000000000879
 30
0.0
 40
2.5947368419999979
 50
133.84961891650281
 51
226.15038108349719
  0
ARC
  8
DETAIL
  6
CONTINUOUS
 62
     5
 10
-229.30000000001749
 20
-226.84999999999721
 30
0.0
 40
1.9499999999999991
 50
115.8832527379934
 51
1.476210342295877
  0
ARC
  8
DETAIL
  6
CONTINUOUS
 62
     5
 10
-229.30000000001749
 20
-209.450000000003
 30
0.0
 40
1.776965739999999
 50
0.0
 51
180.0
  0
ARC
  8
DETAIL
  6
CONTINUOUS
 62
     5
 10
-565.67127970601723
 20
-402.40000000000009
 30
0.0
 40
1.599999999999999
 50
270.0
 51
349.99999999999488
  0
ARC
  8
DETAIL
  6
CONTINUOUS
 62
     5
 10
-226.70000000001161
 20
-231.47004829800289
 30
0.0
 40
0.9999999999999994
 50
95.000000008081741
 51
180.0
  0
ARC
  8
DETAIL
  6
CONTINUOUS
 62
     5
 10
-226.70000000001161
 20
-237.12995170201481
 30
0.0
 40
0.9999999999999994
 50
180.0
 51
264.99999999191817
  0
ARC
  8
DETAIL
  6
CONTINUOUS
 62
     5
 10
-566.00000000001455
 20
-402.200000000003
 30
0.0
 40
0.9999999999999994
 50
270.00000000005213
 51
0.0
  0
ARC
  8
DETAIL
  6
CONTINUOUS
 62
     5
 10
-565.67127970601723
 20
-402.40000000000009
 30
0.0
 40
0.7999999999999996
 50
270.0
 51
349.99999999999488
  0
ARC
  8
DETAIL
  6
CONTINUOUS
 62
     5
 10
-566.00000000001455
 20
-402.200000000003
 30
0.0
 40
0.4999999999999997
 50
270.0
 51
0.0
  0
ARC
  8
DETAIL
  6
CONTINUOUS
 62
     5
 10
-229.30000000001749
 20
-194.4500000000028
 30
0.0
 40
5.1339745959999972
 50
180.0
 51
0.0
  0
ARC
  8
DETAIL
  6
CONTINUOUS
 62
     5
 10
-229.30000000001749
 20
-177.05000000000859
 30
0.0
 40
1.9499999999999991
 50
355.58605125340301
 51
244.51141259291489
  0
ARC
  8
DETAIL
  6
CONTINUOUS
 62
     5
 10
-229.30000000001749
 20
-194.4500000000028
 30
0.0
 40
1.776965739999999
 50
180.0
 51
0.0
  0
ARC
  8
DETAIL
  6
CONTINUOUS
 62
     5
 10
-565.67127970601723
 20
-1.5999999999912691
 30
0.0
 40
1.599999999999999
 50
10.00000000000502
 51
90.0
  0
ARC
  8
DETAIL
  6
CONTINUOUS
 62
     5
 10
-570.75
 20
-1.0500000000029099
 30
0.0
 40
1.0499999999999989
 50
90.0
 51
270.00000112386078
  0
ARC
  8
DETAIL
  6
CONTINUOUS
 62
     5
 10
-566.00000000001455
 20
-1.8000000000029099
 30
0.0
 40
0.9999999999999994
 50
0.0
 51
89.999999999843666
  0
ARC
  8
DETAIL
  6
CONTINUOUS
 62
     5
 10
-565.67127970601723
 20
-1.5999999999912691
 30
0.0
 40
0.7999999999999996
 50
10.00000000000502
 51
90.0
  0
ARC
  8
DETAIL
  6
CONTINUOUS
 62
     5
 10
-566.00000000001455
 20
-1.8000000000029099
 30
0.0
 40
0.4999999999999997
 50
0.0
 51
90.0
  0
ARC
  8
DETAIL
  6
CONTINUOUS
 62
     5
 10
-570.75
 20
-1.0500000000029099
 30
0.0
 40
0.2499999999999999
 50
90.0
 51
270.00000112386078
  0
CIRCLE
  8
DETAIL
  6
CONTINUOUS
 62
     5
 10
234.0999999999913
 20
-308.89999999999958
 30
0.0
 40
4.6999999999999984
  0
CIRCLE
  8
DETAIL
  6
CONTINUOUS
 62
     5
 10
234.0999999999913
 20
-283.90000000000009
 30
0.0
 40
4.6999999999999984
  0
ARC
  8
DETAIL
  6
CONTINUOUS
 62
     5
 10
565.67127970397996
 20
-402.40000000000009
 30
0.0
 40
1.599999999999999
 50
190.000000000005
 51
270.0
  0
ARC
  8
DETAIL
  6
CONTINUOUS
 62
     5
 10
570.74999999998545
 20
-402.95000000000249
 30
0.0
 40
1.0499999999999989
 50
270.0
 51
89.999963675954262
  0
ARC
  8
DETAIL
  6
CONTINUOUS
 62
     5
 10
565.99999999998545
 20
-402.200000000003
 30
0.0
 40
0.9999999999999994
 50
180.0
 51
269.99999999984368
  0
ARC
  8
DETAIL
  6
CONTINUOUS
 62
     5
 10
565.67127970397996
 20
-402.40000000000009
 30
0.0
 40
0.7999999999999996
 50
190.000000000005
 51
270.0
  0
ARC
  8
DETAIL
  6
CONTINUOUS
 62
     5
 10
565.99999999998545
 20
-402.200000000003
 30
0.0
 40
0.4999999999999997
 50
180.0
 51
270.0
  0
ARC
  8
DETAIL
  6
CONTINUOUS
 62
     5
 10
570.74999999998545
 20
-402.95000000000249
 30
0.0
 40
0.2499999999999999
 50
270.0
 51
89.999963675954262
  0
CIRCLE
  8
DETAIL
  6
CONTINUOUS
 62
     5
 10
234.0999999999913
 20
-118.89999999999991
 30
0.0
 40
4.6999999999999984
  0
CIRCLE
  8
DETAIL
  6
CONTINUOUS
 62
     5
 10
234.0999999999913
 20
-93.899999999999864
 30
0.0
 40
4.6999999999999984
  0
ARC
  8
DETAIL
  6
CONTINUOUS
 62
     5
 10
565.67127970397996
 20
-1.5999999999912691
 30
0.0
 40
1.599999999999999
 50
90.0
 51
169.999999999995
  0
ARC
  8
DETAIL
  6
CONTINUOUS
 62
     5
 10
565.99999999998545
 20
-1.8000000000029099
 30
0.0
 40
0.9999999999999994
 50
90.000000000052125
 51
180.0
  0
ARC
  8
DETAIL
  6
CONTINUOUS
 62
     5
 10
565.67127970397996
 20
-1.5999999999912691
 30
0.0
 40
0.7999999999999996
 50
90.0
 51
169.999999999995
  0
ARC
  8
DETAIL
  6
CONTINUOUS
 62
     5
 10
565.99999999998545
 20
-1.8000000000029099
 30
0.0
 40
0.4999999999999997
 50
90.0
 51
180.0
  0
LINE
  8
DETAIL
  6
CONTINUOUS
 62
     5
 10
221.02014352999689
 20
-266.40000000000009
 30
0.0
 11
220.62263196692069
 21
-266.45683629796082
 31
0.0
  0
LINE
  8
DETAIL
  6
CONTINUOUS
 62
     5
 10
220.62263196692069
 20
-266.45683629796082
 30
0.0
 11
220.24864502341666
 21
-266.61337297437166
 31
0.0
  0
LINE
  8
DETAIL
  6
CONTINUOUS
 62
     5
 10
220.24864502341666
 20
-266.61337297437166
 30
0.0
 11
219.92213598661687
 21
-266.84876480602799
 31
0.0
  0
LINE
  8
DETAIL
  6
CONTINUOUS
 62
     5
 10
219.92213598661687
 20
-266.84876480602799
 30
0.0
 11
219.64712387044816
 21
-267.1427319894338
 31
0.0
  0
LINE
  8
DETAIL
  6
CONTINUOUS
 62
     5
 10
219.64712387044816
 20
-267.1427319894338
 30
0.0
 11
219.42138026606395
 21
-267.47559720945304
 31
0.0
  0
LINE
  8
DETAIL
  6
CONTINUOUS
 62
     5
 10
219.42138026606395
 20
-267.47559720945304
 30
0.0
 11
219.24217503712603
 21
-267.83458092013137
 31
0.0
  0
LINE
  8
DETAIL
  6
CONTINUOUS
 62
     5
 10
219.24217503712603
 20
-267.83458092013137
 30
0.0
 11
219.1063731199273
 21
-268.21249324749323
 31
0.0
  0
LINE
  8
DETAIL
  6
CONTINUOUS
 62
     5
 10
219.1063731199273
 20
-268.21249324749323
 30
0.0
 11
219.01107302990869
 21
-268.60261705074333
 31
0.0
  0
LINE
  8
DETAIL
  6
CONTINUOUS
 62
     5
 10
219.01107302990869
 20
-268.60261705074333
 30
0.0
 11
218.95470913074831
 21
-268.99993368156953
 31
0.0
  0
LINE
  8
DETAIL
  6
CONTINUOUS
 62
     5
 10
218.95470913074831
 20
-268.99993368156953
 30
0.0
 11
218.93616841798939
 21
-269.40000000001419
 31
0.0
  0
LINE
  8
DETAIL
  6
CONTINUOUS
 62
     5
 10
218.93616841798939
 20
-313.40000000000009
 30
0.0
 11
218.95470913074826
 21
-313.800066317306
 31
0.0
  0
LINE
  8
DETAIL
  6
CONTINUOUS
 62
     5
 10
218.95470913074826
 20
-313.800066317306
 30
0.0
 11
219.01107302990869
 21
-314.19738294828585
 31
0.0
  0
LINE
  8
DETAIL
  6
CONTINUOUS
 62
     5
 10
219.01107302990869
 20
-314.19738294828585
 30
0.0
 11
219.10637311992733
 21
-314.58750675209984
 31
0.0
  0
LINE
  8
DETAIL
  6
CONTINUOUS
 62
     5
 10
219.10637311992733
 20
-314.58750675209984
 30
0.0
 11
219.24217503712603
 21
-314.96541907978138
 31
0.0
  0
LINE
  8
DETAIL
  6
CONTINUOUS
 62
     5
 10
219.24217503712603
 20
-314.96541907978138
 30
0.0
 11
219.42138026606395
 21
-315.32440279055317
 31
0.0
  0
LINE
  8
DETAIL
  6
CONTINUOUS
 62
     5
 10
219.42138026606395
 20
-315.32440279055317
 30
0.0
 11
219.64712387044813
 21
-315.6572680105798
 31
0.0
  0
LINE
  8
DETAIL
  6
CONTINUOUS
 62
     5
 10
219.64712387044813
 20
-315.6572680105798
 30
0.0
 11
219.92213598661689
 21
-315.95123519398561
 31
0.0
  0
LINE
  8
DETAIL
  6
CONTINUOUS
 62
     5
 10
219.92213598661689
 20
-315.95123519398561
 30
0.0
 11
220.24864502341663
 21
-316.18662702563836
 31
0.0
  0
LINE
  8
DETAIL
  6
CONTINUOUS
 62
     5
 10
220.24864502341663
 20
-316.18662702563836
 30
0.0
 11
220.62263196692066
 21
-316.34316370204294
 31
0.0
  0
LINE
  8
DETAIL
  6
CONTINUOUS
 62
     5
 10
220.62263196692066
 20
-316.34316370204294
 30
0.0
 11
221.02014352999689
 21
-316.40000000000009
 31
0.0
  0
LINE
  8
DETAIL
  6
CONTINUOUS
 62
     5
 10
221.02014352999689
 20
-76.400000000000091
 30
0.0
 11
220.62263196692069
 21
-76.456836297960933
 31
0.0
  0
LINE
  8
DETAIL
  6
CONTINUOUS
 62
     5
 10
220.62263196692069
 20
-76.456836297960933
 30
0.0
 11
220.24864502341666
 21
-76.613372974372012
 31
0.0
  0
LINE
  8
DETAIL
  6
CONTINUOUS
 62
     5
 10
220.24864502341666
 20
-76.613372974372012
 30
0.0
 11
219.92213598661687
 21
-76.848764806028299
 31
0.0
  0
LINE
  8
DETAIL
  6
CONTINUOUS
 62
     5
 10
219.92213598661687
 20
-76.848764806028299
 30
0.0
 11
219.64712387044816
 21
-77.14273198943394
 31
0.0
  0
LINE
  8
DETAIL
  6
CONTINUOUS
 62
     5
 10
219.64712387044816
 20
-77.14273198943394
 30
0.0
 11
219.42138026606395
 21
-77.475597209453184
 31
0.0
  0
LINE
  8
DETAIL
  6
CONTINUOUS
 62
     5
 10
219.42138026606395
 20
-77.475597209453184
 30
0.0
 11
219.24217503712603
 21
-77.83458092013143
 31
0.0
  0
LINE
  8
DETAIL
  6
CONTINUOUS
 62
     5
 10
219.24217503712603
 20
-77.83458092013143
 30
0.0
 11
219.1063731199273
 21
-78.212493247493384
 31
0.0
  0
LINE
  8
DETAIL
  6
CONTINUOUS
 62
     5
 10
219.1063731199273
 20
-78.212493247493384
 30
0.0
 11
219.01107302990869
 21
-78.60261705074349
 31
0.0
  0
LINE
  8
DETAIL
  6
CONTINUOUS
 62
     5
 10
219.01107302990869
 20
-78.60261705074349
 30
0.0
 11
218.95470913074831
 21
-78.999933681569772
 31
0.0
  0
LINE
  8
DETAIL
  6
CONTINUOUS
 62
     5
 10
218.95470913074831
 20
-78.999933681569772
 30
0.0
 11
218.93616841798939
 21
-79.40000000001487
 31
0.0
  0
LINE
  8
DETAIL
  6
CONTINUOUS
 62
     5
 10
218.93616841798939
 20
-123.40000000000011
 30
0.0
 11
218.95470913074826
 21
-123.80006631730642
 31
0.0
  0
LINE
  8
DETAIL
  6
CONTINUOUS
 62
     5
 10
218.95470913074826
 20
-123.80006631730642
 30
0.0
 11
219.01107302990869
 21
-124.19738294828619
 31
0.0
  0
LINE
  8
DETAIL
  6
CONTINUOUS
 62
     5
 10
219.01107302990869
 20
-124.19738294828619
 30
0.0
 11
219.10637311992733
 21
-124.58750675209991
 31
0.0
  0
LINE
  8
DETAIL
  6
CONTINUOUS
 62
     5
 10
219.10637311992733
 20
-124.58750675209991
 30
0.0
 11
219.24217503712603
 21
-124.96541907978131
 31
0.0
  0
LINE
  8
DETAIL
  6
CONTINUOUS
 62
     5
 10
219.24217503712603
 20
-124.96541907978131
 30
0.0
 11
219.42138026606395
 21
-125.32440279055299
 31
0.0
  0
LINE
  8
DETAIL
  6
CONTINUOUS
 62
     5
 10
219.42138026606395
 20
-125.32440279055299
 30
0.0
 11
219.64712387044813
 21
-125.65726801057957
 31
0.0
  0
LINE
  8
DETAIL
  6
CONTINUOUS
 62
     5
 10
219.64712387044813
 20
-125.65726801057957
 30
0.0
 11
219.92213598661689
 21
-125.95123519398544
 31
0.0
  0
LINE
  8
DETAIL
  6
CONTINUOUS
 62
     5
 10
219.92213598661689
 20
-125.95123519398544
 30
0.0
 11
220.24864502341663
 21
-126.1866270256383
 31
0.0
  0
LINE
  8
DETAIL
  6
CONTINUOUS
 62
     5
 10
220.24864502341663
 20
-126.1866270256383
 30
0.0
 11
220.62263196692066
 21
-126.34316370204294
 31
0.0
  0
LINE
  8
DETAIL
  6
CONTINUOUS
 62
     5
 10
220.62263196692066
 20
-126.34316370204294
 30
0.0
 11
221.02014352999689
 21
-126.40000000000011
 31
0.0
  0
LINE
  8
DETAIL
  6
CONTINUOUS
 62
     5
 10
-186.51238237001229
 20
-221.80000000000879
 30
0.0
 11
-186.56533132358376
 21
-222.55205315271633
 31
0.0
  0
LINE
  8
DETAIL
  6
CONTINUOUS
 62
     5
 10
-186.56533132358376
 20
-222.55205315271633
 30
0.0
 11
-186.72341260500991
 21
-223.29200987101569
 31
0.0
  0
LINE
  8
DETAIL
  6
CONTINUOUS
 62
     5
 10
-186.72341260500991
 20
-223.29200987101569
 30
0.0
 11
-186.98541541957869
 21
-224.00216521645842
 31
0.0
  0
LINE
  8
DETAIL
  6
CONTINUOUS
 62
     5
 10
-186.98541541957869
 20
-224.00216521645842
 30
0.0
 11
-187.34811416408488
 21
-224.66567635926657
 31
0.0
  0
LINE
  8
DETAIL
  6
CONTINUOUS
 62
     5
 10
-187.34811416408488
 20
-224.66567635926657
 30
0.0
 11
-187.80588259446796
 21
-225.26672767066077
 31
0.0
  0
LINE
  8
DETAIL
  6
CONTINUOUS
 62
     5
 10
-187.80588259446796
 20
-225.26672767066077
 30
0.0
 11
-188.35207888740601
 21
-225.78953021022045
 31
0.0
  0
LINE
  8
DETAIL
  6
CONTINUOUS
 62
     5
 10
-188.35207888740601
 20
-225.78953021022045
 30
0.0
 11
-188.97541165338316
 21
-226.2181177531566
 31
0.0
  0
LINE
  8
DETAIL
  6
CONTINUOUS
 62
     5
 10
-188.97541165338316
 20
-226.2181177531566
 30
0.0
 11
-189.6628646366899
 21
-226.53658823478187
 31
0.0
  0
LINE
  8
DETAIL
  6
CONTINUOUS
 62
     5
 10
-189.6628646366899
 20
-226.53658823478187
 30
0.0
 11
-190.39542857611357
 21
-226.73297752727805
 31
0.0
  0
LINE
  8
DETAIL
  6
CONTINUOUS
 62
     5
 10
-190.39542857611357
 20
-226.73297752727805
 30
0.0
 11
-191.14697540600901
 21
-226.8000000000084
 31
0.0
  0
LINE
  8
DETAIL
  6
CONTINUOUS
 62
     5
 10
-188.71238237000941
 20
-221.80000000000879
 30
0.0
 11
-188.75226140210219
 21
-222.30433526498646
 31
0.0
  0
LINE
  8
DETAIL
  6
CONTINUOUS
 62
     5
 10
-188.75226140210219
 20
-222.30433526498646
 30
0.0
 11
-188.87280995926369
 21
-222.80216604647165
 31
0.0
  0
LINE
  8
DETAIL
  6
CONTINUOUS
 62
     5
 10
-188.87280995926369
 20
-222.80216604647165
 30
0.0
 11
-189.07539526653446
 21
-223.27460942173263
 31
0.0
  0
LINE
  8
DETAIL
  6
CONTINUOUS
 62
     5
 10
-189.07539526653446
 20
-223.27460942173263
 30
0.0
 11
-189.36138454895519
 21
-223.70278246803775
 31
0.0
  0
LINE
  8
DETAIL
  6
CONTINUOUS
 62
     5
 10
-189.36138454895519
 20
-223.70278246803775
 30
0.0
 11
-189.7305133836347
 21
-224.06783854993077
 31
0.0
  0
LINE
  8
DETAIL
  6
CONTINUOUS
 62
     5
 10
-189.7305133836347
 20
-224.06783854993077
 30
0.0
 11
-190.16717782814203
 21
-224.35127217746901
 31
0.0
  0
LINE
  8
DETAIL
  6
CONTINUOUS
 62
     5
 10
-190.16717782814203
 20
-224.35127217746901
 30
0.0
 11
-190.64736584373321
 21
-224.53476485381134
 31
0.0
  0
LINE
  8
DETAIL
  6
CONTINUOUS
 62
     5
 10
-190.64736584373321
 20
-224.53476485381134
 30
0.0
 11
-191.14697915401479
 21
-224.6000000000117
 31
0.0
  0
LINE
  8
DETAIL
  6
CONTINUOUS
 62
     5
 10
-191.14697540600901
 20
-177.200000000003
 30
0.0
 11
-190.3954287574104
 21
-177.26702245346445
 31
0.0
  0
LINE
  8
DETAIL
  6
CONTINUOUS
 62
     5
 10
-190.3954287574104
 20
-177.26702245346445
 30
0.0
 11
-189.66286501102516
 21
-177.46341168756419
 31
0.0
  0
LINE
  8
DETAIL
  6
CONTINUOUS
 62
     5
 10
-189.66286501102516
 20
-177.46341168756419
 30
0.0
 11
-188.97541215250604
 21
-177.781882060708
 31
0.0
  0
LINE
  8
DETAIL
  6
CONTINUOUS
 62
     5
 10
-188.97541215250604
 20
-177.781882060708
 30
0.0
 11
-188.35207938526315
 21
-178.21046942723851
 31
0.0
  0
LINE
  8
DETAIL
  6
CONTINUOUS
 62
     5
 10
-188.35207938526315
 20
-178.21046942723851
 30
0.0
 11
-187.80588305898576
 21
-178.73327178623569
 31
0.0
  0
LINE
  8
DETAIL
  6
CONTINUOUS
 62
     5
 10
-187.80588305898576
 20
-178.73327178623569
 30
0.0
 11
-187.34811464094918
 21
-179.33432295503232
 31
0.0
  0
LINE
  8
DETAIL
  6
CONTINUOUS
 62
     5
 10
-187.34811464094918
 20
-179.33432295503232
 30
0.0
 11
-186.98541589376572
 21
-179.99783394700987
 31
0.0
  0
LINE
  8
DETAIL
  6
CONTINUOUS
 62
     5
 10
-186.98541589376572
 20
-179.99783394700987
 30
0.0
 11
-186.72341297880106
 21
-180.70798907913411
 31
0.0
  0
LINE
  8
DETAIL
  6
CONTINUOUS
 62
     5
 10
-186.72341297880106
 20
-180.70798907913411
 30
0.0
 11
-186.56533152360697
 21
-181.4479455532686
 31
0.0
  0
LINE
  8
DETAIL
  6
CONTINUOUS
 62
     5
 10
-186.56533152360697
 20
-181.4479455532686
 30
0.0
 11
-186.51238237001229
 21
-182.19999850600149
 31
0.0
  0
LINE
  8
DETAIL
  6
CONTINUOUS
 62
     5
 10
-191.14697915401479
 20
-179.40000000001419
 30
0.0
 11
-190.64736592405771
 21
-179.46523510505793
 31
0.0
  0
LINE
  8
DETAIL
  6
CONTINUOUS
 62
     5
 10
-190.64736592405771
 20
-179.46523510505793
 30
0.0
 11
-190.16717796571166
 21
-179.6487276791008
 31
0.0
  0
LINE
  8
DETAIL
  6
CONTINUOUS
 62
     5
 10
-190.16717796571166
 20
-179.6487276791008
 30
0.0
 11
-189.73051355543259
 21
-179.93216117010181
 31
0.0
  0
LINE
  8
DETAIL
  6
CONTINUOUS
 62
     5
 10
-189.73051355543259
 20
-179.93216117010181
 30
0.0
 11
-189.36138473260166
 21
-180.2972171080462
 31
0.0
  0
LINE
  8
DETAIL
  6
CONTINUOUS
 62
     5
 10
-189.36138473260166
 20
-180.2972171080462
 30
0.0
 11
-189.07539544736639
 21
-180.72539002105026
 31
0.0
  0
LINE
  8
DETAIL
  6
CONTINUOUS
 62
     5
 10
-189.07539544736639
 20
-180.72539002105026
 30
0.0
 11
-188.87281011621602
 21
-181.19783327511973
 31
0.0
  0
LINE
  8
DETAIL
  6
CONTINUOUS
 62
     5
 10
-188.87281011621602
 20
-181.19783327511973
 30
0.0
 11
-188.75226150261039
 21
-181.69566394713962
 31
0.0
  0
LINE
  8
DETAIL
  6
CONTINUOUS
 62
     5
 10
-188.75226150261039
 20
-181.69566394713962
 30
0.0
 11
-188.71238237000941
 21
-182.19999911399489
 31
0.0
  0
LINE
  8
DETAIL
  6
CONTINUOUS
 62
     5
 10
-228.09973986800469
 20
-182.04978400000849
 30
0.0
 11
-228.09724494172522
 21
-181.71812980148772
 31
0.0
  0
LINE
  8
DETAIL
  6
CONTINUOUS
 62
     5
 10
-228.09724494172522
 20
-181.71812980148772
 30
0.0
 11
-228.09225623986069
 21
-181.38648049081422
 31
0.0
  0
LINE
  8
DETAIL
  6
CONTINUOUS
 62
     5
 10
-228.09225623986069
 20
-181.38648049081422
 30
0.0
 11
-228.08500105548751
 21
-181.05478586974436
 31
0.0
  0
LINE
  8
DETAIL
  6
CONTINUOUS
 62
     5
 10
-228.08500105548751
 20
-181.05478586974436
 30
0.0
 11
-228.07503245088211
 21
-180.72310695934465
 31
0.0
  0
LINE
  8
DETAIL
  6
CONTINUOUS
 62
     5
 10
-228.07503245088211
 20
-180.72310695934465
 30
0.0
 11
-228.06154110993168
 21
-180.39156455765195
 31
0.0
  0
LINE
  8
DETAIL
  6
CONTINUOUS
 62
     5
 10
-228.06154110993168
 20
-180.39156455765195
 30
0.0
 11
-228.04371423633708
 21
-180.06028003678517
 31
0.0
  0
LINE
  8
DETAIL
  6
CONTINUOUS
 62
     5
 10
-228.04371423633708
 20
-180.06028003678517
 30
0.0
 11
-228.02073903379937
 21
-179.72937476886338
 31
0.0
  0
LINE
  8
DETAIL
  6
CONTINUOUS
 62
     5
 10
-228.02073903379937
 20
-179.72937476886338
 30
0.0
 11
-227.9918027060194
 21
-179.39897012600551
 31
0.0
  0
LINE
  8
DETAIL
  6
CONTINUOUS
 62
     5
 10
-230.29975373602059
 20
-182.0501574700088
 30
0.0
 11
-230.29589742237988
 21
-181.59172461456089
 31
0.0
  0
LINE
  8
DETAIL
  6
CONTINUOUS
 62
     5
 10
-230.29589742237988
 20
-181.59172461456089
 30
0.0
 11
-230.28719743175961
 21
-181.1333525653622
 31
0.0
  0
LINE
  8
DETAIL
  6
CONTINUOUS
 62
     5
 10
-230.28719743175961
 20
-181.1333525653622
 30
0.0
 11
-230.27343930624718
 21
-180.67505703398015
 31
0.0
  0
LINE
  8
DETAIL
  6
CONTINUOUS
 62
     5
 10
-230.27343930624718
 20
-180.67505703398015
 30
0.0
 11
-230.25439462986463
 21
-180.21685589630937
 31
0.0
  0
LINE
  8
DETAIL
  6
CONTINUOUS
 62
     5
 10
-230.25439462986463
 20
-180.21685589630937
 30
0.0
 11
-230.22868812160667
 21
-179.7589448602894
 31
0.0
  0
LINE
  8
DETAIL
  6
CONTINUOUS
 62
     5
 10
-230.22868812160667
 20
-179.7589448602894
 30
0.0
 11
-230.19296160622423
 21
-179.30182709997825
 31
0.0
  0
LINE
  8
DETAIL
  6
CONTINUOUS
 62
     5
 10
-230.19296160622423
 20
-179.30182709997825
 30
0.0
 11
-230.14359714669419
 21
-178.84604863550351
 31
0.0
  0
LINE
  8
DETAIL
  6
CONTINUOUS
 62
     5
 10
-230.14359714669419
 20
-178.84604863550351
 30
0.0
 11
-230.07160604511225
 21
-178.39321663831717
 31
0.0
  0
LINE
  8
DETAIL
  6
CONTINUOUS
 62
     5
 10
-230.07160604511225
 20
-178.39321663831717
 30
0.0
 11
-229.94197107595289
 21
-177.95323837734151
 31
0.0
  0
LINE
  8
DETAIL
  6
CONTINUOUS
 62
     5
 10
-229.94197107595289
 20
-177.95323837734151
 30
0.0
 11
-229.69432962598927
 21
-177.5648521758107
 31
0.0
  0
LINE
  8
DETAIL
  6
CONTINUOUS
 62
     5
 10
-229.69432962598927
 20
-177.5648521758107
 30
0.0
 11
-229.31354032318546
 21
-177.29739663565019
 31
0.0
  0
LINE
  8
DETAIL
  6
CONTINUOUS
 62
     5
 10
-229.31354032318546
 20
-177.29739663565019
 30
0.0
 11
-228.86011262600371
 21
-177.200000000003
 31
0.0
  0
LINE
  8
DETAIL
  6
CONTINUOUS
 62
     5
 10
-227.9918887120148
 20
-224.60012354600491
 30
0.0
 11
-228.02114194688099
 21
-224.25727492951827
 31
0.0
  0
LINE
  8
DETAIL
  6
CONTINUOUS
 62
     5
 10
-228.02114194688099
 20
-224.25727492951827
 30
0.0
 11
-228.0440061942322
 21
-223.91391049668204
 31
0.0
  0
LINE
  8
DETAIL
  6
CONTINUOUS
 62
     5
 10
-228.0440061942322
 20
-223.91391049668204
 30
0.0
 11
-228.06231229326914
 21
-223.57026607418277
 31
0.0
  0
LINE
  8
DETAIL
  6
CONTINUOUS
 62
     5
 10
-228.06231229326914
 20
-223.57026607418277
 30
0.0
 11
-228.07653508201719
 21
-223.22641166884165
 31
0.0
  0
LINE
  8
DETAIL
  6
CONTINUOUS
 62
     5
 10
-228.07653508201719
 20
-223.22641166884165
 30
0.0
 11
-228.08704345767043
 21
-222.88240433240682
 31
0.0
  0
LINE
  8
DETAIL
  6
CONTINUOUS
 62
     5
 10
-228.08704345767043
 20
-222.88240433240682
 30
0.0
 11
-228.09420631742293
 21
-222.53830111662626
 31
0.0
  0
LINE
  8
DETAIL
  6
CONTINUOUS
 62
     5
 10
-228.09420631742293
 20
-222.53830111662626
 30
0.0
 11
-228.09839255846859
 21
-222.19415907324799
 31
0.0
  0
LINE
  8
DETAIL
  6
CONTINUOUS
 62
     5
 10
-228.09839255846859
 20
-222.19415907324799
 30
0.0
 11
-228.09997107800149
 21
-221.85003525402001
 31
0.0
  0
LINE
  8
DETAIL
  6
CONTINUOUS
 62
     5
 10
-228.86011262600371
 20
-226.8000000000084
 30
0.0
 11
-229.32139703343199
 21
-226.69882826881596
 31
0.0
  0
LINE
  8
DETAIL
  6
CONTINUOUS
 62
     5
 10
-229.32139703343199
 20
-226.69882826881596
 30
0.0
 11
-229.70600457511887
 21
-226.42223923428892
 31
0.0
  0
LINE
  8
DETAIL
  6
CONTINUOUS
 62
     5
 10
-229.70600457511887
 20
-226.42223923428892
 30
0.0
 11
-229.95183989773366
 21
-226.02304213451063
 31
0.0
  0
LINE
  8
DETAIL
  6
CONTINUOUS
 62
     5
 10
-229.95183989773366
 20
-226.02304213451063
 30
0.0
 11
-230.07821102652372
 21
-225.57358464293364
 31
0.0
  0
LINE
  8
DETAIL
  6
CONTINUOUS
 62
     5
 10
-230.07821102652372
 20
-225.57358464293364
 30
0.0
 11
-230.14879538353006
 21
-225.11219621579988
 31
0.0
  0
LINE
  8
DETAIL
  6
CONTINUOUS
 62
     5
 10
-230.14879538353006
 20
-225.11219621579988
 30
0.0
 11
-230.19743363672541
 21
-224.64804484810747
 31
0.0
  0
LINE
  8
DETAIL
  6
CONTINUOUS
 62
     5
 10
-230.19743363672541
 20
-224.64804484810747
 30
0.0
 11
-230.23252832100616
 21
-224.18260458361678
 31
0.0
  0
LINE
  8
DETAIL
  6
CONTINUOUS
 62
     5
 10
-230.23252832100616
 20
-224.18260458361678
 30
0.0
 11
-230.25763214197747
 21
-223.71640092946564
 31
0.0
  0
LINE
  8
DETAIL
  6
CONTINUOUS
 62
     5
 10
-230.25763214197747
 20
-223.71640092946564
 30
0.0
 11
-230.27605324723154
 21
-223.24992059383868
 31
0.0
  0
LINE
  8
DETAIL
  6
CONTINUOUS
 62
     5
 10
-230.27605324723154
 20
-223.24992059383868
 30
0.0
 11
-230.28912189252776
 21
-222.78335296054524
 31
0.0
  0
LINE
  8
DETAIL
  6
CONTINUOUS
 62
     5
 10
-230.28912189252776
 20
-222.78335296054524
 30
0.0
 11
-230.29703412036679
 21
-222.31671691405643
 31
0.0
  0
LINE
  8
DETAIL
  6
CONTINUOUS
 62
     5
 10
-230.29703412036679
 20
-222.31671691405643
 30
0.0
 11
-230.29997253000329
 21
-221.8500293180027
 31
0.0
  0
ARC
  8
DETAIL
  6
CONTINUOUS
 62
     5
 10
570.74999999998545
 20
-1.0500000000029099
 30
0.0
 40
1.0499999999999989
 50
270.0
 51
89.999963675954262
  0
ARC
  8
DETAIL
  6
CONTINUOUS
 62
     5
 10
570.74999999998545
 20
-1.0500000000029099
 30
0.0
 40
0.2499999999999999
 50
270.0
 51
89.999963675954262
  0
LINE
  8
DETAIL
  6
CONTINUOUS
 62
     5
 10
567.49999999998545
 20
-1.3000000000029099
 30
0.0
 11
567.49999999998545
 21
-2.100000000006276
 31
0.0
  0
LINE
  8
DETAIL
  6
CONTINUOUS
 62
     5
 10
567.49999999998545
 20
-2.100000000006276
 30
0.0
 11
570.74999999998545
 21
-2.100000000006276
 31
0.0
  0
LINE
  8
DETAIL
  6
CONTINUOUS
 62
     5
 10
557.01438630998018
 20
-2.100000000006276
 30
0.0
 11
-557.01438631000929
 21
-2.100000000006276
 31
0.0
  0
LINE
  8
DETAIL
  6
CONTINUOUS
 62
     5
 10
-570.75
 20
-1.3000000000029099
 30
0.0
 11
-566.00000000001455
 21
-1.3000000000029099
 31
0.0
  0
LINE
  8
DETAIL
  6
CONTINUOUS
 62
     5
 10
-570.75
 20
-2.100000000006276
 30
0.0
 11
-567.50000000001455
 21
-2.100000000006276
 31
0.0
  0
LINE
  8
DETAIL
  6
CONTINUOUS
 62
     5
 10
-567.50000000001455
 20
-1.3000000000029099
 30
0.0
 11
-567.50000000001455
 21
-2.100000000006276
 31
0.0
  0
LINE
  8
DETAIL
  6
CONTINUOUS
 62
     5
 10
-570.75
 20
-402.700000000003
 30
0.0
 11
-566.00000000001455
 21
-402.700000000003
 31
0.0
  0
ARC
  8
DETAIL
  6
CONTINUOUS
 62
     5
 10
-570.75
 20
-402.95000000000249
 30
0.0
 40
1.0499999999999989
 50
90.0
 51
270.00000112386078
  0
ARC
  8
DETAIL
  6
CONTINUOUS
 62
     5
 10
-570.75
 20
-402.95000000000249
 30
0.0
 40
0.2499999999999999
 50
90.0
 51
270.00000112386078
  0
LINE
  8
DETAIL
  6
CONTINUOUS
 62
     5
 10
-570.75
 20
-401.90000000001459
 30
0.0
 11
-567.50000000001455
 21
-401.90000000001459
 31
0.0
  0
LINE
  8
DETAIL
  6
CONTINUOUS
 62
     5
 10
-567.50000000001455
 20
-402.700000000003
 30
0.0
 11
-567.50000000001455
 21
-401.90000000001459
 31
0.0
  0
LINE
  8
DETAIL
  6
CONTINUOUS
 62
     5
 10
-464.80000000000291
 20
-401.90000000001459
 30
0.0
 11
260.69999999999709
 21
-401.90000000001459
 31
0.0
  0
LINE
  8
DETAIL
  6
CONTINUOUS
 62
     5
 10
570.74999999998545
 20
-401.90000000001459
 30
0.0
 11
567.49999999998545
 21
-401.90000000001459
 31
0.0
  0
LINE
  8
DETAIL
  6
CONTINUOUS
 62
     5
 10
567.49999999998545
 20
-401.90000000001459
 30
0.0
 11
567.49999999998545
 21
-402.700000000003
 31
0.0
  0
LINE
  8
DETAIL
  6
CONTINUOUS
 62
     5
 10
566.30000000000291
 20
-113.0000000000032
 30
0.0
 11
573.49999999998545
 21
-113.0000000000032
 31
0.0
  0
LINE
  8
DETAIL
  6
CONTINUOUS
 62
     5
 10
-570.50000000001455
 20
-807.19999999999436
 30
0.0
 11
-570.50000000001455
 21
-806.69999999999345
 31
0.0
  0
LINE
  8
DETAIL
  6
CONTINUOUS
 62
     5
 10
-570.50000000001455
 20
-405.29999999999382
 30
0.0
 11
-570.50000000001455
 21
-404.79999999999433
 31
0.0
  0
LINE
  8
DETAIL
  6
CONTINUOUS
 62
     5
 10
-566.00000000001455
 20
-805.19999999999345
 30
0.0
 11
-566.00000000001455
 21
-406.79999999999433
 31
0.0
  0
LINE
  8
DETAIL
  6
CONTINUOUS
 62
     5
 10
-565.50000000001455
 20
-806.19999999999436
 30
0.0
 11
-565.50000000001455
 21
-805.19999999999345
 31
0.0
  0
LINE
  8
DETAIL
  6
CONTINUOUS
 62
     5
 10
-565.50000000001455
 20
-406.79999999999433
 30
0.0
 11
-565.50000000001455
 21
-405.79999999999433
 31
0.0
  0
LINE
  8
DETAIL
  6
CONTINUOUS
 62
     5
 10
-565.00000000001455
 20
-405.79999999999433
 30
0.0
 11
-565.00000000001455
 21
-406.79999999999433
 31
0.0
  0
LINE
  8
DETAIL
  6
CONTINUOUS
 62
     5
 10
-565.00000000001455
 20
-805.19999999999345
 30
0.0
 11
-565.00000000001455
 21
-806.19999999999436
 31
0.0
  0
LINE
  8
DETAIL
  6
CONTINUOUS
 62
     5
 10
-564.00000000001455
 20
-404.79999999999433
 30
0.0
 11
-564.00000000001455
 21
-406.79999999999433
 31
0.0
  0
LINE
  8
DETAIL
  6
CONTINUOUS
 62
     5
 10
-564.00000000001455
 20
-807.19999999999436
 30
0.0
 11
-564.00000000001455
 21
-805.19999999999345
 31
0.0
  0
LINE
  8
DETAIL
  6
CONTINUOUS
 62
     5
 10
-562.6470853920182
 20
-403.19999999998799
 30
0.0
 11
-562.6470853920182
 21
-404.79999999999433
 31
0.0
  0
LINE
  8
DETAIL
  6
CONTINUOUS
 62
     5
 10
-562.60000000002037
 20
-807.99999999998226
 30
0.0
 11
-562.60000000002037
 21
-807.19999999999436
 31
0.0
  0
LINE
  8
DETAIL
  6
CONTINUOUS
 62
     5
 10
-558.8970853920182
 20
-403.19999999998799
 30
0.0
 11
-558.8970853920182
 21
-404.79999999999433
 31
0.0
  0
LINE
  8
DETAIL
  6
CONTINUOUS
 62
     5
 10
-564.64734604001569
 20
-805.19999999999345
 30
0.0
 11
-564.88343350401556
 21
-806.53891854198855
 31
0.0
  0
LINE
  8
DETAIL
  6
CONTINUOUS
 62
     5
 10
-564.00000000001364
 20
-806.13573456873655
 30
0.0
 11
-564.09558730000572
 21
-806.67783708398611
 31
0.0
  0
LINE
  8
DETAIL
  6
CONTINUOUS
 62
     5
 10
-564.88343350401556
 20
-405.46108145799923
 30
0.0
 11
-564.64734604001569
 21
-406.79999999999433
 31
0.0
  0
LINE
  8
DETAIL
  6
CONTINUOUS
 62
     5
 10
-564.09558730000572
 20
-405.32216291598752
 30
0.0
 11
-564.00000000001455
 21
-405.86426543127391
 31
0.0
  0
LINE
  8
DETAIL
  6
CONTINUOUS
 62
     5
 10
-234.4339745960169
 20
-613.44999999999436
 30
0.0
 11
-234.4339745960169
 21
-625.84999999998854
 31
0.0
  0
LINE
  8
DETAIL
  6
CONTINUOUS
 62
     5
 10
-234.4339745960169
 20
-598.44999999999391
 30
0.0
 11
-234.4339745960169
 21
-586.04999999999973
 31
0.0
  0
LINE
  8
DETAIL
  6
CONTINUOUS
 62
     5
 10
-231.07696574000869
 20
-613.44999999999436
 30
0.0
 11
-231.07696574000869
 21
-625.84999999998854
 31
0.0
  0
LINE
  8
DETAIL
  6
CONTINUOUS
 62
     5
 10
-231.07696574000869
 20
-598.44999999999391
 30
0.0
 11
-231.07696574000869
 21
-586.04999999999973
 31
0.0
  0
LINE
  8
DETAIL
  6
CONTINUOUS
 62
     5
 10
-227.70000000002619
 20
-641.12995170200566
 30
0.0
 11
-227.70000000002619
 21
-635.47004829799425
 31
0.0
  0
LINE
  8
DETAIL
  6
CONTINUOUS
 62
     5
 10
-227.52303426200521
 20
-613.44999999999436
 30
0.0
 11
-227.52303426200521
 21
-625.84999999998854
 31
0.0
  0
LINE
  8
DETAIL
  6
CONTINUOUS
 62
     5
 10
-227.52303426200521
 20
-598.44999999999391
 30
0.0
 11
-227.52303426200521
 21
-586.04999999999973
 31
0.0
  0
LINE
  8
DETAIL
  6
CONTINUOUS
 62
     5
 10
-224.80000000000291
 20
-642.29999999999973
 30
0.0
 11
-224.80000000000291
 21
-634.30000000000018
 31
0.0
  0
LINE
  8
DETAIL
  6
CONTINUOUS
 62
     5
 10
-224.16602540400339
 20
-613.44999999999436
 30
0.0
 11
-224.16602540400339
 21
-625.84999999998854
 31
0.0
  0
LINE
  8
DETAIL
  6
CONTINUOUS
 62
     5
 10
-224.16602540400339
 20
-598.44999999999391
 30
0.0
 11
-224.16602540400339
 21
-586.04999999999973
 31
0.0
  0
LINE
  8
DETAIL
  6
CONTINUOUS
 62
     5
 10
-224.00000000001461
 20
-408.29999999999433
 30
0.0
 11
-224.00000000001461
 21
-581.19999999999391
 31
0.0
  0
LINE
  8
DETAIL
  6
CONTINUOUS
 62
     5
 10
-224.00000000001461
 20
-583.40000000000555
 30
0.0
 11
-224.00000000001461
 21
-628.60000000000264
 31
0.0
  0
LINE
  8
DETAIL
  6
CONTINUOUS
 62
     5
 10
-224.00000000001461
 20
-630.80000000000018
 30
0.0
 11
-224.00000000001461
 21
-803.79999999998563
 31
0.0
  0
LINE
  8
DETAIL
  6
CONTINUOUS
 62
     5
 10
-222.80000000000291
 20
-407.09999999998217
 30
0.0
 11
-222.80000000000291
 21
-581.19999999999391
 31
0.0
  0
LINE
  8
DETAIL
  6
CONTINUOUS
 62
     5
 10
-222.80000000000291
 20
-583.40000000000555
 30
0.0
 11
-222.80000000000291
 21
-628.60000000000264
 31
0.0
  0
LINE
  8
DETAIL
  6
CONTINUOUS
 62
     5
 10
-222.80000000000291
 20
-804.99999999999682
 30
0.0
 11
-222.80000000000291
 21
-630.80000000000018
 31
0.0
  0
LINE
  8
DETAIL
  6
CONTINUOUS
 62
     5
 10
-221.80000000001749
 20
-618.30000000000018
 30
0.0
 11
-221.80000000001749
 21
-628.60000000000264
 31
0.0
  0
LINE
  8
DETAIL
  6
CONTINUOUS
 62
     5
 10
-221.80000000001749
 20
-630.80000000000018
 30
0.0
 11
-221.80000000001749
 21
-632.30000000000018
 31
0.0
  0
LINE
  8
DETAIL
  6
CONTINUOUS
 62
     5
 10
-221.80000000001749
 20
-658.29999999999973
 30
0.0
 11
-221.80000000001749
 21
-650.10000000000309
 31
0.0
  0
LINE
  8
DETAIL
  6
CONTINUOUS
 62
     5
 10
-559.06730091800182
 20
-807.99999999998181
 30
0.0
 11
-556.96730091802601
 21
-805.90000000000509
 31
0.0
  0
LINE
  8
DETAIL
  6
CONTINUOUS
 62
     5
 10
-558.89708539201729
 20
-404.21730091798833
 30
0.0
 11
-557.01438631000929
 21
-406.09999999999718
 31
0.0
  0
LINE
  8
DETAIL
  6
CONTINUOUS
 62
     5
 10
-220.80000000001749
 20
-650.10000000000309
 30
0.0
 11
-220.80000000001749
 21
-652.09999999998854
 31
0.0
  0
LINE
  8
DETAIL
  6
CONTINUOUS
 62
     5
 10
-220.80000000001749
 20
-632.30000000000018
 30
0.0
 11
-220.80000000001749
 21
-621.29999999998563
 31
0.0
  0
LINE
  8
DETAIL
  6
CONTINUOUS
 62
     5
 10
-214.80000000000291
 20
-652.09999999998854
 30
0.0
 11
-214.80000000000291
 21
-655.29999999998563
 31
0.0
  0
LINE
  8
DETAIL
  6
CONTINUOUS
 62
     5
 10
-207.80000000000291
 20
-621.29999999998563
 30
0.0
 11
-207.80000000000291
 21
-652.09999999998854
 31
0.0
  0
LINE
  8
DETAIL
  6
CONTINUOUS
 62
     5
 10
-188.71238237000941
 20
-586.19999999999436
 30
0.0
 11
-188.71238237000941
 21
-625.79998952000096
 31
0.0
  0
LINE
  8
DETAIL
  6
CONTINUOUS
 62
     5
 10
-186.51238237001229
 20
-586.19999999999436
 30
0.0
 11
-186.51238237001229
 21
-625.79998952000096
 31
0.0
  0
LINE
  8
DETAIL
  6
CONTINUOUS
 62
     5
 10
570.74999999998545
 20
-807.99999999998226
 30
0.0
 11
565.67127970397996
 21
-807.99999999998226
 31
0.0
  0
LINE
  8
DETAIL
  6
CONTINUOUS
 62
     5
 10
-570.75
 20
-807.99999999998226
 30
0.0
 11
-565.67127970601723
 21
-807.99999999998226
 31
0.0
  0
LINE
  8
DETAIL
  6
CONTINUOUS
 62
     5
 10
-562.60000000002037
 20
-807.99999999998226
 30
0.0
 11
562.59999999999127
 21
-807.99999999998226
 31
0.0
  0
LINE
  8
DETAIL
  6
CONTINUOUS
 62
     5
 10
570.74999999998545
 20
-807.19999999999436
 30
0.0
 11
565.67127970397996
 21
-807.19999999999436
 31
0.0
  0
LINE
  8
DETAIL
  6
CONTINUOUS
 62
     5
 10
-558.26730091801437
 20
-807.19999999999436
 30
0.0
 11
-564.00000000001455
 21
-807.19999999999436
 31
0.0
  0
LINE
  8
DETAIL
  6
CONTINUOUS
 62
     5
 10
-570.75
 20
-807.19999999999436
 30
0.0
 11
-565.67127970601723
 21
-807.19999999999436
 31
0.0
  0
LINE
  8
DETAIL
  6
CONTINUOUS
 62
     5
 10
558.26730091798436
 20
-807.19999999999436
 30
0.0
 11
563.99999999998545
 21
-807.19999999999436
 31
0.0
  0
LINE
  8
DETAIL
  6
CONTINUOUS
 62
     5
 10
565.99999999998545
 20
-806.69999999999345
 30
0.0
 11
570.74999999998545
 21
-806.69999999999345
 31
0.0
  0
LINE
  8
DETAIL
  6
CONTINUOUS
 62
     5
 10
-566.00000000001455
 20
-805.19999999999345
 30
0.0
 11
-564.00000000001455
 21
-805.19999999999345
 31
0.0
  0
LINE
  8
DETAIL
  6
CONTINUOUS
 62
     5
 10
563.99999999998545
 20
-805.19999999999345
 30
0.0
 11
565.99999999998545
 21
-805.19999999999345
 31
0.0
  0
LINE
  8
DETAIL
  6
CONTINUOUS
 62
     5
 10
222.79999999998839
 20
-804.99999999999682
 30
0.0
 11
-222.80000000000291
 21
-804.99999999999682
 31
0.0
  0
LINE
  8
DETAIL
  6
CONTINUOUS
 62
     5
 10
223.99999999998539
 20
-803.79999999998518
 30
0.0
 11
-224.00000000001461
 21
-803.79999999998563
 31
0.0
  0
LINE
  8
DETAIL
  6
CONTINUOUS
 62
     5
 10
566.30000000000291
 20
-788.49999999999409
 30
0.0
 11
565.99999999998545
 21
-788.49999999999409
 31
0.0
  0
LINE
  8
DETAIL
  6
CONTINUOUS
 62
     5
 10
222.23068047598639
 20
-720.49999999999091
 30
0.0
 11
221.02014352999689
 21
-720.49999999999091
 31
0.0
  0
LINE
  8
DETAIL
  6
CONTINUOUS
 62
     5
 10
222.79999999998839
 20
-718.500000000005
 30
0.0
 11
221.367472715996
 21
-718.500000000005
 31
0.0
  0
LINE
  8
DETAIL
  6
CONTINUOUS
 62
     5
 10
223.99999999998539
 20
-718.500000000005
 30
0.0
 11
241.10000000000579
 21
-718.500000000005
 31
0.0
  0
LINE
  8
DETAIL
  6
CONTINUOUS
 62
     5
 10
222.79999999998839
 20
-672.49999999999091
 30
0.0
 11
221.367472715996
 21
-672.49999999999091
 31
0.0
  0
LINE
  8
DETAIL
  6
CONTINUOUS
 62
     5
 10
223.99999999998539
 20
-672.49999999999091
 30
0.0
 11
241.10000000000579
 21
-672.49999999999091
 31
0.0
  0
LINE
  8
DETAIL
  6
CONTINUOUS
 62
     5
 10
222.23068047598639
 20
-670.49999999999091
 30
0.0
 11
221.02014352999689
 21
-670.49999999999091
 31
0.0
  0
LINE
  8
DETAIL
  6
CONTINUOUS
 62
     5
 10
-222.80000000000291
 20
-658.29999999999973
 30
0.0
 11
-217.80000000000291
 21
-658.29999999999973
 31
0.0
  0
LINE
  8
DETAIL
  6
CONTINUOUS
 62
     5
 10
-207.80000000000291
 20
-652.09999999998854
 30
0.0
 11
-220.80000000001749
 21
-652.09999999998854
 31
0.0
  0
LINE
  8
DETAIL
  6
CONTINUOUS
 62
     5
 10
-220.80000000001749
 20
-651.10000000000264
 30
0.0
 11
-207.80000000000291
 21
-651.10000000000264
 31
0.0
  0
LINE
  8
DETAIL
  6
CONTINUOUS
 62
     5
 10
-220.80000000001749
 20
-650.10000000000309
 30
0.0
 11
-222.80000000000291
 21
-650.10000000000309
 31
0.0
  0
LINE
  8
DETAIL
  6
CONTINUOUS
 62
     5
 10
-224.80000000000291
 20
-642.29999999999973
 30
0.0
 11
-226.78715574399391
 21
-642.12614640000947
 31
0.0
  0
LINE
  8
BASIS
  6
DASHDOT
 62
     6
 10
0.0
 20
26.343231501974969
 30
0.0
 11
0.0
 21
-847.37824484648263
 31
0.0
  0
LINE
  8
DETAIL
  6
CONTINUOUS
 62
     5
 10
-224.80000000000291
 20
-634.30000000000018
 30
0.0
 11
-226.78715574399391
 21
-634.47385359999043
 31
0.0
  0
LINE
  8
DETAIL
  6
CONTINUOUS
 62
     5
 10
-224.80000000000291
 20
-640.80000000000018
 30
0.0
 11
-224.00000000001461
 21
-640.80000000000018
 31
0.0
  0
LINE
  8
DETAIL
  6
CONTINUOUS
 62
     5
 10
-224.80000000000291
 20
-635.80000000000018
 30
0.0
 11
-224.00000000001461
 21
-635.80000000000018
 31
0.0
  0
LINE
  8
DETAIL
  6
CONTINUOUS
 62
     5
 10
-220.80000000001749
 20
-632.30000000000018
 30
0.0
 11
-222.80000000000291
 21
-632.30000000000018
 31
0.0
  0
LINE
  8
DETAIL
  6
CONTINUOUS
 62
     5
 10
-191.14697728000459
 20
-630.80000000000018
 30
0.0
 11
-207.80000000000291
 21
-630.80000000000018
 31
0.0
  0
LINE
  8
DETAIL
  6
CONTINUOUS
 62
     5
 10
-220.80000000001749
 20
-630.80000000000018
 30
0.0
 11
-228.86009312800891
 21
-630.80000000000018
 31
0.0
  0
LINE
  8
DETAIL
  6
CONTINUOUS
 62
     5
 10
-191.14697728000459
 20
-628.60000000000264
 30
0.0
 11
-207.80000000000291
 21
-628.60000000000264
 31
0.0
  0
LINE
  8
DETAIL
  6
CONTINUOUS
 62
     5
 10
-220.80000000001749
 20
-628.60000000000264
 30
0.0
 11
-228.86009312800891
 21
-628.60000000000264
 31
0.0
  0
LINE
  8
DETAIL
  6
CONTINUOUS
 62
     5
 10
-234.4339745960169
 20
-625.84999999998854
 30
0.0
 11
-224.16602540400339
 21
-625.84999999998854
 31
0.0
  0
LINE
  8
DETAIL
  6
CONTINUOUS
 62
     5
 10
-210.80000000001749
 20
-618.30000000000018
 30
0.0
 11
-222.80000000000291
 21
-618.30000000000018
 31
0.0
  0
LINE
  8
BASIS
  6
DASHDOT
 62
     6
 10
706.16450201683529
 20
-605.99999999999636
 30
0.0
 11
-666.16450201683438
 21
-605.99999999999636
 31
0.0
  0
LINE
  8
DETAIL
  6
CONTINUOUS
 62
     5
 10
-234.4339745960169
 20
-586.04999999999973
 30
0.0
 11
-224.16602540400339
 21
-586.04999999999973
 31
0.0
  0
LINE
  8
DETAIL
  6
CONTINUOUS
 62
     5
 10
-228.86009312800891
 20
-583.40000000000555
 30
0.0
 11
-191.14697728000459
 21
-583.40000000000555
 31
0.0
  0
LINE
  8
DETAIL
  6
CONTINUOUS
 62
     5
 10
-228.86009312800891
 20
-581.19999999999391
 30
0.0
 11
-191.14697728000459
 21
-581.19999999999391
 31
0.0
  0
LINE
  8
DETAIL
  6
CONTINUOUS
 62
     5
 10
222.23068047598639
 20
-530.49999999999136
 30
0.0
 11
221.02014352999689
 21
-530.49999999999136
 31
0.0
  0
LINE
  8
DETAIL
  6
CONTINUOUS
 62
     5
 10
222.79999999998839
 20
-528.50000000000546
 30
0.0
 11
221.367472715996
 21
-528.50000000000546
 31
0.0
  0
LINE
  8
DETAIL
  6
CONTINUOUS
 62
     5
 10
223.99999999998539
 20
-528.50000000000546
 30
0.0
 11
241.10000000000579
 21
-528.50000000000546
 31
0.0
  0
LINE
  8
DETAIL
  6
CONTINUOUS
 62
     5
 10
222.79999999998839
 20
-482.49999999999142
 30
0.0
 11
221.367472715996
 21
-482.49999999999142
 31
0.0
  0
LINE
  8
DETAIL
  6
CONTINUOUS
 62
     5
 10
223.99999999998539
 20
-482.49999999999142
 30
0.0
 11
241.10000000000579
 21
-482.49999999999142
 31
0.0
  0
LINE
  8
DETAIL
  6
CONTINUOUS
 62
     5
 10
222.23068047598639
 20
-480.49999999999142
 30
0.0
 11
221.02014352999689
 21
-480.49999999999142
 31
0.0
  0
LINE
  8
DETAIL
  6
CONTINUOUS
 62
     5
 10
218.93616841798939
 20
-717.49999999999136
 30
0.0
 11
218.93616841798939
 21
-673.50000000000591
 31
0.0
  0
LINE
  8
DETAIL
  6
CONTINUOUS
 62
     5
 10
218.93616841798939
 20
-527.49999999999091
 30
0.0
 11
218.93616841798939
 21
-483.50000000000551
 31
0.0
  0
LINE
  8
DETAIL
  6
CONTINUOUS
 62
     5
 10
221.367472715996
 20
-480.49999999999142
 30
0.0
 11
221.367472715996
 21
-482.49999999999142
 31
0.0
  0
LINE
  8
DETAIL
  6
CONTINUOUS
 62
     5
 10
221.367472715996
 20
-670.49999999999091
 30
0.0
 11
221.367472715996
 21
-672.49999999999091
 31
0.0
  0
LINE
  8
DETAIL
  6
CONTINUOUS
 62
     5
 10
221.367472715996
 20
-720.49999999999091
 30
0.0
 11
221.367472715996
 21
-718.500000000005
 31
0.0
  0
LINE
  8
DETAIL
  6
CONTINUOUS
 62
     5
 10
221.367472715996
 20
-530.49999999999136
 30
0.0
 11
221.367472715996
 21
-528.50000000000546
 31
0.0
  0
LINE
  8
DETAIL
  6
CONTINUOUS
 62
     5
 10
222.23068047598639
 20
-480.49999999999142
 30
0.0
 11
222.23068047598639
 21
-482.49999999999142
 31
0.0
  0
LINE
  8
DETAIL
  6
CONTINUOUS
 62
     5
 10
222.23068047598639
 20
-670.49999999999091
 30
0.0
 11
222.23068047598639
 21
-672.49999999999091
 31
0.0
  0
LINE
  8
DETAIL
  6
CONTINUOUS
 62
     5
 10
222.23068047598639
 20
-720.49999999999091
 30
0.0
 11
222.23068047598639
 21
-718.500000000005
 31
0.0
  0
LINE
  8
DETAIL
  6
CONTINUOUS
 62
     5
 10
222.23068047598639
 20
-530.49999999999136
 30
0.0
 11
222.23068047598639
 21
-528.50000000000546
 31
0.0
  0
LINE
  8
DETAIL
  6
CONTINUOUS
 62
     5
 10
222.79999999998839
 20
-804.99999999999682
 30
0.0
 11
222.79999999998839
 21
-407.09999999998217
 31
0.0
  0
LINE
  8
DETAIL
  6
CONTINUOUS
 62
     5
 10
223.99999999998539
 20
-803.79999999998563
 30
0.0
 11
223.99999999998539
 21
-408.29999999999433
 31
0.0
  0
LINE
  8
DETAIL
  6
CONTINUOUS
 62
     5
 10
227.29999999997381
 20
-718.500000000005
 30
0.0
 11
227.29999999997381
 21
-672.49999999999091
 31
0.0
  0
LINE
  8
DETAIL
  6
CONTINUOUS
 62
     5
 10
227.29999999997381
 20
-528.50000000000546
 30
0.0
 11
227.29999999997381
 21
-482.49999999999142
 31
0.0
  0
LINE
  8
DETAIL
  6
CONTINUOUS
 62
     5
 10
-224.00000000001361
 20
-408.29999999999433
 30
0.0
 11
223.99999999998451
 21
-408.29999999999433
 31
0.0
  0
LINE
  8
DETAIL
  6
CONTINUOUS
 62
     5
 10
-222.80000000000291
 20
-407.09999999998217
 30
0.0
 11
222.79999999998839
 21
-407.09999999998217
 31
0.0
  0
LINE
  8
DETAIL
  6
CONTINUOUS
 62
     5
 10
-566.00000000001455
 20
-406.79999999999433
 30
0.0
 11
-564.00000000001455
 21
-406.79999999999433
 31
0.0
  0
LINE
  8
DETAIL
  6
CONTINUOUS
 62
     5
 10
563.99999999998545
 20
-406.79999999999433
 30
0.0
 11
565.99999999998545
 21
-406.79999999999433
 31
0.0
  0
LINE
  8
DETAIL
  6
CONTINUOUS
 62
     5
 10
565.99999999998545
 20
-405.29999999999382
 30
0.0
 11
570.74999999998545
 21
-405.29999999999382
 31
0.0
  0
LINE
  8
DETAIL
  6
CONTINUOUS
 62
     5
 10
-570.75
 20
-404.79999999999433
 30
0.0
 11
-565.67127970601723
 21
-404.79999999999433
 31
0.0
  0
LINE
  8
DETAIL
  6
CONTINUOUS
 62
     5
 10
-564.00000000001455
 20
-404.79999999999433
 30
0.0
 11
-558.31438631001129
 21
-404.79999999999433
 31
0.0
  0
LINE
  8
DETAIL
  6
CONTINUOUS
 62
     5
 10
558.31438630998309
 20
-404.79999999999433
 30
0.0
 11
563.99999999998545
 21
-404.79999999999433
 31
0.0
  0
LINE
  8
DETAIL
  6
CONTINUOUS
 62
     5
 10
565.67127970397996
 20
-404.79999999999433
 30
0.0
 11
570.74999999998545
 21
-404.79999999999433
 31
0.0
  0
LINE
  8
DETAIL
  6
CONTINUOUS
 62
     5
 10
-570.75
 20
-403.99999999999142
 30
0.0
 11
-565.67127970601723
 21
-403.99999999999142
 31
0.0
  0
LINE
  8
DETAIL
  6
CONTINUOUS
 62
     5
 10
-562.6470853920182
 20
-403.99999999999142
 30
0.0
 11
260.69999999999709
 21
-403.99999999999142
 31
0.0
  0
LINE
  8
DETAIL
  6
CONTINUOUS
 62
     5
 10
473.28997487422021
 20
-403.99999999999142
 30
0.0
 11
562.64708539198909
 21
-403.99999999999142
 31
0.0
  0
LINE
  8
DETAIL
  6
CONTINUOUS
 62
     5
 10
565.67127970397996
 20
-403.99999999999142
 30
0.0
 11
570.74999999998545
 21
-403.99999999999142
 31
0.0
  0
LINE
  8
DETAIL
  6
CONTINUOUS
 62
     5
 10
241.10000000000579
 20
-718.500000000005
 30
0.0
 11
241.10000000000579
 21
-672.49999999999091
 31
0.0
  0
LINE
  8
DETAIL
  6
CONTINUOUS
 62
     5
 10
241.10000000000579
 20
-528.50000000000546
 30
0.0
 11
241.10000000000579
 21
-482.49999999999142
 31
0.0
  0
LINE
  8
DETAIL
  6
CONTINUOUS
 62
     5
 10
558.89708539198818
 20
-404.21730091798918
 30
0.0
 11
557.01438630998018
 21
-406.09999999999718
 31
0.0
  0
LINE
  8
DETAIL
  6
CONTINUOUS
 62
     5
 10
559.06730091797181
 20
-807.99999999998181
 30
0.0
 11
556.96730091799691
 21
-805.90000000000509
 31
0.0
  0
LINE
  8
DETAIL
  6
CONTINUOUS
 62
     5
 10
563.99999999998636
 20
-405.86426543127391
 30
0.0
 11
564.09558729997661
 21
-405.32216291598752
 31
0.0
  0
LINE
  8
DETAIL
  6
CONTINUOUS
 62
     5
 10
564.64734603797842
 20
-406.79999999999433
 30
0.0
 11
564.88343350197829
 21
-405.46108145799923
 31
0.0
  0
LINE
  8
DETAIL
  6
CONTINUOUS
 62
     5
 10
564.09558729997661
 20
-806.67783708398611
 30
0.0
 11
564.01099003599666
 21
-806.19806216000507
 31
0.0
  0
LINE
  8
DETAIL
  6
CONTINUOUS
 62
     5
 10
564.88343350197829
 20
-806.53891854198855
 30
0.0
 11
564.64734603797842
 21
-805.19999999999345
 31
0.0
  0
LINE
  8
DETAIL
  6
CONTINUOUS
 62
     5
 10
558.89708539198909
 20
-404.79999999999433
 30
0.0
 11
558.89708539198909
 21
-403.19999999998799
 31
0.0
  0
LINE
  8
DETAIL
  6
CONTINUOUS
 62
     5
 10
562.59999999999127
 20
-807.99999999998226
 30
0.0
 11
562.59999999999127
 21
-807.19999999999436
 31
0.0
  0
LINE
  8
DETAIL
  6
CONTINUOUS
 62
     5
 10
562.64708539198909
 20
-403.19999999998799
 30
0.0
 11
562.64708539198909
 21
-404.79999999999433
 31
0.0
  0
LINE
  8
DETAIL
  6
CONTINUOUS
 62
     5
 10
563.99999999998545
 20
-807.19999999999436
 30
0.0
 11
563.99999999998545
 21
-805.19999999999345
 31
0.0
  0
LINE
  8
DETAIL
  6
CONTINUOUS
 62
     5
 10
563.99999999998545
 20
-406.79999999999433
 30
0.0
 11
563.99999999998545
 21
-404.79999999999433
 31
0.0
  0
LINE
  8
DETAIL
  6
CONTINUOUS
 62
     5
 10
564.99999999998545
 20
-806.19999999999436
 30
0.0
 11
564.99999999998545
 21
-805.19999999999345
 31
0.0
  0
LINE
  8
DETAIL
  6
CONTINUOUS
 62
     5
 10
564.99999999998545
 20
-406.79999999999433
 30
0.0
 11
564.99999999998545
 21
-405.79999999999433
 31
0.0
  0
LINE
  8
DETAIL
  6
CONTINUOUS
 62
     5
 10
565.5
 20
-405.79999999999433
 30
0.0
 11
565.5
 21
-406.79999999999433
 31
0.0
  0
LINE
  8
DETAIL
  6
CONTINUOUS
 62
     5
 10
565.5
 20
-805.19999999999345
 30
0.0
 11
565.5
 21
-806.19999999999436
 31
0.0
  0
LINE
  8
DETAIL
  6
CONTINUOUS
 62
     5
 10
565.99999999998545
 20
-805.19999999999345
 30
0.0
 11
565.99999999998545
 21
-406.79999999999433
 31
0.0
  0
LINE
  8
DETAIL
  6
CONTINUOUS
 62
     5
 10
566.30000000000291
 20
-503.50000000000819
 30
0.0
 11
566.30000000000291
 21
-788.49889544399866
 31
0.0
  0
LINE
  8
DETAIL
  6
CONTINUOUS
 62
     5
 10
570.5
 20
-404.79999999999433
 30
0.0
 11
570.5
 21
-405.29999999999382
 31
0.0
  0
LINE
  8
DETAIL
  6
CONTINUOUS
 62
     5
 10
570.5
 20
-806.69999999999345
 30
0.0
 11
570.5
 21
-807.19999999999436
 31
0.0
  0
ARC
  8
DETAIL
  6
CONTINUOUS
 62
     5
 10
-229.30000000001749
 20
-613.44999999999436
 30
0.0
 40
5.1339745959999972
 50
0.0
 51
180.0
  0
CIRCLE
  8
DETAIL
  6
CONTINUOUS
 62
     5
 10
-214.30000000001749
 20
-624.80000000000018
 30
0.0
 40
4.6999999999999984
  0
ARC
  8
DETAIL
  6
CONTINUOUS
 62
     5
 10
-217.80000000000291
 20
-655.29999999998563
 30
0.0
 40
2.9999999999999978
 50
270.0
 51
0.0
  0
ARC
  8
DETAIL
  6
CONTINUOUS
 62
     5
 10
-217.80000000000291
 20
-621.29999999998563
 30
0.0
 40
2.9999999999999978
 50
90.0
 51
180.0
  0
ARC
  8
DETAIL
  6
CONTINUOUS
 62
     5
 10
-210.80000000001749
 20
-621.29999999998563
 30
0.0
 40
2.9999999999999978
 50
0.0
 51
90.0
  0
ARC
  8
DETAIL
  6
CONTINUOUS
 62
     5
 10
-222.20526315800089
 20
-628.30000000000018
 30
0.0
 40
2.5947368419999979
 50
133.84961891519441
 51
186.65105007010379
  0
ARC
  8
DETAIL
  6
CONTINUOUS
 62
     5
 10
-222.20526315800089
 20
-648.30000000000018
 30
0.0
 40
2.5947368419999979
 50
133.84961891650281
 51
226.15038108349719
  0
ARC
  8
DETAIL
  6
CONTINUOUS
 62
     5
 10
-229.30000000001749
 20
-630.84999999998854
 30
0.0
 40
1.9499999999999991
 50
115.8832527379934
 51
1.476210342295877
  0
ARC
  8
DETAIL
  6
CONTINUOUS
 62
     5
 10
-229.30000000001749
 20
-613.44999999999436
 30
0.0
 40
1.776965739999999
 50
0.0
 51
180.0
  0
ARC
  8
DETAIL
  6
CONTINUOUS
 62
     5
 10
-565.67127970601723
 20
-806.39999999999054
 30
0.0
 40
1.599999999999999
 50
270.0
 51
349.99999999999488
  0
ARC
  8
DETAIL
  6
CONTINUOUS
 62
     5
 10
-226.70000000001161
 20
-635.47004829799425
 30
0.0
 40
0.9999999999999994
 50
95.000000008081741
 51
180.0
  0
ARC
  8
DETAIL
  6
CONTINUOUS
 62
     5
 10
-226.70000000001161
 20
-641.12995170200566
 30
0.0
 40
0.9999999999999994
 50
180.0
 51
264.99999999191817
  0
ARC
  8
DETAIL
  6
CONTINUOUS
 62
     5
 10
-566.00000000001455
 20
-806.19999999999436
 30
0.0
 40
0.9999999999999994
 50
270.00000000005213
 51
0.0
  0
ARC
  8
DETAIL
  6
CONTINUOUS
 62
     5
 10
-565.67127970601723
 20
-806.39999999999054
 30
0.0
 40
0.7999999999999996
 50
270.0
 51
349.99999999999488
  0
ARC
  8
DETAIL
  6
CONTINUOUS
 62
     5
 10
-566.00000000001455
 20
-806.19999999999436
 30
0.0
 40
0.4999999999999997
 50
270.0
 51
0.0
  0
ARC
  8
DETAIL
  6
CONTINUOUS
 62
     5
 10
-229.30000000001749
 20
-598.44999999999391
 30
0.0
 40
5.1339745959999972
 50
180.0
 51
0.0
  0
ARC
  8
DETAIL
  6
CONTINUOUS
 62
     5
 10
-229.30000000001749
 20
-581.05000000000018
 30
0.0
 40
1.9499999999999991
 50
355.58605125340301
 51
244.51141259291489
  0
ARC
  8
DETAIL
  6
CONTINUOUS
 62
     5
 10
-229.30000000001749
 20
-598.44999999999391
 30
0.0
 40
1.776965739999999
 50
180.0
 51
0.0
  0
ARC
  8
DETAIL
  6
CONTINUOUS
 62
     5
 10
-565.67127970601723
 20
-405.59999999998257
 30
0.0
 40
1.599999999999999
 50
10.00000000000502
 51
90.0
  0
ARC
  8
DETAIL
  6
CONTINUOUS
 62
     5
 10
-570.75
 20
-405.04999999999433
 30
0.0
 40
1.0499999999999989
 50
90.0
 51
270.00000112386078
  0
ARC
  8
DETAIL
  6
CONTINUOUS
 62
     5
 10
-566.00000000001455
 20
-405.79999999999433
 30
0.0
 40
0.9999999999999994
 50
0.0
 51
89.999999999843666
  0
ARC
  8
DETAIL
  6
CONTINUOUS
 62
     5
 10
-565.67127970601723
 20
-405.59999999998257
 30
0.0
 40
0.7999999999999996
 50
10.00000000000502
 51
90.0
  0
ARC
  8
DETAIL
  6
CONTINUOUS
 62
     5
 10
-566.00000000001455
 20
-405.79999999999433
 30
0.0
 40
0.4999999999999997
 50
0.0
 51
90.0
  0
ARC
  8
DETAIL
  6
CONTINUOUS
 62
     5
 10
-570.75
 20
-405.04999999999433
 30
0.0
 40
0.2499999999999999
 50
90.0
 51
270.00000112386078
  0
CIRCLE
  8
DETAIL
  6
CONTINUOUS
 62
     5
 10
234.0999999999913
 20
-712.99999999999136
 30
0.0
 40
4.6999999999999984
  0
CIRCLE
  8
DETAIL
  6
CONTINUOUS
 62
     5
 10
234.0999999999913
 20
-687.99999999999136
 30
0.0
 40
4.6999999999999984
  0
ARC
  8
DETAIL
  6
CONTINUOUS
 62
     5
 10
565.67127970397996
 20
-806.39999999999054
 30
0.0
 40
1.599999999999999
 50
190.000000000005
 51
270.0
  0
ARC
  8
DETAIL
  6
CONTINUOUS
 62
     5
 10
570.74999999998545
 20
-806.94999999999436
 30
0.0
 40
1.0499999999999989
 50
270.0
 51
89.999963675954262
  0
ARC
  8
DETAIL
  6
CONTINUOUS
 62
     5
 10
565.99999999998545
 20
-806.19999999999436
 30
0.0
 40
0.9999999999999994
 50
180.0
 51
269.99999999984368
  0
ARC
  8
DETAIL
  6
CONTINUOUS
 62
     5
 10
565.67127970397996
 20
-806.39999999999054
 30
0.0
 40
0.7999999999999996
 50
190.000000000005
 51
270.0
  0
ARC
  8
DETAIL
  6
CONTINUOUS
 62
     5
 10
565.99999999998545
 20
-806.19999999999436
 30
0.0
 40
0.4999999999999997
 50
180.0
 51
270.0
  0
ARC
  8
DETAIL
  6
CONTINUOUS
 62
     5
 10
570.74999999998545
 20
-806.94999999999436
 30
0.0
 40
0.2499999999999999
 50
270.0
 51
89.999963675954262
  0
CIRCLE
  8
DETAIL
  6
CONTINUOUS
 62
     5
 10
234.0999999999913
 20
-522.99999999999136
 30
0.0
 40
4.6999999999999984
  0
CIRCLE
  8
DETAIL
  6
CONTINUOUS
 62
     5
 10
234.0999999999913
 20
-497.99999999999142
 30
0.0
 40
4.6999999999999984
  0
ARC
  8
DETAIL
  6
CONTINUOUS
 62
     5
 10
565.67127970397996
 20
-405.59999999998257
 30
0.0
 40
1.599999999999999
 50
90.0
 51
169.999999999995
  0
ARC
  8
DETAIL
  6
CONTINUOUS
 62
     5
 10
565.99999999998545
 20
-405.79999999999433
 30
0.0
 40
0.9999999999999994
 50
90.000000000052125
 51
180.0
  0
ARC
  8
DETAIL
  6
CONTINUOUS
 62
     5
 10
565.67127970397996
 20
-405.59999999998257
 30
0.0
 40
0.7999999999999996
 50
90.0
 51
169.999999999995
  0
ARC
  8
DETAIL
  6
CONTINUOUS
 62
     5
 10
565.99999999998545
 20
-405.79999999999433
 30
0.0
 40
0.4999999999999997
 50
90.0
 51
180.0
  0
LINE
  8
DETAIL
  6
CONTINUOUS
 62
     5
 10
221.02014352999689
 20
-670.49999999999091
 30
0.0
 11
220.62263196692069
 21
-670.55683629795169
 31
0.0
  0
LINE
  8
DETAIL
  6
CONTINUOUS
 62
     5
 10
220.62263196692069
 20
-670.55683629795169
 30
0.0
 11
220.24864502341666
 21
-670.71337297436241
 31
0.0
  0
LINE
  8
DETAIL
  6
CONTINUOUS
 62
     5
 10
220.24864502341666
 20
-670.71337297436241
 30
0.0
 11
219.92213598661687
 21
-670.94876480601874
 31
0.0
  0
LINE
  8
DETAIL
  6
CONTINUOUS
 62
     5
 10
219.92213598661687
 20
-670.94876480601874
 30
0.0
 11
219.64712387044816
 21
-671.24273198942444
 31
0.0
  0
LINE
  8
DETAIL
  6
CONTINUOUS
 62
     5
 10
219.64712387044816
 20
-671.24273198942444
 30
0.0
 11
219.42138026606395
 21
-671.57559720944403
 31
0.0
  0
LINE
  8
DETAIL
  6
CONTINUOUS
 62
     5
 10
219.42138026606395
 20
-671.57559720944403
 30
0.0
 11
219.24217503712603
 21
-671.93458092012236
 31
0.0
  0
LINE
  8
DETAIL
  6
CONTINUOUS
 62
     5
 10
219.24217503712603
 20
-671.93458092012236
 30
0.0
 11
219.1063731199273
 21
-672.31249324748421
 31
0.0
  0
LINE
  8
DETAIL
  6
CONTINUOUS
 62
     5
 10
219.1063731199273
 20
-672.31249324748421
 30
0.0
 11
219.01107302990869
 21
-672.70261705073437
 31
0.0
  0
LINE
  8
DETAIL
  6
CONTINUOUS
 62
     5
 10
219.01107302990869
 20
-672.70261705073437
 30
0.0
 11
218.95470913074831
 21
-673.09993368156063
 31
0.0
  0
LINE
  8
DETAIL
  6
CONTINUOUS
 62
     5
 10
218.95470913074831
 20
-673.09993368156063
 30
0.0
 11
218.93616841798939
 21
-673.50000000000591
 31
0.0
  0
LINE
  8
DETAIL
  6
CONTINUOUS
 62
     5
 10
218.93616841798939
 20
-717.49999999999136
 30
0.0
 11
218.95470913074826
 21
-717.90006631729761
 31
0.0
  0
LINE
  8
DETAIL
  6
CONTINUOUS
 62
     5
 10
218.95470913074826
 20
-717.90006631729761
 30
0.0
 11
219.01107302990869
 21
-718.29738294827735
 31
0.0
  0
LINE
  8
DETAIL
  6
CONTINUOUS
 62
     5
 10
219.01107302990869
 20
-718.29738294827735
 30
0.0
 11
219.10637311992733
 21
-718.68750675209105
 31
0.0
  0
LINE
  8
DETAIL
  6
CONTINUOUS
 62
     5
 10
219.10637311992733
 20
-718.68750675209105
 30
0.0
 11
219.24217503712603
 21
-719.0654190797726
 31
0.0
  0
LINE
  8
DETAIL
  6
CONTINUOUS
 62
     5
 10
219.24217503712603
 20
-719.0654190797726
 30
0.0
 11
219.42138026606395
 21
-719.42440279054404
 31
0.0
  0
LINE
  8
DETAIL
  6
CONTINUOUS
 62
     5
 10
219.42138026606395
 20
-719.42440279054404
 30
0.0
 11
219.64712387044813
 21
-719.75726801057056
 31
0.0
  0
LINE
  8
DETAIL
  6
CONTINUOUS
 62
     5
 10
219.64712387044813
 20
-719.75726801057056
 30
0.0
 11
219.92213598661689
 21
-720.05123519397637
 31
0.0
  0
LINE
  8
DETAIL
  6
CONTINUOUS
 62
     5
 10
219.92213598661689
 20
-720.05123519397637
 30
0.0
 11
220.24864502341663
 21
-720.28662702562929
 31
0.0
  0
LINE
  8
DETAIL
  6
CONTINUOUS
 62
     5
 10
220.24864502341663
 20
-720.28662702562929
 30
0.0
 11
220.62263196692066
 21
-720.44316370203376
 31
0.0
  0
LINE
  8
DETAIL
  6
CONTINUOUS
 62
     5
 10
220.62263196692066
 20
-720.44316370203376
 30
0.0
 11
221.02014352999689
 21
-720.49999999999091
 31
0.0
  0
LINE
  8
DETAIL
  6
CONTINUOUS
 62
     5
 10
221.02014352999689
 20
-480.49999999999142
 30
0.0
 11
220.62263196692069
 21
-480.5568362979522
 31
0.0
  0
LINE
  8
DETAIL
  6
CONTINUOUS
 62
     5
 10
220.62263196692069
 20
-480.5568362979522
 30
0.0
 11
220.24864502341666
 21
-480.71337297436315
 31
0.0
  0
LINE
  8
DETAIL
  6
CONTINUOUS
 62
     5
 10
220.24864502341666
 20
-480.71337297436315
 30
0.0
 11
219.92213598661687
 21
-480.94876480601926
 31
0.0
  0
LINE
  8
DETAIL
  6
CONTINUOUS
 62
     5
 10
219.92213598661687
 20
-480.94876480601926
 30
0.0
 11
219.64712387044816
 21
-481.2427319894249
 31
0.0
  0
LINE
  8
DETAIL
  6
CONTINUOUS
 62
     5
 10
219.64712387044816
 20
-481.2427319894249
 30
0.0
 11
219.42138026606395
 21
-481.57559720944403
 31
0.0
  0
LINE
  8
DETAIL
  6
CONTINUOUS
 62
     5
 10
219.42138026606395
 20
-481.57559720944403
 30
0.0
 11
219.24217503712603
 21
-481.93458092012236
 31
0.0
  0
LINE
  8
DETAIL
  6
CONTINUOUS
 62
     5
 10
219.24217503712603
 20
-481.93458092012236
 30
0.0
 11
219.1063731199273
 21
-482.31249324748444
 31
0.0
  0
LINE
  8
DETAIL
  6
CONTINUOUS
 62
     5
 10
219.1063731199273
 20
-482.31249324748444
 30
0.0
 11
219.01107302990869
 21
-482.7026170507346
 31
0.0
  0
LINE
  8
DETAIL
  6
CONTINUOUS
 62
     5
 10
219.01107302990869
 20
-482.7026170507346
 30
0.0
 11
218.95470913074831
 21
-483.09993368156086
 31
0.0
  0
LINE
  8
DETAIL
  6
CONTINUOUS
 62
     5
 10
218.95470913074831
 20
-483.09993368156086
 30
0.0
 11
218.93616841798939
 21
-483.50000000000551
 31
0.0
  0
LINE
  8
DETAIL
  6
CONTINUOUS
 62
     5
 10
218.93616841798939
 20
-527.49999999999091
 30
0.0
 11
218.95470913074826
 21
-527.90006631729671
 31
0.0
  0
LINE
  8
DETAIL
  6
CONTINUOUS
 62
     5
 10
218.95470913074826
 20
-527.90006631729671
 30
0.0
 11
219.01107302990869
 21
-528.29738294827655
 31
0.0
  0
LINE
  8
DETAIL
  6
CONTINUOUS
 62
     5
 10
219.01107302990869
 20
-528.29738294827655
 30
0.0
 11
219.10637311992733
 21
-528.68750675209048
 31
0.0
  0
LINE
  8
DETAIL
  6
CONTINUOUS
 62
     5
 10
219.10637311992733
 20
-528.68750675209048
 30
0.0
 11
219.24217503712603
 21
-529.06541907977203
 31
0.0
  0
LINE
  8
DETAIL
  6
CONTINUOUS
 62
     5
 10
219.24217503712603
 20
-529.06541907977203
 30
0.0
 11
219.42138026606395
 21
-529.42440279054381
 31
0.0
  0
LINE
  8
DETAIL
  6
CONTINUOUS
 62
     5
 10
219.42138026606395
 20
-529.42440279054381
 30
0.0
 11
219.64712387044813
 21
-529.75726801057044
 31
0.0
  0
LINE
  8
DETAIL
  6
CONTINUOUS
 62
     5
 10
219.64712387044813
 20
-529.75726801057044
 30
0.0
 11
219.92213598661689
 21
-530.05123519397648
 31
0.0
  0
LINE
  8
DETAIL
  6
CONTINUOUS
 62
     5
 10
219.92213598661689
 20
-530.05123519397648
 30
0.0
 11
220.24864502341663
 21
-530.28662702562963
 31
0.0
  0
LINE
  8
DETAIL
  6
CONTINUOUS
 62
     5
 10
220.24864502341663
 20
-530.28662702562963
 30
0.0
 11
220.62263196692066
 21
-530.44316370203421
 31
0.0
  0
LINE
  8
DETAIL
  6
CONTINUOUS
 62
     5
 10
220.62263196692066
 20
-530.44316370203421
 30
0.0
 11
221.02014352999689
 21
-530.49999999999136
 31
0.0
  0
LINE
  8
DETAIL
  6
CONTINUOUS
 62
     5
 10
-186.51238237001229
 20
-625.79999999999973
 30
0.0
 11
-186.56533132358376
 21
-626.55205315270734
 31
0.0
  0
LINE
  8
DETAIL
  6
CONTINUOUS
 62
     5
 10
-186.56533132358376
 20
-626.55205315270734
 30
0.0
 11
-186.72341260500991
 21
-627.29200987100705
 31
0.0
  0
LINE
  8
DETAIL
  6
CONTINUOUS
 62
     5
 10
-186.72341260500991
 20
-627.29200987100705
 30
0.0
 11
-186.98541541957869
 21
-628.00216521644973
 31
0.0
  0
LINE
  8
DETAIL
  6
CONTINUOUS
 62
     5
 10
-186.98541541957869
 20
-628.00216521644973
 30
0.0
 11
-187.34811416408488
 21
-628.66567635925787
 31
0.0
  0
LINE
  8
DETAIL
  6
CONTINUOUS
 62
     5
 10
-187.34811416408488
 20
-628.66567635925787
 30
0.0
 11
-187.80588259446796
 21
-629.26672767065202
 31
0.0
  0
LINE
  8
DETAIL
  6
CONTINUOUS
 62
     5
 10
-187.80588259446796
 20
-629.26672767065202
 30
0.0
 11
-188.35207888740601
 21
-629.78953021021164
 31
0.0
  0
LINE
  8
DETAIL
  6
CONTINUOUS
 62
     5
 10
-188.35207888740601
 20
-629.78953021021164
 30
0.0
 11
-188.97541165338316
 21
-630.21811775314814
 31
0.0
  0
LINE
  8
DETAIL
  6
CONTINUOUS
 62
     5
 10
-188.97541165338316
 20
-630.21811775314814
 30
0.0
 11
-189.6628646366899
 21
-630.53658823477338
 31
0.0
  0
LINE
  8
DETAIL
  6
CONTINUOUS
 62
     5
 10
-189.6628646366899
 20
-630.53658823477338
 30
0.0
 11
-190.39542857611357
 21
-630.73297752726955
 31
0.0
  0
LINE
  8
DETAIL
  6
CONTINUOUS
 62
     5
 10
-190.39542857611357
 20
-630.73297752726955
 30
0.0
 11
-191.14697540600901
 21
-630.80000000000018
 31
0.0
  0
LINE
  8
DETAIL
  6
CONTINUOUS
 62
     5
 10
-188.71238237000941
 20
-625.79999999999973
 30
0.0
 11
-188.75226140210219
 21
-626.30433526497734
 31
0.0
  0
LINE
  8
DETAIL
  6
CONTINUOUS
 62
     5
 10
-188.75226140210219
 20
-626.30433526497734
 30
0.0
 11
-188.87280995926369
 21
-626.8021660464625
 31
0.0
  0
LINE
  8
DETAIL
  6
CONTINUOUS
 62
     5
 10
-188.87280995926369
 20
-626.8021660464625
 30
0.0
 11
-189.07539526653446
 21
-627.27460942172365
 31
0.0
  0
LINE
  8
DETAIL
  6
CONTINUOUS
 62
     5
 10
-189.07539526653446
 20
-627.27460942172365
 30
0.0
 11
-189.36138454895519
 21
-627.70278246802877
 31
0.0
  0
LINE
  8
DETAIL
  6
CONTINUOUS
 62
     5
 10
-189.36138454895519
 20
-627.70278246802877
 30
0.0
 11
-189.7305133836347
 21
-628.06783854992182
 31
0.0
  0
LINE
  8
DETAIL
  6
CONTINUOUS
 62
     5
 10
-189.7305133836347
 20
-628.06783854992182
 30
0.0
 11
-190.16717782814203
 21
-628.35127217746015
 31
0.0
  0
LINE
  8
DETAIL
  6
CONTINUOUS
 62
     5
 10
-190.16717782814203
 20
-628.35127217746015
 30
0.0
 11
-190.64736584373321
 21
-628.53476485380247
 31
0.0
  0
LINE
  8
DETAIL
  6
CONTINUOUS
 62
     5
 10
-190.64736584373321
 20
-628.53476485380247
 30
0.0
 11
-191.14697915401479
 21
-628.60000000000264
 31
0.0
  0
LINE
  8
DETAIL
  6
CONTINUOUS
 62
     5
 10
-191.14697540600901
 20
-581.19999999999391
 30
0.0
 11
-190.3954287574104
 21
-581.26702245345552
 31
0.0
  0
LINE
  8
DETAIL
  6
CONTINUOUS
 62
     5
 10
-190.3954287574104
 20
-581.26702245345552
 30
0.0
 11
-189.66286501102516
 21
-581.46341168755532
 31
0.0
  0
LINE
  8
DETAIL
  6
CONTINUOUS
 62
     5
 10
-189.66286501102516
 20
-581.46341168755532
 30
0.0
 11
-188.97541215250604
 21
-581.78188206069922
 31
0.0
  0
LINE
  8
DETAIL
  6
CONTINUOUS
 62
     5
 10
-188.97541215250604
 20
-581.78188206069922
 30
0.0
 11
-188.35207938526315
 21
-582.2104694272299
 31
0.0
  0
LINE
  8
DETAIL
  6
CONTINUOUS
 62
     5
 10
-188.35207938526315
 20
-582.2104694272299
 30
0.0
 11
-187.80588305898576
 21
-582.73327178622719
 31
0.0
  0
LINE
  8
DETAIL
  6
CONTINUOUS
 62
     5
 10
-187.80588305898576
 20
-582.73327178622719
 30
0.0
 11
-187.34811464094918
 21
-583.33432295502394
 31
0.0
  0
LINE
  8
DETAIL
  6
CONTINUOUS
 62
     5
 10
-187.34811464094918
 20
-583.33432295502394
 30
0.0
 11
-186.98541589376572
 21
-583.9978339470016
 31
0.0
  0
LINE
  8
DETAIL
  6
CONTINUOUS
 62
     5
 10
-186.98541589376572
 20
-583.9978339470016
 30
0.0
 11
-186.72341297880106
 21
-584.70798907912558
 31
0.0
  0
LINE
  8
DETAIL
  6
CONTINUOUS
 62
     5
 10
-186.72341297880106
 20
-584.70798907912558
 30
0.0
 11
-186.56533152360697
 21
-585.44794555325984
 31
0.0
  0
LINE
  8
DETAIL
  6
CONTINUOUS
 62
     5
 10
-186.56533152360697
 20
-585.44794555325984
 30
0.0
 11
-186.51238237001229
 21
-586.19999850599288
 31
0.0
  0
LINE
  8
DETAIL
  6
CONTINUOUS
 62
     5
 10
-191.14697915401479
 20
-583.40000000000555
 30
0.0
 11
-190.64736592405771
 21
-583.46523510504926
 31
0.0
  0
LINE
  8
DETAIL
  6
CONTINUOUS
 62
     5
 10
-190.64736592405771
 20
-583.46523510504926
 30
0.0
 11
-190.16717796571166
 21
-583.64872767909208
 31
0.0
  0
LINE
  8
DETAIL
  6
CONTINUOUS
 62
     5
 10
-190.16717796571166
 20
-583.64872767909208
 30
0.0
 11
-189.73051355543259
 21
-583.93216117009297
 31
0.0
  0
LINE
  8
DETAIL
  6
CONTINUOUS
 62
     5
 10
-189.73051355543259
 20
-583.93216117009297
 30
0.0
 11
-189.36138473260166
 21
-584.29721710803744
 31
0.0
  0
LINE
  8
DETAIL
  6
CONTINUOUS
 62
     5
 10
-189.36138473260166
 20
-584.29721710803744
 30
0.0
 11
-189.07539544736639
 21
-584.72539002104168
 31
0.0
  0
LINE
  8
DETAIL
  6
CONTINUOUS
 62
     5
 10
-189.07539544736639
 20
-584.72539002104168
 30
0.0
 11
-188.87281011621602
 21
-585.19783327511118
 31
0.0
  0
LINE
  8
DETAIL
  6
CONTINUOUS
 62
     5
 10
-188.87281011621602
 20
-585.19783327511118
 30
0.0
 11
-188.75226150261039
 21
-585.69566394713115
 31
0.0
  0
LINE
  8
DETAIL
  6
CONTINUOUS
 62
     5
 10
-188.75226150261039
 20
-585.69566394713115
 30
0.0
 11
-188.71238237000941
 21
-586.19999911398645
 31
0.0
  0
LINE
  8
DETAIL
  6
CONTINUOUS
 62
     5
 10
-228.09973986800469
 20
-586.04978399999982
 30
0.0
 11
-228.09724494172522
 21
-585.71812980147888
 31
0.0
  0
LINE
  8
DETAIL
  6
CONTINUOUS
 62
     5
 10
-228.09724494172522
 20
-585.71812980147888
 30
0.0
 11
-228.09225623986069
 21
-585.38648049080552
 31
0.0
  0
LINE
  8
DETAIL
  6
CONTINUOUS
 62
     5
 10
-228.09225623986069
 20
-585.38648049080552
 30
0.0
 11
-228.08500105548751
 21
-585.05478586973561
 31
0.0
  0
LINE
  8
DETAIL
  6
CONTINUOUS
 62
     5
 10
-228.08500105548751
 20
-585.05478586973561
 30
0.0
 11
-228.07503245088211
 21
-584.72310695933572
 31
0.0
  0
LINE
  8
DETAIL
  6
CONTINUOUS
 62
     5
 10
-228.07503245088211
 20
-584.72310695933572
 30
0.0
 11
-228.06154110993168
 21
-584.39156455764305
 31
0.0
  0
LINE
  8
DETAIL
  6
CONTINUOUS
 62
     5
 10
-228.06154110993168
 20
-584.39156455764305
 30
0.0
 11
-228.04371423633708
 21
-584.06028003677613
 31
0.0
  0
LINE
  8
DETAIL
  6
CONTINUOUS
 62
     5
 10
-228.04371423633708
 20
-584.06028003677613
 30
0.0
 11
-228.02073903379937
 21
-583.72937476885431
 31
0.0
  0
LINE
  8
DETAIL
  6
CONTINUOUS
 62
     5
 10
-228.02073903379937
 20
-583.72937476885431
 30
0.0
 11
-227.9918027060194
 21
-583.39897012599658
 31
0.0
  0
LINE
  8
DETAIL
  6
CONTINUOUS
 62
     5
 10
-230.29975373602059
 20
-586.05015747000016
 30
0.0
 11
-230.29589742237988
 21
-585.59172461455239
 31
0.0
  0
LINE
  8
DETAIL
  6
CONTINUOUS
 62
     5
 10
-230.29589742237988
 20
-585.59172461455239
 30
0.0
 11
-230.28719743175961
 21
-585.13335256535379
 31
0.0
  0
LINE
  8
DETAIL
  6
CONTINUOUS
 62
     5
 10
-230.28719743175961
 20
-585.13335256535379
 30
0.0
 11
-230.27343930624718
 21
-584.67505703397183
 31
0.0
  0
LINE
  8
DETAIL
  6
CONTINUOUS
 62
     5
 10
-230.27343930624718
 20
-584.67505703397183
 30
0.0
 11
-230.25439462986463
 21
-584.21685589630101
 31
0.0
  0
LINE
  8
DETAIL
  6
CONTINUOUS
 62
     5
 10
-230.25439462986463
 20
-584.21685589630101
 30
0.0
 11
-230.22868812160667
 21
-583.75894486028108
 31
0.0
  0
LINE
  8
DETAIL
  6
CONTINUOUS
 62
     5
 10
-230.22868812160667
 20
-583.75894486028108
 30
0.0
 11
-230.19296160622423
 21
-583.30182709996961
 31
0.0
  0
LINE
  8
DETAIL
  6
CONTINUOUS
 62
     5
 10
-230.19296160622423
 20
-583.30182709996961
 30
0.0
 11
-230.14359714669419
 21
-582.84604863549441
 31
0.0
  0
LINE
  8
DETAIL
  6
CONTINUOUS
 62
     5
 10
-230.14359714669419
 20
-582.84604863549441
 30
0.0
 11
-230.07160604511225
 21
-582.39321663830788
 31
0.0
  0
LINE
  8
DETAIL
  6
CONTINUOUS
 62
     5
 10
-230.07160604511225
 20
-582.39321663830788
 30
0.0
 11
-229.94197107595289
 21
-581.95323837733281
 31
0.0
  0
LINE
  8
DETAIL
  6
CONTINUOUS
 62
     5
 10
-229.94197107595289
 20
-581.95323837733281
 30
0.0
 11
-229.69432962598927
 21
-581.564852175802
 31
0.0
  0
LINE
  8
DETAIL
  6
CONTINUOUS
 62
     5
 10
-229.69432962598927
 20
-581.564852175802
 30
0.0
 11
-229.31354032318546
 21
-581.29739663564112
 31
0.0
  0
LINE
  8
DETAIL
  6
CONTINUOUS
 62
     5
 10
-229.31354032318546
 20
-581.29739663564112
 30
0.0
 11
-228.86011262600371
 21
-581.19999999999391
 31
0.0
  0
LINE
  8
DETAIL
  6
CONTINUOUS
 62
     5
 10
-227.9918887120148
 20
-628.60012354599576
 30
0.0
 11
-228.02114194688099
 21
-628.25727492950909
 31
0.0
  0
LINE
  8
DETAIL
  6
CONTINUOUS
 62
     5
 10
-228.02114194688099
 20
-628.25727492950909
 30
0.0
 11
-228.0440061942322
 21
-627.91391049667311
 31
0.0
  0
LINE
  8
DETAIL
  6
CONTINUOUS
 62
     5
 10
-228.0440061942322
 20
-627.91391049667311
 30
0.0
 11
-228.06231229326914
 21
-627.5702660741739
 31
0.0
  0
LINE
  8
DETAIL
  6
CONTINUOUS
 62
     5
 10
-228.06231229326914
 20
-627.5702660741739
 30
0.0
 11
-228.07653508201719
 21
-627.22641166883295
 31
0.0
  0
LINE
  8
DETAIL
  6
CONTINUOUS
 62
     5
 10
-228.07653508201719
 20
-627.22641166883295
 30
0.0
 11
-228.08704345767043
 21
-626.88240433239821
 31
0.0
  0
LINE
  8
DETAIL
  6
CONTINUOUS
 62
     5
 10
-228.08704345767043
 20
-626.88240433239821
 30
0.0
 11
-228.09420631742293
 21
-626.53830111661773
 31
0.0
  0
LINE
  8
DETAIL
  6
CONTINUOUS
 62
     5
 10
-228.09420631742293
 20
-626.53830111661773
 30
0.0
 11
-228.09839255846859
 21
-626.19415907323923
 31
0.0
  0
LINE
  8
DETAIL
  6
CONTINUOUS
 62
     5
 10
-228.09839255846859
 20
-626.19415907323923
 30
0.0
 11
-228.09997107800149
 21
-625.85003525401089
 31
0.0
  0
LINE
  8
DETAIL
  6
CONTINUOUS
 62
     5
 10
-228.86011262600371
 20
-630.80000000000018
 30
0.0
 11
-229.32139703343199
 21
-630.69882826880723
 31
0.0
  0
LINE
  8
DETAIL
  6
CONTINUOUS
 62
     5
 10
-229.32139703343199
 20
-630.69882826880723
 30
0.0
 11
-229.70600457511887
 21
-630.42223923427991
 31
0.0
  0
LINE
  8
DETAIL
  6
CONTINUOUS
 62
     5
 10
-229.70600457511887
 20
-630.42223923427991
 30
0.0
 11
-229.95183989773366
 21
-630.02304213450145
 31
0.0
  0
LINE
  8
DETAIL
  6
CONTINUOUS
 62
     5
 10
-229.95183989773366
 20
-630.02304213450145
 30
0.0
 11
-230.07821102652372
 21
-629.57358464292486
 31
0.0
  0
LINE
  8
DETAIL
  6
CONTINUOUS
 62
     5
 10
-230.07821102652372
 20
-629.57358464292486
 30
0.0
 11
-230.14879538353006
 21
-629.11219621579141
 31
0.0
  0
LINE
  8
DETAIL
  6
CONTINUOUS
 62
     5
 10
-230.14879538353006
 20
-629.11219621579141
 30
0.0
 11
-230.19743363672541
 21
-628.64804484809918
 31
0.0
  0
LINE
  8
DETAIL
  6
CONTINUOUS
 62
     5
 10
-230.19743363672541
 20
-628.64804484809918
 30
0.0
 11
-230.23252832100616
 21
-628.18260458360839
 31
0.0
  0
LINE
  8
DETAIL
  6
CONTINUOUS
 62
     5
 10
-230.23252832100616
 20
-628.18260458360839
 30
0.0
 11
-230.25763214197747
 21
-627.71640092945711
 31
0.0
  0
LINE
  8
DETAIL
  6
CONTINUOUS
 62
     5
 10
-230.25763214197747
 20
-627.71640092945711
 30
0.0
 11
-230.27605324723154
 21
-627.2499205938301
 31
0.0
  0
LINE
  8
DETAIL
  6
CONTINUOUS
 62
     5
 10
-230.27605324723154
 20
-627.2499205938301
 30
0.0
 11
-230.28912189252776
 21
-626.78335296053638
 31
0.0
  0
LINE
  8
DETAIL
  6
CONTINUOUS
 62
     5
 10
-230.28912189252776
 20
-626.78335296053638
 30
0.0
 11
-230.29703412036679
 21
-626.31671691404745
 31
0.0
  0
LINE
  8
DETAIL
  6
CONTINUOUS
 62
     5
 10
-230.29703412036679
 20
-626.31671691404745
 30
0.0
 11
-230.29997253000329
 21
-625.85002931799363
 31
0.0
  0
ARC
  8
DETAIL
  6
CONTINUOUS
 62
     5
 10
570.74999999998545
 20
-405.04999999999433
 30
0.0
 40
1.0499999999999989
 50
270.0
 51
89.999963675954262
  0
ARC
  8
DETAIL
  6
CONTINUOUS
 62
     5
 10
570.74999999998545
 20
-405.04999999999433
 30
0.0
 40
0.2499999999999999
 50
270.0
 51
89.999963675954262
  0
LINE
  8
DETAIL
  6
CONTINUOUS
 62
     5
 10
567.49999999998545
 20
-405.29999999999382
 30
0.0
 11
567.49999999998545
 21
-406.09999999999718
 31
0.0
  0
LINE
  8
DETAIL
  6
CONTINUOUS
 62
     5
 10
567.49999999998545
 20
-406.09999999999718
 30
0.0
 11
570.74999999998545
 21
-406.09999999999718
 31
0.0
  0
LINE
  8
DETAIL
  6
CONTINUOUS
 62
     5
 10
557.01438630998018
 20
-406.09999999999718
 30
0.0
 11
544.80000000000291
 21
-406.09999999999718
 31
0.0
  0
LINE
  8
DETAIL
  6
CONTINUOUS
 62
     5
 10
260.69999999999709
 20
-406.09999999999718
 30
0.0
 11
-464.80000000000291
 21
-406.09999999999718
 31
0.0
  0
LINE
  8
DETAIL
  6
CONTINUOUS
 62
     5
 10
-544.80000000000291
 20
-406.09999999999718
 30
0.0
 11
-557.01438631000929
 21
-406.09999999999718
 31
0.0
  0
LINE
  8
DETAIL
  6
CONTINUOUS
 62
     5
 10
-570.75
 20
-405.29999999999382
 30
0.0
 11
-566.00000000001455
 21
-405.29999999999382
 31
0.0
  0
LINE
  8
DETAIL
  6
CONTINUOUS
 62
     5
 10
-570.75
 20
-406.09999999999718
 30
0.0
 11
-567.50000000001455
 21
-406.09999999999718
 31
0.0
  0
LINE
  8
DETAIL
  6
CONTINUOUS
 62
     5
 10
-567.50000000001455
 20
-405.29999999999382
 30
0.0
 11
-567.50000000001455
 21
-406.09999999999718
 31
0.0
  0
LINE
  8
DETAIL
  6
CONTINUOUS
 62
     5
 10
-570.75
 20
-806.69999999999345
 30
0.0
 11
-566.00000000001455
 21
-806.69999999999345
 31
0.0
  0
ARC
  8
DETAIL
  6
CONTINUOUS
 62
     5
 10
-570.75
 20
-806.94999999999436
 30
0.0
 40
1.0499999999999989
 50
90.0
 51
270.00000112386078
  0
ARC
  8
DETAIL
  6
CONTINUOUS
 62
     5
 10
-570.75
 20
-806.94999999999436
 30
0.0
 40
0.2499999999999999
 50
90.0
 51
270.00000112386078
  0
LINE
  8
DETAIL
  6
CONTINUOUS
 62
     5
 10
-570.75
 20
-805.90000000000509
 30
0.0
 11
-567.50000000001455
 21
-805.90000000000509
 31
0.0
  0
LINE
  8
DETAIL
  6
CONTINUOUS
 62
     5
 10
-567.50000000001455
 20
-806.69999999999345
 30
0.0
 11
-567.50000000001455
 21
-805.90000000000509
 31
0.0
  0
LINE
  8
DETAIL
  6
CONTINUOUS
 62
     5
 10
-556.96730091802601
 20
-805.90000000000509
 30
0.0
 11
556.96730091799691
 21
-805.90000000000509
 31
0.0
  0
LINE
  8
DETAIL
  6
CONTINUOUS
 62
     5
 10
570.74999999998545
 20
-805.90000000000509
 30
0.0
 11
567.49999999998545
 21
-805.90000000000509
 31
0.0
  0
LINE
  8
DETAIL
  6
CONTINUOUS
 62
     5
 10
567.49999999998545
 20
-805.90000000000509
 30
0.0
 11
567.49999999998545
 21
-806.69999999999345
 31
0.0
  0
LINE
  8
DETAIL
  6
CONTINUOUS
 62
     5
 10
566.30000000000291
 20
-99.50000000001728
 30
0.0
 11
566.30000000000291
 21
-99.50000000001728
 31
0.0
  0
LINE
  8
DETAIL
  6
CONTINUOUS
 62
     5
 10
566.30000000000291
 20
-99.50000000001728
 30
0.0
 11
565.99999999998545
 21
-99.50000000001728
 31
0.0
  0
LINE
  8
DETAIL
  6
CONTINUOUS
 62
     5
 10
566.30000000000291
 20
-503.50000000000819
 30
0.0
 11
565.99999999998545
 21
-503.50000000000819
 31
0.0
  0
LINE
  8
DETAIL
  6
CONTINUOUS
 62
     5
 10
-615.79998590094601
 20
-793.99999152871806
 30
0.0
 11
-615.79998590094601
 21
-93.999991528718283
 31
0.0
  0
LINE
  8
DETAIL
  6
CONTINUOUS
 62
     5
 10
-566.00000000001455
 20
-793.99999152871806
 30
0.0
 11
-615.79998590094601
 21
-793.99999152871806
 31
0.0
  0
LINE
  8
DETAIL
  6
CONTINUOUS
 62
     5
 10
-615.79998590094601
 20
-93.999991528718283
 30
0.0
 11
-566.00000000001455
 21
-93.999991528718283
 31
0.0
  0
LINE
  8
DETAIL
  6
CONTINUOUS
 62
     5
 10
261.89999999999418
 20
-714.09999999999127
 30
0.0
 11
451.49999999998539
 21
-714.09999999999127
 31
0.0
  0
LINE
  8
DETAIL
  6
CONTINUOUS
 62
     5
 10
245.69999999999709
 20
-712.29999999999518
 30
0.0
 11
261.89999999999418
 21
-712.29999999999518
 31
0.0
  0
LINE
  8
DETAIL
  6
CONTINUOUS
 62
     5
 10
451.49999999998539
 20
-712.29999999999518
 30
0.0
 11
452.69999999999709
 21
-712.29999999999518
 31
0.0
  0
LINE
  8
DETAIL
  6
CONTINUOUS
 62
     5
 10
453.79999999998842
 20
-711.59999999999127
 30
0.0
 11
387.69999999999709
 21
-711.59999999999127
 31
0.0
  0
LINE
  8
DETAIL
  6
CONTINUOUS
 62
     5
 10
378.69999999999709
 20
-711.59999999999127
 30
0.0
 11
278.19999999999709
 21
-711.59999999999127
 31
0.0
  0
LINE
  8
DETAIL
  6
CONTINUOUS
 62
     5
 10
467.09999999999133
 20
-707.44999999998936
 30
0.0
 11
453.79999999998842
 21
-707.44999999998936
 31
0.0
  0
LINE
  8
DETAIL
  6
CONTINUOUS
 62
     5
 10
467.09999999999133
 20
-625.09999999998945
 30
0.0
 11
459.29999999998842
 21
-625.09999999998945
 31
0.0
  0
LINE
  8
DETAIL
  6
CONTINUOUS
 62
     5
 10
467.09999999999133
 20
-500.09999999998939
 30
0.0
 11
459.29999999998842
 21
-500.09999999998939
 31
0.0
  0
LINE
  8
DETAIL
  6
CONTINUOUS
 62
     5
 10
245.69999999999709
 20
-106.89999999999399
 30
0.0
 11
242.69999999999709
 21
-109.8999999999869
 31
0.0
  0
LINE
  8
DETAIL
  6
CONTINUOUS
 62
     5
 10
453.79999999998842
 20
-452.84999999998939
 30
0.0
 11
467.09999999999133
 21
-452.84999999998939
 31
0.0
  0
LINE
  8
DETAIL
  6
CONTINUOUS
 62
     5
 10
453.79999999998842
 20
-450.99999999999091
 30
0.0
 11
457.69999999999709
 21
-450.99999999999091
 31
0.0
  0
LINE
  8
DETAIL
  6
CONTINUOUS
 62
     5
 10
242.69999999999709
 20
-709.29999999999518
 30
0.0
 11
245.69999999999709
 21
-712.29999999999518
 31
0.0
  0
LINE
  8
DETAIL
  6
CONTINUOUS
 62
     5
 10
463.30000000000291
 20
-447.19999999999573
 30
0.0
 11
541.79999999998836
 21
-447.19999999999573
 31
0.0
  0
LINE
  8
DETAIL
  6
CONTINUOUS
 62
     5
 10
462.5
 20
-436.66550693199542
 30
0.0
 11
461.29999999998842
 21
-436.66550693199542
 31
0.0
  0
LINE
  8
DETAIL
  6
CONTINUOUS
 62
     5
 10
462.5
 20
-430.36807636999401
 30
0.0
 11
461.29999999998842
 21
-430.36807636999401
 31
0.0
  0
LINE
  8
DETAIL
  6
CONTINUOUS
 62
     5
 10
463.30000000000291
 20
-420.19999999998839
 30
0.0
 11
467.29999999998842
 21
-420.19999999998839
 31
0.0
  0
LINE
  8
DETAIL
  6
CONTINUOUS
 62
     5
 10
455.69999999999709
 20
-412.99999999999142
 30
0.0
 11
463.69999999998248
 21
-412.99999999999142
 31
0.0
  0
LINE
  8
DETAIL
  6
CONTINUOUS
 62
     5
 10
245.69999999999709
 20
-411.49999999999142
 30
0.0
 11
260.69999999999709
 21
-411.49999999999142
 31
0.0
  0
LINE
  8
DETAIL
  6
CONTINUOUS
 62
     5
 10
278.19999999999709
 20
-411.49999999999142
 30
0.0
 11
378.69999999999709
 21
-411.49999999999142
 31
0.0
  0
LINE
  8
DETAIL
  6
CONTINUOUS
 62
     5
 10
387.69999999999709
 20
-411.49999999999142
 30
0.0
 11
453.79999999998842
 21
-411.49999999999142
 31
0.0
  0
LINE
  8
DETAIL
  6
CONTINUOUS
 62
     5
 10
464.79999999998842
 20
-407.33441501399511
 30
0.0
 11
467.29999999998842
 21
-407.33441501399511
 31
0.0
  0
LINE
  8
DETAIL
  6
CONTINUOUS
 62
     5
 10
464.79999999998842
 20
-407.19999999999573
 30
0.0
 11
544.80000000000291
 21
-407.19999999999573
 31
0.0
  0
LINE
  8
DETAIL
  6
CONTINUOUS
 62
     5
 10
463.69999999998248
 20
-404.19999999999573
 30
0.0
 11
471.29999999998842
 21
-404.19999999999573
 31
0.0
  0
LINE
  8
DETAIL
  6
CONTINUOUS
 62
     5
 10
455.69999999999709
 20
-402.99999999999142
 30
0.0
 11
471.29999999998842
 21
-402.99999999999142
 31
0.0
  0
LINE
  8
DETAIL
  6
CONTINUOUS
 62
     5
 10
464.79999999998842
 20
-400.79999999999342
 30
0.0
 11
477.11026772599138
 21
-400.79999999999342
 31
0.0
  0
LINE
  8
DETAIL
  6
CONTINUOUS
 62
     5
 10
478.7967816839955
 20
-400.79999999999342
 30
0.0
 11
544.80000000000291
 21
-400.79999999999342
 31
0.0
  0
LINE
  8
DETAIL
  6
CONTINUOUS
 62
     5
 10
544.80000000000291
 20
-400.66558498799532
 30
0.0
 11
542.29999999998836
 21
-400.66558498799532
 31
0.0
  0
LINE
  8
DETAIL
  6
CONTINUOUS
 62
     5
 10
273.19999999999709
 20
-706.59999999999081
 30
0.0
 11
278.19999999999709
 21
-711.59999999999127
 31
0.0
  0
LINE
  8
DETAIL
  6
CONTINUOUS
 62
     5
 10
245.69999999999709
 20
-396.49999999999091
 30
0.0
 11
260.69999999999709
 21
-396.49999999999091
 31
0.0
  0
LINE
  8
DETAIL
  6
CONTINUOUS
 62
     5
 10
455.65276812198857
 20
-396.49999999999091
 30
0.0
 11
457.69999999999709
 21
-396.49999999999091
 31
0.0
  0
LINE
  8
DETAIL
  6
CONTINUOUS
 62
     5
 10
542.29999999998836
 20
-387.79999999999433
 30
0.0
 11
546.29999999998836
 21
-387.79999999999433
 31
0.0
  0
LINE
  8
DETAIL
  6
CONTINUOUS
 62
     5
 10
467.79999999998842
 20
-360.79999999999382
 30
0.0
 11
546.29999999998836
 21
-360.79999999999382
 31
0.0
  0
LINE
  8
DETAIL
  6
CONTINUOUS
 62
     5
 10
469.69999999999709
 20
-353.99999999999142
 30
0.0
 11
463.69999999998248
 21
-353.99999999999142
 31
0.0
  0
LINE
  8
DETAIL
  6
CONTINUOUS
 62
     5
 10
385.97366556999617
 20
-709.8736655719913
 30
0.0
 11
387.69999999999709
 21
-711.59999999999127
 31
0.0
  0
LINE
  8
DETAIL
  6
CONTINUOUS
 62
     5
 10
245.69999999999709
 20
-411.49999999999142
 30
0.0
 11
242.69999999999709
 21
-414.49999999999051
 31
0.0
  0
LINE
  8
DETAIL
  6
CONTINUOUS
 62
     5
 10
278.19999999999709
 20
-411.49999999999142
 30
0.0
 11
273.19999999999709
 21
-416.49999999999142
 31
0.0
  0
LINE
  8
DETAIL
  6
CONTINUOUS
 62
     5
 10
470.09999999999133
 20
-628.09999999999673
 30
0.0
 11
467.09999999999133
 21
-625.09999999998945
 31
0.0
  0
LINE
  8
DETAIL
  6
CONTINUOUS
 62
     5
 10
242.69999999999709
 20
-393.49999999999142
 30
0.0
 11
245.69999999999709
 21
-396.49999999999091
 31
0.0
  0
LINE
  8
DETAIL
  6
CONTINUOUS
 62
     5
 10
242.69999999999709
 20
-109.8999999999869
 30
0.0
 11
242.69999999999709
 21
-393.49999999999142
 31
0.0
  0
LINE
  8
DETAIL
  6
CONTINUOUS
 62
     5
 10
242.69999999999709
 20
-414.49999999999051
 30
0.0
 11
242.69999999999709
 21
-709.29999999999518
 31
0.0
  0
LINE
  8
DETAIL
  6
CONTINUOUS
 62
     5
 10
260.69999999999709
 20
-106.89999999999399
 30
0.0
 11
260.69999999999709
 21
-712.29999999999518
 31
0.0
  0
LINE
  8
DETAIL
  6
CONTINUOUS
 62
     5
 10
261.89999999999418
 20
-714.09999999999127
 30
0.0
 11
261.89999999999418
 21
-712.29999999999518
 31
0.0
  0
LINE
  8
DETAIL
  6
CONTINUOUS
 62
     5
 10
261.89999999999418
 20
-106.89999999999399
 30
0.0
 11
261.89999999999418
 21
-105.0999999999988
 31
0.0
  0
LINE
  8
DETAIL
  6
CONTINUOUS
 62
     5
 10
273.19999999999709
 20
-706.59999999999081
 30
0.0
 11
273.19999999999709
 21
-416.49999999999142
 31
0.0
  0
LINE
  8
DETAIL
  6
CONTINUOUS
 62
     5
 10
380.42633442798979
 20
-413.22633442999899
 30
0.0
 11
378.69999999999709
 21
-411.49999999999142
 31
0.0
  0
LINE
  8
DETAIL
  6
CONTINUOUS
 62
     5
 10
387.69999999999709
 20
-411.49999999999142
 30
0.0
 11
385.97366556999617
 21
-413.22633442999899
 31
0.0
  0
LINE
  8
DETAIL
  6
CONTINUOUS
 62
     5
 10
469.69999999999709
 20
-353.99999999999142
 30
0.0
 11
472.69999999999709
 21
-350.99999999999142
 31
0.0
  0
LINE
  8
DETAIL
  6
CONTINUOUS
 62
     5
 10
457.69999999999709
 20
-396.49999999999091
 30
0.0
 11
460.69999999999709
 21
-393.49999999999142
 31
0.0
  0
LINE
  8
DETAIL
  6
CONTINUOUS
 62
     5
 10
245.69999999999709
 20
-106.89999999999399
 30
0.0
 11
261.89999999999418
 21
-106.89999999999399
 31
0.0
  0
LINE
  8
DETAIL
  6
CONTINUOUS
 62
     5
 10
451.49999999998539
 20
-106.89999999999399
 30
0.0
 11
469.69999999999709
 21
-106.89999999999399
 31
0.0
  0
LINE
  8
DETAIL
  6
CONTINUOUS
 62
     5
 10
451.49999999998539
 20
-105.0999999999988
 30
0.0
 11
261.89999999999418
 21
-105.0999999999988
 31
0.0
  0
LINE
  8
DETAIL
  6
CONTINUOUS
 62
     5
 10
470.09999999999133
 20
-455.84999999999718
 30
0.0
 11
467.09999999999133
 21
-452.84999999998939
 31
0.0
  0
LINE
  8
DETAIL
  6
CONTINUOUS
 62
     5
 10
460.69999999999709
 20
-414.49999999999051
 30
0.0
 11
459.19999999999709
 21
-412.99999999999142
 31
0.0
  0
LINE
  8
DETAIL
  6
CONTINUOUS
 62
     5
 10
457.69999999999709
 20
-450.99999999999091
 30
0.0
 11
460.69999999999709
 21
-447.99999999999142
 31
0.0
  0
LINE
  8
DETAIL
  6
CONTINUOUS
 62
     5
 10
467.09999999999133
 20
-500.09999999998939
 30
0.0
 11
470.09999999999133
 21
-497.09999999999673
 31
0.0
  0
LINE
  8
DETAIL
  6
CONTINUOUS
 62
     5
 10
451.49999999998539
 20
-714.09999999999127
 30
0.0
 11
451.49999999998539
 21
-712.29999999999518
 31
0.0
  0
LINE
  8
DETAIL
  6
CONTINUOUS
 62
     5
 10
451.49999999998539
 20
-106.89999999999399
 30
0.0
 11
451.49999999998539
 21
-105.0999999999988
 31
0.0
  0
LINE
  8
DETAIL
  6
CONTINUOUS
 62
     5
 10
452.69999999999709
 20
-712.29999999999518
 30
0.0
 11
452.69999999999709
 21
-711.59999999999127
 31
0.0
  0
LINE
  8
DETAIL
  6
CONTINUOUS
 62
     5
 10
452.69999999999709
 20
-411.49999999999142
 30
0.0
 11
452.69999999999709
 21
-106.89999999999399
 31
0.0
  0
LINE
  8
DETAIL
  6
CONTINUOUS
 62
     5
 10
453.79999999998842
 20
-411.49999999999142
 30
0.0
 11
453.79999999998842
 21
-711.59999999999127
 31
0.0
  0
LINE
  8
DETAIL
  6
CONTINUOUS
 62
     5
 10
455.09999999999133
 20
-658.94999999998845
 30
0.0
 11
455.09999999999133
 21
-678.94999999998754
 31
0.0
  0
LINE
  8
DETAIL
  6
CONTINUOUS
 62
     5
 10
455.69999999999709
 20
-396.99999999999142
 30
0.0
 11
455.69999999999709
 21
-416.99999999999091
 31
0.0
  0
LINE
  8
DETAIL
  6
CONTINUOUS
 62
     5
 10
455.69999999999709
 20
-423.99999999999142
 30
0.0
 11
455.69999999999709
 21
-443.99999999999091
 31
0.0
  0
LINE
  8
DETAIL
  6
CONTINUOUS
 62
     5
 10
455.79999999998842
 20
-402.99999999999142
 30
0.0
 11
455.79999999998842
 21
-412.99999999999142
 31
0.0
  0
LINE
  8
DETAIL
  6
CONTINUOUS
 62
     5
 10
456.29999999998842
 20
-622.09999999999673
 30
0.0
 11
456.29999999998842
 21
-503.09999999999718
 31
0.0
  0
LINE
  8
DETAIL
  6
CONTINUOUS
 62
     5
 10
460.09999999999133
 20
-412.99999999999142
 30
0.0
 11
460.09999999999133
 21
-402.99999999999142
 31
0.0
  0
LINE
  8
DETAIL
  6
CONTINUOUS
 62
     5
 10
460.69999999999709
 20
-447.99999999999142
 30
0.0
 11
460.69999999999709
 21
-414.49999999999051
 31
0.0
  0
LINE
  8
DETAIL
  6
CONTINUOUS
 62
     5
 10
460.69999999999709
 20
-393.49999999999142
 30
0.0
 11
460.69999999999709
 21
-356.99999999999142
 31
0.0
  0
LINE
  8
DETAIL
  6
CONTINUOUS
 62
     5
 10
461.29999999998842
 20
-394.19999999999573
 30
0.0
 11
461.29999999998842
 21
-402.99999999999142
 31
0.0
  0
LINE
  8
DETAIL
  6
CONTINUOUS
 62
     5
 10
461.29999999998842
 20
-436.66550693199542
 30
0.0
 11
461.29999999998842
 21
-412.99999999999142
 31
0.0
  0
LINE
  8
DETAIL
  6
CONTINUOUS
 62
     5
 10
462.5
 20
-394.19999999999573
 30
0.0
 11
462.5
 21
-402.99999999999142
 31
0.0
  0
LINE
  8
DETAIL
  6
CONTINUOUS
 62
     5
 10
462.5
 20
-412.99999999999142
 30
0.0
 11
462.5
 21
-436.66550693199542
 31
0.0
  0
LINE
  8
DETAIL
  6
CONTINUOUS
 62
     5
 10
463.30000000000291
 20
-447.19999999999573
 30
0.0
 11
463.30000000000291
 21
-420.19999999998839
 31
0.0
  0
LINE
  8
DETAIL
  6
CONTINUOUS
 62
     5
 10
463.69999999998248
 20
-402.99999999999142
 30
0.0
 11
463.69999999998248
 21
-412.99999999999142
 31
0.0
  0
LINE
  8
DETAIL
  6
CONTINUOUS
 62
     5
 10
464.79999999998842
 20
-407.33441501399511
 30
0.0
 11
464.79999999998842
 21
-404.19999999999573
 31
0.0
  0
LINE
  8
DETAIL
  6
CONTINUOUS
 62
     5
 10
464.79999999998842
 20
-402.99999999999142
 30
0.0
 11
464.79999999998842
 21
-388.28585293999407
 31
0.0
  0
LINE
  8
DETAIL
  6
CONTINUOUS
 62
     5
 10
464.79999999998842
 20
-386.62104836199302
 30
0.0
 11
464.79999999998842
 21
-363.79999999999382
 31
0.0
  0
LINE
  8
DETAIL
  6
CONTINUOUS
 62
     5
 10
466.49999999998539
 20
-420.19999999998839
 30
0.0
 11
466.49999999998539
 21
-447.19999999999573
 31
0.0
  0
LINE
  8
DETAIL
  6
CONTINUOUS
 62
     5
 10
470.09999999999133
 20
-455.84999999999718
 30
0.0
 11
470.09999999999133
 21
-497.09999999999673
 31
0.0
  0
LINE
  8
DETAIL
  6
CONTINUOUS
 62
     5
 10
470.09999999999133
 20
-628.09999999999673
 30
0.0
 11
470.09999999999133
 21
-704.44999999999663
 31
0.0
  0
LINE
  8
DETAIL
  6
CONTINUOUS
 62
     5
 10
470.29999999998842
 20
-417.19999999999573
 30
0.0
 11
470.29999999998842
 21
-409.3272058179914
 31
0.0
  0
LINE
  8
DETAIL
  6
CONTINUOUS
 62
     5
 10
472.69999999999709
 20
-350.99999999999142
 30
0.0
 11
472.69999999999709
 21
-109.8999999999869
 31
0.0
  0
LINE
  8
DETAIL
  6
CONTINUOUS
 62
     5
 10
378.69999999999709
 20
-711.59999999999127
 30
0.0
 11
380.42633442798979
 21
-709.8736655719913
 31
0.0
  0
LINE
  8
DETAIL
  6
CONTINUOUS
 62
     5
 10
539.30000000000291
 20
-398.6727941839913
 30
0.0
 11
539.30000000000291
 21
-390.79999999999433
 31
0.0
  0
LINE
  8
DETAIL
  6
CONTINUOUS
 62
     5
 10
543.09999999999127
 20
-387.79999999999433
 30
0.0
 11
543.09999999999127
 21
-360.79999999999382
 31
0.0
  0
LINE
  8
DETAIL
  6
CONTINUOUS
 62
     5
 10
544.80000000000291
 20
-444.19999999999573
 30
0.0
 11
544.80000000000291
 21
-400.66558498799532
 31
0.0
  0
LINE
  8
DETAIL
  6
CONTINUOUS
 62
     5
 10
546.29999999998836
 20
-387.79999999999433
 30
0.0
 11
546.29999999998836
 21
-360.79999999999382
 31
0.0
  0
LINE
  8
DETAIL
  6
CONTINUOUS
 62
     5
 10
467.09999999999133
 20
-707.44999999998936
 30
0.0
 11
470.09999999999133
 21
-704.44999999999663
 31
0.0
  0
LINE
  8
DETAIL
  6
CONTINUOUS
 62
     5
 10
472.69999999999709
 20
-109.8999999999869
 30
0.0
 11
469.69999999999709
 21
-106.89999999999399
 31
0.0
  0
CIRCLE
  8
DETAIL
  6
CONTINUOUS
 62
     5
 10
383.19999999999709
 20
-706.09999999999127
 30
0.0
 40
4.6999999999999984
  0
ARC
  8
DETAIL
  6
CONTINUOUS
 62
     5
 10
261.89999999999418
 20
-712.29999999999518
 30
0.0
 40
1.1999999999999991
 50
180.0
 51
270.0
  0
CIRCLE
  8
DETAIL
  6
CONTINUOUS
 62
     5
 10
383.19999999999709
 20
-416.99999999999091
 30
0.0
 40
4.6999999999999984
  0
CIRCLE
  8
DETAIL
  6
CONTINUOUS
 62
     5
 10
285.69999999999709
 20
-561.49999999999136
 30
0.0
 40
4.6999999999999984
  0
ARC
  8
DETAIL
  6
CONTINUOUS
 62
     5
 10
452.09999999999133
 20
-658.94999999998845
 30
0.0
 40
2.9999999999999978
 50
0.0
 51
55.402781581034112
  0
ARC
  8
DETAIL
  6
CONTINUOUS
 62
     5
 10
452.09999999999133
 20
-678.94999999998754
 30
0.0
 40
2.9999999999999978
 50
304.59721841896589
 51
0.0
  0
ARC
  8
DETAIL
  6
CONTINUOUS
 62
     5
 10
459.29999999998842
 20
-622.09999999999673
 30
0.0
 40
2.9999999999999978
 50
180.0
 51
270.0
  0
ARC
  8
DETAIL
  6
CONTINUOUS
 62
     5
 10
451.49999999998539
 20
-712.29999999999518
 30
0.0
 40
1.1999999999999991
 50
270.0
 51
0.0
  0
CIRCLE
  8
DETAIL
  6
CONTINUOUS
 62
     5
 10
532.79999999998836
 20
-427.79999999999382
 30
0.0
 40
6.9999999999999956
  0
CIRCLE
  8
DETAIL
  6
CONTINUOUS
 62
     5
 10
476.80000000000291
 20
-427.79999999999382
 30
0.0
 40
6.9999999999999956
  0
ARC
  8
DETAIL
  6
CONTINUOUS
 62
     5
 10
452.69999999999709
 20
-423.99999999999142
 30
0.0
 40
2.9999999999999978
 50
0.0
 51
68.469816312905692
  0
ARC
  8
DETAIL
  6
CONTINUOUS
 62
     5
 10
452.69999999999709
 20
-443.99999999999091
 30
0.0
 40
2.9999999999999978
 50
291.53018368709428
 51
0.0
  0
ARC
  8
DETAIL
  6
CONTINUOUS
 62
     5
 10
452.69999999999709
 20
-416.99999999999091
 30
0.0
 40
2.9999999999999978
 50
291.53018368709428
 51
0.0
  0
ARC
  8
DETAIL
  6
CONTINUOUS
 62
     5
 10
467.29999999998842
 20
-417.19999999999573
 30
0.0
 40
2.9999999999999978
 50
270.0
 51
0.0
  0
ARC
  8
DETAIL
  6
CONTINUOUS
 62
     5
 10
541.79999999998836
 20
-444.19999999999573
 30
0.0
 40
2.9999999999999978
 50
270.0
 51
0.0
  0
ARC
  8
DETAIL
  6
CONTINUOUS
 62
     5
 10
459.29999999998842
 20
-503.09999999999718
 30
0.0
 40
2.9999999999999978
 50
90.0
 51
180.0
  0
ARC
  8
DETAIL
  6
CONTINUOUS
 62
     5
 10
261.89999999999418
 20
-106.89999999999399
 30
0.0
 40
1.1999999999999991
 50
90.0
 51
180.0
  0
ARC
  8
DETAIL
  6
CONTINUOUS
 62
     5
 10
471.29999999998842
 20
-394.19999999999573
 30
0.0
 40
9.9999999999999947
 50
270.0
 51
180.0
  0
ARC
  8
DETAIL
  6
CONTINUOUS
 62
     5
 10
471.29999999998842
 20
-394.19999999999573
 30
0.0
 40
8.7999999999999954
 50
270.0
 51
180.0
  0
CIRCLE
  8
DETAIL
  6
CONTINUOUS
 62
     5
 10
532.79999999998836
 20
-380.19999999998839
 30
0.0
 40
6.9999999999999956
  0
ARC
  8
DETAIL
  6
CONTINUOUS
 62
     5
 10
476.80000000000291
 20
-380.19999999998839
 30
0.0
 40
6.9999999999999956
 50
228.66326231096241
 51
268.34451733030028
  0
ARC
  8
DETAIL
  6
CONTINUOUS
 62
     5
 10
476.80000000000291
 20
-380.19999999998839
 30
0.0
 40
6.9999999999999956
 50
282.05117312654232
 51
215.05277515727201
  0
ARC
  8
DETAIL
  6
CONTINUOUS
 62
     5
 10
452.69999999999709
 20
-396.99999999999142
 30
0.0
 40
2.9999999999999978
 50
0.0
 51
90.0
  0
ARC
  8
DETAIL
  6
CONTINUOUS
 62
     5
 10
542.29999999998836
 20
-390.79999999999433
 30
0.0
 40
2.9999999999999978
 50
90.0
 51
180.0
  0
ARC
  8
DETAIL
  6
CONTINUOUS
 62
     5
 10
467.79999999998842
 20
-363.79999999999382
 30
0.0
 40
2.9999999999999978
 50
90.0
 51
180.0
  0
ARC
  8
DETAIL
  6
CONTINUOUS
 62
     5
 10
463.69999999998248
 20
-356.99999999999142
 30
0.0
 40
2.9999999999999978
 50
90.0
 51
180.0
  0
ARC
  8
DETAIL
  6
CONTINUOUS
 62
     5
 10
451.49999999998539
 20
-106.89999999999399
 30
0.0
 40
1.1999999999999991
 50
0.0
 51
90.0
  0
LINE
  8
DETAIL
  6
CONTINUOUS
 62
     5
 10
467.29999999998842
 20
-407.33441501399511
 30
0.0
 11
467.64334114689706
 21
-407.33942591352405
 31
0.0
  0
LINE
  8
DETAIL
  6
CONTINUOUS
 62
     5
 10
467.64334114689706
 20
-407.33942591352405
 30
0.0
 11
467.98894054874876
 21
-407.35790640520088
 31
0.0
  0
LINE
  8
DETAIL
  6
CONTINUOUS
 62
     5
 10
467.98894054874876
 20
-407.35790640520088
 30
0.0
 11
468.34600839745644
 21
-407.39520773452097
 31
0.0
  0
LINE
  8
DETAIL
  6
CONTINUOUS
 62
     5
 10
468.34600839745644
 20
-407.39520773452097
 30
0.0
 11
468.70843298402639
 21
-407.45851783773645
 31
0.0
  0
LINE
  8
DETAIL
  6
CONTINUOUS
 62
     5
 10
468.70843298402639
 20
-407.45851783773645
 30
0.0
 11
469.06112752744468
 21
-407.55610052490397
 31
0.0
  0
LINE
  8
DETAIL
  6
CONTINUOUS
 62
     5
 10
469.06112752744468
 20
-407.55610052490397
 30
0.0
 11
469.38889170263127
 21
-407.6962332170113
 31
0.0
  0
LINE
  8
DETAIL
  6
CONTINUOUS
 62
     5
 10
469.38889170263127
 20
-407.6962332170113
 30
0.0
 11
469.67652518450598
 21
-407.88719333504616
 31
0.0
  0
LINE
  8
DETAIL
  6
CONTINUOUS
 62
     5
 10
469.67652518450598
 20
-407.88719333504616
 30
0.0
 11
469.9088276479888
 21
-408.13725829999612
 31
0.0
  0
LINE
  8
DETAIL
  6
CONTINUOUS
 62
     5
 10
542.29999999998836
 20
-400.66558498799532
 30
0.0
 11
541.95665885144501
 21
-400.66057408846632
 31
0.0
  0
LINE
  8
DETAIL
  6
CONTINUOUS
 62
     5
 10
541.95665885144501
 20
-400.66057408846632
 30
0.0
 11
541.61105944923793
 21
-400.64209359678915
 31
0.0
  0
LINE
  8
DETAIL
  6
CONTINUOUS
 62
     5
 10
541.61105944923793
 20
-400.64209359678915
 30
0.0
 11
541.25399160052791
 21
-400.60479226746418
 31
0.0
  0
LINE
  8
DETAIL
  6
CONTINUOUS
 62
     5
 10
541.25399160052791
 20
-400.60479226746418
 30
0.0
 11
540.89156701400486
 21
-400.54148216419776
 31
0.0
  0
LINE
  8
DETAIL
  6
CONTINUOUS
 62
     5
 10
540.89156701400486
 20
-400.54148216419776
 30
0.0
 11
540.53887247074374
 21
-400.44389947686926
 31
0.0
  0
LINE
  8
DETAIL
  6
CONTINUOUS
 62
     5
 10
540.53887247074374
 20
-400.44389947686926
 30
0.0
 11
540.21110829589009
 21
-400.3037667844269
 31
0.0
  0
LINE
  8
DETAIL
  6
CONTINUOUS
 62
     5
 10
540.21110829589009
 20
-400.3037667844269
 30
0.0
 11
539.92347481458967
 21
-400.11280666581894
 31
0.0
  0
LINE
  8
DETAIL
  6
CONTINUOUS
 62
     5
 10
539.92347481458967
 20
-400.11280666581894
 30
0.0
 11
539.69117235198792
 21
-399.86274169999342
 31
0.0
  0
ARC
  8
DETAIL
  6
CONTINUOUS
 62
     5
 10
468.26615538851053
 20
-409.33941475332369
 30
0.0
 40
2.0338812555652304
210
0.0
220
0.0
230
1.0
 50
0.3439358448539451
 51
32.407178646021123
  0
ARC
  8
DETAIL
  6
CONTINUOUS
 62
     5
 10
469.61646326083803
 20
-408.41216610952057
 30
0.0
 40
0.4013118962016528
210
0.0
220
0.0
230
1.0
 50
23.929118224634806
 51
43.237402085092924
  0
ARC
  8
DETAIL
  6
CONTINUOUS
 62
     5
 10
541.3338446114642
 20
-398.66058524865974
 30
0.0
 40
2.033881255563152
210
0.0
220
0.0
230
1.0
 50
180.34393584483348
 51
212.40717864603357
  0
ARC
  8
DETAIL
  6
CONTINUOUS
 62
     5
 10
539.98353673921531
 20
-399.5878338924241
 30
0.0
 40
0.401311896287096
210
0.0
220
0.0
230
1.0
 50
203.92911822516021
 51
223.23740208526169
  0
LINE
  8
DETAIL
  6
CONTINUOUS
 62
     5
 10
-546.30000000001746
 20
-447.19999999999573
 30
0.0
 11
-546.30000000001746
 21
-420.19999999998839
 31
0.0
  0
LINE
  8
DETAIL
  6
CONTINUOUS
 62
     5
 10
-544.80000000000291
 20
-407.33441501399511
 30
0.0
 11
-544.80000000000291
 21
-363.79999999999382
 31
0.0
  0
LINE
  8
DETAIL
  6
CONTINUOUS
 62
     5
 10
-543.10000000000582
 20
-420.19999999998839
 30
0.0
 11
-543.10000000000582
 21
-447.19999999999573
 31
0.0
  0
LINE
  8
DETAIL
  6
CONTINUOUS
 62
     5
 10
-539.30000000000291
 20
-417.19999999999573
 30
0.0
 11
-539.30000000000291
 21
-409.3272058179914
 31
0.0
  0
LINE
  8
DETAIL
  6
CONTINUOUS
 62
     5
 10
-470.30000000000291
 20
-398.6727941839913
 30
0.0
 11
-470.30000000000291
 21
-390.79999999999433
 31
0.0
  0
LINE
  8
DETAIL
  6
CONTINUOUS
 62
     5
 10
-466.5
 20
-387.79999999999433
 30
0.0
 11
-466.5
 21
-360.79999999999382
 31
0.0
  0
LINE
  8
DETAIL
  6
CONTINUOUS
 62
     5
 10
-464.80000000000291
 20
-444.19999999999573
 30
0.0
 11
-464.80000000000291
 21
-400.66558498799532
 31
0.0
  0
LINE
  8
DETAIL
  6
CONTINUOUS
 62
     5
 10
-463.30000000001752
 20
-387.79999999999433
 30
0.0
 11
-463.30000000001752
 21
-360.79999999999382
 31
0.0
  0
LINE
  8
DETAIL
  6
CONTINUOUS
 62
     5
 10
-546.30000000001746
 20
-447.19999999999573
 30
0.0
 11
-467.80000000000291
 21
-447.19999999999573
 31
0.0
  0
LINE
  8
DETAIL
  6
CONTINUOUS
 62
     5
 10
-546.30000000001746
 20
-420.19999999998839
 30
0.0
 11
-542.30000000000291
 21
-420.19999999998839
 31
0.0
  0
LINE
  8
DETAIL
  6
CONTINUOUS
 62
     5
 10
-544.80000000000291
 20
-407.33441501399511
 30
0.0
 11
-542.30000000000291
 21
-407.33441501399511
 31
0.0
  0
LINE
  8
DETAIL
  6
CONTINUOUS
 62
     5
 10
-544.80000000000291
 20
-407.19999999999573
 30
0.0
 11
-464.80000000000291
 21
-407.19999999999573
 31
0.0
  0
LINE
  8
DETAIL
  6
CONTINUOUS
 62
     5
 10
-544.80000000000291
 20
-400.79999999999342
 30
0.0
 11
-464.80000000000291
 21
-400.79999999999342
 31
0.0
  0
LINE
  8
DETAIL
  6
CONTINUOUS
 62
     5
 10
-464.80000000000291
 20
-400.66558498799532
 30
0.0
 11
-467.30000000000291
 21
-400.66558498799532
 31
0.0
  0
LINE
  8
DETAIL
  6
CONTINUOUS
 62
     5
 10
-467.30000000000291
 20
-387.79999999999433
 30
0.0
 11
-463.30000000001752
 21
-387.79999999999433
 31
0.0
  0
LINE
  8
DETAIL
  6
CONTINUOUS
 62
     5
 10
-541.80000000000291
 20
-360.79999999999382
 30
0.0
 11
-463.30000000001752
 21
-360.79999999999382
 31
0.0
  0
CIRCLE
  8
DETAIL
  6
CONTINUOUS
 62
     5
 10
-532.80000000000291
 20
-427.79999999999382
 30
0.0
 40
6.9999999999999956
  0
CIRCLE
  8
DETAIL
  6
CONTINUOUS
 62
     5
 10
-476.80000000000291
 20
-427.79999999999382
 30
0.0
 40
6.9999999999999956
  0
ARC
  8
DETAIL
  6
CONTINUOUS
 62
     5
 10
-542.30000000000291
 20
-417.19999999999573
 30
0.0
 40
2.9999999999999978
 50
270.0
 51
0.0
  0
ARC
  8
DETAIL
  6
CONTINUOUS
 62
     5
 10
-467.80000000000291
 20
-444.19999999999573
 30
0.0
 40
2.9999999999999978
 50
270.0
 51
0.0
  0
CIRCLE
  8
DETAIL
  6
CONTINUOUS
 62
     5
 10
-532.80000000000291
 20
-380.19999999998839
 30
0.0
 40
6.9999999999999956
  0
CIRCLE
  8
DETAIL
  6
CONTINUOUS
 62
     5
 10
-476.80000000000291
 20
-380.19999999998839
 30
0.0
 40
6.9999999999999956
  0
ARC
  8
DETAIL
  6
CONTINUOUS
 62
     5
 10
-467.30000000000291
 20
-390.79999999999433
 30
0.0
 40
2.9999999999999978
 50
90.0
 51
180.0
  0
ARC
  8
DETAIL
  6
CONTINUOUS
 62
     5
 10
-541.80000000000291
 20
-363.79999999999382
 30
0.0
 40
2.9999999999999978
 50
90.0
 51
180.0
  0
LINE
  8
DETAIL
  6
CONTINUOUS
 62
     5
 10
-542.30000000000291
 20
-407.33441501399511
 30
0.0
 11
-541.95665885310609
 21
-407.33942591352405
 31
0.0
  0
LINE
  8
DETAIL
  6
CONTINUOUS
 62
     5
 10
-541.95665885310609
 20
-407.33942591352405
 30
0.0
 11
-541.61105945125644
 21
-407.35790640520088
 31
0.0
  0
LINE
  8
DETAIL
  6
CONTINUOUS
 62
     5
 10
-541.61105945125644
 20
-407.35790640520088
 30
0.0
 11
-541.25399160254688
 21
-407.39520773452097
 31
0.0
  0
LINE
  8
DETAIL
  6
CONTINUOUS
 62
     5
 10
-541.25399160254688
 20
-407.39520773452097
 30
0.0
 11
-540.89156701597415
 21
-407.45851783773645
 31
0.0
  0
LINE
  8
DETAIL
  6
CONTINUOUS
 62
     5
 10
-540.89156701597415
 20
-407.45851783773645
 30
0.0
 11
-540.53887247255261
 21
-407.55610052490397
 31
0.0
  0
LINE
  8
DETAIL
  6
CONTINUOUS
 62
     5
 10
-540.53887247255261
 20
-407.55610052490397
 30
0.0
 11
-540.21110829736324
 21
-407.6962332170113
 31
0.0
  0
LINE
  8
DETAIL
  6
CONTINUOUS
 62
     5
 10
-540.21110829736324
 20
-407.6962332170113
 30
0.0
 11
-539.9234748154862
 21
-407.88719333504616
 31
0.0
  0
LINE
  8
DETAIL
  6
CONTINUOUS
 62
     5
 10
-539.9234748154862
 20
-407.88719333504616
 30
0.0
 11
-539.69117235200247
 21
-408.13725829999612
 31
0.0
  0
LINE
  8
DETAIL
  6
CONTINUOUS
 62
     5
 10
-467.30000000000291
 20
-400.66558498799532
 30
0.0
 11
-467.64334114854802
 21
-400.66057408846632
 31
0.0
  0
LINE
  8
DETAIL
  6
CONTINUOUS
 62
     5
 10
-467.64334114854802
 20
-400.66057408846632
 30
0.0
 11
-467.9889405507584
 21
-400.64209359678915
 31
0.0
  0
LINE
  8
DETAIL
  6
CONTINUOUS
 62
     5
 10
-467.9889405507584
 20
-400.64209359678915
 30
0.0
 11
-468.34600839947035
 21
-400.60479226746418
 31
0.0
  0
LINE
  8
DETAIL
  6
CONTINUOUS
 62
     5
 10
-468.34600839947035
 20
-400.60479226746418
 30
0.0
 11
-468.70843298599311
 21
-400.54148216419776
 31
0.0
  0
LINE
  8
DETAIL
  6
CONTINUOUS
 62
     5
 10
-468.70843298599311
 20
-400.54148216419776
 30
0.0
 11
-469.06112752925253
 21
-400.44389947686926
 31
0.0
  0
LINE
  8
DETAIL
  6
CONTINUOUS
 62
     5
 10
-469.06112752925253
 20
-400.44389947686926
 30
0.0
 11
-469.38889170410397
 21
-400.3037667844269
 31
0.0
  0
LINE
  8
DETAIL
  6
CONTINUOUS
 62
     5
 10
-469.38889170410397
 20
-400.3037667844269
 30
0.0
 11
-469.67652518540251
 21
-400.11280666581894
 31
0.0
  0
LINE
  8
DETAIL
  6
CONTINUOUS
 62
     5
 10
-469.67652518540251
 20
-400.11280666581894
 30
0.0
 11
-469.90882764800341
 21
-399.86274169999342
 31
0.0
  0
ARC
  8
DETAIL
  6
CONTINUOUS
 62
     5
 10
-541.33384461147875
 20
-409.33941475332296
 30
0.0
 40
2.033881255563152
210
0.0
220
0.0
230
1.0
 50
0.3439358448334815
 51
32.407178646033572
  0
ARC
  8
DETAIL
  6
CONTINUOUS
 62
     5
 10
-539.98353673914914
 20
-408.41216610951801
 30
0.0
 40
0.4013118961968945
210
0.0
220
0.0
230
1.0
 50
23.929118224538001
 51
43.237402085232702
  0
ARC
  8
DETAIL
  6
CONTINUOUS
 62
     5
 10
-468.26615538852639
 20
-398.6605852486594
 30
0.0
 40
2.0338812555638826
210
0.0
220
0.0
230
1.0
 50
180.34393584484303
 51
212.40717864603221
  0
ARC
  8
DETAIL
  6
CONTINUOUS
 62
     5
 10
-469.61646326078204
 20
-399.58783389242836
 30
0.0
 40
0.4013118962797762
210
0.0
220
0.0
230
1.0
 50
203.92911822495932
 51
223.23740208541312
  0
LINE
  8
BASIS
  6
DASHDOT
 62
     6
 10
-666.89240525732748
 20
-403.99999999999142
 30
0.0
 11
654.75691988359631
 21
-403.99999999999142
 31
0.0
1001
GENIUS_GENODEF_13
1002
{
1000
HIER
1070
     0
1002
}
1002
{
1000
MANEDIT
1070
     0
1002
}
1002
{
1000
NOSEL
1070
     0
1002
}
1002
{
1000
BEHIND
1070
     0
1002
}
1002
{
1000
OTHER
1070
     0
1002
}
1002
{
1000
REACTOR
1002
}
1001
GENIUS_GENOBJ-N-CEN_13
1002
{
1000
OWNER
1000
GEN
1002
}
1001
GENIUS_GENCEN_19
1002
{
1040
5.0
1002
}
  0
LINE
  8
BASIS
  6
DASHDOT
 62
     6
 10
674.54386575860281
 20
-242.00000000001049
 30
0.0
 11
545.13333358711679
 21
-242.00000000001049
 31
0.0
  0
LINE
  8
BASIS
  6
DASHDOT
 62
     6
 10
674.54386575860281
 20
-646.00000000000136
 30
0.0
 11
545.13333358711679
 21
-646.00000000000136
 31
0.0
  0
LINE
  8
BASIS
  6
DASHDOT
 62
     6
 10
-551.29961981519591
 20
-443.99999152871851
 30
0.0
 11
-660.03566598417819
 21
-443.99999152871851
 31
0.0
  0
LINE
  8
DETAIL
  6
CONTINUOUS
 62
     5
 10
558.89708539198818
 20
-403.78269908199348
 30
0.0
 11
557.01438630998018
 21
-401.89999999998548
 31
0.0
  0
LINE
  8
DETAIL
  6
CONTINUOUS
 62
     5
 10
557.01438630998018
 20
-401.89999999998548
 30
0.0
 11
544.80000000000291
 21
-401.89999999998548
 31
0.0
  0
LINE
  8
DETAIL
  6
CONTINUOUS
 62
     5
 10
-558.89708539201729
 20
-403.78269908199348
 30
0.0
 11
-557.01438631000929
 21
-401.89999999998548
 31
0.0
  0
LINE
  8
DETAIL
  6
CONTINUOUS
 62
     5
 10
-564.00000000001455
 20
-403.19999999998799
 30
0.0
 11
-558.31438631001129
 21
-403.19999999998799
 31
0.0
  0
LINE
  8
DETAIL
  6
CONTINUOUS
 62
     5
 10
-544.80000000000291
 20
-401.89999999998548
 30
0.0
 11
-557.01438631000929
 21
-401.89999999998548
 31
0.0
  0
LINE
  8
SIZE
  6
CONTINUOUS
 62
    30
 10
-571.80000000000018
 20
18.949999989699339
 30
0.0
 11
-571.80000000000018
 21
318.95776218937363
 31
0.0
  0
LINE
  8
SIZE
  6
CONTINUOUS
 62
    30
 10
571.79999999998563
 20
18.949999667160679
 30
0.0
 11
571.79999999998563
 21
318.95776218937363
 31
0.0
  0
LINE
  8
SIZE
  6
CONTINUOUS
 62
    30
 10
-559.80000000000018
 20
298.95776218937363
 30
0.0
 11
559.79999999998563
 21
298.95776218937363
 31
0.0
  0
CIRCLE
  8
SIZE
  6
CONTINUOUS
 62
    30
 10
-571.80000000000018
 20
298.95776218937363
 30
0.0
 40
6.0
  0
LINE
  8
SIZE
  6
CONTINUOUS
 62
    30
 10
-571.80000000000018
 20
298.95776218937363
 30
0.0
 11
-559.80000000000018
 21
298.95776218937363
 31
0.0
  0
CIRCLE
  8
SIZE
  6
CONTINUOUS
 62
    30
 10
571.79999999998563
 20
298.95776218937363
 30
0.0
 40
6.0
  0
LINE
  8
SIZE
  6
CONTINUOUS
 62
    30
 10
571.79999999998563
 20
298.95776218937363
 30
0.0
 11
559.79999999998563
 21
298.95776218937363
 31
0.0
  0
TEXT
  8
SIZE
  6
CONTINUOUS
 62
    30
 10
-96.768000000007291
 20
323.95776218937363
 30
0.0
 40
64.0
  1
1144
 50
0.0
 41
0.9
 51
0.0
  7
STANDARD
 71
     0
 72
     1
 11
-0.000000000007276
 21
323.95776218937363
 31
0.0
210
0.0
220
0.0
230
1.0
  0
POINT
  8
DEFPOINTS
  6
CONTINUOUS
 62
    30
 10
-571.80000000000018
 20
-1.0500000103006639
 30
0.0
  0
POINT
  8
DEFPOINTS
  6
CONTINUOUS
 62
    30
 10
571.79999999998563
 20
-1.0500003328393179
 30
0.0
  0
POINT
  8
DEFPOINTS
  6
CONTINUOUS
 62
    30
 10
571.79999999998563
 20
298.95776218937363
 30
0.0
  0
LINE
  8
SIZE
  6
CONTINUOUS
 62
    30
 10
650.80000000000018
 20
-101.0000000000032
 30
0.0
 11
650.80000000000018
 21
318.95776218937363
 31
0.0
  0
LINE
  8
SIZE
  6
CONTINUOUS
 62
    30
 10
571.79999999998563
 20
18.949999667160679
 30
0.0
 11
571.79999999998563
 21
318.95776218937363
 31
0.0
  0
LINE
  8
SIZE
  6
CONTINUOUS
 62
    30
 10
662.80000000000018
 20
298.95776218937363
 30
0.0
 11
674.80000000000018
 21
298.95776218937363
 31
0.0
  0
LINE
  8
SIZE
  6
CONTINUOUS
 62
    30
 10
559.79999999998563
 20
298.95776218937363
 30
0.0
 11
547.79999999998563
 21
298.95776218937363
 31
0.0
  0
LINE
  8
SIZE
  6
CONTINUOUS
 62
    30
 10
650.80000000000018
 20
298.95776218937363
 30
0.0
 11
571.79999999998563
 21
298.95776218937363
 31
0.0
  0
CIRCLE
  8
SIZE
  6
CONTINUOUS
 62
    30
 10
650.80000000000018
 20
298.95776218937363
 30
0.0
 40
6.0
  0
LINE
  8
SIZE
  6
CONTINUOUS
 62
    30
 10
650.80000000000018
 20
298.95776218937363
 30
0.0
 11
662.80000000000018
 21
298.95776218937363
 31
0.0
  0
CIRCLE
  8
SIZE
  6
CONTINUOUS
 62
    30
 10
571.79999999998563
 20
298.95776218937363
 30
0.0
 40
6.0
  0
LINE
  8
SIZE
  6
CONTINUOUS
 62
    30
 10
571.79999999998563
 20
298.95776218937363
 30
0.0
 11
559.79999999998563
 21
298.95776218937363
 31
0.0
  0
TEXT
  8
SIZE
  6
CONTINUOUS
 62
    30
 10
557.73199999999292
 20
323.95776218937363
 30
0.0
 40
64.0
  1
79
 50
0.0
 41
0.9
 51
0.0
  7
STANDARD
 71
     0
 72
     1
 11
611.29999999999291
 21
323.95776218937363
 31
0.0
210
0.0
220
0.0
230
1.0
  0
POINT
  8
DEFPOINTS
  6
CONTINUOUS
 62
    30
 10
650.80000000000018
 20
-121.0000000000032
 30
0.0
  0
POINT
  8
DEFPOINTS
  6
CONTINUOUS
 62
    30
 10
571.79999999998563
 20
-1.0500003328393179
 30
0.0
  0
POINT
  8
DEFPOINTS
  6
CONTINUOUS
 62
    30
 10
571.79999999998563
 20
298.95776218937363
 30
0.0
  0
LINE
  8
SIZE
  6
CONTINUOUS
 62
    30
 10
-615.79998590094601
 20
-73.999991528718283
 30
0.0
 11
-615.79998590094601
 21
318.95776218937363
 31
0.0
  0
LINE
  8
SIZE
  6
CONTINUOUS
 62
    30
 10
-571.80000000000018
 20
18.949999989699339
 30
0.0
 11
-571.80000000000018
 21
318.95776218937363
 31
0.0
  0
LINE
  8
SIZE
  6
CONTINUOUS
 62
    30
 10
-627.79998590094601
 20
298.95776218937363
 30
0.0
 11
-639.79998590094601
 21
298.95776218937363
 31
0.0
  0
LINE
  8
SIZE
  6
CONTINUOUS
 62
    30
 10
-559.80000000000018
 20
298.95776218937363
 30
0.0
 11
-547.80000000000018
 21
298.95776218937363
 31
0.0
  0
LINE
  8
SIZE
  6
CONTINUOUS
 62
    30
 10
-615.79998590094601
 20
298.95776218937363
 30
0.0
 11
-571.80000000000018
 21
298.95776218937363
 31
0.0
  0
CIRCLE
  8
SIZE
  6
CONTINUOUS
 62
    30
 10
-615.79998590094601
 20
298.95776218937363
 30
0.0
 40
6.0
  0
LINE
  8
SIZE
  6
CONTINUOUS
 62
    30
 10
-615.79998590094601
 20
298.95776218937363
 30
0.0
 11
-627.79998590094601
 21
298.95776218937363
 31
0.0
  0
CIRCLE
  8
SIZE
  6
CONTINUOUS
 62
    30
 10
-571.80000000000018
 20
298.95776218937363
 30
0.0
 40
6.0
  0
LINE
  8
SIZE
  6
CONTINUOUS
 62
    30
 10
-571.80000000000018
 20
298.95776218937363
 30
0.0
 11
-559.80000000000018
 21
298.95776218937363
 31
0.0
  0
TEXT
  8
SIZE
  6
CONTINUOUS
 62
    30
 10
-648.51999295047312
 20
323.95776218937363
 30
0.0
 40
64.0
  1
44
 50
0.0
 41
0.9
 51
0.0
  7
STANDARD
 71
     0
 72
     1
 11
-593.7999929504731
 21
323.95776218937363
 31
0.0
210
0.0
220
0.0
230
1.0
  0
POINT
  8
DEFPOINTS
  6
CONTINUOUS
 62
    30
 10
-615.79998590094601
 20
-93.999991528718283
 30
0.0
  0
POINT
  8
DEFPOINTS
  6
CONTINUOUS
 62
    30
 10
-571.80000000000018
 20
-1.0500000103006639
 30
0.0
  0
POINT
  8
DEFPOINTS
  6
CONTINUOUS
 62
    30
 10
-571.80000000000018
 20
298.95776218937363
 30
0.0
  0
LINE
  8
SIZE
  6
CONTINUOUS
 62
    30
 10
-686.89240525732771
 20
-403.99999999999159
 30
0.0
 11
-847.1719494050908
 21
-403.99999999999159
 31
0.0
  0
LINE
  8
SIZE
  6
CONTINUOUS
 62
    30
 10
-680.03566598417842
 20
-443.99999152871868
 30
0.0
 11
-847.1719494050908
 21
-443.99999152871868
 31
0.0
  0
LINE
  8
SIZE
  6
CONTINUOUS
 62
    30
 10
-827.1719494050908
 20
-391.99999999999159
 30
0.0
 11
-827.1719494050908
 21
-379.99999999999147
 31
0.0
  0
LINE
  8
SIZE
  6
CONTINUOUS
 62
    30
 10
-827.1719494050908
 20
-455.99999152871868
 30
0.0
 11
-827.1719494050908
 21
-467.99999152871868
 31
0.0
  0
LINE
  8
SIZE
  6
CONTINUOUS
 62
    30
 10
-827.1719494050908
 20
-403.99999999999159
 30
0.0
 11
-827.1719494050908
 21
-443.99999152871868
 31
0.0
  0
CIRCLE
  8
SIZE
  6
CONTINUOUS
 62
    30
 10
-827.1719494050908
 20
-403.99999999999159
 30
0.0
 40
6.0
  0
LINE
  8
SIZE
  6
CONTINUOUS
 62
    30
 10
-827.1719494050908
 20
-403.99999999999159
 30
0.0
 11
-827.1719494050908
 21
-391.99999999999159
 31
0.0
  0
CIRCLE
  8
SIZE
  6
CONTINUOUS
 62
    30
 10
-827.1719494050908
 20
-443.99999152871868
 30
0.0
 40
6.0
  0
LINE
  8
SIZE
  6
CONTINUOUS
 62
    30
 10
-827.1719494050908
 20
-443.99999152871868
 30
0.0
 11
-827.1719494050908
 21
-455.99999152871868
 31
0.0
  0
TEXT
  8
SIZE
  6
CONTINUOUS
 62
    30
 10
-852.17194940509069
 20
-478.71999576435485
 30
0.0
 40
64.0
  1
40
 50
90.0
 41
0.9
 51
0.0
  7
STANDARD
 71
     0
 72
     1
 11
-852.17194940509069
 21
-423.99999576435482
 31
0.0
210
0.0
220
0.0
230
1.0
  0
POINT
  8
DEFPOINTS
  6
CONTINUOUS
 62
    30
 10
-666.89240525732771
 20
-403.99999999999159
 30
0.0
  0
POINT
  8
DEFPOINTS
  6
CONTINUOUS
 62
    30
 10
-660.03566598417842
 20
-443.99999152871868
 30
0.0
  0
POINT
  8
DEFPOINTS
  6
CONTINUOUS
 62
    30
 10
-827.1719494050908
 20
-443.99999152871868
 30
0.0
  0
LINE
  8
SIZE
  6
CONTINUOUS
 62
    30
 10
-635.79998590094624
 20
-93.999991528718311
 30
0.0
 11
-961.7645850027701
 21
-93.999991528718368
 31
0.0
  0
LINE
  8
SIZE
  6
CONTINUOUS
 62
    30
 10
-635.79998590094624
 20
-793.99999152871851
 30
0.0
 11
-961.76458500276988
 21
-793.99999152871862
 31
0.0
  0
LINE
  8
SIZE
  6
CONTINUOUS
 62
    30
 10
-941.7645850027701
 20
-105.9999915287184
 30
0.0
 11
-941.76458500276988
 21
-781.99999152871862
 31
0.0
  0
CIRCLE
  8
SIZE
  6
CONTINUOUS
 62
    30
 10
-941.7645850027701
 20
-93.999991528718368
 30
0.0
 40
6.0
  0
LINE
  8
SIZE
  6
CONTINUOUS
 62
    30
 10
-941.7645850027701
 20
-93.999991528718368
 30
0.0
 11
-941.7645850027701
 21
-105.99999152871837
 31
0.0
  0
CIRCLE
  8
SIZE
  6
CONTINUOUS
 62
    30
 10
-941.76458500276988
 20
-793.99999152871862
 30
0.0
 40
6.0
  0
LINE
  8
SIZE
  6
CONTINUOUS
 62
    30
 10
-941.76458500276988
 20
-793.99999152871862
 30
0.0
 11
-941.76458500276988
 21
-781.99999152871862
 31
0.0
  0
TEXT
  8
SIZE
  6
CONTINUOUS
 62
    30
 10
-966.76458500276988
 20
-525.50399152871819
 30
0.0
 40
64.0
  1
700
 50
90.0
 41
0.9
 51
0.0
  7
STANDARD
 71
     0
 72
     1
 11
-966.76458500276988
 21
-443.99999152871811
 31
0.0
210
0.0
220
0.0
230
1.0
  0
POINT
  8
DEFPOINTS
  6
CONTINUOUS
 62
    30
 10
-615.79998590094624
 20
-93.999991528718311
 30
0.0
  0
POINT
  8
DEFPOINTS
  6
CONTINUOUS
 62
    30
 10
-615.79998590094624
 20
-793.99999152871851
 30
0.0
  0
POINT
  8
DEFPOINTS
  6
CONTINUOUS
 62
    30
 10
-941.76458500276988
 20
-793.99999152871862
 30
0.0
  0
LINE
  8
SIZE
  6
CONTINUOUS
 62
    30
 10
727.53653402160785
 20
-202.0000000000056
 30
0.0
 11
1776.904346897293
 21
-202.0000000000054
 31
0.0
  0
LINE
  8
SIZE
  6
CONTINUOUS
 62
    30
 10
726.16450201683551
 20
-605.99999999999659
 30
0.0
 11
1776.9043468972941
 21
-605.99999999999648
 31
0.0
  0
LINE
  8
SIZE
  6
CONTINUOUS
 62
    30
 10
1756.904346897293
 20
-214.0000000000054
 30
0.0
 11
1756.9043468972941
 21
-593.99999999999648
 31
0.0
  0
CIRCLE
  8
SIZE
  6
CONTINUOUS
 62
    30
 10
1756.904346897293
 20
-202.0000000000054
 30
0.0
 40
6.0
  0
LINE
  8
SIZE
  6
CONTINUOUS
 62
    30
 10
1756.904346897293
 20
-202.0000000000054
 30
0.0
 11
1756.904346897293
 21
-214.0000000000054
 31
0.0
  0
CIRCLE
  8
SIZE
  6
CONTINUOUS
 62
    30
 10
1756.9043468972941
 20
-605.99999999999648
 30
0.0
 40
6.0
  0
LINE
  8
SIZE
  6
CONTINUOUS
 62
    30
 10
1756.9043468972941
 20
-605.99999999999648
 30
0.0
 11
1756.9043468972941
 21
-593.99999999999648
 31
0.0
  0
TEXT
  8
SIZE
  6
CONTINUOUS
 62
    30
 10
1731.904346897293
 20
-486.08000000000135
 30
0.0
 40
64.0
  1
404
 50
90.0
 41
0.9
 51
0.0
  7
STANDARD
 71
     0
 72
     1
 11
1731.904346897293
 21
-404.00000000000142
 31
0.0
210
0.0
220
0.0
230
1.0
  0
POINT
  8
DEFPOINTS
  6
CONTINUOUS
 62
    30
 10
707.53653402160785
 20
-202.0000000000056
 30
0.0
  0
POINT
  8
DEFPOINTS
  6
CONTINUOUS
 62
    30
 10
706.16450201683551
 20
-605.99999999999659
 30
0.0
  0
POINT
  8
DEFPOINTS
  6
CONTINUOUS
 62
    30
 10
1756.9043468972941
 20
-605.99999999999648
 30
0.0
  0
LINE
  8
SIZE
  6
CONTINUOUS
 62
    30
 10
590.74999999998568
 20
0.0000000000000032
 30
0.0
 11
1906.810866900357
 21
0.0000000000002149
 31
0.0
  0
LINE
  8
SIZE
  6
CONTINUOUS
 62
    30
 10
590.74999999998568
 20
-807.999999999995
 30
0.0
 11
1906.810866900357
 21
-807.99999999999477
 31
0.0
  0
LINE
  8
SIZE
  6
CONTINUOUS
 62
    30
 10
1886.810866900357
 20
-11.99999999999979
 30
0.0
 11
1886.810866900357
 21
-795.99999999999477
 31
0.0
  0
CIRCLE
  8
SIZE
  6
CONTINUOUS
 62
    30
 10
1886.810866900357
 20
0.0000000000002116
 30
0.0
 40
6.0
  0
LINE
  8
SIZE
  6
CONTINUOUS
 62
    30
 10
1886.810866900357
 20
0.0000000000002116
 30
0.0
 11
1886.810866900357
 21
-11.999999999999789
 31
0.0
  0
CIRCLE
  8
SIZE
  6
CONTINUOUS
 62
    30
 10
1886.810866900357
 20
-807.99999999999477
 30
0.0
 40
6.0
  0
LINE
  8
SIZE
  6
CONTINUOUS
 62
    30
 10
1886.810866900357
 20
-807.99999999999477
 30
0.0
 11
1886.810866900357
 21
-795.99999999999477
 31
0.0
  0
TEXT
  8
SIZE
  6
CONTINUOUS
 62
    30
 10
1861.810866900357
 20
-484.92799999999784
 30
0.0
 40
64.0
  1
808
 50
90.0
 41
0.9
 51
0.0
  7
STANDARD
 71
     0
 72
     1
 11
1861.810866900357
 21
-403.99999999999795
 31
0.0
210
0.0
220
0.0
230
1.0
  0
POINT
  8
DEFPOINTS
  6
CONTINUOUS
 62
    30
 10
570.74999999998568
 20
0.0
 30
0.0
  0
POINT
  8
DEFPOINTS
  6
CONTINUOUS
 62
    30
 10
570.74999999998568
 20
-807.999999999995
 30
0.0
  0
POINT
  8
DEFPOINTS
  6
CONTINUOUS
 62
    30
 10
1886.810866900357
 20
-807.99999999999477
 30
0.0
  0
LINE
  8
SIZE
  6
CONTINUOUS
 62
    30
 10
726.16450201683551
 20
-605.99999999999659
 30
0.0
 11
1378.8350847163431
 21
-605.99999999999636
 31
0.0
  0
LINE
  8
SIZE
  6
CONTINUOUS
 62
    30
 10
694.54386575860303
 20
-646.00000000000159
 30
0.0
 11
1378.8350847163431
 21
-646.00000000000136
 31
0.0
  0
LINE
  8
SIZE
  6
CONTINUOUS
 62
    30
 10
1358.8350847163431
 20
-593.99999999999636
 30
0.0
 11
1358.8350847163431
 21
-581.99999999999636
 31
0.0
  0
LINE
  8
SIZE
  6
CONTINUOUS
 62
    30
 10
1358.8350847163431
 20
-658.00000000000136
 30
0.0
 11
1358.8350847163431
 21
-945.29657971375389
 31
0.0
  0
LINE
  8
SIZE
  6
CONTINUOUS
 62
    30
 10
1358.8350847163431
 20
-605.99999999999636
 30
0.0
 11
1358.8350847163431
 21
-646.00000000000136
 31
0.0
  0
CIRCLE
  8
SIZE
  6
CONTINUOUS
 62
    30
 10
1358.8350847163431
 20
-605.99999999999636
 30
0.0
 40
6.0
  0
LINE
  8
SIZE
  6
CONTINUOUS
 62
    30
 10
1358.8350847163431
 20
-605.99999999999636
 30
0.0
 11
1358.8350847163431
 21
-593.99999999999636
 31
0.0
  0
CIRCLE
  8
SIZE
  6
CONTINUOUS
 62
    30
 10
1358.8350847163431
 20
-646.00000000000136
 30
0.0
 40
6.0
  0
LINE
  8
SIZE
  6
CONTINUOUS
 62
    30
 10
1358.8350847163431
 20
-646.00000000000136
 30
0.0
 11
1358.8350847163431
 21
-658.00000000000136
 31
0.0
  0
TEXT
  8
SIZE
  6
CONTINUOUS
 62
    30
 10
1333.8350847163431
 20
-928.38800828518265
 30
0.0
 40
64.0
  1
40
 50
90.0
 41
0.9
 51
0.0
  7
STANDARD
 71
     0
 72
     1
 11
1333.8350847163431
 21
-873.66800828518262
 31
0.0
210
0.0
220
0.0
230
1.0
  0
POINT
  8
DEFPOINTS
  6
CONTINUOUS
 62
    30
 10
706.16450201683551
 20
-605.99999999999659
 30
0.0
  0
POINT
  8
DEFPOINTS
  6
CONTINUOUS
 62
    30
 10
674.54386575860303
 20
-646.00000000000159
 30
0.0
  0
POINT
  8
DEFPOINTS
  6
CONTINUOUS
 62
    30
 10
1358.8350847163431
 20
-646.00000000000136
 30
0.0
  0
LINE
  8
SIZE
  6
CONTINUOUS
 62
    30
 10
694.54386575860303
 20
-242.0000000000106
 30
0.0
 11
1378.835084716344
 21
-242.00000000001049
 31
0.0
  0
LINE
  8
SIZE
  6
CONTINUOUS
 62
    30
 10
727.53653402160785
 20
-202.0000000000056
 30
0.0
 11
1378.835084716344
 21
-202.00000000000551
 31
0.0
  0
LINE
  8
SIZE
  6
CONTINUOUS
 62
    30
 10
1358.835084716344
 20
-254.0000000000104
 30
0.0
 11
1358.835084716344
 21
-266.00000000001052
 31
0.0
  0
LINE
  8
SIZE
  6
CONTINUOUS
 62
    30
 10
1358.835084716344
 20
-190.0000000000054
 30
0.0
 11
1358.835084716344
 21
154.88363792632029
 31
0.0
  0
LINE
  8
SIZE
  6
CONTINUOUS
 62
    30
 10
1358.835084716344
 20
-242.0000000000104
 30
0.0
 11
1358.835084716344
 21
-202.00000000000551
 31
0.0
  0
CIRCLE
  8
SIZE
  6
CONTINUOUS
 62
    30
 10
1358.835084716344
 20
-242.0000000000104
 30
0.0
 40
6.0
  0
LINE
  8
SIZE
  6
CONTINUOUS
 62
    30
 10
1358.835084716344
 20
-242.0000000000104
 30
0.0
 11
1358.835084716344
 21
-254.0000000000104
 31
0.0
  0
CIRCLE
  8
SIZE
  6
CONTINUOUS
 62
    30
 10
1358.835084716344
 20
-202.00000000000551
 30
0.0
 40
6.0
  0
LINE
  8
SIZE
  6
CONTINUOUS
 62
    30
 10
1358.835084716344
 20
-202.00000000000551
 30
0.0
 11
1358.835084716344
 21
-190.00000000000551
 31
0.0
  0
TEXT
  8
SIZE
  6
CONTINUOUS
 62
    30
 10
1333.835084716344
 20
28.535066497748403
 30
0.0
 40
64.0
  1
40
 50
90.0
 41
0.9
 51
0.0
  7
STANDARD
 71
     0
 72
     1
 11
1333.835084716344
 21
83.25506649774843
 31
0.0
210
0.0
220
0.0
230
1.0
  0
POINT
  8
DEFPOINTS
  6
CONTINUOUS
 62
    30
 10
674.54386575860303
 20
-242.0000000000106
 30
0.0
  0
POINT
  8
DEFPOINTS
  6
CONTINUOUS
 62
    30
 10
707.53653402160785
 20
-202.0000000000056
 30
0.0
  0
POINT
  8
DEFPOINTS
  6
CONTINUOUS
 62
    30
 10
1358.835084716344
 20
-202.00000000000551
 30
0.0
  0
LINE
  8
SIZE
  6
CONTINUOUS
 62
    30
 10
670.80000000000041
 20
-363.0000000000033
 30
0.0
 11
1510.673724263208
 21
-363.00000000000318
 31
0.0
  0
LINE
  8
SIZE
  6
CONTINUOUS
 62
    30
 10
670.80000000000041
 20
-121.0000000000032
 30
0.0
 11
1510.673724263208
 21
-121.0000000000031
 31
0.0
  0
LINE
  8
SIZE
  6
CONTINUOUS
 62
    30
 10
1490.673724263208
 20
-351.00000000000318
 30
0.0
 11
1490.673724263208
 21
-133.0000000000031
 31
0.0
  0
LINE
  8
SIZE
  6
CONTINUOUS
 62
    30
 10
1490.673724263208
 20
-121.0000000000031
 30
0.0
 11
1490.673724263208
 21
250.91029492454331
 31
0.0
  0
CIRCLE
  8
SIZE
  6
CONTINUOUS
 62
    30
 10
1490.673724263208
 20
-363.00000000000318
 30
0.0
 40
6.0
  0
LINE
  8
SIZE
  6
CONTINUOUS
 62
    30
 10
1490.673724263208
 20
-363.00000000000318
 30
0.0
 11
1490.673724263208
 21
-351.00000000000318
 31
0.0
  0
CIRCLE
  8
SIZE
  6
CONTINUOUS
 62
    30
 10
1490.673724263208
 20
-121.0000000000031
 30
0.0
 40
6.0
  0
LINE
  8
SIZE
  6
CONTINUOUS
 62
    30
 10
1490.673724263208
 20
-121.0000000000031
 30
0.0
 11
1490.673724263208
 21
-133.0000000000031
 31
0.0
  0
TEXT
  8
SIZE
  6
CONTINUOUS
 62
    30
 10
1465.673724263208
 20
10.30800921025704
 30
0.0
 40
64.0
  1
φ242
 50
90.0
 41
0.9
 51
0.0
  7
STANDARD
 71
     0
 72
     1
 11
1465.673724263208
 21
125.7960092102571
 31
0.0
210
0.0
220
0.0
230
1.0
  0
POINT
  8
DEFPOINTS
  6
CONTINUOUS
 62
    30
 10
650.80000000000041
 20
-363.0000000000033
 30
0.0
  0
POINT
  8
DEFPOINTS
  6
CONTINUOUS
 62
    30
 10
650.80000000000041
 20
-121.0000000000032
 30
0.0
  0
POINT
  8
DEFPOINTS
  6
CONTINUOUS
 62
    30
 10
1490.673724263208
 20
-121.0000000000031
 30
0.0
  0
LINE
  8
DETAIL
  6
CONTINUOUS
 62
     5
 10
573.49999999999181
 20
-774.99999999999409
 30
0.0
 11
642.799999999992
 21
-766.99999999999409
 31
0.0
  0
LINE
  8
DETAIL
  6
CONTINUOUS
 62
     5
 10
566.30000000000928
 20
-774.99999999999409
 30
0.0
 11
573.49999999999181
 21
-774.99999999999409
 31
0.0
  0
LINE
  8
DETAIL
  6
CONTINUOUS
 62
     5
 10
642.799999999992
 20
-766.99999999999409
 30
0.0
 11
650.80000000000655
 21
-766.99999999999409
 31
0.0
  0
LINE
  8
DETAIL
  6
CONTINUOUS
 62
     5
 10
642.799999999992
 20
-524.99999999999409
 30
0.0
 11
650.80000000000655
 21
-524.99999999999409
 31
0.0
  0
LINE
  8
DETAIL
  6
CONTINUOUS
 62
     5
 10
573.49999999999181
 20
-516.99999999898091
 30
0.0
 11
642.799999999992
 21
-524.99999999999409
 31
0.0
  0
LINE
  8
DETAIL
  6
CONTINUOUS
 62
     5
 10
573.49999999999181
 20
-516.99999999898091
 30
0.0
 11
573.49999999999181
 21
-774.99999999999409
 31
0.0
  0
LINE
  8
DETAIL
  6
CONTINUOUS
 62
     5
 10
642.799999999992
 20
-766.99999999999409
 30
0.0
 11
642.799999999992
 21
-524.99999999999409
 31
0.0
  0
LINE
  8
DETAIL
  6
CONTINUOUS
 62
     5
 10
650.80000000000655
 20
-766.99999999999409
 30
0.0
 11
650.80000000000655
 21
-524.99999999999409
 31
0.0
  0
LINE
  8
DETAIL
  6
CONTINUOUS
 62
     5
 10
566.30000000000928
 20
-516.99999999999409
 30
0.0
 11
573.49999999999181
 21
-516.99999999999409
 31
0.0
  0
LINE
  8
SIZE
  6
CONTINUOUS
 62
    30
 10
593.49999999998568
 20
-371.0000000000033
 30
0.0
 11
1632.8593704300879
 21
-371.00000000000313
 31
0.0
  0
LINE
  8
SIZE
  6
CONTINUOUS
 62
    30
 10
593.49999999998568
 20
-112.99999999899011
 30
0.0
 11
1632.8593704300879
 21
-112.99999999898991
 31
0.0
  0
LINE
  8
SIZE
  6
CONTINUOUS
 62
    30
 10
1612.8593704300879
 20
-359.00000000000313
 30
0.0
 11
1612.8593704300879
 21
-124.99999999898991
 31
0.0
  0
LINE
  8
SIZE
  6
CONTINUOUS
 62
    30
 10
1612.8593704300879
 20
-112.99999999898991
 30
0.0
 11
1612.8593704300879
 21
248.40177493004461
 31
0.0
  0
CIRCLE
  8
SIZE
  6
CONTINUOUS
 62
    30
 10
1612.8593704300879
 20
-371.00000000000313
 30
0.0
 40
6.0
  0
LINE
  8
SIZE
  6
CONTINUOUS
 62
    30
 10
1612.8593704300879
 20
-371.00000000000313
 30
0.0
 11
1612.8593704300879
 21
-359.00000000000313
 31
0.0
  0
CIRCLE
  8
SIZE
  6
CONTINUOUS
 62
    30
 10
1612.8593704300879
 20
-112.99999999898991
 30
0.0
 40
6.0
  0
LINE
  8
SIZE
  6
CONTINUOUS
 62
    30
 10
1612.8593704300879
 20
-112.99999999898991
 30
0.0
 11
1612.8593704300879
 21
-124.99999999898991
 31
0.0
  0
TEXT
  8
SIZE
  6
CONTINUOUS
 62
    30
 10
1587.859370430087
 20
8.3754892157582645
 30
0.0
 40
64.0
  1
φ258
 50
90.0
 41
0.9
 51
0.0
  7
STANDARD
 71
     0
 72
     1
 11
1587.859370430087
 21
123.2874892157583
 31
0.0
210
0.0
220
0.0
230
1.0
  0
POINT
  8
DEFPOINTS
  6
CONTINUOUS
 62
    30
 10
573.49999999998568
 20
-371.0000000000033
 30
0.0
  0
POINT
  8
DEFPOINTS
  6
CONTINUOUS
 62
    30
 10
573.49999999998568
 20
-112.99999999899011
 30
0.0
  0
POINT
  8
DEFPOINTS
  6
CONTINUOUS
 62
    30
 10
1612.8593704300879
 20
-112.99999999898991
 30
0.0
  0
LINE
  8
SIZE
  6
CONTINUOUS
 62
    30
 10
670.80000000000678
 20
-766.99999999999432
 30
0.0
 11
1510.67372426321
 21
-766.99999999999409
 31
0.0
  0
LINE
  8
SIZE
  6
CONTINUOUS
 62
    30
 10
670.80000000000678
 20
-524.99999999999432
 30
0.0
 11
1510.67372426321
 21
-524.99999999999409
 31
0.0
  0
LINE
  8
SIZE
  6
CONTINUOUS
 62
    30
 10
1490.67372426321
 20
-536.99999999999409
 30
0.0
 11
1490.67372426321
 21
-754.99999999999409
 31
0.0
  0
LINE
  8
SIZE
  6
CONTINUOUS
 62
    30
 10
1490.67372426321
 20
-766.99999999999409
 30
0.0
 11
1490.67372426321
 21
-1051.8426867428191
 31
0.0
  0
CIRCLE
  8
SIZE
  6
CONTINUOUS
 62
    30
 10
1490.67372426321
 20
-524.99999999999409
 30
0.0
 40
6.0
  0
LINE
  8
SIZE
  6
CONTINUOUS
 62
    30
 10
1490.67372426321
 20
-524.99999999999409
 30
0.0
 11
1490.67372426321
 21
-536.99999999999409
 31
0.0
  0
CIRCLE
  8
SIZE
  6
CONTINUOUS
 62
    30
 10
1490.67372426321
 20
-766.99999999999409
 30
0.0
 40
6.0
  0
LINE
  8
SIZE
  6
CONTINUOUS
 62
    30
 10
1490.67372426321
 20
-766.99999999999409
 30
0.0
 11
1490.67372426321
 21
-754.99999999999409
 31
0.0
  0
TEXT
  8
SIZE
  6
CONTINUOUS
 62
    30
 10
1465.67372426321
 20
-1042.2164010285335
 30
0.0
 40
64.0
  1
φ242
 50
90.0
 41
0.9
 51
0.0
  7
STANDARD
 71
     0
 72
     1
 11
1465.67372426321
 21
-926.72840102853343
 31
0.0
210
0.0
220
0.0
230
1.0
  0
POINT
  8
DEFPOINTS
  6
CONTINUOUS
 62
    30
 10
650.80000000000678
 20
-766.99999999999432
 30
0.0
  0
POINT
  8
DEFPOINTS
  6
CONTINUOUS
 62
    30
 10
650.80000000000678
 20
-524.99999999999432
 30
0.0
  0
POINT
  8
DEFPOINTS
  6
CONTINUOUS
 62
    30
 10
1490.67372426321
 20
-524.99999999999409
 30
0.0
  0
LINE
  8
SIZE
  6
CONTINUOUS
 62
    30
 10
593.49999999999204
 20
-516.99999999898114
 30
0.0
 11
1632.8593704300861
 21
-516.99999999898102
 31
0.0
  0
LINE
  8
SIZE
  6
CONTINUOUS
 62
    30
 10
593.49999999999204
 20
-774.99999999999454
 30
0.0
 11
1632.8593704300861
 21
-774.99999999999443
 31
0.0
  0
LINE
  8
SIZE
  6
CONTINUOUS
 62
    30
 10
1612.8593704300861
 20
-528.99999999898102
 30
0.0
 11
1612.8593704300861
 21
-762.99999999999432
 31
0.0
  0
LINE
  8
SIZE
  6
CONTINUOUS
 62
    30
 10
1612.8593704300861
 20
-774.99999999999443
 30
0.0
 11
1612.8593704300861
 21
-1058.415339300612
 31
0.0
  0
CIRCLE
  8
SIZE
  6
CONTINUOUS
 62
    30
 10
1612.8593704300861
 20
-516.99999999898102
 30
0.0
 40
6.0
  0
LINE
  8
SIZE
  6
CONTINUOUS
 62
    30
 10
1612.8593704300861
 20
-516.99999999898102
 30
0.0
 11
1612.8593704300861
 21
-528.99999999898102
 31
0.0
  0
CIRCLE
  8
SIZE
  6
CONTINUOUS
 62
    30
 10
1612.8593704300861
 20
-774.99999999999443
 30
0.0
 40
6.0
  0
LINE
  8
SIZE
  6
CONTINUOUS
 62
    30
 10
1612.8593704300861
 20
-774.99999999999443
 30
0.0
 11
1612.8593704300861
 21
-762.99999999999443
 31
0.0
  0
TEXT
  8
SIZE
  6
CONTINUOUS
 62
    30
 10
1587.8593704300861
 20
-1048.2130535863264
 30
0.0
 40
64.0
  1
φ258
 50
90.0
 41
0.9
 51
0.0
  7
STANDARD
 71
     0
 72
     1
 11
1587.8593704300861
 21
-933.30105358632636
 31
0.0
210
0.0
220
0.0
230
1.0
  0
POINT
  8
DEFPOINTS
  6
CONTINUOUS
 62
    30
 10
573.49999999999204
 20
-516.99999999898114
 30
0.0
  0
POINT
  8
DEFPOINTS
  6
CONTINUOUS
 62
    30
 10
573.49999999999204
 20
-774.99999999999454
 30
0.0
  0
POINT
  8
DEFPOINTS
  6
CONTINUOUS
 62
    30
 10
1612.8593704300861
 20
-774.99999999999443
 30
0.0
  0
POINT
  8
ARRANGE
  6
CONTINUOUS
 62
     1
 10
0.0
 20
0.0
 30
0.0
  0
CIRCLE
  8
ARRANGE
  6
CONTINUOUS
 62
     1
 10
0.0
 20
0.0
 30
0.0
 40
40.0
  0
LINE
  8
BASIS
  6
DASHDOT
 62
     6
 10
-505.00000000000182
 20
-353.99998749999298
 30
0.0
 11
-505.00000000000182
 21
-454.00001249998968
 31
0.0
  0
LINE
  8
BASIS
  6
DASHDOT
 62
     6
 10
504.99999999999642
 20
-353.99998749998889
 30
0.0
 11
504.99999999999642
 21
-454.00001249998832
 31
0.0
  0
LINE
  8
BASIS
  6
DASHDOT
 62
     6
 10
555.00001249999696
 20
-403.99999999998857
 30
0.0
 11
454.99998749999583
 21
-403.99999999998857
 31
0.0
  0
LINE
  8
BASIS
  6
DASHDOT
 62
     6
 10
-454.9999875000085
 20
-403.99999999999142
 30
0.0
 11
-555.00001249999514
 21
-403.99999999999142
 31
0.0
  0
LINE
  8
SIZE
  6
CONTINUOUS
 62
    30
 10
-505.00000000000182
 20
-333.99998749999298
 30
0.0
 11
-505.00000000000182
 21
190.79332611844671
 31
0.0
  0
LINE
  8
SIZE
  6
CONTINUOUS
 62
    30
 10
504.99999999999642
 20
-333.99998749998889
 30
0.0
 11
504.99999999999642
 21
190.79332611844671
 31
0.0
  0
LINE
  8
SIZE
  6
CONTINUOUS
 62
    30
 10
-493.00000000000182
 20
170.79332611844671
 30
0.0
 11
492.99999999999642
 21
170.79332611844671
 31
0.0
  0
CIRCLE
  8
SIZE
  6
CONTINUOUS
 62
    30
 10
-505.00000000000182
 20
170.79332611844671
 30
0.0
 40
6.0
  0
LINE
  8
SIZE
  6
CONTINUOUS
 62
    30
 10
-505.00000000000182
 20
170.79332611844671
 30
0.0
 11
-493.00000000000182
 21
170.79332611844671
 31
0.0
  0
CIRCLE
  8
SIZE
  6
CONTINUOUS
 62
    30
 10
504.99999999999642
 20
170.79332611844671
 30
0.0
 40
6.0
  0
LINE
  8
SIZE
  6
CONTINUOUS
 62
    30
 10
504.99999999999642
 20
170.79332611844671
 30
0.0
 11
492.99999999999642
 21
170.79332611844671
 31
0.0
  0
TEXT
  8
SIZE
  6
CONTINUOUS
 62
    30
 10
-96.768000000002687
 20
195.79332611844671
 30
0.0
 40
64.0
  1
1010
 50
0.0
 41
0.9
 51
0.0
  7
STANDARD
 71
     0
 72
     1
 11
-0.0000000000026716
 21
195.79332611844671
 31
0.0
210
0.0
220
0.0
230
1.0
  0
POINT
  8
DEFPOINTS
  6
CONTINUOUS
 62
    30
 10
-505.00000000000182
 20
-353.99998749999298
 30
0.0
  0
POINT
  8
DEFPOINTS
  6
CONTINUOUS
 62
    30
 10
504.99999999999642
 20
-353.99998749998889
 30
0.0
  0
POINT
  8
DEFPOINTS
  6
CONTINUOUS
 62
    30
 10
504.99999999999642
 20
170.79332611844671
 30
0.0
  0
CIRCLE
  8
FIX
  6
CONTINUOUS
 62
    11
 10
-505.00000000000182
 20
-403.99999999999142
 30
0.0
 40
7.5
  0
CIRCLE
  8
FIX
  6
CONTINUOUS
 62
    11
 10
504.99999999999642
 20
-403.99999999998857
 30
0.0
 40
7.5
  0
LINE
  8
OUTLINE
  6
CONTINUOUS
 62
     3
 10
-570.75
 20
0.0
 30
0.0
 11
-565.67127970601723
 21
0.0
 31
0.0
  0
ARC
  8
OUTLINE
  6
CONTINUOUS
 62
     3
 10
-565.67127970600029
 20
-1.5999999999812751
 30
0.0
 40
1.5999999999812751
 50
9.9999999997617692
 51
90.0
  0
LINE
  8
OUTLINE
  6
CONTINUOUS
 62
     3
 10
-564.09558730119807
 20
-1.3221629157239929
 30
0.0
 11
-564.00000000001455
 21
-1.864265431275498
 31
0.0
  0
LINE
  8
OUTLINE
  6
CONTINUOUS
 62
     3
 10
-564.00000000001455
 20
-1.864265431275498
 30
0.0
 11
-564.00000000001455
 21
-0.8000000000033651
 31
0.0
  0
LINE
  8
OUTLINE
  6
CONTINUOUS
 62
     3
 10
-564.00000000001455
 20
-0.8000000000033651
 30
0.0
 11
-562.6470853920182
 21
-0.8000000000033651
 31
0.0
  0
LINE
  8
OUTLINE
  6
CONTINUOUS
 62
     3
 10
-562.6470853920182
 20
-0.8000000000033651
 30
0.0
 11
-562.6470853920182
 21
0.0
 31
0.0
  0
LINE
  8
OUTLINE
  6
CONTINUOUS
 62
     3
 10
-562.6470853920182
 20
0.0
 30
0.0
 11
562.64708539198909
 21
0.0
 31
0.0
  0
LINE
  8
OUTLINE
  6
CONTINUOUS
 62
     3
 10
562.64708539198909
 20
0.0
 30
0.0
 11
562.64708539198909
 21
-0.8000000000033651
 31
0.0
  0
LINE
  8
OUTLINE
  6
CONTINUOUS
 62
     3
 10
562.64708539198909
 20
-0.8000000000033651
 30
0.0
 11
563.99999999998545
 21
-0.8000000000033651
 31
0.0
  0
LINE
  8
OUTLINE
  6
CONTINUOUS
 62
     3
 10
563.99999999998545
 20
-0.8000000000033651
 30
0.0
 11
563.99999999998636
 21
-1.8642654312807281
 31
0.0
  0
LINE
  8
OUTLINE
  6
CONTINUOUS
 62
     3
 10
563.99999999998636
 20
-1.8642654312807281
 30
0.0
 11
564.09558729997661
 21
-1.3221629159957049
 31
0.0
  0
ARC
  8
OUTLINE
  6
CONTINUOUS
 62
     3
 10
565.67127970331876
 20
-1.5999999981736899
 30
0.0
 40
1.5999999981823301
 50
90.0
 51
170.00000006448704
  0
LINE
  8
OUTLINE
  6
CONTINUOUS
 62
     3
 10
565.67127970397996
 20
0.0000000000086402
 30
0.0
 11
570.74999999998545
 21
0.0
 31
0.0
  0
ARC
  8
OUTLINE
  6
CONTINUOUS
 62
     3
 10
570.74999999998545
 20
-1.050000000003138
 30
0.0
 40
1.050000000003138
 50
270.0
 51
90.0
  0
LINE
  8
OUTLINE
  6
CONTINUOUS
 62
     3
 10
570.74999999998545
 20
-2.100000000006276
 30
0.0
 11
567.49999999998545
 21
-2.100000000006276
 31
0.0
  0
LINE
  8
OUTLINE
  6
CONTINUOUS
 62
     3
 10
567.49999999998545
 20
-2.100000000006276
 30
0.0
 11
567.49999999998545
 21
-1.3000000000029099
 31
0.0
  0
LINE
  8
OUTLINE
  6
CONTINUOUS
 62
     3
 10
567.49999999998545
 20
-1.3000000000029099
 30
0.0
 11
565.99999999998545
 21
-1.3000000000029099
 31
0.0
  0
ARC
  8
OUTLINE
  6
CONTINUOUS
 62
     3
 10
565.9999999999751
 20
-1.7999999999780585
 30
0.0
 40
0.4999999999751486
 50
90.0
 51
180.0
  0
LINE
  8
OUTLINE
  6
CONTINUOUS
 62
     3
 10
565.5
 20
-1.8000000000029099
 30
0.0
 11
565.5
 21
-2.8000000000033651
 31
0.0
  0
LINE
  8
OUTLINE
  6
CONTINUOUS
 62
     3
 10
565.5
 20
-2.8000000000033651
 30
0.0
 11
565.99999999998545
 21
-2.8000000000033651
 31
0.0
  0
LINE
  8
OUTLINE
  6
CONTINUOUS
 62
     3
 10
565.99999999998545
 20
-2.8000000000033651
 30
0.0
 11
565.99999999998545
 21
-99.50000000001728
 31
0.0
  0
LINE
  8
OUTLINE
  6
CONTINUOUS
 62
     3
 10
565.99999999998545
 20
-99.50000000001728
 30
0.0
 11
566.30000000000291
 21
-99.50000000001728
 31
0.0
  0
LINE
  8
OUTLINE
  6
CONTINUOUS
 62
     3
 10
566.30000000000291
 20
-99.50000000001728
 30
0.0
 11
566.30000000000291
 21
-113.0000000000032
 31
0.0
  0
LINE
  8
OUTLINE
  6
CONTINUOUS
 62
     3
 10
566.30000000000291
 20
-113.0000000000032
 30
0.0
 11
573.50000000876207
 21
-113.0000000000032
 31
0.0
  0
LINE
  8
OUTLINE
  6
CONTINUOUS
 62
     3
 10
573.50000000876207
 20
-113.0000000000032
 30
0.0
 11
642.79999999998563
 21
-121.0000000000032
 31
0.0
  0
LINE
  8
OUTLINE
  6
CONTINUOUS
 62
     3
 10
642.79999999998563
 20
-121.0000000000032
 30
0.0
 11
650.80000000000018
 21
-121.0000000000032
 31
0.0
  0
LINE
  8
OUTLINE
  6
CONTINUOUS
 62
     3
 10
650.80000000000018
 20
-121.0000000000032
 30
0.0
 11
650.80000000000018
 21
-363.00000000000318
 31
0.0
  0
LINE
  8
OUTLINE
  6
CONTINUOUS
 62
     3
 10
650.80000000000018
 20
-363.00000000000318
 30
0.0
 11
642.79999999998654
 21
-363.00000000000318
 31
0.0
  0
LINE
  8
OUTLINE
  6
CONTINUOUS
 62
     3
 10
642.79999999998654
 20
-363.00000000000318
 30
0.0
 11
573.49999999998636
 21
-371.00000000000318
 31
0.0
  0
LINE
  8
OUTLINE
  6
CONTINUOUS
 62
     3
 10
573.49999999998636
 20
-371.00000000000318
 30
0.0
 11
566.30000000000291
 21
-371.00000000000318
 31
0.0
  0
LINE
  8
OUTLINE
  6
CONTINUOUS
 62
     3
 10
566.30000000000291
 20
-371.00000000000318
 30
0.0
 11
566.30000000000291
 21
-384.50000000000318
 31
0.0
  0
LINE
  8
OUTLINE
  6
CONTINUOUS
 62
     3
 10
566.30000000000291
 20
-384.50000000000318
 30
0.0
 11
565.99999999998545
 21
-384.50000000000318
 31
0.0
  0
LINE
  8
OUTLINE
  6
CONTINUOUS
 62
     3
 10
565.99999999998545
 20
-384.50000000000318
 30
0.0
 11
565.99999999998545
 21
-401.20000000000249
 31
0.0
  0
LINE
  8
OUTLINE
  6
CONTINUOUS
 62
     3
 10
565.99999999998545
 20
-401.20000000000249
 30
0.0
 11
565.5
 21
-401.20000000000249
 31
0.0
  0
LINE
  8
OUTLINE
  6
CONTINUOUS
 62
     3
 10
565.5
 20
-401.20000000000249
 30
0.0
 11
565.5
 21
-402.200000000003
 31
0.0
  0
ARC
  8
OUTLINE
  6
CONTINUOUS
 62
     3
 10
565.99999999997533
 20
-402.20000000002767
 30
0.0
 40
0.4999999999753427
 50
180.0
 51
270.0
  0
LINE
  8
OUTLINE
  6
CONTINUOUS
 62
     3
 10
565.99999999998545
 20
-402.700000000003
 30
0.0
 11
567.49999999998545
 21
-402.700000000003
 31
0.0
  0
LINE
  8
OUTLINE
  6
CONTINUOUS
 62
     3
 10
567.49999999998545
 20
-402.700000000003
 30
0.0
 11
567.49999999998545
 21
-401.90000000001459
 31
0.0
  0
LINE
  8
OUTLINE
  6
CONTINUOUS
 62
     3
 10
567.49999999998545
 20
-401.90000000001459
 30
0.0
 11
570.74999999998545
 21
-401.90000000001459
 31
0.0
  0
ARC
  8
OUTLINE
  6
CONTINUOUS
 62
     3
 10
570.74999999998545
 20
-402.95000000000863
 30
0.0
 40
1.0499999999940428
 50
270.0
 51
90.0
  0
ARC
  8
OUTLINE
  6
CONTINUOUS
 62
     3
 10
570.74999999998545
 20
-405.04999999999995
 30
0.0
 40
1.0499999999972547
 50
270.0
 51
90.0
  0
LINE
  8
OUTLINE
  6
CONTINUOUS
 62
     3
 10
570.74999999998545
 20
-406.09999999999718
 30
0.0
 11
567.49999999998545
 21
-406.09999999999718
 31
0.0
  0
LINE
  8
OUTLINE
  6
CONTINUOUS
 62
     3
 10
567.49999999998545
 20
-406.09999999999718
 30
0.0
 11
567.49999999998545
 21
-405.29999999999382
 31
0.0
  0
LINE
  8
OUTLINE
  6
CONTINUOUS
 62
     3
 10
567.49999999998545
 20
-405.29999999999382
 30
0.0
 11
565.99999999998545
 21
-405.29999999999382
 31
0.0
  0
ARC
  8
OUTLINE
  6
CONTINUOUS
 62
     3
 10
565.99999999998602
 20
-405.79999999999438
 30
0.0
 40
0.5000000000005724
 50
90.0
 51
180.0
  0
LINE
  8
OUTLINE
  6
CONTINUOUS
 62
     3
 10
565.49999999998545
 20
-405.79999999999433
 30
0.0
 11
565.5
 21
-406.79999999999433
 31
0.0
  0
LINE
  8
OUTLINE
  6
CONTINUOUS
 62
     3
 10
565.5
 20
-406.79999999999433
 30
0.0
 11
565.99999999998545
 21
-406.79999999999433
 31
0.0
  0
LINE
  8
OUTLINE
  6
CONTINUOUS
 62
     3
 10
565.99999999998545
 20
-406.79999999999433
 30
0.0
 11
565.99999999998545
 21
-503.50000000000819
 31
0.0
  0
LINE
  8
OUTLINE
  6
CONTINUOUS
 62
     3
 10
565.99999999998545
 20
-503.50000000000819
 30
0.0
 11
566.30000000000291
 21
-503.50000000000819
 31
0.0
  0
LINE
  8
OUTLINE
  6
CONTINUOUS
 62
     3
 10
566.30000000000291
 20
-503.50000000000819
 30
0.0
 11
566.30000000000291
 21
-516.99999999999409
 31
0.0
  0
LINE
  8
OUTLINE
  6
CONTINUOUS
 62
     3
 10
566.30000000000291
 20
-516.99999999999409
 30
0.0
 11
573.50000000876844
 21
-516.99999999999409
 31
0.0
  0
LINE
  8
OUTLINE
  6
CONTINUOUS
 62
     3
 10
573.50000000876844
 20
-516.99999999999409
 30
0.0
 11
642.79999999999109
 21
-524.99999999999409
 31
0.0
  0
LINE
  8
OUTLINE
  6
CONTINUOUS
 62
     3
 10
642.79999999999109
 20
-524.99999999999409
 30
0.0
 11
650.80000000000655
 21
-524.99999999999409
 31
0.0
  0
LINE
  8
OUTLINE
  6
CONTINUOUS
 62
     3
 10
650.80000000000655
 20
-524.99999999999409
 30
0.0
 11
650.80000000000655
 21
-766.99999999999409
 31
0.0
  0
LINE
  8
OUTLINE
  6
CONTINUOUS
 62
     3
 10
650.80000000000655
 20
-766.99999999999409
 30
0.0
 11
642.799999999992
 21
-766.99999999999409
 31
0.0
  0
LINE
  8
OUTLINE
  6
CONTINUOUS
 62
     3
 10
642.799999999992
 20
-766.99999999999409
 30
0.0
 11
573.49999999999181
 21
-774.99999999999409
 31
0.0
  0
LINE
  8
OUTLINE
  6
CONTINUOUS
 62
     3
 10
573.49999999999181
 20
-774.99999999999409
 30
0.0
 11
566.30000000000291
 21
-774.99999999999409
 31
0.0
  0
LINE
  8
OUTLINE
  6
CONTINUOUS
 62
     3
 10
566.30000000000291
 20
-774.99999999999409
 30
0.0
 11
566.30000000000291
 21
-788.49999999999409
 31
0.0
  0
LINE
  8
OUTLINE
  6
CONTINUOUS
 62
     3
 10
566.30000000000291
 20
-788.49999999999409
 30
0.0
 11
565.99999999998545
 21
-788.49999999999409
 31
0.0
  0
LINE
  8
OUTLINE
  6
CONTINUOUS
 62
     3
 10
565.99999999998545
 20
-788.49999999999409
 30
0.0
 11
565.99999999998545
 21
-805.19999999999345
 31
0.0
  0
LINE
  8
OUTLINE
  6
CONTINUOUS
 62
     3
 10
565.99999999998545
 20
-805.19999999999345
 30
0.0
 11
565.5
 21
-805.19999999999345
 31
0.0
  0
LINE
  8
OUTLINE
  6
CONTINUOUS
 62
     3
 10
565.5
 20
-805.19999999999345
 30
0.0
 11
565.5
 21
-806.19999999999436
 31
0.0
  0
ARC
  8
OUTLINE
  6
CONTINUOUS
 62
     3
 10
565.9999999999751
 20
-806.20000000001926
 30
0.0
 40
0.4999999999751486
 50
180.0
 51
270.0
  0
LINE
  8
OUTLINE
  6
CONTINUOUS
 62
     3
 10
565.99999999998545
 20
-806.69999999999436
 30
0.0
 11
567.49999999998545
 21
-806.69999999999345
 31
0.0
  0
LINE
  8
OUTLINE
  6
CONTINUOUS
 62
     3
 10
567.49999999998545
 20
-806.69999999999345
 30
0.0
 11
567.49999999998545
 21
-805.90000000000509
 31
0.0
  0
LINE
  8
OUTLINE
  6
CONTINUOUS
 62
     3
 10
567.49999999998545
 20
-805.90000000000509
 30
0.0
 11
570.74999999998545
 21
-805.90000000000509
 31
0.0
  0
ARC
  8
OUTLINE
  6
CONTINUOUS
 62
     3
 10
570.74999999998545
 20
-806.94999999999982
 30
0.0
 40
1.0499999999947249
 50
270.0
 51
90.0
  0
LINE
  8
OUTLINE
  6
CONTINUOUS
 62
     3
 10
570.74999999998545
 20
-807.99999999999454
 30
0.0
 11
565.67127970397996
 21
-807.99999999998226
 31
0.0
  0
ARC
  8
OUTLINE
  6
CONTINUOUS
 62
     3
 10
565.67127970396393
 20
-806.40000000000009
 30
0.0
 40
1.5999999999821632
 50
189.99999999976376
 51
270.0
  0
LINE
  8
OUTLINE
  6
CONTINUOUS
 62
     3
 10
564.0955872991608
 20
-806.67783708425759
 30
0.0
 11
564.01099003599666
 21
-806.19806216000507
 31
0.0
  0
LINE
  8
OUTLINE
  6
CONTINUOUS
 62
     3
 10
564.01099003599666
 20
-806.19806216000507
 30
0.0
 11
563.99999999998545
 21
-807.19999999999436
 31
0.0
  0
LINE
  8
OUTLINE
  6
CONTINUOUS
 62
     3
 10
563.99999999998545
 20
-807.19999999999436
 30
0.0
 11
562.59999999999127
 21
-807.19999999999436
 31
0.0
  0
LINE
  8
OUTLINE
  6
CONTINUOUS
 62
     3
 10
562.59999999999127
 20
-807.19999999999436
 30
0.0
 11
562.59999999999127
 21
-807.99999999998226
 31
0.0
  0
LINE
  8
OUTLINE
  6
CONTINUOUS
 62
     3
 10
562.59999999999127
 20
-807.99999999998226
 30
0.0
 11
-562.60000000002037
 21
-807.99999999998226
 31
0.0
  0
LINE
  8
OUTLINE
  6
CONTINUOUS
 62
     3
 10
-562.60000000002037
 20
-807.99999999998226
 30
0.0
 11
-562.60000000002037
 21
-807.19999999999436
 31
0.0
  0
LINE
  8
OUTLINE
  6
CONTINUOUS
 62
     3
 10
-562.60000000002037
 20
-807.19999999999436
 30
0.0
 11
-564.00000000001455
 21
-807.19999999999436
 31
0.0
  0
LINE
  8
OUTLINE
  6
CONTINUOUS
 62
     3
 10
-564.00000000001455
 20
-807.19999999999436
 30
0.0
 11
-564.00000000001364
 21
-806.13573456873655
 31
0.0
  0
LINE
  8
OUTLINE
  6
CONTINUOUS
 62
     3
 10
-564.00000000001364
 20
-806.13573456873655
 30
0.0
 11
-564.09558730000572
 21
-806.67783708398611
 31
0.0
  0
ARC
  8
OUTLINE
  6
CONTINUOUS
 62
     3
 10
-565.67127970687761
 20
-806.39999999759175
 30
0.0
 40
1.6000000023905467
 50
270.0
 51
349.99999993774236
  0
LINE
  8
OUTLINE
  6
CONTINUOUS
 62
     3
 10
-565.67127970601723
 20
-807.99999999998226
 30
0.0
 11
-570.75
 21
-807.99999999998226
 31
0.0
  0
ARC
  8
OUTLINE
  6
CONTINUOUS
 62
     3
 10
-570.75
 20
-806.94999999999368
 30
0.0
 40
1.0499999999885858
 50
90.0
 51
270.0
  0
LINE
  8
OUTLINE
  6
CONTINUOUS
 62
     3
 10
-570.75
 20
-805.90000000000509
 30
0.0
 11
-567.50000000001455
 21
-805.90000000000509
 31
0.0
  0
LINE
  8
OUTLINE
  6
CONTINUOUS
 62
     3
 10
-567.50000000001455
 20
-805.90000000000509
 30
0.0
 11
-567.50000000001455
 21
-806.69999999999345
 31
0.0
  0
LINE
  8
OUTLINE
  6
CONTINUOUS
 62
     3
 10
-567.50000000001455
 20
-806.69999999999345
 30
0.0
 11
-566.00000000001455
 21
-806.69999999999345
 31
0.0
  0
ARC
  8
OUTLINE
  6
CONTINUOUS
 62
     3
 10
-566.00000000001319
 20
-806.19999999999482
 30
0.0
 40
0.4999999999986317
 50
270.0
 51
0.0
  0
LINE
  8
OUTLINE
  6
CONTINUOUS
 62
     3
 10
-565.50000000001455
 20
-806.19999999999436
 30
0.0
 11
-565.50000000001455
 21
-805.19999999999345
 31
0.0
  0
LINE
  8
OUTLINE
  6
CONTINUOUS
 62
     3
 10
-565.50000000001455
 20
-805.19999999999345
 30
0.0
 11
-566.00000000001455
 21
-805.19999999999345
 31
0.0
  0
LINE
  8
OUTLINE
  6
CONTINUOUS
 62
     3
 10
-566.00000000001455
 20
-805.19999999999345
 30
0.0
 11
-566.00000000001455
 21
-793.99999152871806
 31
0.0
  0
LINE
  8
OUTLINE
  6
CONTINUOUS
 62
     3
 10
-566.00000000001455
 20
-793.99999152871806
 30
0.0
 11
-615.79998590094601
 21
-793.99999152871806
 31
0.0
  0
LINE
  8
OUTLINE
  6
CONTINUOUS
 62
     3
 10
-615.79998590094601
 20
-793.99999152871806
 30
0.0
 11
-615.79998590094601
 21
-93.999991528718283
 31
0.0
  0
LINE
  8
OUTLINE
  6
CONTINUOUS
 62
     3
 10
-615.79998590094601
 20
-93.999991528718283
 30
0.0
 11
-566.00000000001455
 21
-93.999991528718283
 31
0.0
  0
LINE
  8
OUTLINE
  6
CONTINUOUS
 62
     3
 10
-566.00000000001455
 20
-93.999991528718283
 30
0.0
 11
-566.00000000001455
 21
-2.8000000000033651
 31
0.0
  0
LINE
  8
OUTLINE
  6
CONTINUOUS
 62
     3
 10
-566.00000000001455
 20
-2.8000000000033651
 30
0.0
 11
-565.50000000001455
 21
-2.8000000000033651
 31
0.0
  0
LINE
  8
OUTLINE
  6
CONTINUOUS
 62
     3
 10
-565.50000000001455
 20
-2.8000000000033651
 30
0.0
 11
-565.50000000001455
 21
-1.8000000000029099
 31
0.0
  0
ARC
  8
OUTLINE
  6
CONTINUOUS
 62
     3
 10
-566.00000000001432
 20
-1.8000000000027061
 30
0.0
 40
0.4999999999997962
 50
0.0
 51
90.0
  0
LINE
  8
OUTLINE
  6
CONTINUOUS
 62
     3
 10
-566.00000000001455
 20
-1.3000000000029099
 30
0.0
 11
-567.50000000001455
 21
-1.3000000000029099
 31
0.0
  0
LINE
  8
OUTLINE
  6
CONTINUOUS
 62
     3
 10
-567.50000000001455
 20
-1.3000000000029099
 30
0.0
 11
-567.50000000001455
 21
-2.100000000006276
 31
0.0
  0
LINE
  8
OUTLINE
  6
CONTINUOUS
 62
     3
 10
-567.50000000001455
 20
-2.100000000006276
 30
0.0
 11
-570.74999997940449
 21
-2.1000000000028649
 31
0.0
  0
ARC
  8
OUTLINE
  6
CONTINUOUS
 62
     3
 10
-570.74999999999818
 20
-1.0500000000014327
 30
0.0
 40
1.0500000000014325
 50
90.0
 51
270.0
  0
TEXT
  8
ETC
  6
CONTINUOUS
 62
    61
 10
842.16202642841108
 20
570.28769454040184
 30
0.0
 40
64.065641025638456
  1
LGH-160RVX3-E_5
 41
0.9
  0
TEXT
  8
ETC
  6
CONTINUOUS
 62
    61
 10
837.97173910123183
 20
452.2114047204318
 30
0.0
 40
64.065641025638456
  1
LOSSNAY
 41
0.9
  0
TEXT
  8
ETC
  6
CONTINUOUS
 62
    61
 10
888.72513878388418
 20
343.95171001586516
 30
0.0
 40
40.041025641024042
  1
LGH-160RVX3-E
 50
0.0
 41
0.9
 51
0.0
  7
STANDARD
 71
     0
 11
0.0
 21
0.0
 31
0.0
210
0.0
220
0.0
230
1.0
  0
TEXT
  8
NOTE
  6
CONTINUOUS
 62
     4
 10
745.81340431320677
 20
-272.6435106681879
 30
0.0
 40
64.065641025638456
  1
SA1
 41
0.9
  0
TEXT
  8
NOTE
  6
CONTINUOUS
 62
     4
 10
745.81340431320677
 20
-674.19785469377302
 30
0.0
 40
64.065641025638456
  1
SA2
 41
0.9
  0
TEXT
  8
NOTE
  6
CONTINUOUS
 62
     4
 10
-794.33701136217314
 20
-483.72728572142393
 30
0.0
 40
64.065641025638456
  1
OA
 41
0.9
  0
TEXT
  8
NOTE
  6
CONTINUOUS
 62
     4
 10
-977.72246931116342
 20
-937.31653861317864
 30
0.0
 40
69.0
  1
Ceiling suspension fixture
 50
0.0
 41
0.9
 51
0.0
  7
STANDARD
 71
     0
 72
     2
 11
198.45153068883701
 21
-937.31653861317864
 31
0.0
210
0.0
220
0.0
230
1.0
  0
TEXT
  8
NOTE
  6
CONTINUOUS
 62
     4
 10
-515.69846931116297
 20
-1051.1665386131785
 30
0.0
 40
69.0
  1
(4-15X30 oval)
 50
0.0
 41
0.9
 51
0.0
  7
STANDARD
 71
     0
 72
     2
 11
198.45153068883701
 21
-1051.1665386131785
 31
0.0
210
0.0
220
0.0
230
1.0
  0
LINE
  8
NOTE
  6
CONTINUOUS
 62
     4
 10
208.45153068883701
 20
-1088.459395756036
 30
0.0
 11
-1008.062755025448
 21
-1088.459395756036
 31
0.0
  0
LINE
  8
NOTE
  6
CONTINUOUS
 62
     4
 10
482.8331949564834
 20
-432.66329233051795
 30
0.0
 11
504.99999999999642
 21
-403.99999999998857
 31
0.0
  0
LINE
  8
NOTE
  6
CONTINUOUS
 62
     4
 10
504.99999999999642
 20
-403.99999999998857
 30
0.0
 11
500.13468398598565
 21
-439.90654916788151
 31
0.0
  0
LINE
  8
NOTE
  6
CONTINUOUS
 62
     4
 10
504.99999999999642
 20
-403.99999999998857
 30
0.0
 11
477.96787894247257
 21
-468.56984149841088
 31
0.0
  0
LINE
  8
NOTE
  6
CONTINUOUS
 62
     4
 10
477.96787894247251
 20
-468.56984149841088
 30
0.0
 11
218.45153068883701
 21
-1088.459395756036
 31
0.0
  0
LINE
  8
NOTE
  6
CONTINUOUS
 62
     4
 10
218.45153068883701
 20
-1088.459395756036
 30
0.0
 11
208.45153068883701
 21
-1088.459395756036
 31
0.0
  0
TEXT
  8
NOTE
  6
CONTINUOUS
 62
     4
 10
624.02713675988343
 20
-980.01579373880122
 30
0.0
 40
69.0
  1
Power supply
 50
0.0
 41
0.9
 51
0.0
  7
STANDARD
 71
     0
 11
0.0
 21
0.0
 31
0.0
210
0.0
220
0.0
230
1.0
  0
TEXT
  8
NOTE
  6
CONTINUOUS
 62
     4
 10
624.02713675988343
 20
-1093.8657937388011
 30
0.0
 40
69.0
  1
cable opening
 50
0.0
 41
0.9
 51
0.0
  7
STANDARD
 71
     0
 11
0.0
 21
0.0
 31
0.0
210
0.0
220
0.0
230
1.0
  0
LINE
  8
NOTE
  6
CONTINUOUS
 62
     4
 10
614.02713675988343
 20
-1118.015793738801
 30
0.0
 11
1265.727136759883
 21
-1118.015793738801
 31
0.0
  0
LINE
  8
NOTE
  6
CONTINUOUS
 62
     4
 10
457.21575406123628
 20
-705.12285111535937
 30
0.0
 11
455.09999999999133
 21
-668.94999999998799
 31
0.0
  0
LINE
  8
NOTE
  6
CONTINUOUS
 62
     4
 10
455.09999999999133
 20
-668.94999999998799
 30
0.0
 11
475.01876793612718
 21
-699.21870094616122
 31
0.0
  0
LINE
  8
NOTE
  6
CONTINUOUS
 62
     4
 10
455.09999999999133
 20
-668.94999999998799
 30
0.0
 11
477.13452199737213
 21
-735.39155206153259
 31
0.0
  0
LINE
  8
NOTE
  6
CONTINUOUS
 62
     4
 10
477.13452199737208
 20
-735.39155206153259
 30
0.0
 11
604.02713675988343
 21
-1118.015793738801
 31
0.0
  0
LINE
  8
NOTE
  6
CONTINUOUS
 62
     4
 10
604.02713675988343
 20
-1118.015793738801
 30
0.0
 11
614.02713675988343
 21
-1118.015793738801
 31
0.0
  0
ENDSEC
  0
EOF
