  0
SECTION
  2
HEADER
  9
$ACADVER
  1
AC1009
  9
$DWGCODEPAGE
  3
dos932
  9
$INSBASE
 10
0.0
 20
0.0
 30
0.0
  9
$EXTMIN
 10
-1433.427413580273
 20
-1088.516224395154
 30
-0.0000000349181948
  9
$EXTMAX
 10
1646.8780640476359
 20
535.76660952037855
 30
0.0000000814935746
  9
$LIMMIN
 10
-2970.0
 20
-2100.0
  9
$LIMMAX
 10
2970.0
 20
2100.0
  9
$ORTHOMODE
 70
     1
  9
$REGENMODE
 70
     1
  9
$FILLMODE
 70
     1
  9
$QTEXTMODE
 70
     0
  9
$MIRRTEXT
 70
     0
  9
$LTSCALE
 40
20.0
  9
$ATTMODE
 70
     1
  9
$TEXTSIZE
 40
64.0
  9
$TRACEWID
 40
0.05
  9
$TEXTSTYLE
  7
STANDARD
  9
$CLAYER
  8
SIZE
  9
$CELTYPE
  6
CONTINUOUS
  9
$CECOLOR
 62
     7
  9
$DIMSCALE
 40
1.0
  9
$DIMASZ
 40
12.0
  9
$DIMEXO
 40
20.0
  9
$DIMDLI
 40
200.0
  9
$DIMRND
 40
0.0
  9
$DIMDLE
 40
0.0
  9
$DIMEXE
 40
20.0
  9
$DIMTP
 40
0.0
  9
$DIMTM
 40
0.0
  9
$DIMTXT
 40
64.0
  9
$DIMCEN
 40
0.09
  9
$DIMTSZ
 40
0.0
  9
$DIMTOL
 70
     0
  9
$DIMLIM
 70
     0
  9
$DIMTIH
 70
     0
  9
$DIMTOH
 70
     0
  9
$DIMSE1
 70
     0
  9
$DIMSE2
 70
     0
  9
$DIMTAD
 70
     1
  9
$DIMZIN
 70
     8
  9
$DIMBLK
  1

  9
$DIMASO
 70
     1
  9
$DIMSHO
 70
     0
  9
$DIMPOST
  1

  9
$DIMAPOST
  1

  9
$DIMALT
 70
     0
  9
$DIMALTD
 70
     2
  9
$DIMALTF
 40
25.399999999999999
  9
$DIMLFAC
 40
1.0
  9
$DIMTOFL
 70
     1
  9
$DIMTVP
 40
0.0
  9
$DIMTIX
 70
     1
  9
$DIMSOXD
 70
     0
  9
$DIMSAH
 70
     0
  9
$DIMBLK1
  1

  9
$DIMBLK2
  1

  9
$DIMSTYLE
  2
STANDARD
  9
$DIMCLRD
 70
     7
  9
$DIMCLRE
 70
     7
  9
$DIMCLRT
 70
     7
  9
$DIMTFAC
 40
1.0
  9
$DIMGAP
 40
25.0
  9
$LUNITS
 70
     2
  9
$LUPREC
 70
     4
  9
$SKETCHINC
 40
0.1
  9
$FILLETRAD
 40
3.0
  9
$AUNITS
 70
     1
  9
$AUPREC
 70
     3
  9
$MENU
  1
ACAD
  9
$ELEVATION
 40
0.0
  9
$PELEVATION
 40
0.0
  9
$THICKNESS
 40
0.0
  9
$LIMCHECK
 70
     0
  9
$CHAMFERA
 40
0.0
  9
$CHAMFERB
 40
0.0
  9
$SKPOLY
 70
     0
  9
$TDCREATE
 40
2453019.62301037
  9
$TDUPDATE
 40
2460045.429569537
  9
$TDINDWG
 40
1.7193678356
  9
$TDUSRTIMER
 40
1.7193678356
  9
$USRTIMER
 70
     1
  9
$ANGBASE
 50
0.0
  9
$ANGDIR
 70
     0
  9
$PDMODE
 70
     3
  9
$PDSIZE
 40
-2.0
  9
$PLINEWID
 40
0.0
  9
$SPLFRAME
 70
     0
  9
$SPLINETYPE
 70
     6
  9
$SPLINESEGS
 70
     8
  9
$SURFTAB1
 70
     6
  9
$SURFTAB2
 70
     6
  9
$SURFTYPE
 70
     6
  9
$SURFU
 70
     6
  9
$SURFV
 70
     6
  9
$UCSNAME
  2

  9
$UCSORG
 10
0.0
 20
0.0
 30
0.0
  9
$UCSXDIR
 10
1.0
 20
0.0
 30
0.0
  9
$UCSYDIR
 10
0.0
 20
1.0
 30
0.0
  9
$PUCSNAME
  2

  9
$PUCSORG
 10
0.0
 20
0.0
 30
0.0
  9
$PUCSXDIR
 10
1.0
 20
0.0
 30
0.0
  9
$PUCSYDIR
 10
0.0
 20
1.0
 30
0.0
  9
$USERI1
 70
     0
  9
$USERI2
 70
     0
  9
$USERI3
 70
     0
  9
$USERI4
 70
     0
  9
$USERI5
 70
     0
  9
$USERR1
 40
20.0
  9
$USERR2
 40
0.0
  9
$USERR3
 40
0.0
  9
$USERR4
 40
0.0
  9
$USERR5
 40
0.0
  9
$WORLDVIEW
 70
     1
  9
$SHADEDGE
 70
     3
  9
$SHADEDIF
 70
    70
  9
$TILEMODE
 70
     1
  9
$MAXACTVP
 70
    48
  9
$PINSBASE
 10
0.0
 20
0.0
 30
0.0
  9
$PLIMCHECK
 70
     0
  9
$PEXTMIN
 10
-100000000000000000000.0
 20
-100000000000000000000.0
 30
-100000000000000000000.0
  9
$PEXTMAX
 10
100000000000000000000.0
 20
100000000000000000000.0
 30
100000000000000000000.0
  9
$PLIMMIN
 10
0.0
 20
0.0
  9
$PLIMMAX
 10
12.0
 20
9.0
  9
$UNITMODE
 70
     0
  9
$VISRETAIN
 70
     0
  9
$PLINEGEN
 70
     0
  9
$PSLTSCALE
 70
     0
  9
$TREEDEPTH
 70
  3020
  9
$ATTDIA
 70
     0
  9
$ATTREQ
 70
     1
  9
$BLIPMODE
 70
     1
  9
$COORDS
 70
     1
  9
$DRAGMODE
 70
     2
  9
$OSMODE
 70
     0
  9
$HANDLING
 70
     0
  9
$HANDSEED
  5
1094C
  0
ENDSEC
  0
SECTION
  2
TABLES
  0
TABLE
  2
LTYPE
 70
     2
  0
LTYPE
  2
CONTINUOUS
 70
     0
  3
実線
 72
    65
 73
     0
 40
0.0
  0
LTYPE
  2
DASHDOT
 70
     0
  3
____ _ ____ _ ____ _ ____ _ ____ _ ____ _ ____
 72
    65
 73
     4
 40
5.5
 49
4.0
 49
-0.6
 49
0.3
 49
-0.6
  0
ENDTAB
  0
TABLE
  2
LAYER
 70
    12
  0
LAYER
  2
0
 70
     0
 62
     7
  6
CONTINUOUS
  0
LAYER
  2
BASIS
 70
     0
 62
     6
  6
DASHDOT
  0
LAYER
  2
OUTLINE
 70
     0
 62
     3
  6
CONTINUOUS
  0
LAYER
  2
DETAIL
 70
     0
 62
     5
  6
CONTINUOUS
  0
LAYER
  2
SIZE
 70
     0
 62
    30
  6
CONTINUOUS
  0
LAYER
  2
ARRANGE
 70
     0
 62
     1
  6
CONTINUOUS
  0
LAYER
  2
DEFPOINTS
 70
     0
 62
     7
  6
CONTINUOUS
  0
LAYER
  2
ETC
 70
     0
 62
    61
  6
CONTINUOUS
  0
LAYER
  2
FIX
 70
     0
 62
    11
  6
CONTINUOUS
  0
LAYER
  2
NOTE
 70
     0
 62
     4
  6
CONTINUOUS
  0
LAYER
  2
SERVICESPACE
 70
    64
 62
     2
  6
DASHDOT
  0
LAYER
  2
SYMBOLLINE
 70
    64
 62
    15
  6
CONTINUOUS
  0
ENDTAB
  0
TABLE
  2
STYLE
 70
     1
  0
STYLE
  2
STANDARD
 70
     0
 40
64.0
 41
0.9
 50
0.0
 71
     0
 42
64.0
  3
SIMPLEX.shx
  4
BIGFONT.shx
  0
ENDTAB
  0
TABLE
  2
APPID
 70
    23
  0
APPID
  2
ACAD
 70
     0
  0
APPID
  2
AUTOCAD_POSTSCRIPT_FIGURE
 70
     0
  0
APPID
  2
ACAD_EXEMPT_FROM_CAD_STANDARDS
 70
     0
  0
APPID
  2
ACAD_PSEXT
 70
     0
  0
APPID
  2
ACAUTHENVIRON
 70
     0
  0
APPID
  2
GENIUS_GENOENT_13
 70
     0
  0
APPID
  2
GENIUS_GENCFG_13
 70
     0
  0
APPID
  2
GENIUS_GENCFG0_13
 70
     0
  0
APPID
  2
GENIUS_GENCFG1_13
 70
     0
  0
APPID
  2
GENIUS_GENCFG2_13
 70
     0
  0
APPID
  2
GENIUS_GENCFG3_13
 70
     0
  0
APPID
  2
GENIUS_GENCFG4_13
 70
     0
  0
APPID
  2
GENIUS_GEVCFG0_13
 70
     0
  0
APPID
  2
CONTENTBLOCKICON
 70
     0
  0
APPID
  2
CONTENTBLOCKDESCRIPTION
 70
     0
  0
APPID
  2
ACAD_NAV_VCDISPLAY
 70
     0
  0
APPID
  2
ACAD_MLEADERVER
 70
     0
  0
APPID
  2
ACDBDYNAMICBLOCKTRUENAME
 70
     0
  0
APPID
  2
ACDBDYNAMICBLOCKGUID
 70
     0
  0
APPID
  2
ACAD_DSTYLE_DIMRADIAL_EXTENSION
 70
     0
  0
APPID
  2
GENIUS_GENODEF_13
 70
     0
  0
APPID
  2
GENIUS_GENOBJ-N-CEN_13
 70
     0
  0
APPID
  2
GENIUS_GENCEN_19
 70
     0
  0
ENDTAB
  0
TABLE
  2
DIMSTYLE
 70
     1
  0
DIMSTYLE
  2
STANDARD
 70
     0
  3

  4

  5
_ORIGIN
  6

  7

 40
1.0
 41
12.0
 42
20.0
 43
200.0
 44
20.0
 45
0.0
 46
0.0
 47
0.0
 48
0.0
140
64.0
141
0.09
142
0.0
143
25.399999999999999
144
1.0
145
0.0
146
1.0
147
25.0
 71
     0
 72
     0
 73
     0
 74
     0
 75
     0
 76
     0
 77
     1
 78
     8
170
     0
171
     2
172
     1
173
     0
174
     1
175
     0
176
     7
177
     7
178
     7
  0
ENDTAB
  0
TABLE
  2
VIEW
 70
     1
  0
VIEW
  2
ALL
 70
     0
 40
4282.6198079999986
 10
0.0
 20
41.309904000000003
 41
5940.0
 11
0.0
 21
0.0
 31
1.0
 12
0.0
 22
0.0
 32
0.0
 42
50.0
 43
0.0
 44
0.0
 50
0.0
 71
     0
  0
ENDTAB
  0
TABLE
  2
UCS
 70
     0
  0
ENDTAB
  0
TABLE
  2
VPORT
 70
     1
  0
VPORT
  2
*ACTIVE
 70
     0
 10
0.0
 20
0.0
 11
1.0
 21
1.0
 12
106.7253252336814
 22
-276.37480743738797
 13
0.0
 23
0.0
 14
1.0
 24
1.0
 15
0.0
 25
0.0
 16
0.0
 26
0.0
 36
1.0
 17
0.0
 27
0.0
 37
0.0
 40
1401.5569739595239
 41
2.0
 42
50.0
 43
0.0
 44
0.0
 50
0.0
 51
0.0
 71
     0
 72
  1000
 73
     1
 74
     3
 75
     0
 76
     0
 77
     0
 78
     0
  0
ENDTAB
  0
ENDSEC
  0
SECTION
  2
BLOCKS
  0
BLOCK
  8
0
  2
_ORIGIN
 70
     0
 10
0.0
 20
0.0
 30
0.0
  3
_ORIGIN
  1
_ORIGIN
  0
CIRCLE
  8
0
  6
CONTINUOUS
 62
     7
 10
0.0
 20
0.0
 30
0.0
 40
0.5
  0
LINE
  8
0
  6
CONTINUOUS
 62
     7
 10
0.0
 20
0.0
 30
0.0
 11
-1.0
 21
0.0
 31
0.0
  0
ENDBLK
  8
0
  0
ENDSEC
  0
SECTION
  2
ENTITIES
  0
LINE
  8
DETAIL
  6
CONTINUOUS
 62
     5
 10
570.50000000001455
 20
-403.200000000003
 30
0.0
 11
570.50000000001455
 21
-402.700000000003
 31
0.0
  0
LINE
  8
DETAIL
  6
CONTINUOUS
 62
     5
 10
570.50000000001455
 20
-1.3000000000029099
 30
0.0
 11
570.50000000001455
 21
-0.8000000000033651
 31
0.0
  0
LINE
  8
DETAIL
  6
CONTINUOUS
 62
     5
 10
566.00000000001455
 20
-401.20000000000249
 30
0.0
 11
566.00000000001455
 21
-2.8000000000033651
 31
0.0
  0
LINE
  8
DETAIL
  6
CONTINUOUS
 62
     5
 10
565.50000000001455
 20
-402.200000000003
 30
0.0
 11
565.50000000001455
 21
-401.20000000000249
 31
0.0
  0
LINE
  8
DETAIL
  6
CONTINUOUS
 62
     5
 10
565.50000000001455
 20
-2.8000000000033651
 30
0.0
 11
565.50000000001455
 21
-1.8000000000029099
 31
0.0
  0
LINE
  8
DETAIL
  6
CONTINUOUS
 62
     5
 10
565.00000000001455
 20
-1.8000000000029099
 30
0.0
 11
565.00000000001455
 21
-2.8000000000033651
 31
0.0
  0
LINE
  8
DETAIL
  6
CONTINUOUS
 62
     5
 10
565.00000000001455
 20
-401.20000000000249
 30
0.0
 11
565.00000000001455
 21
-402.200000000003
 31
0.0
  0
LINE
  8
DETAIL
  6
CONTINUOUS
 62
     5
 10
564.00000000001455
 20
-0.8000000000033651
 30
0.0
 11
564.00000000001455
 21
-2.8000000000033651
 31
0.0
  0
LINE
  8
DETAIL
  6
CONTINUOUS
 62
     5
 10
564.00000000001455
 20
-403.200000000003
 30
0.0
 11
564.00000000001455
 21
-401.20000000000249
 31
0.0
  0
LINE
  8
DETAIL
  6
CONTINUOUS
 62
     5
 10
562.6470853920182
 20
0.0
 30
0.0
 11
562.6470853920182
 21
-0.8000000000033651
 31
0.0
  0
LINE
  8
DETAIL
  6
CONTINUOUS
 62
     5
 10
564.64734604001569
 20
-401.20000000000249
 30
0.0
 11
564.88343350401556
 21
-402.53891854199719
 31
0.0
  0
LINE
  8
DETAIL
  6
CONTINUOUS
 62
     5
 10
564.00000000001364
 20
-402.1357345687461
 30
0.0
 11
564.09558730000572
 21
-402.67783708399469
 31
0.0
  0
LINE
  8
DETAIL
  6
CONTINUOUS
 62
     5
 10
564.88343350401556
 20
-1.461081458008721
 30
0.0
 11
564.64734604001569
 21
-2.8000000000033651
 31
0.0
  0
LINE
  8
DETAIL
  6
CONTINUOUS
 62
     5
 10
564.09558730000572
 20
-1.3221629159957049
 30
0.0
 11
564.00000000001455
 21
-1.864265431275498
 31
0.0
  0
LINE
  8
DETAIL
  6
CONTINUOUS
 62
     5
 10
-573.49999999998545
 20
-371.00000000000318
 30
0.0
 11
-642.79999999998563
 21
-363.00000000000318
 31
0.0
  0
LINE
  8
DETAIL
  6
CONTINUOUS
 62
     5
 10
559.11438631001511
 20
0.0
 30
0.0
 11
557.01438631000929
 21
-2.100000000006276
 31
0.0
  0
LINE
  8
DETAIL
  6
CONTINUOUS
 62
     5
 10
-570.74999999998545
 20
-403.200000000003
 30
0.0
 11
-565.67127970397996
 21
-403.200000000003
 31
0.0
  0
LINE
  8
DETAIL
  6
CONTINUOUS
 62
     5
 10
570.75
 20
-403.200000000003
 30
0.0
 11
565.67127970601723
 21
-403.200000000003
 31
0.0
  0
LINE
  8
DETAIL
  6
CONTINUOUS
 62
     5
 10
-558.31438630999673
 20
-403.200000000003
 30
0.0
 11
-563.99999999998545
 21
-403.200000000003
 31
0.0
  0
LINE
  8
DETAIL
  6
CONTINUOUS
 62
     5
 10
-565.99999999998545
 20
-402.700000000003
 30
0.0
 11
-570.74999999998545
 21
-402.700000000003
 31
0.0
  0
LINE
  8
DETAIL
  6
CONTINUOUS
 62
     5
 10
566.00000000001455
 20
-401.20000000000249
 30
0.0
 11
564.00000000001455
 21
-401.20000000000249
 31
0.0
  0
LINE
  8
DETAIL
  6
CONTINUOUS
 62
     5
 10
-563.99999999998545
 20
-401.20000000000249
 30
0.0
 11
-565.99999999998545
 21
-401.20000000000249
 31
0.0
  0
LINE
  8
DETAIL
  6
CONTINUOUS
 62
     5
 10
-566.30000000000291
 20
-384.50000000000318
 30
0.0
 11
-565.99999999998545
 21
-384.50000000000318
 31
0.0
  0
LINE
  8
DETAIL
  6
CONTINUOUS
 62
     5
 10
-566.30000000000291
 20
-371.00000000000318
 30
0.0
 11
-573.49999999998545
 21
-371.00000000000318
 31
0.0
  0
LINE
  8
DETAIL
  6
CONTINUOUS
 62
     5
 10
-642.79999999998563
 20
-363.00000000000318
 30
0.0
 11
-650.80000000000018
 21
-363.00000000000318
 31
0.0
  0
LINE
  8
BASIS
  6
DASHDOT
 62
     6
 10
-707.53653402160762
 20
-202.00000000000551
 30
0.0
 11
667.53653402160671
 21
-202.00000000000551
 31
0.0
  0
LINE
  8
DETAIL
  6
CONTINUOUS
 62
     5
 10
-642.79999999998563
 20
-121.0000000000032
 30
0.0
 11
-650.80000000000018
 21
-121.0000000000032
 31
0.0
  0
LINE
  8
DETAIL
  6
CONTINUOUS
 62
     5
 10
-573.49999999998545
 20
-112.99999999899001
 30
0.0
 11
-642.79999999998563
 21
-121.0000000000032
 31
0.0
  0
LINE
  8
DETAIL
  6
CONTINUOUS
 62
     5
 10
566.00000000001455
 20
-2.8000000000033651
 30
0.0
 11
564.00000000001455
 21
-2.8000000000033651
 31
0.0
  0
LINE
  8
DETAIL
  6
CONTINUOUS
 62
     5
 10
-563.99999999998545
 20
-2.8000000000033651
 30
0.0
 11
-565.99999999998545
 21
-2.8000000000033651
 31
0.0
  0
LINE
  8
DETAIL
  6
CONTINUOUS
 62
     5
 10
-565.99999999998545
 20
-1.3000000000029099
 30
0.0
 11
-570.74999999998545
 21
-1.3000000000029099
 31
0.0
  0
LINE
  8
DETAIL
  6
CONTINUOUS
 62
     5
 10
570.75
 20
-0.8000000000033651
 30
0.0
 11
565.67127970601723
 21
-0.8000000000033651
 31
0.0
  0
LINE
  8
DETAIL
  6
CONTINUOUS
 62
     5
 10
564.00000000001455
 20
-0.8000000000033651
 30
0.0
 11
558.3143863100122
 21
-0.8000000000031378
 31
0.0
  0
LINE
  8
DETAIL
  6
CONTINUOUS
 62
     5
 10
-558.31438630998218
 20
-0.8000000000031378
 30
0.0
 11
-563.99999999998545
 21
-0.8000000000033651
 31
0.0
  0
LINE
  8
DETAIL
  6
CONTINUOUS
 62
     5
 10
-565.67127970397996
 20
-0.8000000000033651
 30
0.0
 11
-570.74999999998545
 21
-0.8000000000033651
 31
0.0
  0
LINE
  8
DETAIL
  6
CONTINUOUS
 62
     5
 10
570.75
 20
0.0
 30
0.0
 11
565.67127970601723
 21
0.0
 31
0.0
  0
LINE
  8
DETAIL
  6
CONTINUOUS
 62
     5
 10
562.6470853920182
 20
0.0
 30
0.0
 11
-562.64708539198909
 21
0.0
 31
0.0
  0
LINE
  8
DETAIL
  6
CONTINUOUS
 62
     5
 10
-565.67127970397996
 20
0.0
 30
0.0
 11
-570.74999999998545
 21
0.0
 31
0.0
  0
LINE
  8
DETAIL
  6
CONTINUOUS
 62
     5
 10
-559.11438630998509
 20
0.0
 30
0.0
 11
-557.01438630998018
 21
-2.100000000006276
 31
0.0
  0
LINE
  8
DETAIL
  6
CONTINUOUS
 62
     5
 10
-563.99999999998636
 20
-1.8642654312807281
 30
0.0
 11
-564.09558729997661
 21
-1.3221629159957049
 31
0.0
  0
LINE
  8
DETAIL
  6
CONTINUOUS
 62
     5
 10
-564.64734603797842
 20
-2.8000000000033651
 30
0.0
 11
-564.88343350197829
 21
-1.461081458008721
 31
0.0
  0
LINE
  8
DETAIL
  6
CONTINUOUS
 62
     5
 10
-564.09558729997661
 20
-402.67783708399469
 30
0.0
 11
-563.99999999998636
 21
-402.1357345687461
 31
0.0
  0
LINE
  8
DETAIL
  6
CONTINUOUS
 62
     5
 10
-564.88343350197829
 20
-402.53891854199719
 30
0.0
 11
-564.64734603797842
 21
-401.20000000000249
 31
0.0
  0
LINE
  8
DETAIL
  6
CONTINUOUS
 62
     5
 10
-562.64708539198909
 20
0.0
 30
0.0
 11
-562.64708539198909
 21
-0.8000000000033651
 31
0.0
  0
LINE
  8
DETAIL
  6
CONTINUOUS
 62
     5
 10
-563.99999999998545
 20
-403.200000000003
 30
0.0
 11
-563.99999999998545
 21
-401.20000000000249
 31
0.0
  0
LINE
  8
DETAIL
  6
CONTINUOUS
 62
     5
 10
-563.99999999998545
 20
-2.8000000000033651
 30
0.0
 11
-563.99999999998545
 21
-0.8000000000033651
 31
0.0
  0
LINE
  8
DETAIL
  6
CONTINUOUS
 62
     5
 10
-564.99999999998545
 20
-402.200000000003
 30
0.0
 11
-564.99999999998545
 21
-401.20000000000249
 31
0.0
  0
LINE
  8
DETAIL
  6
CONTINUOUS
 62
     5
 10
-564.99999999998545
 20
-2.8000000000033651
 30
0.0
 11
-564.99999999998545
 21
-1.8000000000029099
 31
0.0
  0
LINE
  8
DETAIL
  6
CONTINUOUS
 62
     5
 10
-565.5
 20
-1.8000000000029099
 30
0.0
 11
-565.5
 21
-2.8000000000033651
 31
0.0
  0
LINE
  8
DETAIL
  6
CONTINUOUS
 62
     5
 10
-565.5
 20
-401.20000000000249
 30
0.0
 11
-565.5
 21
-402.200000000003
 31
0.0
  0
LINE
  8
DETAIL
  6
CONTINUOUS
 62
     5
 10
-565.99999999998545
 20
-401.20000000000249
 30
0.0
 11
-565.99999999998545
 21
-2.8000000000033651
 31
0.0
  0
LINE
  8
DETAIL
  6
CONTINUOUS
 62
     5
 10
-566.30000000000291
 20
-99.50000000001728
 30
0.0
 11
-566.30000000000291
 21
-384.49889544400821
 31
0.0
  0
LINE
  8
DETAIL
  6
CONTINUOUS
 62
     5
 10
-570.5
 20
-0.8000000000033651
 30
0.0
 11
-570.5
 21
-1.3000000000029099
 31
0.0
  0
LINE
  8
DETAIL
  6
CONTINUOUS
 62
     5
 10
-570.5
 20
-402.700000000003
 30
0.0
 11
-570.5
 21
-403.200000000003
 31
0.0
  0
LINE
  8
DETAIL
  6
CONTINUOUS
 62
     5
 10
-573.49999999998545
 20
-112.99999999899001
 30
0.0
 11
-573.49999999998545
 21
-371.00000000000318
 31
0.0
  0
LINE
  8
DETAIL
  6
CONTINUOUS
 62
     5
 10
-642.79999999998563
 20
-363.00000000000318
 30
0.0
 11
-642.79999999998563
 21
-121.0000000000032
 31
0.0
  0
LINE
  8
DETAIL
  6
CONTINUOUS
 62
     5
 10
-650.80000000000018
 20
-363.00000000000318
 30
0.0
 11
-650.80000000000018
 21
-121.0000000000032
 31
0.0
  0
ARC
  8
DETAIL
  6
CONTINUOUS
 62
     5
 10
565.67127970601723
 20
-402.40000000000009
 30
0.0
 40
1.599999999999999
 50
190.000000000005
 51
270.0
  0
ARC
  8
DETAIL
  6
CONTINUOUS
 62
     5
 10
566.00000000001455
 20
-402.200000000003
 30
0.0
 40
0.9999999999999994
 50
180.0
 51
269.99999999994787
  0
ARC
  8
DETAIL
  6
CONTINUOUS
 62
     5
 10
565.67127970601723
 20
-402.40000000000009
 30
0.0
 40
0.7999999999999996
 50
190.000000000005
 51
270.0
  0
ARC
  8
DETAIL
  6
CONTINUOUS
 62
     5
 10
566.00000000001455
 20
-402.200000000003
 30
0.0
 40
0.4999999999999997
 50
180.0
 51
270.0
  0
ARC
  8
DETAIL
  6
CONTINUOUS
 62
     5
 10
565.67127970601723
 20
-1.5999999999912691
 30
0.0
 40
1.599999999999999
 50
90.000000000000014
 51
169.999999999995
  0
ARC
  8
DETAIL
  6
CONTINUOUS
 62
     5
 10
570.75
 20
-1.0500000000029099
 30
0.0
 40
1.0499999999999989
 50
269.99999887613922
 51
90.000000000000014
  0
ARC
  8
DETAIL
  6
CONTINUOUS
 62
     5
 10
566.00000000001455
 20
-1.8000000000029099
 30
0.0
 40
0.9999999999999994
 50
90.000000000156334
 51
180.0
  0
ARC
  8
DETAIL
  6
CONTINUOUS
 62
     5
 10
565.67127970601723
 20
-1.5999999999912691
 30
0.0
 40
0.7999999999999996
 50
90.000000000000014
 51
169.999999999995
  0
ARC
  8
DETAIL
  6
CONTINUOUS
 62
     5
 10
566.00000000001455
 20
-1.8000000000029099
 30
0.0
 40
0.4999999999999997
 50
90.000000000000014
 51
180.0
  0
ARC
  8
DETAIL
  6
CONTINUOUS
 62
     5
 10
570.75
 20
-1.0500000000029099
 30
0.0
 40
0.2499999999999999
 50
269.99999887613922
 51
90.000000000000014
  0
ARC
  8
DETAIL
  6
CONTINUOUS
 62
     5
 10
-565.67127970397996
 20
-402.40000000000009
 30
0.0
 40
1.599999999999999
 50
270.0
 51
349.99999999999488
  0
ARC
  8
DETAIL
  6
CONTINUOUS
 62
     5
 10
-570.74999999998545
 20
-402.95000000000249
 30
0.0
 40
1.0499999999999989
 50
90.000036324045752
 51
270.0
  0
ARC
  8
DETAIL
  6
CONTINUOUS
 62
     5
 10
-565.99999999998545
 20
-402.200000000003
 30
0.0
 40
0.9999999999999994
 50
270.00000000015632
 51
0.000000000000007
  0
ARC
  8
DETAIL
  6
CONTINUOUS
 62
     5
 10
-565.67127970397996
 20
-402.40000000000009
 30
0.0
 40
0.7999999999999996
 50
270.0
 51
349.99999999999488
  0
ARC
  8
DETAIL
  6
CONTINUOUS
 62
     5
 10
-565.99999999998545
 20
-402.200000000003
 30
0.0
 40
0.4999999999999997
 50
270.0
 51
0.000000000000007
  0
ARC
  8
DETAIL
  6
CONTINUOUS
 62
     5
 10
-570.74999999998545
 20
-402.95000000000249
 30
0.0
 40
0.2499999999999999
 50
90.000036324045752
 51
270.0
  0
ARC
  8
DETAIL
  6
CONTINUOUS
 62
     5
 10
-565.67127970397996
 20
-1.5999999999912691
 30
0.0
 40
1.599999999999999
 50
10.000000000005031
 51
90.000000000000014
  0
ARC
  8
DETAIL
  6
CONTINUOUS
 62
     5
 10
-565.99999999998545
 20
-1.8000000000029099
 30
0.0
 40
0.9999999999999994
 50
0.000000000000007
 51
89.999999999947889
  0
ARC
  8
DETAIL
  6
CONTINUOUS
 62
     5
 10
-565.67127970397996
 20
-1.5999999999912691
 30
0.0
 40
0.7999999999999996
 50
10.000000000005031
 51
90.000000000000014
  0
ARC
  8
DETAIL
  6
CONTINUOUS
 62
     5
 10
-565.99999999998545
 20
-1.8000000000029099
 30
0.0
 40
0.4999999999999997
 50
0.000000000000007
 51
90.000000000000014
  0
ARC
  8
DETAIL
  6
CONTINUOUS
 62
     5
 10
-570.74999999998545
 20
-1.0500000000029099
 30
0.0
 40
1.0499999999999989
 50
90.000036324045752
 51
270.0
  0
ARC
  8
DETAIL
  6
CONTINUOUS
 62
     5
 10
-570.74999999998545
 20
-1.0500000000029099
 30
0.0
 40
0.2499999999999999
 50
90.000036324045752
 51
270.0
  0
LINE
  8
DETAIL
  6
CONTINUOUS
 62
     5
 10
-567.49999999998545
 20
-1.3000000000029099
 30
0.0
 11
-567.49999999998545
 21
-2.100000000006276
 31
0.0
  0
LINE
  8
DETAIL
  6
CONTINUOUS
 62
     5
 10
-567.49999999998545
 20
-2.100000000006276
 30
0.0
 11
-570.74999999998545
 21
-2.100000000006276
 31
0.0
  0
LINE
  8
DETAIL
  6
CONTINUOUS
 62
     5
 10
-557.01438630998018
 20
-2.100000000006276
 30
0.0
 11
557.01438631000929
 21
-2.100000000006276
 31
0.0
  0
LINE
  8
DETAIL
  6
CONTINUOUS
 62
     5
 10
570.75
 20
-1.3000000000029099
 30
0.0
 11
566.00000000001455
 21
-1.3000000000029099
 31
0.0
  0
LINE
  8
DETAIL
  6
CONTINUOUS
 62
     5
 10
570.75
 20
-2.100000000006276
 30
0.0
 11
567.50000000001455
 21
-2.100000000006276
 31
0.0
  0
LINE
  8
DETAIL
  6
CONTINUOUS
 62
     5
 10
567.50000000001455
 20
-1.3000000000029099
 30
0.0
 11
567.50000000001455
 21
-2.100000000006276
 31
0.0
  0
LINE
  8
DETAIL
  6
CONTINUOUS
 62
     5
 10
570.75
 20
-402.700000000003
 30
0.0
 11
566.00000000001455
 21
-402.700000000003
 31
0.0
  0
ARC
  8
DETAIL
  6
CONTINUOUS
 62
     5
 10
570.75
 20
-402.95000000000249
 30
0.0
 40
1.0499999999999989
 50
269.99999887613922
 51
90.000000000000014
  0
ARC
  8
DETAIL
  6
CONTINUOUS
 62
     5
 10
570.75
 20
-402.95000000000249
 30
0.0
 40
0.2499999999999999
 50
269.99999887613922
 51
90.000000000000014
  0
LINE
  8
DETAIL
  6
CONTINUOUS
 62
     5
 10
570.75
 20
-401.90000000001459
 30
0.0
 11
567.50000000001455
 21
-401.90000000001459
 31
0.0
  0
LINE
  8
DETAIL
  6
CONTINUOUS
 62
     5
 10
567.50000000001455
 20
-402.700000000003
 30
0.0
 11
567.50000000001455
 21
-401.90000000001459
 31
0.0
  0
LINE
  8
DETAIL
  6
CONTINUOUS
 62
     5
 10
-570.74999999998545
 20
-401.90000000001459
 30
0.0
 11
-567.49999999998545
 21
-401.90000000001459
 31
0.0
  0
LINE
  8
DETAIL
  6
CONTINUOUS
 62
     5
 10
-567.49999999998545
 20
-401.90000000001459
 30
0.0
 11
-567.49999999998545
 21
-402.700000000003
 31
0.0
  0
LINE
  8
DETAIL
  6
CONTINUOUS
 62
     5
 10
-566.30000000000291
 20
-113.0000000000032
 30
0.0
 11
-573.49999999998545
 21
-113.0000000000032
 31
0.0
  0
LINE
  8
DETAIL
  6
CONTINUOUS
 62
     5
 10
570.50000000001455
 20
-807.19999999999436
 30
0.0
 11
570.50000000001455
 21
-806.69999999999345
 31
0.0
  0
LINE
  8
DETAIL
  6
CONTINUOUS
 62
     5
 10
570.50000000001455
 20
-405.29999999999382
 30
0.0
 11
570.50000000001455
 21
-404.79999999999433
 31
0.0
  0
LINE
  8
DETAIL
  6
CONTINUOUS
 62
     5
 10
566.00000000001455
 20
-805.19999999999345
 30
0.0
 11
566.00000000001455
 21
-406.79999999999433
 31
0.0
  0
LINE
  8
DETAIL
  6
CONTINUOUS
 62
     5
 10
565.50000000001455
 20
-806.19999999999436
 30
0.0
 11
565.50000000001455
 21
-805.19999999999345
 31
0.0
  0
LINE
  8
DETAIL
  6
CONTINUOUS
 62
     5
 10
565.50000000001455
 20
-406.79999999999433
 30
0.0
 11
565.50000000001455
 21
-405.79999999999433
 31
0.0
  0
LINE
  8
DETAIL
  6
CONTINUOUS
 62
     5
 10
565.00000000001455
 20
-405.79999999999433
 30
0.0
 11
565.00000000001455
 21
-406.79999999999433
 31
0.0
  0
LINE
  8
DETAIL
  6
CONTINUOUS
 62
     5
 10
565.00000000001455
 20
-805.19999999999345
 30
0.0
 11
565.00000000001455
 21
-806.19999999999436
 31
0.0
  0
LINE
  8
DETAIL
  6
CONTINUOUS
 62
     5
 10
564.00000000001455
 20
-404.79999999999433
 30
0.0
 11
564.00000000001455
 21
-406.79999999999433
 31
0.0
  0
LINE
  8
DETAIL
  6
CONTINUOUS
 62
     5
 10
564.00000000001455
 20
-807.19999999999436
 30
0.0
 11
564.00000000001455
 21
-805.19999999999345
 31
0.0
  0
LINE
  8
DETAIL
  6
CONTINUOUS
 62
     5
 10
562.6470853920182
 20
-403.19999999998799
 30
0.0
 11
562.6470853920182
 21
-404.79999999999433
 31
0.0
  0
LINE
  8
DETAIL
  6
CONTINUOUS
 62
     5
 10
562.60000000002037
 20
-807.99999999998226
 30
0.0
 11
562.60000000002037
 21
-807.19999999999436
 31
0.0
  0
LINE
  8
DETAIL
  6
CONTINUOUS
 62
     5
 10
558.8970853920182
 20
-403.19999999998799
 30
0.0
 11
558.8970853920182
 21
-404.79999999999433
 31
0.0
  0
LINE
  8
DETAIL
  6
CONTINUOUS
 62
     5
 10
564.64734604001569
 20
-805.19999999999345
 30
0.0
 11
564.88343350401556
 21
-806.53891854198855
 31
0.0
  0
LINE
  8
DETAIL
  6
CONTINUOUS
 62
     5
 10
564.00000000001364
 20
-806.13573456873655
 30
0.0
 11
564.09558730000572
 21
-806.67783708398611
 31
0.0
  0
LINE
  8
DETAIL
  6
CONTINUOUS
 62
     5
 10
564.88343350401556
 20
-405.46108145799923
 30
0.0
 11
564.64734604001569
 21
-406.79999999999433
 31
0.0
  0
LINE
  8
DETAIL
  6
CONTINUOUS
 62
     5
 10
564.09558730000572
 20
-405.32216291598752
 30
0.0
 11
564.00000000001455
 21
-405.86426543127391
 31
0.0
  0
LINE
  8
DETAIL
  6
CONTINUOUS
 62
     5
 10
559.06730091800182
 20
-807.99999999998181
 30
0.0
 11
556.96730091802601
 21
-805.90000000000509
 31
0.0
  0
LINE
  8
DETAIL
  6
CONTINUOUS
 62
     5
 10
558.89708539201729
 20
-404.21730091798833
 30
0.0
 11
557.01438631000929
 21
-406.09999999999718
 31
0.0
  0
LINE
  8
DETAIL
  6
CONTINUOUS
 62
     5
 10
-570.74999999998545
 20
-807.99999999998226
 30
0.0
 11
-565.67127970397996
 21
-807.99999999998226
 31
0.0
  0
LINE
  8
DETAIL
  6
CONTINUOUS
 62
     5
 10
570.75
 20
-807.99999999998226
 30
0.0
 11
565.67127970601723
 21
-807.99999999998226
 31
0.0
  0
LINE
  8
DETAIL
  6
CONTINUOUS
 62
     5
 10
562.60000000002037
 20
-807.99999999998226
 30
0.0
 11
-562.59999999999127
 21
-807.99999999998226
 31
0.0
  0
LINE
  8
DETAIL
  6
CONTINUOUS
 62
     5
 10
-570.74999999998545
 20
-807.19999999999436
 30
0.0
 11
-565.67127970397996
 21
-807.19999999999436
 31
0.0
  0
LINE
  8
DETAIL
  6
CONTINUOUS
 62
     5
 10
558.26730091801437
 20
-807.19999999999436
 30
0.0
 11
564.00000000001455
 21
-807.19999999999436
 31
0.0
  0
LINE
  8
DETAIL
  6
CONTINUOUS
 62
     5
 10
570.75
 20
-807.19999999999436
 30
0.0
 11
565.67127970601723
 21
-807.19999999999436
 31
0.0
  0
LINE
  8
DETAIL
  6
CONTINUOUS
 62
     5
 10
-558.26730091798436
 20
-807.19999999999436
 30
0.0
 11
-563.99999999998545
 21
-807.19999999999436
 31
0.0
  0
LINE
  8
DETAIL
  6
CONTINUOUS
 62
     5
 10
-565.99999999998545
 20
-806.69999999999345
 30
0.0
 11
-570.74999999998545
 21
-806.69999999999345
 31
0.0
  0
LINE
  8
DETAIL
  6
CONTINUOUS
 62
     5
 10
566.00000000001455
 20
-805.19999999999345
 30
0.0
 11
564.00000000001455
 21
-805.19999999999345
 31
0.0
  0
LINE
  8
DETAIL
  6
CONTINUOUS
 62
     5
 10
-563.99999999998545
 20
-805.19999999999345
 30
0.0
 11
-565.99999999998545
 21
-805.19999999999345
 31
0.0
  0
LINE
  8
DETAIL
  6
CONTINUOUS
 62
     5
 10
-566.30000000000291
 20
-788.49999999999409
 30
0.0
 11
-565.99999999998545
 21
-788.49999999999409
 31
0.0
  0
LINE
  8
BASIS
  6
DASHDOT
 62
     6
 10
0.0
 20
26.343231501974969
 30
0.0
 11
0.0
 21
-847.37824484648263
 31
0.0
  0
LINE
  8
BASIS
  6
DASHDOT
 62
     6
 10
-706.16450201683529
 20
-605.99999999999636
 30
0.0
 11
666.16450201683438
 21
-605.99999999999636
 31
0.0
  0
LINE
  8
DETAIL
  6
CONTINUOUS
 62
     5
 10
566.00000000001455
 20
-406.79999999999433
 30
0.0
 11
564.00000000001455
 21
-406.79999999999433
 31
0.0
  0
LINE
  8
DETAIL
  6
CONTINUOUS
 62
     5
 10
-563.99999999998545
 20
-406.79999999999433
 30
0.0
 11
-565.99999999998545
 21
-406.79999999999433
 31
0.0
  0
LINE
  8
DETAIL
  6
CONTINUOUS
 62
     5
 10
-565.99999999998545
 20
-405.29999999999382
 30
0.0
 11
-570.74999999998545
 21
-405.29999999999382
 31
0.0
  0
LINE
  8
DETAIL
  6
CONTINUOUS
 62
     5
 10
570.75
 20
-404.79999999999433
 30
0.0
 11
565.67127970601723
 21
-404.79999999999433
 31
0.0
  0
LINE
  8
DETAIL
  6
CONTINUOUS
 62
     5
 10
564.00000000001455
 20
-404.79999999999433
 30
0.0
 11
558.31438631001129
 21
-404.79999999999433
 31
0.0
  0
LINE
  8
DETAIL
  6
CONTINUOUS
 62
     5
 10
-558.31438630998309
 20
-404.79999999999433
 30
0.0
 11
-563.99999999998545
 21
-404.79999999999433
 31
0.0
  0
LINE
  8
DETAIL
  6
CONTINUOUS
 62
     5
 10
-565.67127970397996
 20
-404.79999999999433
 30
0.0
 11
-570.74999999998545
 21
-404.79999999999433
 31
0.0
  0
LINE
  8
DETAIL
  6
CONTINUOUS
 62
     5
 10
570.75
 20
-403.99999999999142
 30
0.0
 11
565.67127970601723
 21
-403.99999999999142
 31
0.0
  0
LINE
  8
DETAIL
  6
CONTINUOUS
 62
     5
 10
562.6470853920182
 20
-403.99999999999142
 30
0.0
 11
-464.79999999998842
 21
-403.99999999999142
 31
0.0
  0
LINE
  8
DETAIL
  6
CONTINUOUS
 62
     5
 10
-473.28997487422021
 20
-403.99999999999142
 30
0.0
 11
-562.64708539198909
 21
-403.99999999999142
 31
0.0
  0
LINE
  8
DETAIL
  6
CONTINUOUS
 62
     5
 10
-565.67127970397996
 20
-403.99999999999142
 30
0.0
 11
-570.74999999998545
 21
-403.99999999999142
 31
0.0
  0
LINE
  8
DETAIL
  6
CONTINUOUS
 62
     5
 10
-558.89708539198818
 20
-404.21730091798918
 30
0.0
 11
-557.01438630998018
 21
-406.09999999999718
 31
0.0
  0
LINE
  8
DETAIL
  6
CONTINUOUS
 62
     5
 10
-559.06730091797181
 20
-807.99999999998181
 30
0.0
 11
-556.96730091799691
 21
-805.90000000000509
 31
0.0
  0
LINE
  8
DETAIL
  6
CONTINUOUS
 62
     5
 10
-563.99999999998636
 20
-405.86426543127391
 30
0.0
 11
-564.09558729997661
 21
-405.32216291598752
 31
0.0
  0
LINE
  8
DETAIL
  6
CONTINUOUS
 62
     5
 10
-564.64734603797842
 20
-406.79999999999433
 30
0.0
 11
-564.88343350197829
 21
-405.46108145799923
 31
0.0
  0
LINE
  8
DETAIL
  6
CONTINUOUS
 62
     5
 10
-564.09558729997661
 20
-806.67783708398611
 30
0.0
 11
-564.01099003599666
 21
-806.19806216000507
 31
0.0
  0
LINE
  8
DETAIL
  6
CONTINUOUS
 62
     5
 10
-564.88343350197829
 20
-806.53891854198855
 30
0.0
 11
-564.64734603797842
 21
-805.19999999999345
 31
0.0
  0
LINE
  8
DETAIL
  6
CONTINUOUS
 62
     5
 10
-558.89708539198909
 20
-404.79999999999433
 30
0.0
 11
-558.89708539198909
 21
-403.19999999998799
 31
0.0
  0
LINE
  8
DETAIL
  6
CONTINUOUS
 62
     5
 10
-562.59999999999127
 20
-807.99999999998226
 30
0.0
 11
-562.59999999999127
 21
-807.19999999999436
 31
0.0
  0
LINE
  8
DETAIL
  6
CONTINUOUS
 62
     5
 10
-562.64708539198909
 20
-403.19999999998799
 30
0.0
 11
-562.64708539198909
 21
-404.79999999999433
 31
0.0
  0
LINE
  8
DETAIL
  6
CONTINUOUS
 62
     5
 10
-563.99999999998545
 20
-807.19999999999436
 30
0.0
 11
-563.99999999998545
 21
-805.19999999999345
 31
0.0
  0
LINE
  8
DETAIL
  6
CONTINUOUS
 62
     5
 10
-563.99999999998545
 20
-406.79999999999433
 30
0.0
 11
-563.99999999998545
 21
-404.79999999999433
 31
0.0
  0
LINE
  8
DETAIL
  6
CONTINUOUS
 62
     5
 10
-564.99999999998545
 20
-806.19999999999436
 30
0.0
 11
-564.99999999998545
 21
-805.19999999999345
 31
0.0
  0
LINE
  8
DETAIL
  6
CONTINUOUS
 62
     5
 10
-564.99999999998545
 20
-406.79999999999433
 30
0.0
 11
-564.99999999998545
 21
-405.79999999999433
 31
0.0
  0
LINE
  8
DETAIL
  6
CONTINUOUS
 62
     5
 10
-565.5
 20
-405.79999999999433
 30
0.0
 11
-565.5
 21
-406.79999999999433
 31
0.0
  0
LINE
  8
DETAIL
  6
CONTINUOUS
 62
     5
 10
-565.5
 20
-805.19999999999345
 30
0.0
 11
-565.5
 21
-806.19999999999436
 31
0.0
  0
LINE
  8
DETAIL
  6
CONTINUOUS
 62
     5
 10
-565.99999999998545
 20
-805.19999999999345
 30
0.0
 11
-565.99999999998545
 21
-406.79999999999433
 31
0.0
  0
LINE
  8
DETAIL
  6
CONTINUOUS
 62
     5
 10
-566.30000000000291
 20
-503.50000000000819
 30
0.0
 11
-566.30000000000291
 21
-788.49889544399866
 31
0.0
  0
LINE
  8
DETAIL
  6
CONTINUOUS
 62
     5
 10
-570.5
 20
-404.79999999999433
 30
0.0
 11
-570.5
 21
-405.29999999999382
 31
0.0
  0
LINE
  8
DETAIL
  6
CONTINUOUS
 62
     5
 10
-570.5
 20
-806.69999999999345
 30
0.0
 11
-570.5
 21
-807.19999999999436
 31
0.0
  0
ARC
  8
DETAIL
  6
CONTINUOUS
 62
     5
 10
565.67127970601723
 20
-806.39999999999054
 30
0.0
 40
1.599999999999999
 50
190.000000000005
 51
270.0
  0
ARC
  8
DETAIL
  6
CONTINUOUS
 62
     5
 10
566.00000000001455
 20
-806.19999999999436
 30
0.0
 40
0.9999999999999994
 50
180.0
 51
269.99999999994787
  0
ARC
  8
DETAIL
  6
CONTINUOUS
 62
     5
 10
565.67127970601723
 20
-806.39999999999054
 30
0.0
 40
0.7999999999999996
 50
190.000000000005
 51
270.0
  0
ARC
  8
DETAIL
  6
CONTINUOUS
 62
     5
 10
566.00000000001455
 20
-806.19999999999436
 30
0.0
 40
0.4999999999999997
 50
180.0
 51
270.0
  0
ARC
  8
DETAIL
  6
CONTINUOUS
 62
     5
 10
565.67127970601723
 20
-405.59999999998257
 30
0.0
 40
1.599999999999999
 50
90.000000000000014
 51
169.999999999995
  0
ARC
  8
DETAIL
  6
CONTINUOUS
 62
     5
 10
570.75
 20
-405.04999999999433
 30
0.0
 40
1.0499999999999989
 50
269.99999887613922
 51
90.000000000000014
  0
ARC
  8
DETAIL
  6
CONTINUOUS
 62
     5
 10
566.00000000001455
 20
-405.79999999999433
 30
0.0
 40
0.9999999999999994
 50
90.000000000156334
 51
180.0
  0
ARC
  8
DETAIL
  6
CONTINUOUS
 62
     5
 10
565.67127970601723
 20
-405.59999999998257
 30
0.0
 40
0.7999999999999996
 50
90.000000000000014
 51
169.999999999995
  0
ARC
  8
DETAIL
  6
CONTINUOUS
 62
     5
 10
566.00000000001455
 20
-405.79999999999433
 30
0.0
 40
0.4999999999999997
 50
90.000000000000014
 51
180.0
  0
ARC
  8
DETAIL
  6
CONTINUOUS
 62
     5
 10
570.75
 20
-405.04999999999433
 30
0.0
 40
0.2499999999999999
 50
269.99999887613922
 51
90.000000000000014
  0
ARC
  8
DETAIL
  6
CONTINUOUS
 62
     5
 10
-565.67127970397996
 20
-806.39999999999054
 30
0.0
 40
1.599999999999999
 50
270.0
 51
349.99999999999488
  0
ARC
  8
DETAIL
  6
CONTINUOUS
 62
     5
 10
-570.74999999998545
 20
-806.94999999999436
 30
0.0
 40
1.0499999999999989
 50
90.000036324045752
 51
270.0
  0
ARC
  8
DETAIL
  6
CONTINUOUS
 62
     5
 10
-565.99999999998545
 20
-806.19999999999436
 30
0.0
 40
0.9999999999999994
 50
270.00000000015632
 51
0.000000000000007
  0
ARC
  8
DETAIL
  6
CONTINUOUS
 62
     5
 10
-565.67127970397996
 20
-806.39999999999054
 30
0.0
 40
0.7999999999999996
 50
270.0
 51
349.99999999999488
  0
ARC
  8
DETAIL
  6
CONTINUOUS
 62
     5
 10
-565.99999999998545
 20
-806.19999999999436
 30
0.0
 40
0.4999999999999997
 50
270.0
 51
0.000000000000007
  0
ARC
  8
DETAIL
  6
CONTINUOUS
 62
     5
 10
-570.74999999998545
 20
-806.94999999999436
 30
0.0
 40
0.2499999999999999
 50
90.000036324045752
 51
270.0
  0
ARC
  8
DETAIL
  6
CONTINUOUS
 62
     5
 10
-565.67127970397996
 20
-405.59999999998257
 30
0.0
 40
1.599999999999999
 50
10.000000000005031
 51
90.000000000000014
  0
ARC
  8
DETAIL
  6
CONTINUOUS
 62
     5
 10
-565.99999999998545
 20
-405.79999999999433
 30
0.0
 40
0.9999999999999994
 50
0.000000000000007
 51
89.999999999947889
  0
ARC
  8
DETAIL
  6
CONTINUOUS
 62
     5
 10
-565.67127970397996
 20
-405.59999999998257
 30
0.0
 40
0.7999999999999996
 50
10.000000000005031
 51
90.000000000000014
  0
ARC
  8
DETAIL
  6
CONTINUOUS
 62
     5
 10
-565.99999999998545
 20
-405.79999999999433
 30
0.0
 40
0.4999999999999997
 50
0.000000000000007
 51
90.000000000000014
  0
ARC
  8
DETAIL
  6
CONTINUOUS
 62
     5
 10
-570.74999999998545
 20
-405.04999999999433
 30
0.0
 40
1.0499999999999989
 50
90.000036324045752
 51
270.0
  0
ARC
  8
DETAIL
  6
CONTINUOUS
 62
     5
 10
-570.74999999998545
 20
-405.04999999999433
 30
0.0
 40
0.2499999999999999
 50
90.000036324045752
 51
270.0
  0
LINE
  8
DETAIL
  6
CONTINUOUS
 62
     5
 10
-567.49999999998545
 20
-405.29999999999382
 30
0.0
 11
-567.49999999998545
 21
-406.09999999999718
 31
0.0
  0
LINE
  8
DETAIL
  6
CONTINUOUS
 62
     5
 10
-567.49999999998545
 20
-406.09999999999718
 30
0.0
 11
-570.74999999998545
 21
-406.09999999999718
 31
0.0
  0
LINE
  8
DETAIL
  6
CONTINUOUS
 62
     5
 10
-557.01438630998018
 20
-406.09999999999718
 30
0.0
 11
-544.80000000000291
 21
-406.09999999999718
 31
0.0
  0
LINE
  8
DETAIL
  6
CONTINUOUS
 62
     5
 10
544.80000000000291
 20
-406.09999999999718
 30
0.0
 11
557.01438631000929
 21
-406.09999999999718
 31
0.0
  0
LINE
  8
DETAIL
  6
CONTINUOUS
 62
     5
 10
570.75
 20
-405.29999999999382
 30
0.0
 11
566.00000000001455
 21
-405.29999999999382
 31
0.0
  0
LINE
  8
DETAIL
  6
CONTINUOUS
 62
     5
 10
570.75
 20
-406.09999999999718
 30
0.0
 11
567.50000000001455
 21
-406.09999999999718
 31
0.0
  0
LINE
  8
DETAIL
  6
CONTINUOUS
 62
     5
 10
567.50000000001455
 20
-405.29999999999382
 30
0.0
 11
567.50000000001455
 21
-406.09999999999718
 31
0.0
  0
LINE
  8
DETAIL
  6
CONTINUOUS
 62
     5
 10
570.75
 20
-806.69999999999345
 30
0.0
 11
566.00000000001455
 21
-806.69999999999345
 31
0.0
  0
ARC
  8
DETAIL
  6
CONTINUOUS
 62
     5
 10
570.75
 20
-806.94999999999436
 30
0.0
 40
1.0499999999999989
 50
269.99999887613922
 51
90.000000000000014
  0
ARC
  8
DETAIL
  6
CONTINUOUS
 62
     5
 10
570.75
 20
-806.94999999999436
 30
0.0
 40
0.2499999999999999
 50
269.99999887613922
 51
90.000000000000014
  0
LINE
  8
DETAIL
  6
CONTINUOUS
 62
     5
 10
570.75
 20
-805.90000000000509
 30
0.0
 11
567.50000000001455
 21
-805.90000000000509
 31
0.0
  0
LINE
  8
DETAIL
  6
CONTINUOUS
 62
     5
 10
567.50000000001455
 20
-806.69999999999345
 30
0.0
 11
567.50000000001455
 21
-805.90000000000509
 31
0.0
  0
LINE
  8
DETAIL
  6
CONTINUOUS
 62
     5
 10
556.96730091802601
 20
-805.90000000000509
 30
0.0
 11
-556.96730091799691
 21
-805.90000000000509
 31
0.0
  0
LINE
  8
DETAIL
  6
CONTINUOUS
 62
     5
 10
-570.74999999998545
 20
-805.90000000000509
 30
0.0
 11
-567.49999999998545
 21
-805.90000000000509
 31
0.0
  0
LINE
  8
DETAIL
  6
CONTINUOUS
 62
     5
 10
-567.49999999998545
 20
-805.90000000000509
 30
0.0
 11
-567.49999999998545
 21
-806.69999999999345
 31
0.0
  0
LINE
  8
DETAIL
  6
CONTINUOUS
 62
     5
 10
-566.30000000000291
 20
-99.50000000001728
 30
0.0
 11
-566.30000000000291
 21
-99.50000000001728
 31
0.0
  0
LINE
  8
DETAIL
  6
CONTINUOUS
 62
     5
 10
-566.30000000000291
 20
-99.50000000001728
 30
0.0
 11
-565.99999999998545
 21
-99.50000000001728
 31
0.0
  0
LINE
  8
DETAIL
  6
CONTINUOUS
 62
     5
 10
-566.30000000000291
 20
-503.50000000000819
 30
0.0
 11
-565.99999999998545
 21
-503.50000000000819
 31
0.0
  0
LINE
  8
DETAIL
  6
CONTINUOUS
 62
     5
 10
615.79998590094601
 20
-793.99999152871806
 30
0.0
 11
615.79998590094601
 21
-93.999991528718283
 31
0.0
  0
LINE
  8
DETAIL
  6
CONTINUOUS
 62
     5
 10
566.00000000001455
 20
-793.99999152871806
 30
0.0
 11
615.79998590094601
 21
-793.99999152871806
 31
0.0
  0
LINE
  8
DETAIL
  6
CONTINUOUS
 62
     5
 10
615.79998590094601
 20
-93.999991528718283
 30
0.0
 11
566.00000000001455
 21
-93.999991528718283
 31
0.0
  0
LINE
  8
DETAIL
  6
CONTINUOUS
 62
     5
 10
-463.30000000000291
 20
-447.19999999999573
 30
0.0
 11
-541.79999999998836
 21
-447.19999999999573
 31
0.0
  0
LINE
  8
DETAIL
  6
CONTINUOUS
 62
     5
 10
-463.30000000000291
 20
-420.19999999998839
 30
0.0
 11
-467.29999999998842
 21
-420.19999999998839
 31
0.0
  0
LINE
  8
DETAIL
  6
CONTINUOUS
 62
     5
 10
-464.79999999998842
 20
-407.33441501399511
 30
0.0
 11
-467.29999999998842
 21
-407.33441501399511
 31
0.0
  0
LINE
  8
DETAIL
  6
CONTINUOUS
 62
     5
 10
-464.79999999998842
 20
-407.19999999999573
 30
0.0
 11
-544.80000000000291
 21
-407.19999999999573
 31
0.0
  0
LINE
  8
DETAIL
  6
CONTINUOUS
 62
     5
 10
-464.79999999998842
 20
-400.79999999999342
 30
0.0
 11
-544.80000000000291
 21
-400.79999999999342
 31
0.0
  0
LINE
  8
DETAIL
  6
CONTINUOUS
 62
     5
 10
-544.80000000000291
 20
-400.66558498799532
 30
0.0
 11
-542.29999999998836
 21
-400.66558498799532
 31
0.0
  0
LINE
  8
DETAIL
  6
CONTINUOUS
 62
     5
 10
-542.29999999998836
 20
-387.79999999999433
 30
0.0
 11
-546.29999999998836
 21
-387.79999999999433
 31
0.0
  0
LINE
  8
DETAIL
  6
CONTINUOUS
 62
     5
 10
-467.79999999998842
 20
-360.79999999999382
 30
0.0
 11
-546.29999999998836
 21
-360.79999999999382
 31
0.0
  0
LINE
  8
DETAIL
  6
CONTINUOUS
 62
     5
 10
-463.30000000000291
 20
-447.19999999999573
 30
0.0
 11
-463.30000000000291
 21
-420.19999999998839
 31
0.0
  0
LINE
  8
DETAIL
  6
CONTINUOUS
 62
     5
 10
-464.79999999998842
 20
-407.33441501399511
 30
0.0
 11
-464.79999999998842
 21
-363.79999999999382
 31
0.0
  0
LINE
  8
DETAIL
  6
CONTINUOUS
 62
     5
 10
-466.49999999998539
 20
-420.19999999998839
 30
0.0
 11
-466.49999999998539
 21
-447.19999999999573
 31
0.0
  0
LINE
  8
DETAIL
  6
CONTINUOUS
 62
     5
 10
-470.29999999998842
 20
-417.19999999999573
 30
0.0
 11
-470.29999999998842
 21
-409.3272058179914
 31
0.0
  0
LINE
  8
DETAIL
  6
CONTINUOUS
 62
     5
 10
-539.30000000000291
 20
-398.6727941839913
 30
0.0
 11
-539.30000000000291
 21
-390.79999999999433
 31
0.0
  0
LINE
  8
DETAIL
  6
CONTINUOUS
 62
     5
 10
-543.09999999999127
 20
-387.79999999999433
 30
0.0
 11
-543.09999999999127
 21
-360.79999999999382
 31
0.0
  0
LINE
  8
DETAIL
  6
CONTINUOUS
 62
     5
 10
-544.80000000000291
 20
-444.19999999999573
 30
0.0
 11
-544.80000000000291
 21
-400.66558498799532
 31
0.0
  0
LINE
  8
DETAIL
  6
CONTINUOUS
 62
     5
 10
-546.29999999998836
 20
-387.79999999999433
 30
0.0
 11
-546.29999999998836
 21
-360.79999999999382
 31
0.0
  0
CIRCLE
  8
DETAIL
  6
CONTINUOUS
 62
     5
 10
-532.79999999998836
 20
-427.79999999999382
 30
0.0
 40
6.9999999999999956
  0
CIRCLE
  8
DETAIL
  6
CONTINUOUS
 62
     5
 10
-476.80000000000291
 20
-427.79999999999382
 30
0.0
 40
6.9999999999999956
  0
ARC
  8
DETAIL
  6
CONTINUOUS
 62
     5
 10
-467.29999999998842
 20
-417.19999999999573
 30
0.0
 40
2.9999999999999978
 50
180.0
 51
270.0
  0
ARC
  8
DETAIL
  6
CONTINUOUS
 62
     5
 10
-541.79999999998836
 20
-444.19999999999573
 30
0.0
 40
2.9999999999999978
 50
180.0
 51
270.0
  0
CIRCLE
  8
DETAIL
  6
CONTINUOUS
 62
     5
 10
-476.80000000000291
 20
-380.19999999998839
 30
0.0
 40
6.9999999999999956
  0
ARC
  8
DETAIL
  6
CONTINUOUS
 62
     5
 10
-542.29999999998836
 20
-390.79999999999433
 30
0.0
 40
2.9999999999999978
 50
0.000000000000007
 51
90.000000000000014
  0
ARC
  8
DETAIL
  6
CONTINUOUS
 62
     5
 10
-467.79999999998842
 20
-363.79999999999382
 30
0.0
 40
2.9999999999999978
 50
0.000000000000007
 51
90.000000000000014
  0
LINE
  8
DETAIL
  6
CONTINUOUS
 62
     5
 10
-467.29999999998842
 20
-407.33441501399511
 30
0.0
 11
-467.64334114689706
 21
-407.33942591352405
 31
0.0
  0
LINE
  8
DETAIL
  6
CONTINUOUS
 62
     5
 10
-467.64334114689706
 20
-407.33942591352405
 30
0.0
 11
-467.98894054874876
 21
-407.35790640520088
 31
0.0
  0
LINE
  8
DETAIL
  6
CONTINUOUS
 62
     5
 10
-467.98894054874876
 20
-407.35790640520088
 30
0.0
 11
-468.34600839745644
 21
-407.39520773452097
 31
0.0
  0
LINE
  8
DETAIL
  6
CONTINUOUS
 62
     5
 10
-468.34600839745644
 20
-407.39520773452097
 30
0.0
 11
-468.70843298402639
 21
-407.45851783773645
 31
0.0
  0
LINE
  8
DETAIL
  6
CONTINUOUS
 62
     5
 10
-468.70843298402639
 20
-407.45851783773645
 30
0.0
 11
-469.06112752744468
 21
-407.55610052490397
 31
0.0
  0
LINE
  8
DETAIL
  6
CONTINUOUS
 62
     5
 10
-469.06112752744468
 20
-407.55610052490397
 30
0.0
 11
-469.38889170263127
 21
-407.6962332170113
 31
0.0
  0
LINE
  8
DETAIL
  6
CONTINUOUS
 62
     5
 10
-469.38889170263127
 20
-407.6962332170113
 30
0.0
 11
-469.67652518450598
 21
-407.88719333504616
 31
0.0
  0
LINE
  8
DETAIL
  6
CONTINUOUS
 62
     5
 10
-469.67652518450598
 20
-407.88719333504616
 30
0.0
 11
-469.9088276479888
 21
-408.13725829999612
 31
0.0
  0
LINE
  8
DETAIL
  6
CONTINUOUS
 62
     5
 10
-542.29999999998836
 20
-400.66558498799532
 30
0.0
 11
-541.95665885144501
 21
-400.66057408846632
 31
0.0
  0
LINE
  8
DETAIL
  6
CONTINUOUS
 62
     5
 10
-541.95665885144501
 20
-400.66057408846632
 30
0.0
 11
-541.61105944923793
 21
-400.64209359678915
 31
0.0
  0
LINE
  8
DETAIL
  6
CONTINUOUS
 62
     5
 10
-541.61105944923793
 20
-400.64209359678915
 30
0.0
 11
-541.25399160052791
 21
-400.60479226746418
 31
0.0
  0
LINE
  8
DETAIL
  6
CONTINUOUS
 62
     5
 10
-541.25399160052791
 20
-400.60479226746418
 30
0.0
 11
-540.89156701400486
 21
-400.54148216419776
 31
0.0
  0
LINE
  8
DETAIL
  6
CONTINUOUS
 62
     5
 10
-540.89156701400486
 20
-400.54148216419776
 30
0.0
 11
-540.53887247074374
 21
-400.44389947686926
 31
0.0
  0
LINE
  8
DETAIL
  6
CONTINUOUS
 62
     5
 10
-540.53887247074374
 20
-400.44389947686926
 30
0.0
 11
-540.21110829589009
 21
-400.3037667844269
 31
0.0
  0
LINE
  8
DETAIL
  6
CONTINUOUS
 62
     5
 10
-540.21110829589009
 20
-400.3037667844269
 30
0.0
 11
-539.92347481458967
 21
-400.11280666581894
 31
0.0
  0
LINE
  8
DETAIL
  6
CONTINUOUS
 62
     5
 10
-539.92347481458967
 20
-400.11280666581894
 30
0.0
 11
-539.69117235198792
 21
-399.86274169999342
 31
0.0
  0
ARC
  8
DETAIL
  6
CONTINUOUS
 62
     5
 10
-468.03056178971485
 20
-409.46516877936256
 30
0.0
 40
2.3002671308149161
 50
144.74016689703501
 51
148.09331279324499
  0
ARC
  8
DETAIL
  6
CONTINUOUS
 62
     5
 10
-468.26615538851092
 20
-409.33941475332358
 30
0.0
 40
2.0338812555648351
 50
147.59282135397564
 51
179.65606415514912
  0
ARC
  8
DETAIL
  6
CONTINUOUS
 62
     5
 10
-541.56943821010259
 20
-398.53483122272473
 30
0.0
 40
2.3002671306244507
 50
324.74016689621908
 51
328.0933127933597
  0
ARC
  8
DETAIL
  6
CONTINUOUS
 62
     5
 10
-541.3338446114642
 20
-398.66058524865974
 30
0.0
 40
2.0338812555631525
 50
327.59282135396643
 51
359.65606415516652
  0
LINE
  8
DETAIL
  6
CONTINUOUS
 62
     5
 10
546.30000000001746
 20
-447.19999999999573
 30
0.0
 11
546.30000000001746
 21
-420.19999999998839
 31
0.0
  0
LINE
  8
DETAIL
  6
CONTINUOUS
 62
     5
 10
544.80000000000291
 20
-407.33441501399511
 30
0.0
 11
544.80000000000291
 21
-363.79999999999382
 31
0.0
  0
LINE
  8
DETAIL
  6
CONTINUOUS
 62
     5
 10
543.10000000000582
 20
-420.19999999998839
 30
0.0
 11
543.10000000000582
 21
-447.19999999999573
 31
0.0
  0
LINE
  8
DETAIL
  6
CONTINUOUS
 62
     5
 10
539.30000000000291
 20
-417.19999999999573
 30
0.0
 11
539.30000000000291
 21
-409.3272058179914
 31
0.0
  0
LINE
  8
DETAIL
  6
CONTINUOUS
 62
     5
 10
470.30000000000291
 20
-398.6727941839913
 30
0.0
 11
470.30000000000291
 21
-390.79999999999433
 31
0.0
  0
LINE
  8
DETAIL
  6
CONTINUOUS
 62
     5
 10
466.5
 20
-387.79999999999433
 30
0.0
 11
466.5
 21
-360.79999999999382
 31
0.0
  0
LINE
  8
DETAIL
  6
CONTINUOUS
 62
     5
 10
464.80000000000291
 20
-444.19999999999573
 30
0.0
 11
464.80000000000291
 21
-400.66558498799532
 31
0.0
  0
LINE
  8
DETAIL
  6
CONTINUOUS
 62
     5
 10
463.30000000001752
 20
-387.79999999999433
 30
0.0
 11
463.30000000001752
 21
-360.79999999999382
 31
0.0
  0
LINE
  8
DETAIL
  6
CONTINUOUS
 62
     5
 10
546.30000000001746
 20
-447.19999999999573
 30
0.0
 11
467.80000000000291
 21
-447.19999999999573
 31
0.0
  0
LINE
  8
DETAIL
  6
CONTINUOUS
 62
     5
 10
546.30000000001746
 20
-420.19999999998839
 30
0.0
 11
542.30000000000291
 21
-420.19999999998839
 31
0.0
  0
LINE
  8
DETAIL
  6
CONTINUOUS
 62
     5
 10
544.80000000000291
 20
-407.33441501399511
 30
0.0
 11
542.30000000000291
 21
-407.33441501399511
 31
0.0
  0
LINE
  8
DETAIL
  6
CONTINUOUS
 62
     5
 10
544.80000000000291
 20
-407.19999999999573
 30
0.0
 11
464.80000000000291
 21
-407.19999999999573
 31
0.0
  0
LINE
  8
DETAIL
  6
CONTINUOUS
 62
     5
 10
544.80000000000291
 20
-400.79999999999342
 30
0.0
 11
464.80000000000291
 21
-400.79999999999342
 31
0.0
  0
LINE
  8
DETAIL
  6
CONTINUOUS
 62
     5
 10
464.80000000000291
 20
-400.66558498799532
 30
0.0
 11
467.30000000000291
 21
-400.66558498799532
 31
0.0
  0
LINE
  8
DETAIL
  6
CONTINUOUS
 62
     5
 10
467.30000000000291
 20
-387.79999999999433
 30
0.0
 11
463.30000000001752
 21
-387.79999999999433
 31
0.0
  0
LINE
  8
DETAIL
  6
CONTINUOUS
 62
     5
 10
541.80000000000291
 20
-360.79999999999382
 30
0.0
 11
463.30000000001752
 21
-360.79999999999382
 31
0.0
  0
CIRCLE
  8
DETAIL
  6
CONTINUOUS
 62
     5
 10
532.80000000000291
 20
-427.79999999999382
 30
0.0
 40
6.9999999999999956
  0
CIRCLE
  8
DETAIL
  6
CONTINUOUS
 62
     5
 10
476.80000000000291
 20
-427.79999999999382
 30
0.0
 40
6.9999999999999956
  0
ARC
  8
DETAIL
  6
CONTINUOUS
 62
     5
 10
542.30000000000291
 20
-417.19999999999573
 30
0.0
 40
2.9999999999999978
 50
180.0
 51
270.0
  0
ARC
  8
DETAIL
  6
CONTINUOUS
 62
     5
 10
467.80000000000291
 20
-444.19999999999573
 30
0.0
 40
2.9999999999999978
 50
180.0
 51
270.0
  0
CIRCLE
  8
DETAIL
  6
CONTINUOUS
 62
     5
 10
532.80000000000291
 20
-380.19999999998839
 30
0.0
 40
6.9999999999999956
  0
CIRCLE
  8
DETAIL
  6
CONTINUOUS
 62
     5
 10
476.80000000000291
 20
-380.19999999998839
 30
0.0
 40
6.9999999999999956
  0
ARC
  8
DETAIL
  6
CONTINUOUS
 62
     5
 10
467.30000000000291
 20
-390.79999999999433
 30
0.0
 40
2.9999999999999978
 50
0.000000000000007
 51
90.000000000000014
  0
ARC
  8
DETAIL
  6
CONTINUOUS
 62
     5
 10
541.80000000000291
 20
-363.79999999999382
 30
0.0
 40
2.9999999999999978
 50
0.000000000000007
 51
90.000000000000014
  0
LINE
  8
DETAIL
  6
CONTINUOUS
 62
     5
 10
542.30000000000291
 20
-407.33441501399511
 30
0.0
 11
541.95665885310609
 21
-407.33942591352405
 31
0.0
  0
LINE
  8
DETAIL
  6
CONTINUOUS
 62
     5
 10
541.95665885310609
 20
-407.33942591352405
 30
0.0
 11
541.61105945125644
 21
-407.35790640520088
 31
0.0
  0
LINE
  8
DETAIL
  6
CONTINUOUS
 62
     5
 10
541.61105945125644
 20
-407.35790640520088
 30
0.0
 11
541.25399160254688
 21
-407.39520773452097
 31
0.0
  0
LINE
  8
DETAIL
  6
CONTINUOUS
 62
     5
 10
541.25399160254688
 20
-407.39520773452097
 30
0.0
 11
540.89156701597415
 21
-407.45851783773645
 31
0.0
  0
LINE
  8
DETAIL
  6
CONTINUOUS
 62
     5
 10
540.89156701597415
 20
-407.45851783773645
 30
0.0
 11
540.53887247255261
 21
-407.55610052490397
 31
0.0
  0
LINE
  8
DETAIL
  6
CONTINUOUS
 62
     5
 10
540.53887247255261
 20
-407.55610052490397
 30
0.0
 11
540.21110829736324
 21
-407.6962332170113
 31
0.0
  0
LINE
  8
DETAIL
  6
CONTINUOUS
 62
     5
 10
540.21110829736324
 20
-407.6962332170113
 30
0.0
 11
539.9234748154862
 21
-407.88719333504616
 31
0.0
  0
LINE
  8
DETAIL
  6
CONTINUOUS
 62
     5
 10
539.9234748154862
 20
-407.88719333504616
 30
0.0
 11
539.69117235200247
 21
-408.13725829999612
 31
0.0
  0
LINE
  8
DETAIL
  6
CONTINUOUS
 62
     5
 10
467.30000000000291
 20
-400.66558498799532
 30
0.0
 11
467.64334114854802
 21
-400.66057408846632
 31
0.0
  0
LINE
  8
DETAIL
  6
CONTINUOUS
 62
     5
 10
467.64334114854802
 20
-400.66057408846632
 30
0.0
 11
467.9889405507584
 21
-400.64209359678915
 31
0.0
  0
LINE
  8
DETAIL
  6
CONTINUOUS
 62
     5
 10
467.9889405507584
 20
-400.64209359678915
 30
0.0
 11
468.34600839947035
 21
-400.60479226746418
 31
0.0
  0
LINE
  8
DETAIL
  6
CONTINUOUS
 62
     5
 10
468.34600839947035
 20
-400.60479226746418
 30
0.0
 11
468.70843298599311
 21
-400.54148216419776
 31
0.0
  0
LINE
  8
DETAIL
  6
CONTINUOUS
 62
     5
 10
468.70843298599311
 20
-400.54148216419776
 30
0.0
 11
469.06112752925253
 21
-400.44389947686926
 31
0.0
  0
LINE
  8
DETAIL
  6
CONTINUOUS
 62
     5
 10
469.06112752925253
 20
-400.44389947686926
 30
0.0
 11
469.38889170410397
 21
-400.3037667844269
 31
0.0
  0
LINE
  8
DETAIL
  6
CONTINUOUS
 62
     5
 10
469.38889170410397
 20
-400.3037667844269
 30
0.0
 11
469.67652518540251
 21
-400.11280666581894
 31
0.0
  0
LINE
  8
DETAIL
  6
CONTINUOUS
 62
     5
 10
469.67652518540251
 20
-400.11280666581894
 30
0.0
 11
469.90882764800341
 21
-399.86274169999342
 31
0.0
  0
ARC
  8
DETAIL
  6
CONTINUOUS
 62
     5
 10
541.56943821007746
 20
-409.46516877923142
 30
0.0
 40
2.3002671305767044
 50
144.74016689684061
 51
148.0933127933987
  0
ARC
  8
DETAIL
  6
CONTINUOUS
 62
     5
 10
541.33384461147875
 20
-409.33941475332296
 30
0.0
 40
2.0338812555631525
 50
147.59282135396643
 51
179.65606415516652
  0
ARC
  8
DETAIL
  6
CONTINUOUS
 62
     5
 10
468.03056178978176
 20
-398.53483122265482
 30
0.0
 40
2.3002671307520721
 50
324.74016689633459
 51
328.09331279328819
  0
ARC
  8
DETAIL
  6
CONTINUOUS
 62
     5
 10
468.26615538852639
 20
-398.6605852486594
 30
0.0
 40
2.033881255563883
 50
327.59282135396779
 51
359.65606415515708
  0
LINE
  8
BASIS
  6
DASHDOT
 62
     6
 10
666.89240525732748
 20
-403.99999999999142
 30
0.0
 11
-654.75691988359631
 21
-403.99999999999142
 31
0.0
1001
GENIUS_GENODEF_13
1002
{
1000
HIER
1070
     0
1002
}
1002
{
1000
MANEDIT
1070
     0
1002
}
1002
{
1000
NOSEL
1070
     0
1002
}
1002
{
1000
BEHIND
1070
     0
1002
}
1002
{
1000
OTHER
1070
     0
1002
}
1002
{
1000
REACTOR
1002
}
1001
GENIUS_GENOBJ-N-CEN_13
1002
{
1000
OWNER
1000
GEN
1002
}
1001
GENIUS_GENCEN_19
1002
{
1040
5.0
1002
}
  0
LINE
  8
BASIS
  6
DASHDOT
 62
     6
 10
-674.54386575860281
 20
-242.00000000001049
 30
0.0
 11
-545.13333358711679
 21
-242.00000000001049
 31
0.0
  0
LINE
  8
BASIS
  6
DASHDOT
 62
     6
 10
-674.54386575860281
 20
-646.00000000000136
 30
0.0
 11
-545.13333358711679
 21
-646.00000000000136
 31
0.0
  0
LINE
  8
BASIS
  6
DASHDOT
 62
     6
 10
551.29961981519591
 20
-443.99999152871851
 30
0.0
 11
660.03566598417819
 21
-443.99999152871851
 31
0.0
  0
LINE
  8
DETAIL
  6
CONTINUOUS
 62
     5
 10
-558.89708539198818
 20
-403.78269908199348
 30
0.0
 11
-557.01438630998018
 21
-401.89999999998548
 31
0.0
  0
LINE
  8
DETAIL
  6
CONTINUOUS
 62
     5
 10
-557.01438630998018
 20
-401.89999999998548
 30
0.0
 11
-544.80000000000291
 21
-401.89999999998548
 31
0.0
  0
LINE
  8
DETAIL
  6
CONTINUOUS
 62
     5
 10
558.89708539201729
 20
-403.78269908199348
 30
0.0
 11
557.01438631000929
 21
-401.89999999998548
 31
0.0
  0
LINE
  8
DETAIL
  6
CONTINUOUS
 62
     5
 10
564.00000000001455
 20
-403.19999999998799
 30
0.0
 11
558.31438631001129
 21
-403.19999999998799
 31
0.0
  0
LINE
  8
DETAIL
  6
CONTINUOUS
 62
     5
 10
544.80000000000291
 20
-401.89999999998548
 30
0.0
 11
557.01438631000929
 21
-401.89999999998548
 31
0.0
  0
LINE
  8
SIZE
  6
CONTINUOUS
 62
    30
 10
571.80000000000018
 20
18.949999989699339
 30
0.0
 11
571.80000000000018
 21
318.95776218937363
 31
0.0
  0
LINE
  8
SIZE
  6
CONTINUOUS
 62
    30
 10
-571.79999999998563
 20
18.949999667160679
 30
0.0
 11
-571.79999999998563
 21
318.95776218937363
 31
0.0
  0
LINE
  8
SIZE
  6
CONTINUOUS
 62
    30
 10
559.80000000000018
 20
298.95776218937363
 30
0.0
 11
-559.79999999998563
 21
298.95776218937363
 31
0.0
  0
CIRCLE
  8
SIZE
  6
CONTINUOUS
 62
    30
 10
571.80000000000018
 20
298.95776218937363
 30
0.0
 40
6.0
  0
LINE
  8
SIZE
  6
CONTINUOUS
 62
    30
 10
571.80000000000018
 20
298.95776218937363
 30
0.0
 11
559.80000000000018
 21
298.95776218937363
 31
0.0
  0
CIRCLE
  8
SIZE
  6
CONTINUOUS
 62
    30
 10
-571.79999999998563
 20
298.95776218937363
 30
0.0
 40
6.0
  0
LINE
  8
SIZE
  6
CONTINUOUS
 62
    30
 10
-571.79999999998563
 20
298.95776218937363
 30
0.0
 11
-559.79999999998563
 21
298.95776218937363
 31
0.0
  0
TEXT
  8
SIZE
  6
CONTINUOUS
 62
    30
 10
-96.767999999992739
 20
323.95776218937363
 30
0.0
 40
64.0
  1
1144
 50
0.0
 41
0.9
 51
0.0
  7
STANDARD
 71
     0
 72
     1
 11
0.000000000007276
 21
323.95776218937363
 31
0.0
210
0.0
220
0.0
230
1.0
  0
POINT
  8
DEFPOINTS
  6
CONTINUOUS
 62
    30
 10
571.80000000000018
 20
-1.0500000103006639
 30
0.0
  0
POINT
  8
DEFPOINTS
  6
CONTINUOUS
 62
    30
 10
-571.79999999998563
 20
-1.0500003328393179
 30
0.0
  0
POINT
  8
DEFPOINTS
  6
CONTINUOUS
 62
    30
 10
-571.79999999998563
 20
298.95776218937363
 30
0.0
  0
LINE
  8
SIZE
  6
CONTINUOUS
 62
    30
 10
-650.80000000000018
 20
-101.0000000000032
 30
0.0
 11
-650.80000000000018
 21
318.95776218937363
 31
0.0
  0
LINE
  8
SIZE
  6
CONTINUOUS
 62
    30
 10
-571.79999999998563
 20
18.949999667160679
 30
0.0
 11
-571.79999999998563
 21
318.95776218937363
 31
0.0
  0
LINE
  8
SIZE
  6
CONTINUOUS
 62
    30
 10
-662.80000000000018
 20
298.95776218937363
 30
0.0
 11
-674.80000000000018
 21
298.95776218937363
 31
0.0
  0
LINE
  8
SIZE
  6
CONTINUOUS
 62
    30
 10
-559.79999999998563
 20
298.95776218937363
 30
0.0
 11
-547.79999999998563
 21
298.95776218937363
 31
0.0
  0
LINE
  8
SIZE
  6
CONTINUOUS
 62
    30
 10
-650.80000000000018
 20
298.95776218937363
 30
0.0
 11
-571.79999999998563
 21
298.95776218937363
 31
0.0
  0
CIRCLE
  8
SIZE
  6
CONTINUOUS
 62
    30
 10
-650.80000000000018
 20
298.95776218937363
 30
0.0
 40
6.0
  0
LINE
  8
SIZE
  6
CONTINUOUS
 62
    30
 10
-650.80000000000018
 20
298.95776218937363
 30
0.0
 11
-662.80000000000018
 21
298.95776218937363
 31
0.0
  0
CIRCLE
  8
SIZE
  6
CONTINUOUS
 62
    30
 10
-571.79999999998563
 20
298.95776218937363
 30
0.0
 40
6.0
  0
LINE
  8
SIZE
  6
CONTINUOUS
 62
    30
 10
-571.79999999998563
 20
298.95776218937363
 30
0.0
 11
-559.79999999998563
 21
298.95776218937363
 31
0.0
  0
TEXT
  8
SIZE
  6
CONTINUOUS
 62
    30
 10
-664.86799999999289
 20
323.95776218937363
 30
0.0
 40
64.0
  1
79
 50
0.0
 41
0.9
 51
0.0
  7
STANDARD
 71
     0
 72
     1
 11
-611.29999999999291
 21
323.95776218937363
 31
0.0
210
0.0
220
0.0
230
1.0
  0
POINT
  8
DEFPOINTS
  6
CONTINUOUS
 62
    30
 10
-650.80000000000018
 20
-121.0000000000032
 30
0.0
  0
POINT
  8
DEFPOINTS
  6
CONTINUOUS
 62
    30
 10
-571.79999999998563
 20
-1.0500003328393179
 30
0.0
  0
POINT
  8
DEFPOINTS
  6
CONTINUOUS
 62
    30
 10
-571.79999999998563
 20
298.95776218937363
 30
0.0
  0
LINE
  8
SIZE
  6
CONTINUOUS
 62
    30
 10
615.79998590094601
 20
-73.999991528718283
 30
0.0
 11
615.79998590094601
 21
318.95776218937363
 31
0.0
  0
LINE
  8
SIZE
  6
CONTINUOUS
 62
    30
 10
571.80000000000018
 20
18.949999989699339
 30
0.0
 11
571.80000000000018
 21
318.95776218937363
 31
0.0
  0
LINE
  8
SIZE
  6
CONTINUOUS
 62
    30
 10
627.79998590094601
 20
298.95776218937363
 30
0.0
 11
639.79998590094601
 21
298.95776218937363
 31
0.0
  0
LINE
  8
SIZE
  6
CONTINUOUS
 62
    30
 10
559.80000000000018
 20
298.95776218937363
 30
0.0
 11
547.80000000000018
 21
298.95776218937363
 31
0.0
  0
LINE
  8
SIZE
  6
CONTINUOUS
 62
    30
 10
615.79998590094601
 20
298.95776218937363
 30
0.0
 11
571.80000000000018
 21
298.95776218937363
 31
0.0
  0
CIRCLE
  8
SIZE
  6
CONTINUOUS
 62
    30
 10
615.79998590094601
 20
298.95776218937363
 30
0.0
 40
6.0
  0
LINE
  8
SIZE
  6
CONTINUOUS
 62
    30
 10
615.79998590094601
 20
298.95776218937363
 30
0.0
 11
627.79998590094601
 21
298.95776218937363
 31
0.0
  0
CIRCLE
  8
SIZE
  6
CONTINUOUS
 62
    30
 10
571.80000000000018
 20
298.95776218937363
 30
0.0
 40
6.0
  0
LINE
  8
SIZE
  6
CONTINUOUS
 62
    30
 10
571.80000000000018
 20
298.95776218937363
 30
0.0
 11
559.80000000000018
 21
298.95776218937363
 31
0.0
  0
TEXT
  8
SIZE
  6
CONTINUOUS
 62
    30
 10
539.07999295047307
 20
323.95776218937363
 30
0.0
 40
64.0
  1
44
 50
0.0
 41
0.9
 51
0.0
  7
STANDARD
 71
     0
 72
     1
 11
593.7999929504731
 21
323.95776218937363
 31
0.0
210
0.0
220
0.0
230
1.0
  0
POINT
  8
DEFPOINTS
  6
CONTINUOUS
 62
    30
 10
615.79998590094601
 20
-93.999991528718283
 30
0.0
  0
POINT
  8
DEFPOINTS
  6
CONTINUOUS
 62
    30
 10
571.80000000000018
 20
-1.0500000103006639
 30
0.0
  0
POINT
  8
DEFPOINTS
  6
CONTINUOUS
 62
    30
 10
571.80000000000018
 20
298.95776218937363
 30
0.0
  0
LINE
  8
SIZE
  6
CONTINUOUS
 62
    30
 10
686.89240525732771
 20
-403.99999999999159
 30
0.0
 11
931.45427555796994
 21
-403.99999999999147
 31
0.0
  0
LINE
  8
SIZE
  6
CONTINUOUS
 62
    30
 10
680.03566598417842
 20
-443.99999152871868
 30
0.0
 11
931.45427555796994
 21
-443.99999152871868
 31
0.0
  0
LINE
  8
SIZE
  6
CONTINUOUS
 62
    30
 10
911.45427555796994
 20
-455.99999152871868
 30
0.0
 11
911.45427555796994
 21
-467.99999152871868
 31
0.0
  0
LINE
  8
SIZE
  6
CONTINUOUS
 62
    30
 10
911.45427555796994
 20
-391.99999999999147
 30
0.0
 11
911.45427555796982
 21
-236.74285714284869
 31
0.0
  0
LINE
  8
SIZE
  6
CONTINUOUS
 62
    30
 10
911.45427555796994
 20
-443.99999152871868
 30
0.0
 11
911.45427555796994
 21
-403.99999999999147
 31
0.0
  0
CIRCLE
  8
SIZE
  6
CONTINUOUS
 62
    30
 10
911.45427555796994
 20
-443.99999152871868
 30
0.0
 40
6.0
  0
LINE
  8
SIZE
  6
CONTINUOUS
 62
    30
 10
911.45427555796994
 20
-443.99999152871868
 30
0.0
 11
911.45427555796994
 21
-455.99999152871868
 31
0.0
  0
CIRCLE
  8
SIZE
  6
CONTINUOUS
 62
    30
 10
911.45427555796994
 20
-403.99999999999147
 30
0.0
 40
6.0
  0
LINE
  8
SIZE
  6
CONTINUOUS
 62
    30
 10
911.45427555796994
 20
-403.99999999999147
 30
0.0
 11
911.45427555796994
 21
-391.99999999999147
 31
0.0
  0
TEXT
  8
SIZE
  6
CONTINUOUS
 62
    30
 10
886.45427555796959
 20
-363.09142857142035
 30
0.0
 40
64.0
  1
40
 50
90.0
 41
0.9
 51
0.0
  7
STANDARD
 71
     0
 72
     1
 11
886.45427555796959
 21
-308.37142857142032
 31
0.0
210
0.0
220
0.0
230
1.0
  0
POINT
  8
DEFPOINTS
  6
CONTINUOUS
 62
    30
 10
666.89240525732771
 20
-403.99999999999159
 30
0.0
  0
POINT
  8
DEFPOINTS
  6
CONTINUOUS
 62
    30
 10
660.03566598417842
 20
-443.99999152871868
 30
0.0
  0
POINT
  8
DEFPOINTS
  6
CONTINUOUS
 62
    30
 10
911.45427555796994
 20
-443.99999152871868
 30
0.0
  0
LINE
  8
SIZE
  6
CONTINUOUS
 62
    30
 10
635.79998590094624
 20
-93.999991528718311
 30
0.0
 11
1073.910027407697
 21
-93.99999152871824
 31
0.0
  0
LINE
  8
SIZE
  6
CONTINUOUS
 62
    30
 10
635.79998590094624
 20
-793.99999152871851
 30
0.0
 11
1073.910027407697
 21
-793.9999915287184
 31
0.0
  0
LINE
  8
SIZE
  6
CONTINUOUS
 62
    30
 10
1053.910027407697
 20
-105.9999915287183
 30
0.0
 11
1053.910027407697
 21
-781.9999915287184
 31
0.0
  0
CIRCLE
  8
SIZE
  6
CONTINUOUS
 62
    30
 10
1053.910027407697
 20
-93.999991528718255
 30
0.0
 40
6.0
  0
LINE
  8
SIZE
  6
CONTINUOUS
 62
    30
 10
1053.910027407697
 20
-93.999991528718255
 30
0.0
 11
1053.910027407697
 21
-105.99999152871825
 31
0.0
  0
CIRCLE
  8
SIZE
  6
CONTINUOUS
 62
    30
 10
1053.910027407697
 20
-793.9999915287184
 30
0.0
 40
6.0
  0
LINE
  8
SIZE
  6
CONTINUOUS
 62
    30
 10
1053.910027407697
 20
-793.9999915287184
 30
0.0
 11
1053.910027407697
 21
-781.9999915287184
 31
0.0
  0
TEXT
  8
SIZE
  6
CONTINUOUS
 62
    30
 10
1028.9100274076964
 20
-525.50399152871853
 30
0.0
 40
64.0
  1
700
 50
90.0
 41
0.9
 51
0.0
  7
STANDARD
 71
     0
 72
     1
 11
1028.9100274076964
 21
-443.99999152871851
 31
0.0
210
0.0
220
0.0
230
1.0
  0
POINT
  8
DEFPOINTS
  6
CONTINUOUS
 62
    30
 10
615.79998590094624
 20
-93.999991528718311
 30
0.0
  0
POINT
  8
DEFPOINTS
  6
CONTINUOUS
 62
    30
 10
615.79998590094624
 20
-793.99999152871851
 30
0.0
  0
POINT
  8
DEFPOINTS
  6
CONTINUOUS
 62
    30
 10
1053.910027407697
 20
-793.9999915287184
 30
0.0
  0
LINE
  8
SIZE
  6
CONTINUOUS
 62
    30
 10
-727.53653402160785
 20
-202.0000000000056
 30
0.0
 11
-1364.2090941837371
 21
-202.00000000000571
 31
0.0
  0
LINE
  8
SIZE
  6
CONTINUOUS
 62
    30
 10
-726.16450201683551
 20
-605.99999999999659
 30
0.0
 11
-1364.2090941837371
 21
-605.99999999999682
 31
0.0
  0
LINE
  8
SIZE
  6
CONTINUOUS
 62
    30
 10
-1344.2090941837371
 20
-214.00000000000571
 30
0.0
 11
-1344.2090941837371
 21
-593.99999999999682
 31
0.0
  0
CIRCLE
  8
SIZE
  6
CONTINUOUS
 62
    30
 10
-1344.2090941837371
 20
-202.00000000000571
 30
0.0
 40
6.0
  0
LINE
  8
SIZE
  6
CONTINUOUS
 62
    30
 10
-1344.2090941837371
 20
-202.00000000000571
 30
0.0
 11
-1344.2090941837371
 21
-214.00000000000571
 31
0.0
  0
CIRCLE
  8
SIZE
  6
CONTINUOUS
 62
    30
 10
-1344.2090941837371
 20
-605.99999999999682
 30
0.0
 40
6.0
  0
LINE
  8
SIZE
  6
CONTINUOUS
 62
    30
 10
-1344.2090941837371
 20
-605.99999999999682
 30
0.0
 11
-1344.2090941837371
 21
-593.99999999999682
 31
0.0
  0
TEXT
  8
SIZE
  6
CONTINUOUS
 62
    30
 10
-1369.2090941837371
 20
-486.08000000000061
 30
0.0
 40
64.0
  1
404
 50
90.0
 41
0.9
 51
0.0
  7
STANDARD
 71
     0
 72
     1
 11
-1369.2090941837371
 21
-404.00000000000068
 31
0.0
210
0.0
220
0.0
230
1.0
  0
POINT
  8
DEFPOINTS
  6
CONTINUOUS
 62
    30
 10
-707.53653402160785
 20
-202.0000000000056
 30
0.0
  0
POINT
  8
DEFPOINTS
  6
CONTINUOUS
 62
    30
 10
-706.16450201683551
 20
-605.99999999999659
 30
0.0
  0
POINT
  8
DEFPOINTS
  6
CONTINUOUS
 62
    30
 10
-1344.2090941837371
 20
-605.99999999999682
 30
0.0
  0
LINE
  8
SIZE
  6
CONTINUOUS
 62
    30
 10
590.74999999998568
 20
0.0000000000000032
 30
0.0
 11
1220.1337026121801
 21
0.0000000000001044
 31
0.0
  0
LINE
  8
SIZE
  6
CONTINUOUS
 62
    30
 10
590.74999999998568
 20
-807.999999999995
 30
0.0
 11
1220.1337026121801
 21
-807.99999999999488
 31
0.0
  0
LINE
  8
SIZE
  6
CONTINUOUS
 62
    30
 10
1200.1337026121801
 20
-11.999999999999901
 30
0.0
 11
1200.1337026121801
 21
-795.99999999999488
 31
0.0
  0
CIRCLE
  8
SIZE
  6
CONTINUOUS
 62
    30
 10
1200.1337026121801
 20
0.0000000000001012
 30
0.0
 40
6.0
  0
LINE
  8
SIZE
  6
CONTINUOUS
 62
    30
 10
1200.1337026121801
 20
0.0000000000001012
 30
0.0
 11
1200.1337026121801
 21
-11.999999999999899
 31
0.0
  0
CIRCLE
  8
SIZE
  6
CONTINUOUS
 62
    30
 10
1200.1337026121801
 20
-807.99999999999488
 30
0.0
 40
6.0
  0
LINE
  8
SIZE
  6
CONTINUOUS
 62
    30
 10
1200.1337026121801
 20
-807.99999999999488
 30
0.0
 11
1200.1337026121801
 21
-795.99999999999488
 31
0.0
  0
TEXT
  8
SIZE
  6
CONTINUOUS
 62
    30
 10
1175.1337026121801
 20
-484.9279999999975
 30
0.0
 40
64.0
  1
808
 50
90.0
 41
0.9
 51
0.0
  7
STANDARD
 71
     0
 72
     1
 11
1175.1337026121801
 21
-403.99999999999761
 31
0.0
210
0.0
220
0.0
230
1.0
  0
POINT
  8
DEFPOINTS
  6
CONTINUOUS
 62
    30
 10
570.74999999998568
 20
0.0
 30
0.0
  0
POINT
  8
DEFPOINTS
  6
CONTINUOUS
 62
    30
 10
570.74999999998568
 20
-807.999999999995
 30
0.0
  0
POINT
  8
DEFPOINTS
  6
CONTINUOUS
 62
    30
 10
1200.1337026121801
 20
-807.99999999999488
 30
0.0
  0
LINE
  8
SIZE
  6
CONTINUOUS
 62
    30
 10
-726.16450201683551
 20
-605.99999999999659
 30
0.0
 11
-966.13983200278483
 21
-605.9999999999967
 31
0.0
  0
LINE
  8
SIZE
  6
CONTINUOUS
 62
    30
 10
-694.54386575860303
 20
-646.00000000000159
 30
0.0
 11
-966.13983200278483
 21
-646.00000000000171
 31
0.0
  0
LINE
  8
SIZE
  6
CONTINUOUS
 62
    30
 10
-946.13983200278483
 20
-593.9999999999967
 30
0.0
 11
-946.13983200278483
 21
-581.9999999999967
 31
0.0
  0
LINE
  8
SIZE
  6
CONTINUOUS
 62
    30
 10
-946.13983200278483
 20
-658.00000000000171
 30
0.0
 11
-946.13983200278471
 21
-945.29657971375468
 31
0.0
  0
LINE
  8
SIZE
  6
CONTINUOUS
 62
    30
 10
-946.13983200278483
 20
-605.9999999999967
 30
0.0
 11
-946.13983200278483
 21
-646.00000000000171
 31
0.0
  0
CIRCLE
  8
SIZE
  6
CONTINUOUS
 62
    30
 10
-946.13983200278483
 20
-605.9999999999967
 30
0.0
 40
6.0
  0
LINE
  8
SIZE
  6
CONTINUOUS
 62
    30
 10
-946.13983200278483
 20
-605.9999999999967
 30
0.0
 11
-946.13983200278483
 21
-593.9999999999967
 31
0.0
  0
CIRCLE
  8
SIZE
  6
CONTINUOUS
 62
    30
 10
-946.13983200278483
 20
-646.00000000000171
 30
0.0
 40
6.0
  0
LINE
  8
SIZE
  6
CONTINUOUS
 62
    30
 10
-946.13983200278483
 20
-646.00000000000171
 30
0.0
 11
-946.13983200278483
 21
-658.00000000000171
 31
0.0
  0
TEXT
  8
SIZE
  6
CONTINUOUS
 62
    30
 10
-971.13983200278506
 20
-928.38800828518254
 30
0.0
 40
64.0
  1
40
 50
90.0
 41
0.9
 51
0.0
  7
STANDARD
 71
     0
 72
     1
 11
-971.13983200278506
 21
-873.66800828518251
 31
0.0
210
0.0
220
0.0
230
1.0
  0
POINT
  8
DEFPOINTS
  6
CONTINUOUS
 62
    30
 10
-706.16450201683551
 20
-605.99999999999659
 30
0.0
  0
POINT
  8
DEFPOINTS
  6
CONTINUOUS
 62
    30
 10
-674.54386575860303
 20
-646.00000000000159
 30
0.0
  0
POINT
  8
DEFPOINTS
  6
CONTINUOUS
 62
    30
 10
-946.13983200278483
 20
-646.00000000000171
 30
0.0
  0
LINE
  8
SIZE
  6
CONTINUOUS
 62
    30
 10
-694.54386575860303
 20
-242.0000000000106
 30
0.0
 11
-966.13983200278585
 21
-242.0000000000106
 31
0.0
  0
LINE
  8
SIZE
  6
CONTINUOUS
 62
    30
 10
-727.53653402160785
 20
-202.0000000000056
 30
0.0
 11
-966.13983200278585
 21
-202.0000000000056
 31
0.0
  0
LINE
  8
SIZE
  6
CONTINUOUS
 62
    30
 10
-946.13983200278585
 20
-254.0000000000106
 30
0.0
 11
-946.13983200278574
 21
-266.00000000001057
 31
0.0
  0
LINE
  8
SIZE
  6
CONTINUOUS
 62
    30
 10
-946.13983200278585
 20
-190.00000000000551
 30
0.0
 11
-946.13983200278585
 21
154.88363792631961
 31
0.0
  0
LINE
  8
SIZE
  6
CONTINUOUS
 62
    30
 10
-946.13983200278585
 20
-242.0000000000106
 30
0.0
 11
-946.13983200278585
 21
-202.0000000000056
 31
0.0
  0
CIRCLE
  8
SIZE
  6
CONTINUOUS
 62
    30
 10
-946.13983200278585
 20
-242.0000000000106
 30
0.0
 40
6.0
  0
LINE
  8
SIZE
  6
CONTINUOUS
 62
    30
 10
-946.13983200278585
 20
-242.0000000000106
 30
0.0
 11
-946.13983200278585
 21
-254.0000000000106
 31
0.0
  0
CIRCLE
  8
SIZE
  6
CONTINUOUS
 62
    30
 10
-946.13983200278585
 20
-202.0000000000056
 30
0.0
 40
6.0
  0
LINE
  8
SIZE
  6
CONTINUOUS
 62
    30
 10
-946.13983200278585
 20
-202.0000000000056
 30
0.0
 11
-946.13983200278585
 21
-190.0000000000056
 31
0.0
  0
TEXT
  8
SIZE
  6
CONTINUOUS
 62
    30
 10
-971.13983200278597
 20
28.535066497748517
 30
0.0
 40
64.0
  1
40
 50
90.0
 41
0.9
 51
0.0
  7
STANDARD
 71
     0
 72
     1
 11
-971.13983200278597
 21
83.255066497748544
 31
0.0
210
0.0
220
0.0
230
1.0
  0
POINT
  8
DEFPOINTS
  6
CONTINUOUS
 62
    30
 10
-674.54386575860303
 20
-242.0000000000106
 30
0.0
  0
POINT
  8
DEFPOINTS
  6
CONTINUOUS
 62
    30
 10
-707.53653402160785
 20
-202.0000000000056
 30
0.0
  0
POINT
  8
DEFPOINTS
  6
CONTINUOUS
 62
    30
 10
-946.13983200278585
 20
-202.0000000000056
 30
0.0
  0
LINE
  8
SIZE
  6
CONTINUOUS
 62
    30
 10
-670.80000000000041
 20
-363.0000000000033
 30
0.0
 11
-1097.9784715496501
 21
-363.00000000000341
 31
0.0
  0
LINE
  8
SIZE
  6
CONTINUOUS
 62
    30
 10
-670.80000000000041
 20
-121.0000000000032
 30
0.0
 11
-1097.9784715496501
 21
-121.0000000000033
 31
0.0
  0
LINE
  8
SIZE
  6
CONTINUOUS
 62
    30
 10
-1077.9784715496501
 20
-351.00000000000341
 30
0.0
 11
-1077.9784715496501
 21
-133.0000000000033
 31
0.0
  0
LINE
  8
SIZE
  6
CONTINUOUS
 62
    30
 10
-1077.9784715496501
 20
-121.0000000000033
 30
0.0
 11
-1077.9784715496501
 21
250.9102949245426
 31
0.0
  0
CIRCLE
  8
SIZE
  6
CONTINUOUS
 62
    30
 10
-1077.9784715496501
 20
-363.00000000000341
 30
0.0
 40
6.0
  0
LINE
  8
SIZE
  6
CONTINUOUS
 62
    30
 10
-1077.9784715496501
 20
-363.00000000000341
 30
0.0
 11
-1077.9784715496501
 21
-351.00000000000341
 31
0.0
  0
CIRCLE
  8
SIZE
  6
CONTINUOUS
 62
    30
 10
-1077.9784715496501
 20
-121.0000000000033
 30
0.0
 40
6.0
  0
LINE
  8
SIZE
  6
CONTINUOUS
 62
    30
 10
-1077.9784715496501
 20
-121.0000000000033
 30
0.0
 11
-1077.9784715496501
 21
-133.0000000000033
 31
0.0
  0
TEXT
  8
SIZE
  6
CONTINUOUS
 62
    30
 10
-1102.9784715496501
 20
10.30800921025704
 30
0.0
 40
64.0
  1
φ242
 50
90.0
 41
0.9
 51
0.0
  7
STANDARD
 71
     0
 72
     1
 11
-1102.9784715496501
 21
125.7960092102571
 31
0.0
210
0.0
220
0.0
230
1.0
  0
POINT
  8
DEFPOINTS
  6
CONTINUOUS
 62
    30
 10
-650.80000000000041
 20
-363.0000000000033
 30
0.0
  0
POINT
  8
DEFPOINTS
  6
CONTINUOUS
 62
    30
 10
-650.80000000000041
 20
-121.0000000000032
 30
0.0
  0
POINT
  8
DEFPOINTS
  6
CONTINUOUS
 62
    30
 10
-1077.9784715496501
 20
-121.0000000000033
 30
0.0
  0
LINE
  8
DETAIL
  6
CONTINUOUS
 62
     5
 10
-573.49999999999181
 20
-774.99999999999409
 30
0.0
 11
-642.799999999992
 21
-766.99999999999409
 31
0.0
  0
LINE
  8
DETAIL
  6
CONTINUOUS
 62
     5
 10
-566.30000000000928
 20
-774.99999999999409
 30
0.0
 11
-573.49999999999181
 21
-774.99999999999409
 31
0.0
  0
LINE
  8
DETAIL
  6
CONTINUOUS
 62
     5
 10
-642.799999999992
 20
-766.99999999999409
 30
0.0
 11
-650.80000000000655
 21
-766.99999999999409
 31
0.0
  0
LINE
  8
DETAIL
  6
CONTINUOUS
 62
     5
 10
-642.799999999992
 20
-524.99999999999409
 30
0.0
 11
-650.80000000000655
 21
-524.99999999999409
 31
0.0
  0
LINE
  8
DETAIL
  6
CONTINUOUS
 62
     5
 10
-573.49999999999181
 20
-516.99999999898091
 30
0.0
 11
-642.799999999992
 21
-524.99999999999409
 31
0.0
  0
LINE
  8
DETAIL
  6
CONTINUOUS
 62
     5
 10
-573.49999999999181
 20
-516.99999999898091
 30
0.0
 11
-573.49999999999181
 21
-774.99999999999409
 31
0.0
  0
LINE
  8
DETAIL
  6
CONTINUOUS
 62
     5
 10
-642.799999999992
 20
-766.99999999999409
 30
0.0
 11
-642.799999999992
 21
-524.99999999999409
 31
0.0
  0
LINE
  8
DETAIL
  6
CONTINUOUS
 62
     5
 10
-650.80000000000655
 20
-766.99999999999409
 30
0.0
 11
-650.80000000000655
 21
-524.99999999999409
 31
0.0
  0
LINE
  8
DETAIL
  6
CONTINUOUS
 62
     5
 10
-566.30000000000928
 20
-516.99999999999409
 30
0.0
 11
-573.49999999999181
 21
-516.99999999999409
 31
0.0
  0
LINE
  8
SIZE
  6
CONTINUOUS
 62
    30
 10
-593.49999999998568
 20
-371.0000000000033
 30
0.0
 11
-1220.16411771653
 21
-371.00000000000341
 31
0.0
  0
LINE
  8
SIZE
  6
CONTINUOUS
 62
    30
 10
-593.49999999998568
 20
-112.99999999899011
 30
0.0
 11
-1220.16411771653
 21
-112.99999999899021
 31
0.0
  0
LINE
  8
SIZE
  6
CONTINUOUS
 62
    30
 10
-1200.16411771653
 20
-359.00000000000341
 30
0.0
 11
-1200.16411771653
 21
-124.99999999899021
 31
0.0
  0
LINE
  8
SIZE
  6
CONTINUOUS
 62
    30
 10
-1200.16411771653
 20
-112.99999999899021
 30
0.0
 11
-1200.16411771653
 21
248.40177493004381
 31
0.0
  0
CIRCLE
  8
SIZE
  6
CONTINUOUS
 62
    30
 10
-1200.16411771653
 20
-371.00000000000341
 30
0.0
 40
6.0
  0
LINE
  8
SIZE
  6
CONTINUOUS
 62
    30
 10
-1200.16411771653
 20
-371.00000000000341
 30
0.0
 11
-1200.16411771653
 21
-359.00000000000341
 31
0.0
  0
CIRCLE
  8
SIZE
  6
CONTINUOUS
 62
    30
 10
-1200.16411771653
 20
-112.99999999899021
 30
0.0
 40
6.0
  0
LINE
  8
SIZE
  6
CONTINUOUS
 62
    30
 10
-1200.16411771653
 20
-112.99999999899021
 30
0.0
 11
-1200.16411771653
 21
-124.99999999899021
 31
0.0
  0
TEXT
  8
SIZE
  6
CONTINUOUS
 62
    30
 10
-1225.1641177165291
 20
8.3754892157582645
 30
0.0
 40
64.0
  1
φ258
 50
90.0
 41
0.9
 51
0.0
  7
STANDARD
 71
     0
 72
     1
 11
-1225.1641177165291
 21
123.2874892157583
 31
0.0
210
0.0
220
0.0
230
1.0
  0
POINT
  8
DEFPOINTS
  6
CONTINUOUS
 62
    30
 10
-573.49999999998568
 20
-371.0000000000033
 30
0.0
  0
POINT
  8
DEFPOINTS
  6
CONTINUOUS
 62
    30
 10
-573.49999999998568
 20
-112.99999999899011
 30
0.0
  0
POINT
  8
DEFPOINTS
  6
CONTINUOUS
 62
    30
 10
-1200.16411771653
 20
-112.99999999899021
 30
0.0
  0
LINE
  8
SIZE
  6
CONTINUOUS
 62
    30
 10
-670.80000000000678
 20
-766.99999999999432
 30
0.0
 11
-1097.9784715496521
 21
-766.99999999999443
 31
0.0
  0
LINE
  8
SIZE
  6
CONTINUOUS
 62
    30
 10
-670.80000000000678
 20
-524.99999999999432
 30
0.0
 11
-1097.9784715496521
 21
-524.99999999999443
 31
0.0
  0
LINE
  8
SIZE
  6
CONTINUOUS
 62
    30
 10
-1077.9784715496521
 20
-536.99999999999443
 30
0.0
 11
-1077.9784715496521
 21
-754.99999999999443
 31
0.0
  0
LINE
  8
SIZE
  6
CONTINUOUS
 62
    30
 10
-1077.9784715496521
 20
-766.99999999999443
 30
0.0
 11
-1077.9784715496521
 21
-1051.84268674282
 31
0.0
  0
CIRCLE
  8
SIZE
  6
CONTINUOUS
 62
    30
 10
-1077.9784715496521
 20
-524.99999999999443
 30
0.0
 40
6.0
  0
LINE
  8
SIZE
  6
CONTINUOUS
 62
    30
 10
-1077.9784715496521
 20
-524.99999999999443
 30
0.0
 11
-1077.9784715496521
 21
-536.99999999999443
 31
0.0
  0
CIRCLE
  8
SIZE
  6
CONTINUOUS
 62
    30
 10
-1077.9784715496521
 20
-766.99999999999443
 30
0.0
 40
6.0
  0
LINE
  8
SIZE
  6
CONTINUOUS
 62
    30
 10
-1077.9784715496521
 20
-766.99999999999443
 30
0.0
 11
-1077.9784715496521
 21
-754.99999999999443
 31
0.0
  0
TEXT
  8
SIZE
  6
CONTINUOUS
 62
    30
 10
-1102.9784715496521
 20
-1042.2164010285335
 30
0.0
 40
64.0
  1
φ242
 50
90.0
 41
0.9
 51
0.0
  7
STANDARD
 71
     0
 72
     1
 11
-1102.9784715496521
 21
-926.72840102853343
 31
0.0
210
0.0
220
0.0
230
1.0
  0
POINT
  8
DEFPOINTS
  6
CONTINUOUS
 62
    30
 10
-650.80000000000678
 20
-766.99999999999432
 30
0.0
  0
POINT
  8
DEFPOINTS
  6
CONTINUOUS
 62
    30
 10
-650.80000000000678
 20
-524.99999999999432
 30
0.0
  0
POINT
  8
DEFPOINTS
  6
CONTINUOUS
 62
    30
 10
-1077.9784715496521
 20
-524.99999999999443
 30
0.0
  0
LINE
  8
SIZE
  6
CONTINUOUS
 62
    30
 10
-593.49999999999204
 20
-516.99999999898114
 30
0.0
 11
-1220.164117716527
 21
-516.99999999898125
 31
0.0
  0
LINE
  8
SIZE
  6
CONTINUOUS
 62
    30
 10
-593.49999999999204
 20
-774.99999999999454
 30
0.0
 11
-1220.164117716527
 21
-774.99999999999466
 31
0.0
  0
LINE
  8
SIZE
  6
CONTINUOUS
 62
    30
 10
-1200.164117716527
 20
-528.99999999898125
 30
0.0
 11
-1200.164117716527
 21
-762.99999999999454
 31
0.0
  0
LINE
  8
SIZE
  6
CONTINUOUS
 62
    30
 10
-1200.164117716527
 20
-774.99999999999466
 30
0.0
 11
-1200.164117716527
 21
-1058.4153393006129
 31
0.0
  0
CIRCLE
  8
SIZE
  6
CONTINUOUS
 62
    30
 10
-1200.164117716527
 20
-516.99999999898125
 30
0.0
 40
6.0
  0
LINE
  8
SIZE
  6
CONTINUOUS
 62
    30
 10
-1200.164117716527
 20
-516.99999999898125
 30
0.0
 11
-1200.164117716527
 21
-528.99999999898125
 31
0.0
  0
CIRCLE
  8
SIZE
  6
CONTINUOUS
 62
    30
 10
-1200.164117716527
 20
-774.99999999999466
 30
0.0
 40
6.0
  0
LINE
  8
SIZE
  6
CONTINUOUS
 62
    30
 10
-1200.164117716527
 20
-774.99999999999466
 30
0.0
 11
-1200.164117716527
 21
-762.99999999999466
 31
0.0
  0
TEXT
  8
SIZE
  6
CONTINUOUS
 62
    30
 10
-1225.164117716527
 20
-1048.2130535863264
 30
0.0
 40
64.0
  1
φ258
 50
90.0
 41
0.9
 51
0.0
  7
STANDARD
 71
     0
 72
     1
 11
-1225.164117716527
 21
-933.30105358632636
 31
0.0
210
0.0
220
0.0
230
1.0
  0
POINT
  8
DEFPOINTS
  6
CONTINUOUS
 62
    30
 10
-573.49999999999204
 20
-516.99999999898114
 30
0.0
  0
POINT
  8
DEFPOINTS
  6
CONTINUOUS
 62
    30
 10
-573.49999999999204
 20
-774.99999999999454
 30
0.0
  0
POINT
  8
DEFPOINTS
  6
CONTINUOUS
 62
    30
 10
-1200.164117716527
 20
-774.99999999999466
 30
0.0
  0
POINT
  8
ARRANGE
  6
CONTINUOUS
 62
     1
 10
0.0
 20
0.0
 30
0.0
 50
180.0
  0
CIRCLE
  8
ARRANGE
  6
CONTINUOUS
 62
     1
 10
0.0
 20
0.0
 30
0.0
 40
40.0
  0
LINE
  8
BASIS
  6
DASHDOT
 62
     6
 10
505.00000000000182
 20
-353.99998749999298
 30
0.0
 11
505.00000000000182
 21
-454.00001249998968
 31
0.0
  0
LINE
  8
BASIS
  6
DASHDOT
 62
     6
 10
-504.99999999999642
 20
-353.99998749998889
 30
0.0
 11
-504.99999999999642
 21
-454.00001249998832
 31
0.0
  0
LINE
  8
BASIS
  6
DASHDOT
 62
     6
 10
-555.00001249999696
 20
-403.99999999998857
 30
0.0
 11
-454.99998749999583
 21
-403.99999999998857
 31
0.0
  0
LINE
  8
BASIS
  6
DASHDOT
 62
     6
 10
454.9999875000085
 20
-403.99999999999142
 30
0.0
 11
555.00001249999514
 21
-403.99999999999142
 31
0.0
  0
LINE
  8
SIZE
  6
CONTINUOUS
 62
    30
 10
505.00000000000182
 20
-333.99998749999298
 30
0.0
 11
505.00000000000188
 21
190.79332611844671
 31
0.0
  0
LINE
  8
SIZE
  6
CONTINUOUS
 62
    30
 10
-504.99999999999642
 20
-333.99998749998889
 30
0.0
 11
-504.99999999999631
 21
190.79332611844671
 31
0.0
  0
LINE
  8
SIZE
  6
CONTINUOUS
 62
    30
 10
493.00000000000188
 20
170.79332611844671
 30
0.0
 11
-492.99999999999631
 21
170.79332611844671
 31
0.0
  0
CIRCLE
  8
SIZE
  6
CONTINUOUS
 62
    30
 10
505.00000000000188
 20
170.79332611844671
 30
0.0
 40
6.0
  0
LINE
  8
SIZE
  6
CONTINUOUS
 62
    30
 10
505.00000000000188
 20
170.79332611844671
 30
0.0
 11
493.00000000000188
 21
170.79332611844671
 31
0.0
  0
CIRCLE
  8
SIZE
  6
CONTINUOUS
 62
    30
 10
-504.99999999999631
 20
170.79332611844671
 30
0.0
 40
6.0
  0
LINE
  8
SIZE
  6
CONTINUOUS
 62
    30
 10
-504.99999999999631
 20
170.79332611844671
 30
0.0
 11
-492.99999999999631
 21
170.79332611844671
 31
0.0
  0
TEXT
  8
SIZE
  6
CONTINUOUS
 62
    30
 10
-96.76799999999723
 20
195.79332611844671
 30
0.0
 40
64.0
  1
1010
 50
0.0
 41
0.9
 51
0.0
  7
STANDARD
 71
     0
 72
     1
 11
0.0000000000027853
 21
195.79332611844671
 31
0.0
210
0.0
220
0.0
230
1.0
  0
POINT
  8
DEFPOINTS
  6
CONTINUOUS
 62
    30
 10
505.00000000000182
 20
-353.99998749999298
 30
0.0
  0
POINT
  8
DEFPOINTS
  6
CONTINUOUS
 62
    30
 10
-504.99999999999642
 20
-353.99998749998889
 30
0.0
  0
POINT
  8
DEFPOINTS
  6
CONTINUOUS
 62
    30
 10
-504.99999999999631
 20
170.79332611844671
 30
0.0
  0
CIRCLE
  8
FIX
  6
CONTINUOUS
 62
    11
 10
505.00000000000182
 20
-403.99999999999142
 30
0.0
 40
7.5
  0
CIRCLE
  8
FIX
  6
CONTINUOUS
 62
    11
 10
-504.99999999999642
 20
-403.99999999998857
 30
0.0
 40
7.5
  0
LINE
  8
OUTLINE
  6
CONTINUOUS
 62
     3
 10
570.75
 20
0.0
 30
0.0
 11
565.67127970601723
 21
0.0
 31
0.0
  0
ARC
  8
OUTLINE
  6
CONTINUOUS
 62
     3
 10
565.67127970600029
 20
-1.5999999999812751
 30
0.0
 40
1.5999999999812751
 50
90.0
 51
170.00000000023817
  0
LINE
  8
OUTLINE
  6
CONTINUOUS
 62
     3
 10
564.09558730119807
 20
-1.3221629157239929
 30
0.0
 11
564.00000000001455
 21
-1.864265431275498
 31
0.0
  0
LINE
  8
OUTLINE
  6
CONTINUOUS
 62
     3
 10
564.00000000001455
 20
-1.864265431275498
 30
0.0
 11
564.00000000001455
 21
-0.8000000000033651
 31
0.0
  0
LINE
  8
OUTLINE
  6
CONTINUOUS
 62
     3
 10
564.00000000001455
 20
-0.8000000000033651
 30
0.0
 11
562.6470853920182
 21
-0.8000000000033651
 31
0.0
  0
LINE
  8
OUTLINE
  6
CONTINUOUS
 62
     3
 10
562.6470853920182
 20
-0.8000000000033651
 30
0.0
 11
562.6470853920182
 21
0.0
 31
0.0
  0
LINE
  8
OUTLINE
  6
CONTINUOUS
 62
     3
 10
562.6470853920182
 20
0.0
 30
0.0
 11
-562.64708539198909
 21
0.0
 31
0.0
  0
LINE
  8
OUTLINE
  6
CONTINUOUS
 62
     3
 10
-562.64708539198909
 20
0.0
 30
0.0
 11
-562.64708539198909
 21
-0.8000000000033651
 31
0.0
  0
LINE
  8
OUTLINE
  6
CONTINUOUS
 62
     3
 10
-562.64708539198909
 20
-0.8000000000033651
 30
0.0
 11
-563.99999999998545
 21
-0.8000000000033651
 31
0.0
  0
LINE
  8
OUTLINE
  6
CONTINUOUS
 62
     3
 10
-563.99999999998545
 20
-0.8000000000033651
 30
0.0
 11
-563.99999999998636
 21
-1.8642654312807281
 31
0.0
  0
LINE
  8
OUTLINE
  6
CONTINUOUS
 62
     3
 10
-563.99999999998636
 20
-1.8642654312807281
 30
0.0
 11
-564.09558729997661
 21
-1.3221629159957049
 31
0.0
  0
ARC
  8
OUTLINE
  6
CONTINUOUS
 62
     3
 10
-565.67127970331876
 20
-1.5999999981736899
 30
0.0
 40
1.5999999981823301
 50
9.9999999355129034
 51
90.0
  0
LINE
  8
OUTLINE
  6
CONTINUOUS
 62
     3
 10
-565.67127970397996
 20
0.0000000000086402
 30
0.0
 11
-570.74999999998545
 21
0.0
 31
0.0
  0
ARC
  8
OUTLINE
  6
CONTINUOUS
 62
     3
 10
-570.74999999998545
 20
-1.050000000003138
 30
0.0
 40
1.050000000003138
 50
90.0
 51
270.0
  0
LINE
  8
OUTLINE
  6
CONTINUOUS
 62
     3
 10
-570.74999999998545
 20
-2.100000000006276
 30
0.0
 11
-567.49999999998545
 21
-2.100000000006276
 31
0.0
  0
LINE
  8
OUTLINE
  6
CONTINUOUS
 62
     3
 10
-567.49999999998545
 20
-2.100000000006276
 30
0.0
 11
-567.49999999998545
 21
-1.3000000000029099
 31
0.0
  0
LINE
  8
OUTLINE
  6
CONTINUOUS
 62
     3
 10
-567.49999999998545
 20
-1.3000000000029099
 30
0.0
 11
-565.99999999998545
 21
-1.3000000000029099
 31
0.0
  0
ARC
  8
OUTLINE
  6
CONTINUOUS
 62
     3
 10
-565.9999999999751
 20
-1.7999999999780585
 30
0.0
 40
0.4999999999751486
 50
0.0
 51
90.0
  0
LINE
  8
OUTLINE
  6
CONTINUOUS
 62
     3
 10
-565.5
 20
-1.8000000000029099
 30
0.0
 11
-565.5
 21
-2.8000000000033651
 31
0.0
  0
LINE
  8
OUTLINE
  6
CONTINUOUS
 62
     3
 10
-565.5
 20
-2.8000000000033651
 30
0.0
 11
-565.99999999998545
 21
-2.8000000000033651
 31
0.0
  0
LINE
  8
OUTLINE
  6
CONTINUOUS
 62
     3
 10
-565.99999999998545
 20
-2.8000000000033651
 30
0.0
 11
-565.99999999998545
 21
-99.50000000001728
 31
0.0
  0
LINE
  8
OUTLINE
  6
CONTINUOUS
 62
     3
 10
-565.99999999998545
 20
-99.50000000001728
 30
0.0
 11
-566.30000000000291
 21
-99.50000000001728
 31
0.0
  0
LINE
  8
OUTLINE
  6
CONTINUOUS
 62
     3
 10
-566.30000000000291
 20
-99.50000000001728
 30
0.0
 11
-566.30000000000291
 21
-113.0000000000032
 31
0.0
  0
LINE
  8
OUTLINE
  6
CONTINUOUS
 62
     3
 10
-566.30000000000291
 20
-113.0000000000032
 30
0.0
 11
-573.50000000876207
 21
-113.0000000000032
 31
0.0
  0
LINE
  8
OUTLINE
  6
CONTINUOUS
 62
     3
 10
-573.50000000876207
 20
-113.0000000000032
 30
0.0
 11
-642.79999999998563
 21
-121.0000000000032
 31
0.0
  0
LINE
  8
OUTLINE
  6
CONTINUOUS
 62
     3
 10
-642.79999999998563
 20
-121.0000000000032
 30
0.0
 11
-650.80000000000018
 21
-121.0000000000032
 31
0.0
  0
LINE
  8
OUTLINE
  6
CONTINUOUS
 62
     3
 10
-650.80000000000018
 20
-121.0000000000032
 30
0.0
 11
-650.80000000000018
 21
-363.00000000000318
 31
0.0
  0
LINE
  8
OUTLINE
  6
CONTINUOUS
 62
     3
 10
-650.80000000000018
 20
-363.00000000000318
 30
0.0
 11
-642.79999999998654
 21
-363.00000000000318
 31
0.0
  0
LINE
  8
OUTLINE
  6
CONTINUOUS
 62
     3
 10
-642.79999999998654
 20
-363.00000000000318
 30
0.0
 11
-573.49999999998636
 21
-371.00000000000318
 31
0.0
  0
LINE
  8
OUTLINE
  6
CONTINUOUS
 62
     3
 10
-573.49999999998636
 20
-371.00000000000318
 30
0.0
 11
-566.30000000000291
 21
-371.00000000000318
 31
0.0
  0
LINE
  8
OUTLINE
  6
CONTINUOUS
 62
     3
 10
-566.30000000000291
 20
-371.00000000000318
 30
0.0
 11
-566.30000000000291
 21
-384.50000000000318
 31
0.0
  0
LINE
  8
OUTLINE
  6
CONTINUOUS
 62
     3
 10
-566.30000000000291
 20
-384.50000000000318
 30
0.0
 11
-565.99999999998545
 21
-384.50000000000318
 31
0.0
  0
LINE
  8
OUTLINE
  6
CONTINUOUS
 62
     3
 10
-565.99999999998545
 20
-384.50000000000318
 30
0.0
 11
-565.99999999998545
 21
-401.20000000000249
 31
0.0
  0
LINE
  8
OUTLINE
  6
CONTINUOUS
 62
     3
 10
-565.99999999998545
 20
-401.20000000000249
 30
0.0
 11
-565.5
 21
-401.20000000000249
 31
0.0
  0
LINE
  8
OUTLINE
  6
CONTINUOUS
 62
     3
 10
-565.5
 20
-401.20000000000249
 30
0.0
 11
-565.5
 21
-402.200000000003
 31
0.0
  0
ARC
  8
OUTLINE
  6
CONTINUOUS
 62
     3
 10
-565.99999999997533
 20
-402.20000000002767
 30
0.0
 40
0.4999999999753427
 50
270.0
 51
0.0
  0
LINE
  8
OUTLINE
  6
CONTINUOUS
 62
     3
 10
-565.99999999998545
 20
-402.700000000003
 30
0.0
 11
-567.49999999998545
 21
-402.700000000003
 31
0.0
  0
LINE
  8
OUTLINE
  6
CONTINUOUS
 62
     3
 10
-567.49999999998545
 20
-402.700000000003
 30
0.0
 11
-567.49999999998545
 21
-401.90000000001459
 31
0.0
  0
LINE
  8
OUTLINE
  6
CONTINUOUS
 62
     3
 10
-567.49999999998545
 20
-401.90000000001459
 30
0.0
 11
-570.74999999998545
 21
-401.90000000001459
 31
0.0
  0
ARC
  8
OUTLINE
  6
CONTINUOUS
 62
     3
 10
-570.74999999998545
 20
-402.95000000000863
 30
0.0
 40
1.0499999999940428
 50
90.0
 51
270.0
  0
ARC
  8
OUTLINE
  6
CONTINUOUS
 62
     3
 10
-570.74999999998545
 20
-405.04999999999995
 30
0.0
 40
1.0499999999972547
 50
90.0
 51
270.0
  0
LINE
  8
OUTLINE
  6
CONTINUOUS
 62
     3
 10
-570.74999999998545
 20
-406.09999999999718
 30
0.0
 11
-567.49999999998545
 21
-406.09999999999718
 31
0.0
  0
LINE
  8
OUTLINE
  6
CONTINUOUS
 62
     3
 10
-567.49999999998545
 20
-406.09999999999718
 30
0.0
 11
-567.49999999998545
 21
-405.29999999999382
 31
0.0
  0
LINE
  8
OUTLINE
  6
CONTINUOUS
 62
     3
 10
-567.49999999998545
 20
-405.29999999999382
 30
0.0
 11
-565.99999999998545
 21
-405.29999999999382
 31
0.0
  0
ARC
  8
OUTLINE
  6
CONTINUOUS
 62
     3
 10
-565.99999999998602
 20
-405.79999999999438
 30
0.0
 40
0.5000000000005724
 50
0.0
 51
90.0
  0
LINE
  8
OUTLINE
  6
CONTINUOUS
 62
     3
 10
-565.49999999998545
 20
-405.79999999999433
 30
0.0
 11
-565.5
 21
-406.79999999999433
 31
0.0
  0
LINE
  8
OUTLINE
  6
CONTINUOUS
 62
     3
 10
-565.5
 20
-406.79999999999433
 30
0.0
 11
-565.99999999998545
 21
-406.79999999999433
 31
0.0
  0
LINE
  8
OUTLINE
  6
CONTINUOUS
 62
     3
 10
-565.99999999998545
 20
-406.79999999999433
 30
0.0
 11
-565.99999999998545
 21
-503.50000000000819
 31
0.0
  0
LINE
  8
OUTLINE
  6
CONTINUOUS
 62
     3
 10
-565.99999999998545
 20
-503.50000000000819
 30
0.0
 11
-566.30000000000291
 21
-503.50000000000819
 31
0.0
  0
LINE
  8
OUTLINE
  6
CONTINUOUS
 62
     3
 10
-566.30000000000291
 20
-503.50000000000819
 30
0.0
 11
-566.30000000000291
 21
-516.99999999999409
 31
0.0
  0
LINE
  8
OUTLINE
  6
CONTINUOUS
 62
     3
 10
-566.30000000000291
 20
-516.99999999999409
 30
0.0
 11
-573.50000000876844
 21
-516.99999999999409
 31
0.0
  0
LINE
  8
OUTLINE
  6
CONTINUOUS
 62
     3
 10
-573.50000000876844
 20
-516.99999999999409
 30
0.0
 11
-642.79999999999109
 21
-524.99999999999409
 31
0.0
  0
LINE
  8
OUTLINE
  6
CONTINUOUS
 62
     3
 10
-642.79999999999109
 20
-524.99999999999409
 30
0.0
 11
-650.80000000000655
 21
-524.99999999999409
 31
0.0
  0
LINE
  8
OUTLINE
  6
CONTINUOUS
 62
     3
 10
-650.80000000000655
 20
-524.99999999999409
 30
0.0
 11
-650.80000000000655
 21
-766.99999999999409
 31
0.0
  0
LINE
  8
OUTLINE
  6
CONTINUOUS
 62
     3
 10
-650.80000000000655
 20
-766.99999999999409
 30
0.0
 11
-642.799999999992
 21
-766.99999999999409
 31
0.0
  0
LINE
  8
OUTLINE
  6
CONTINUOUS
 62
     3
 10
-642.799999999992
 20
-766.99999999999409
 30
0.0
 11
-573.49999999999181
 21
-774.99999999999409
 31
0.0
  0
LINE
  8
OUTLINE
  6
CONTINUOUS
 62
     3
 10
-573.49999999999181
 20
-774.99999999999409
 30
0.0
 11
-566.30000000000291
 21
-774.99999999999409
 31
0.0
  0
LINE
  8
OUTLINE
  6
CONTINUOUS
 62
     3
 10
-566.30000000000291
 20
-774.99999999999409
 30
0.0
 11
-566.30000000000291
 21
-788.49999999999409
 31
0.0
  0
LINE
  8
OUTLINE
  6
CONTINUOUS
 62
     3
 10
-566.30000000000291
 20
-788.49999999999409
 30
0.0
 11
-565.99999999998545
 21
-788.49999999999409
 31
0.0
  0
LINE
  8
OUTLINE
  6
CONTINUOUS
 62
     3
 10
-565.99999999998545
 20
-788.49999999999409
 30
0.0
 11
-565.99999999998545
 21
-805.19999999999345
 31
0.0
  0
LINE
  8
OUTLINE
  6
CONTINUOUS
 62
     3
 10
-565.99999999998545
 20
-805.19999999999345
 30
0.0
 11
-565.5
 21
-805.19999999999345
 31
0.0
  0
LINE
  8
OUTLINE
  6
CONTINUOUS
 62
     3
 10
-565.5
 20
-805.19999999999345
 30
0.0
 11
-565.5
 21
-806.19999999999436
 31
0.0
  0
ARC
  8
OUTLINE
  6
CONTINUOUS
 62
     3
 10
-565.9999999999751
 20
-806.20000000001926
 30
0.0
 40
0.4999999999751486
 50
270.0
 51
0.0
  0
LINE
  8
OUTLINE
  6
CONTINUOUS
 62
     3
 10
-565.99999999998545
 20
-806.69999999999436
 30
0.0
 11
-567.49999999998545
 21
-806.69999999999345
 31
0.0
  0
LINE
  8
OUTLINE
  6
CONTINUOUS
 62
     3
 10
-567.49999999998545
 20
-806.69999999999345
 30
0.0
 11
-567.49999999998545
 21
-805.90000000000509
 31
0.0
  0
LINE
  8
OUTLINE
  6
CONTINUOUS
 62
     3
 10
-567.49999999998545
 20
-805.90000000000509
 30
0.0
 11
-570.74999999998545
 21
-805.90000000000509
 31
0.0
  0
ARC
  8
OUTLINE
  6
CONTINUOUS
 62
     3
 10
-570.74999999998545
 20
-806.94999999999982
 30
0.0
 40
1.0499999999947249
 50
90.0
 51
270.0
  0
LINE
  8
OUTLINE
  6
CONTINUOUS
 62
     3
 10
-570.74999999998545
 20
-807.99999999999454
 30
0.0
 11
-565.67127970397996
 21
-807.99999999998226
 31
0.0
  0
ARC
  8
OUTLINE
  6
CONTINUOUS
 62
     3
 10
-565.67127970396393
 20
-806.40000000000009
 30
0.0
 40
1.5999999999821632
 50
270.0
 51
350.00000000023624
  0
LINE
  8
OUTLINE
  6
CONTINUOUS
 62
     3
 10
-564.0955872991608
 20
-806.67783708425759
 30
0.0
 11
-564.01099003599666
 21
-806.19806216000507
 31
0.0
  0
LINE
  8
OUTLINE
  6
CONTINUOUS
 62
     3
 10
-564.01099003599666
 20
-806.19806216000507
 30
0.0
 11
-563.99999999998545
 21
-807.19999999999436
 31
0.0
  0
LINE
  8
OUTLINE
  6
CONTINUOUS
 62
     3
 10
-563.99999999998545
 20
-807.19999999999436
 30
0.0
 11
-562.59999999999127
 21
-807.19999999999436
 31
0.0
  0
LINE
  8
OUTLINE
  6
CONTINUOUS
 62
     3
 10
-562.59999999999127
 20
-807.19999999999436
 30
0.0
 11
-562.59999999999127
 21
-807.99999999998226
 31
0.0
  0
LINE
  8
OUTLINE
  6
CONTINUOUS
 62
     3
 10
-562.59999999999127
 20
-807.99999999998226
 30
0.0
 11
562.60000000002037
 21
-807.99999999998226
 31
0.0
  0
LINE
  8
OUTLINE
  6
CONTINUOUS
 62
     3
 10
562.60000000002037
 20
-807.99999999998226
 30
0.0
 11
562.60000000002037
 21
-807.19999999999436
 31
0.0
  0
LINE
  8
OUTLINE
  6
CONTINUOUS
 62
     3
 10
562.60000000002037
 20
-807.19999999999436
 30
0.0
 11
564.00000000001455
 21
-807.19999999999436
 31
0.0
  0
LINE
  8
OUTLINE
  6
CONTINUOUS
 62
     3
 10
564.00000000001455
 20
-807.19999999999436
 30
0.0
 11
564.00000000001364
 21
-806.13573456873655
 31
0.0
  0
LINE
  8
OUTLINE
  6
CONTINUOUS
 62
     3
 10
564.00000000001364
 20
-806.13573456873655
 30
0.0
 11
564.09558730000572
 21
-806.67783708398611
 31
0.0
  0
ARC
  8
OUTLINE
  6
CONTINUOUS
 62
     3
 10
565.67127970687761
 20
-806.39999999759175
 30
0.0
 40
1.6000000023905467
 50
190.00000006225764
 51
270.0
  0
LINE
  8
OUTLINE
  6
CONTINUOUS
 62
     3
 10
565.67127970601723
 20
-807.99999999998226
 30
0.0
 11
570.75
 21
-807.99999999998226
 31
0.0
  0
ARC
  8
OUTLINE
  6
CONTINUOUS
 62
     3
 10
570.75
 20
-806.94999999999368
 30
0.0
 40
1.0499999999885858
 50
270.0
 51
90.0
  0
LINE
  8
OUTLINE
  6
CONTINUOUS
 62
     3
 10
570.75
 20
-805.90000000000509
 30
0.0
 11
567.50000000001455
 21
-805.90000000000509
 31
0.0
  0
LINE
  8
OUTLINE
  6
CONTINUOUS
 62
     3
 10
567.50000000001455
 20
-805.90000000000509
 30
0.0
 11
567.50000000001455
 21
-806.69999999999345
 31
0.0
  0
LINE
  8
OUTLINE
  6
CONTINUOUS
 62
     3
 10
567.50000000001455
 20
-806.69999999999345
 30
0.0
 11
566.00000000001455
 21
-806.69999999999345
 31
0.0
  0
ARC
  8
OUTLINE
  6
CONTINUOUS
 62
     3
 10
566.00000000001319
 20
-806.19999999999482
 30
0.0
 40
0.4999999999986317
 50
180.0
 51
270.0
  0
LINE
  8
OUTLINE
  6
CONTINUOUS
 62
     3
 10
565.50000000001455
 20
-806.19999999999436
 30
0.0
 11
565.50000000001455
 21
-805.19999999999345
 31
0.0
  0
LINE
  8
OUTLINE
  6
CONTINUOUS
 62
     3
 10
565.50000000001455
 20
-805.19999999999345
 30
0.0
 11
566.00000000001455
 21
-805.19999999999345
 31
0.0
  0
LINE
  8
OUTLINE
  6
CONTINUOUS
 62
     3
 10
566.00000000001455
 20
-805.19999999999345
 30
0.0
 11
566.00000000001455
 21
-793.99999152871806
 31
0.0
  0
LINE
  8
OUTLINE
  6
CONTINUOUS
 62
     3
 10
566.00000000001455
 20
-793.99999152871806
 30
0.0
 11
615.79998590094601
 21
-793.99999152871806
 31
0.0
  0
LINE
  8
OUTLINE
  6
CONTINUOUS
 62
     3
 10
615.79998590094601
 20
-793.99999152871806
 30
0.0
 11
615.79998590094601
 21
-93.999991528718283
 31
0.0
  0
LINE
  8
OUTLINE
  6
CONTINUOUS
 62
     3
 10
615.79998590094601
 20
-93.999991528718283
 30
0.0
 11
566.00000000001455
 21
-93.999991528718283
 31
0.0
  0
LINE
  8
OUTLINE
  6
CONTINUOUS
 62
     3
 10
566.00000000001455
 20
-93.999991528718283
 30
0.0
 11
566.00000000001455
 21
-2.8000000000033651
 31
0.0
  0
LINE
  8
OUTLINE
  6
CONTINUOUS
 62
     3
 10
566.00000000001455
 20
-2.8000000000033651
 30
0.0
 11
565.50000000001455
 21
-2.8000000000033651
 31
0.0
  0
LINE
  8
OUTLINE
  6
CONTINUOUS
 62
     3
 10
565.50000000001455
 20
-2.8000000000033651
 30
0.0
 11
565.50000000001455
 21
-1.8000000000029099
 31
0.0
  0
ARC
  8
OUTLINE
  6
CONTINUOUS
 62
     3
 10
566.00000000001432
 20
-1.8000000000027061
 30
0.0
 40
0.4999999999997962
 50
90.0
 51
180.0
  0
LINE
  8
OUTLINE
  6
CONTINUOUS
 62
     3
 10
566.00000000001455
 20
-1.3000000000029099
 30
0.0
 11
567.50000000001455
 21
-1.3000000000029099
 31
0.0
  0
LINE
  8
OUTLINE
  6
CONTINUOUS
 62
     3
 10
567.50000000001455
 20
-1.3000000000029099
 30
0.0
 11
567.50000000001455
 21
-2.100000000006276
 31
0.0
  0
LINE
  8
OUTLINE
  6
CONTINUOUS
 62
     3
 10
567.50000000001455
 20
-2.100000000006276
 30
0.0
 11
570.74999997940449
 21
-2.1000000000028649
 31
0.0
  0
ARC
  8
OUTLINE
  6
CONTINUOUS
 62
     3
 10
570.74999999999818
 20
-1.0500000000014327
 30
0.0
 40
1.0500000000014325
 50
270.0
 51
90.0
  0
TEXT
  8
ETC
  6
CONTINUOUS
 62
    61
 10
743.34289551417987
 20
471.5173722910763
 30
0.0
 40
64.065641025638456
  1
LGH-160RVX3-E_4
 41
0.9
  0
TEXT
  8
ETC
  6
CONTINUOUS
 62
    61
 10
739.15260818700062
 20
353.44108247110631
 30
0.0
 40
64.065641025638456
  1
LOSSNAY
 41
0.9
  0
TEXT
  8
ETC
  6
CONTINUOUS
 62
    61
 10
789.90600786965297
 20
245.18138776653953
 30
0.0
 40
40.041025641024042
  1
LGH-160RVX3-E
 50
0.0
 41
0.9
 51
0.0
  7
STANDARD
 71
     0
 11
0.0
 21
0.0
 31
0.0
210
0.0
220
0.0
230
1.0
  0
TEXT
  8
NOTE
  6
CONTINUOUS
 62
     4
 10
-844.65753618133465
 20
-272.6435106681879
 30
0.0
 40
64.065641025638456
  1
RA1
 41
0.9
  0
TEXT
  8
NOTE
  6
CONTINUOUS
 62
     4
 10
-844.65753618133465
 20
-674.19785469377302
 30
0.0
 40
64.065641025638456
  1
RA2
 41
0.9
  0
TEXT
  8
NOTE
  6
CONTINUOUS
 62
     4
 10
690.00153883470477
 20
-483.72728572142393
 30
0.0
 40
64.065641025638456
  1
EA
 41
0.9
  0
CIRCLE
  8
DETAIL
  6
CONTINUOUS
 62
     5
 10
-532.79999999998836
 20
-380.19999999998839
 30
0.0
 40
6.9999999999999956
  0
TEXT
  8
NOTE
  6
CONTINUOUS
 62
     4
 10
-198.45153068883701
 20
-937.31653861317864
 30
0.0
 40
69.0
  1
Ceiling suspension fixture
 50
0.0
 41
0.9
 51
0.0
  7
STANDARD
 71
     0
 11
0.0
 21
0.0
 31
0.0
210
0.0
220
0.0
230
1.0
  0
TEXT
  8
NOTE
  6
CONTINUOUS
 62
     4
 10
-198.45153068883701
 20
-1051.1665386131785
 30
0.0
 40
69.0
  1
(4-15X30 oval)
 50
0.0
 41
0.9
 51
0.0
  7
STANDARD
 71
     0
 11
0.0
 21
0.0
 31
0.0
210
0.0
220
0.0
230
1.0
  0
LINE
  8
NOTE
  6
CONTINUOUS
 62
     4
 10
-208.45153068883701
 20
-1088.459395756036
 30
0.0
 11
1008.062755025448
 21
-1088.459395756036
 31
0.0
  0
LINE
  8
NOTE
  6
CONTINUOUS
 62
     4
 10
-500.13468398598565
 20
-439.90654916788145
 30
0.0
 11
-504.99999999999642
 21
-403.99999999998857
 31
0.0
  0
LINE
  8
NOTE
  6
CONTINUOUS
 62
     4
 10
-504.99999999999642
 20
-403.99999999998857
 30
0.0
 11
-482.8331949564834
 21
-432.66329233051795
 31
0.0
  0
LINE
  8
NOTE
  6
CONTINUOUS
 62
     4
 10
-504.99999999999642
 20
-403.99999999998857
 30
0.0
 11
-477.96787894247257
 21
-468.56984149841088
 31
0.0
  0
LINE
  8
NOTE
  6
CONTINUOUS
 62
     4
 10
-477.96787894247251
 20
-468.56984149841088
 30
0.0
 11
-218.45153068883701
 21
-1088.459395756036
 31
0.0
  0
LINE
  8
NOTE
  6
CONTINUOUS
 62
     4
 10
-218.45153068883701
 20
-1088.459395756036
 30
0.0
 11
-208.45153068883701
 21
-1088.459395756036
 31
0.0
  0
ENDSEC
  0
EOF
