  0
SECTION
  2
HEADER
  9
$ACADVER
  1
AC1009
  9
$DWGCODEPAGE
  3
dos932
  9
$INSBASE
 10
0.0
 20
0.0
 30
0.0
  9
$EXTMIN
 10
-713.31480287867089
 20
-975.4028209431599
 30
-0.0000000000112498
  9
$EXTMAX
 10
2472.583021063569
 20
848.83118508014741
 30
0.0000000000002956
  9
$LIMMIN
 10
-2970.0
 20
-2100.0
  9
$LIMMAX
 10
2970.0
 20
2100.0
  9
$ORTHOMODE
 70
     1
  9
$REGENMODE
 70
     1
  9
$FILLMODE
 70
     1
  9
$QTEXTMODE
 70
     0
  9
$MIRRTEXT
 70
     0
  9
$LTSCALE
 40
20.0
  9
$ATTMODE
 70
     1
  9
$TEXTSIZE
 40
64.0
  9
$TRACEWID
 40
0.05
  9
$TEXTSTYLE
  7
STANDARD
  9
$CLAYER
  8
SIZE
  9
$CELTYPE
  6
CONTINUOUS
  9
$CECOLOR
 62
     7
  9
$DIMSCALE
 40
1.0
  9
$DIMASZ
 40
12.0
  9
$DIMEXO
 40
20.0
  9
$DIMDLI
 40
200.0
  9
$DIMRND
 40
0.0
  9
$DIMDLE
 40
0.0
  9
$DIMEXE
 40
20.0
  9
$DIMTP
 40
0.0
  9
$DIMTM
 40
0.0
  9
$DIMTXT
 40
64.0
  9
$DIMCEN
 40
0.09
  9
$DIMTSZ
 40
0.0
  9
$DIMTOL
 70
     0
  9
$DIMLIM
 70
     0
  9
$DIMTIH
 70
     0
  9
$DIMTOH
 70
     0
  9
$DIMSE1
 70
     0
  9
$DIMSE2
 70
     0
  9
$DIMTAD
 70
     1
  9
$DIMZIN
 70
     8
  9
$DIMBLK
  1

  9
$DIMASO
 70
     1
  9
$DIMSHO
 70
     0
  9
$DIMPOST
  1

  9
$DIMAPOST
  1

  9
$DIMALT
 70
     0
  9
$DIMALTD
 70
     2
  9
$DIMALTF
 40
25.399999999999999
  9
$DIMLFAC
 40
1.0
  9
$DIMTOFL
 70
     1
  9
$DIMTVP
 40
0.0
  9
$DIMTIX
 70
     1
  9
$DIMSOXD
 70
     0
  9
$DIMSAH
 70
     0
  9
$DIMBLK1
  1

  9
$DIMBLK2
  1

  9
$DIMSTYLE
  2
STANDARD
  9
$DIMCLRD
 70
     7
  9
$DIMCLRE
 70
     7
  9
$DIMCLRT
 70
     7
  9
$DIMTFAC
 40
1.0
  9
$DIMGAP
 40
25.0
  9
$LUNITS
 70
     2
  9
$LUPREC
 70
     4
  9
$SKETCHINC
 40
0.1
  9
$FILLETRAD
 40
3.0
  9
$AUNITS
 70
     1
  9
$AUPREC
 70
     3
  9
$MENU
  1
ACAD
  9
$ELEVATION
 40
0.0
  9
$PELEVATION
 40
0.0
  9
$THICKNESS
 40
0.0
  9
$LIMCHECK
 70
     0
  9
$CHAMFERA
 40
0.0
  9
$CHAMFERB
 40
0.0
  9
$SKPOLY
 70
     0
  9
$TDCREATE
 40
2453019.62301037
  9
$TDUPDATE
 40
2460045.429519444
  9
$TDINDWG
 40
1.7151895949
  9
$TDUSRTIMER
 40
1.7151895949
  9
$USRTIMER
 70
     1
  9
$ANGBASE
 50
0.0
  9
$ANGDIR
 70
     0
  9
$PDMODE
 70
     3
  9
$PDSIZE
 40
-2.0
  9
$PLINEWID
 40
0.0
  9
$SPLFRAME
 70
     0
  9
$SPLINETYPE
 70
     6
  9
$SPLINESEGS
 70
     8
  9
$SURFTAB1
 70
     6
  9
$SURFTAB2
 70
     6
  9
$SURFTYPE
 70
     6
  9
$SURFU
 70
     6
  9
$SURFV
 70
     6
  9
$UCSNAME
  2

  9
$UCSORG
 10
0.0
 20
0.0
 30
0.0
  9
$UCSXDIR
 10
1.0
 20
0.0
 30
0.0
  9
$UCSYDIR
 10
0.0
 20
1.0
 30
0.0
  9
$PUCSNAME
  2

  9
$PUCSORG
 10
0.0
 20
0.0
 30
0.0
  9
$PUCSXDIR
 10
1.0
 20
0.0
 30
0.0
  9
$PUCSYDIR
 10
0.0
 20
1.0
 30
0.0
  9
$USERI1
 70
     0
  9
$USERI2
 70
     0
  9
$USERI3
 70
     0
  9
$USERI4
 70
     0
  9
$USERI5
 70
     0
  9
$USERR1
 40
20.0
  9
$USERR2
 40
0.0
  9
$USERR3
 40
0.0
  9
$USERR4
 40
0.0
  9
$USERR5
 40
0.0
  9
$WORLDVIEW
 70
     1
  9
$SHADEDGE
 70
     3
  9
$SHADEDIF
 70
    70
  9
$TILEMODE
 70
     1
  9
$MAXACTVP
 70
    48
  9
$PINSBASE
 10
0.0
 20
0.0
 30
0.0
  9
$PLIMCHECK
 70
     0
  9
$PEXTMIN
 10
-100000000000000000000.0
 20
-100000000000000000000.0
 30
-100000000000000000000.0
  9
$PEXTMAX
 10
100000000000000000000.0
 20
100000000000000000000.0
 30
100000000000000000000.0
  9
$PLIMMIN
 10
0.0
 20
0.0
  9
$PLIMMAX
 10
12.0
 20
9.0
  9
$UNITMODE
 70
     0
  9
$VISRETAIN
 70
     0
  9
$PLINEGEN
 70
     0
  9
$PSLTSCALE
 70
     0
  9
$TREEDEPTH
 70
  3020
  9
$ATTDIA
 70
     0
  9
$ATTREQ
 70
     1
  9
$BLIPMODE
 70
     1
  9
$COORDS
 70
     1
  9
$DRAGMODE
 70
     2
  9
$OSMODE
 70
     0
  9
$HANDLING
 70
     0
  9
$HANDSEED
  5
100A9
  0
ENDSEC
  0
SECTION
  2
TABLES
  0
TABLE
  2
LTYPE
 70
     2
  0
LTYPE
  2
CONTINUOUS
 70
     0
  3
実線
 72
    65
 73
     0
 40
0.0
  0
LTYPE
  2
DASHDOT
 70
     0
  3
____ _ ____ _ ____ _ ____ _ ____ _ ____ _ ____
 72
    65
 73
     4
 40
5.5
 49
4.0
 49
-0.6
 49
0.3
 49
-0.6
  0
ENDTAB
  0
TABLE
  2
LAYER
 70
    12
  0
LAYER
  2
0
 70
     0
 62
     7
  6
CONTINUOUS
  0
LAYER
  2
BASIS
 70
     0
 62
     6
  6
DASHDOT
  0
LAYER
  2
OUTLINE
 70
     0
 62
     3
  6
CONTINUOUS
  0
LAYER
  2
DETAIL
 70
     0
 62
     5
  6
CONTINUOUS
  0
LAYER
  2
SIZE
 70
     0
 62
    30
  6
CONTINUOUS
  0
LAYER
  2
ARRANGE
 70
     0
 62
     1
  6
CONTINUOUS
  0
LAYER
  2
DEFPOINTS
 70
     0
 62
     7
  6
CONTINUOUS
  0
LAYER
  2
ETC
 70
     0
 62
    61
  6
CONTINUOUS
  0
LAYER
  2
FIX
 70
     0
 62
    11
  6
CONTINUOUS
  0
LAYER
  2
NOTE
 70
     0
 62
     4
  6
CONTINUOUS
  0
LAYER
  2
SERVICESPACE
 70
    64
 62
     2
  6
DASHDOT
  0
LAYER
  2
SYMBOLLINE
 70
    64
 62
    15
  6
CONTINUOUS
  0
ENDTAB
  0
TABLE
  2
STYLE
 70
     1
  0
STYLE
  2
STANDARD
 70
     0
 40
64.0
 41
0.9
 50
0.0
 71
     0
 42
64.0
  3
SIMPLEX.shx
  4
BIGFONT.shx
  0
ENDTAB
  0
TABLE
  2
APPID
 70
    20
  0
APPID
  2
ACAD
 70
     0
  0
APPID
  2
AUTOCAD_POSTSCRIPT_FIGURE
 70
     0
  0
APPID
  2
ACAD_EXEMPT_FROM_CAD_STANDARDS
 70
     0
  0
APPID
  2
ACAD_PSEXT
 70
     0
  0
APPID
  2
ACAUTHENVIRON
 70
     0
  0
APPID
  2
GENIUS_GENOENT_13
 70
     0
  0
APPID
  2
GENIUS_GENCFG_13
 70
     0
  0
APPID
  2
GENIUS_GENCFG0_13
 70
     0
  0
APPID
  2
GENIUS_GENCFG1_13
 70
     0
  0
APPID
  2
GENIUS_GENCFG2_13
 70
     0
  0
APPID
  2
GENIUS_GENCFG3_13
 70
     0
  0
APPID
  2
GENIUS_GENCFG4_13
 70
     0
  0
APPID
  2
GENIUS_GEVCFG0_13
 70
     0
  0
APPID
  2
CONTENTBLOCKICON
 70
     0
  0
APPID
  2
CONTENTBLOCKDESCRIPTION
 70
     0
  0
APPID
  2
ACAD_NAV_VCDISPLAY
 70
     0
  0
APPID
  2
ACAD_MLEADERVER
 70
     0
  0
APPID
  2
ACDBDYNAMICBLOCKTRUENAME
 70
     0
  0
APPID
  2
ACDBDYNAMICBLOCKGUID
 70
     0
  0
APPID
  2
ACAD_DSTYLE_DIMRADIAL_EXTENSION
 70
     0
  0
ENDTAB
  0
TABLE
  2
DIMSTYLE
 70
     1
  0
DIMSTYLE
  2
STANDARD
 70
     0
  3

  4

  5
_ORIGIN
  6

  7

 40
1.0
 41
12.0
 42
20.0
 43
200.0
 44
20.0
 45
0.0
 46
0.0
 47
0.0
 48
0.0
140
64.0
141
0.09
142
0.0
143
25.399999999999999
144
1.0
145
0.0
146
1.0
147
25.0
 71
     0
 72
     0
 73
     0
 74
     0
 75
     0
 76
     0
 77
     1
 78
     8
170
     0
171
     2
172
     1
173
     0
174
     1
175
     0
176
     7
177
     7
178
     7
  0
ENDTAB
  0
TABLE
  2
VIEW
 70
     1
  0
VIEW
  2
ALL
 70
     0
 40
4282.6198079999986
 10
0.0
 20
41.309904000000003
 41
5940.0
 11
0.0
 21
0.0
 31
1.0
 12
0.0
 22
0.0
 32
0.0
 42
50.0
 43
0.0
 44
0.0
 50
0.0
 71
     0
  0
ENDTAB
  0
TABLE
  2
UCS
 70
     0
  0
ENDTAB
  0
TABLE
  2
VPORT
 70
     1
  0
VPORT
  2
*ACTIVE
 70
     0
 10
0.0
 20
0.0
 11
1.0
 21
1.0
 12
879.63410909244885
 22
-63.285817931506237
 13
0.0
 23
0.0
 14
1.0
 24
1.0
 15
0.0
 25
0.0
 16
0.0
 26
0.0
 36
1.0
 17
0.0
 27
0.0
 37
0.0
 40
1836.559911469411
 41
1.781285231116122
 42
50.0
 43
0.0
 44
0.0
 50
0.0
 51
0.0
 71
     0
 72
  1000
 73
     1
 74
     3
 75
     0
 76
     0
 77
     0
 78
     0
  0
ENDTAB
  0
ENDSEC
  0
SECTION
  2
BLOCKS
  0
BLOCK
  8
0
  2
_ORIGIN
 70
     0
 10
0.0
 20
0.0
 30
0.0
  3
_ORIGIN
  1
_ORIGIN
  0
CIRCLE
  8
0
  6
CONTINUOUS
 62
     7
 10
0.0
 20
0.0
 30
0.0
 40
0.5
  0
LINE
  8
0
  6
CONTINUOUS
 62
     7
 10
0.0
 20
0.0
 30
0.0
 11
-1.0
 21
0.0
 31
0.0
  0
ENDBLK
  8
0
  0
ENDSEC
  0
SECTION
  2
ENTITIES
  0
LINE
  8
DETAIL
  6
CONTINUOUS
 62
     5
 10
611.30000000000018
 20
-711.5999999999915
 30
0.0
 11
611.30000000000018
 21
-411.59999999999133
 31
0.0
  0
LINE
  8
DETAIL
  6
CONTINUOUS
 62
     5
 10
610.70000000000255
 20
-712.89999999999441
 30
0.0
 11
610.70000000000255
 21
-106.3000000000029
 31
0.0
  0
LINE
  8
DETAIL
  6
CONTINUOUS
 62
     5
 10
-465.0
 20
-699.60000000000309
 30
0.0
 11
-470.0
 21
-694.60000000000309
 31
0.0
  0
LINE
  8
DETAIL
  6
CONTINUOUS
 62
     5
 10
548.90000000000509
 20
-425.200000000003
 30
0.0
 11
548.90000000000509
 21
-444.200000000003
 31
0.0
  0
LINE
  8
DETAIL
  6
CONTINUOUS
 62
     5
 10
548.90000000000509
 20
-382.79999999999433
 30
0.0
 11
548.90000000000509
 21
-363.79999999999433
 31
0.0
  0
LINE
  8
DETAIL
  6
CONTINUOUS
 62
     5
 10
543.90000000000509
 20
-407.200000000003
 30
0.0
 11
543.90000000000509
 21
-400.79999999999433
 31
0.0
  0
LINE
  8
DETAIL
  6
CONTINUOUS
 62
     5
 10
480.70000000000709
 20
-697.95000000000891
 30
0.0
 11
489.80000000000018
 21
-682.18833765000181
 31
0.0
  0
LINE
  8
DETAIL
  6
CONTINUOUS
 62
     5
 10
470.0
 20
-694.60000000000309
 30
0.0
 11
465.0
 21
-699.60000000000309
 31
0.0
  0
LINE
  8
DETAIL
  6
CONTINUOUS
 62
     5
 10
541.30000000000746
 20
-247.19999999999709
 30
0.0
 11
541.30000000000746
 21
-248.19999999999709
 31
0.0
  0
LINE
  8
DETAIL
  6
CONTINUOUS
 62
     5
 10
541.30000000000746
 20
-651.10000000000309
 30
0.0
 11
541.30000000000746
 21
-652.10000000000309
 31
0.0
  0
LINE
  8
DETAIL
  6
CONTINUOUS
 62
     5
 10
538.700000000008
 20
-425.200000000003
 30
0.0
 11
538.700000000008
 21
-430.99999999999142
 31
0.0
  0
LINE
  8
DETAIL
  6
CONTINUOUS
 62
     5
 10
538.700000000008
 20
-382.79999999999433
 30
0.0
 11
538.700000000008
 21
-376.99999999999142
 31
0.0
  0
LINE
  8
DETAIL
  6
CONTINUOUS
 62
     5
 10
534.30000000000018
 20
-650.10000000000309
 30
0.0
 11
534.30000000000018
 21
-618.30000000000018
 31
0.0
  0
LINE
  8
DETAIL
  6
CONTINUOUS
 62
     5
 10
534.30000000000018
 20
-246.19999999999709
 30
0.0
 11
534.30000000000018
 21
-214.4000000000087
 31
0.0
  0
LINE
  8
DETAIL
  6
CONTINUOUS
 62
     5
 10
533.39722442000038
 20
-182.30000000000291
 30
0.0
 11
533.39722442000038
 21
-214.4000000000087
 31
0.0
  0
LINE
  8
DETAIL
  6
CONTINUOUS
 62
     5
 10
533.39722442000038
 20
-586.20000000000891
 30
0.0
 11
533.39722442000038
 21
-618.30000000000018
 31
0.0
  0
LINE
  8
DETAIL
  6
CONTINUOUS
 62
     5
 10
533.30000000000746
 20
-632.30000000000018
 30
0.0
 11
533.30000000000746
 21
-630.23198214599415
 31
0.0
  0
LINE
  8
DETAIL
  6
CONTINUOUS
 62
     5
 10
533.30000000000746
 20
-629.16801785399457
 30
0.0
 11
533.30000000000746
 21
-618.30000000000018
 31
0.0
  0
LINE
  8
DETAIL
  6
CONTINUOUS
 62
     5
 10
533.30000000000746
 20
-228.39999999999421
 30
0.0
 11
533.30000000000746
 21
-226.33198214598809
 31
0.0
  0
LINE
  8
DETAIL
  6
CONTINUOUS
 62
     5
 10
533.30000000000746
 20
-225.26801785400309
 30
0.0
 11
533.30000000000746
 21
-214.4000000000087
 31
0.0
  0
LINE
  8
DETAIL
  6
CONTINUOUS
 62
     5
 10
532.29999999999927
 20
-655.30000000000018
 30
0.0
 11
532.29999999999927
 21
-650.10000000000309
 31
0.0
  0
LINE
  8
DETAIL
  6
CONTINUOUS
 62
     5
 10
532.30000000000018
 20
-251.39999999999421
 30
0.0
 11
532.30000000000018
 21
-246.19999999999709
 31
0.0
  0
LINE
  8
DETAIL
  6
CONTINUOUS
 62
     5
 10
531.80000000000018
 20
-627.400000000006
 30
0.0
 11
531.80000000000018
 21
-622.19999999999436
 31
0.0
  0
LINE
  8
DETAIL
  6
CONTINUOUS
 62
     5
 10
531.80000000000018
 20
-223.5
 30
0.0
 11
531.80000000000018
 21
-218.30000000000291
 31
0.0
  0
LINE
  8
DETAIL
  6
CONTINUOUS
 62
     5
 10
531.19722441999784
 20
-182.30000000000291
 30
0.0
 11
531.19722441999784
 21
-221.9681591710382
 31
0.0
  0
LINE
  8
DETAIL
  6
CONTINUOUS
 62
     5
 10
531.19722441999693
 20
-586.20000000000891
 30
0.0
 11
531.19722441999693
 21
-623.30000000000018
 31
0.0
  0
LINE
  8
DETAIL
  6
CONTINUOUS
 62
     5
 10
530.700000000008
 20
-46.408075233994168
 30
0.0
 11
530.700000000008
 21
-177.30000000000291
 31
0.0
  0
LINE
  8
DETAIL
  6
CONTINUOUS
 62
     5
 10
530.700000000008
 20
-179.5
 30
0.0
 11
530.700000000008
 21
-224.70000000001161
 31
0.0
  0
LINE
  8
DETAIL
  6
CONTINUOUS
 62
     5
 10
530.700000000008
 20
-226.89999999999421
 30
0.0
 11
530.700000000008
 21
-357.69192476399479
 31
0.0
  0
LINE
  8
DETAIL
  6
CONTINUOUS
 62
     5
 10
530.700000000008
 20
-450.40807523400008
 30
0.0
 11
530.70000000000709
 21
-581.19999999999436
 31
0.0
  0
LINE
  8
DETAIL
  6
CONTINUOUS
 62
     5
 10
530.70000000000709
 20
-583.400000000006
 30
0.0
 11
530.70000000000709
 21
-628.60000000000309
 31
0.0
  0
LINE
  8
DETAIL
  6
CONTINUOUS
 62
     5
 10
530.70000000000709
 20
-630.80000000000018
 30
0.0
 11
530.70000000000709
 21
-761.69192476400076
 31
0.0
  0
LINE
  8
DETAIL
  6
CONTINUOUS
 62
     5
 10
528.700000000008
 20
-423.19999999998839
 30
0.0
 11
528.700000000008
 21
-430.99999999999142
 31
0.0
  0
LINE
  8
DETAIL
  6
CONTINUOUS
 62
     5
 10
528.700000000008
 20
-384.79999999999433
 30
0.0
 11
528.700000000008
 21
-376.99999999999142
 31
0.0
  0
LINE
  8
DETAIL
  6
CONTINUOUS
 62
     5
 10
522.69999999999982
 20
-237.1340307139908
 30
0.0
 11
522.69999999999982
 21
-249.4000000000087
 31
0.0
  0
LINE
  8
DETAIL
  6
CONTINUOUS
 62
     5
 10
522.69999999999982
 20
-276.09999999999133
 30
0.0
 11
522.69999999999982
 21
-326.09999999999133
 31
0.0
  0
LINE
  8
DETAIL
  6
CONTINUOUS
 62
     5
 10
522.69999999999982
 20
-641.0340307139968
 30
0.0
 11
522.69999999999982
 21
-653.30000000000018
 31
0.0
  0
LINE
  8
DETAIL
  6
CONTINUOUS
 62
     5
 10
522.69999999999982
 20
-679.99999999999727
 30
0.0
 11
522.69999999999982
 21
-729.99999999999727
 31
0.0
  0
LINE
  8
DETAIL
  6
CONTINUOUS
 62
     5
 10
522.69999999999982
 20
-542.99999999999727
 30
0.0
 11
522.69999999999982
 21
-492.99999999999733
 31
0.0
  0
LINE
  8
DETAIL
  6
CONTINUOUS
 62
     5
 10
522.69999999999982
 20
-139.10000000000579
 30
0.0
 11
522.69999999999982
 21
-89.100000000005821
 31
0.0
  0
LINE
  8
DETAIL
  6
CONTINUOUS
 62
     5
 10
516.90000000000509
 20
-653.30000000000018
 30
0.0
 11
516.90000000000509
 21
-641.0340307139968
 31
0.0
  0
LINE
  8
DETAIL
  6
CONTINUOUS
 62
     5
 10
516.90000000000509
 20
-249.4000000000087
 30
0.0
 11
516.90000000000509
 21
-237.1340307139908
 31
0.0
  0
LINE
  8
DETAIL
  6
CONTINUOUS
 62
     5
 10
516.200000000008
 20
-718.39999999999145
 30
0.0
 11
516.200000000008
 21
-679.99999999999727
 31
0.0
  0
LINE
  8
DETAIL
  6
CONTINUOUS
 62
     5
 10
516.200000000008
 20
-528.39999999999145
 30
0.0
 11
516.200000000008
 21
-490.99999999999733
 31
0.0
  0
LINE
  8
DETAIL
  6
CONTINUOUS
 62
     5
 10
516.200000000008
 20
-314.5
 30
0.0
 11
516.200000000008
 21
-276.09999999999133
 31
0.0
  0
LINE
  8
DETAIL
  6
CONTINUOUS
 62
     5
 10
516.200000000008
 20
-124.5
 30
0.0
 11
516.200000000008
 21
-87.099999999991269
 31
0.0
  0
LINE
  8
DETAIL
  6
CONTINUOUS
 62
     5
 10
514.19999999999982
 20
-731.99999999999727
 30
0.0
 11
514.19999999999982
 21
-679.99999999999727
 31
0.0
  0
LINE
  8
DETAIL
  6
CONTINUOUS
 62
     5
 10
514.19999999999982
 20
-542.99999999999727
 30
0.0
 11
514.19999999999982
 21
-490.99999999999733
 31
0.0
  0
LINE
  8
DETAIL
  6
CONTINUOUS
 62
     5
 10
514.19999999999982
 20
-328.10000000000582
 30
0.0
 11
514.19999999999982
 21
-276.09999999999133
 31
0.0
  0
LINE
  8
DETAIL
  6
CONTINUOUS
 62
     5
 10
514.19999999999982
 20
-139.10000000000579
 30
0.0
 11
514.19999999999982
 21
-87.099999999991269
 31
0.0
  0
LINE
  8
DETAIL
  6
CONTINUOUS
 62
     5
 10
509.30000000000018
 20
-222.05000000000291
 30
0.0
 11
509.30000000000018
 21
-224.70000000001161
 31
0.0
  0
LINE
  8
DETAIL
  6
CONTINUOUS
 62
     5
 10
509.30000000000018
 20
-226.89999999999421
 30
0.0
 11
509.30000000000018
 21
-261.75
 31
0.0
  0
LINE
  8
DETAIL
  6
CONTINUOUS
 62
     5
 10
509.30000000000018
 20
-625.94999999999436
 30
0.0
 11
509.30000000000018
 21
-628.60000000000309
 31
0.0
  0
LINE
  8
DETAIL
  6
CONTINUOUS
 62
     5
 10
509.30000000000018
 20
-630.80000000000018
 30
0.0
 11
509.30000000000018
 21
-665.650000000006
 31
0.0
  0
LINE
  8
DETAIL
  6
CONTINUOUS
 62
     5
 10
508.80000000000751
 20
-226.89999999999421
 30
0.0
 11
508.80000000000751
 21
-227.0
 31
0.0
  0
LINE
  8
DETAIL
  6
CONTINUOUS
 62
     5
 10
508.80000000000751
 20
-630.80000000000018
 30
0.0
 11
508.80000000000751
 21
-630.89999999999145
 31
0.0
  0
LINE
  8
DETAIL
  6
CONTINUOUS
 62
     5
 10
508.80000000000751
 20
-650.89999999999145
 30
0.0
 11
508.80000000000751
 21
-645.69999999999436
 31
0.0
  0
LINE
  8
DETAIL
  6
CONTINUOUS
 62
     5
 10
508.80000000000751
 20
-628.60000000000309
 30
0.0
 11
508.80000000000751
 21
-625.69999999999436
 31
0.0
  0
LINE
  8
DETAIL
  6
CONTINUOUS
 62
     5
 10
508.80000000000751
 20
-247.0
 30
0.0
 11
508.80000000000751
 21
-241.80000000000291
 31
0.0
  0
LINE
  8
DETAIL
  6
CONTINUOUS
 62
     5
 10
508.80000000000751
 20
-224.70000000001161
 30
0.0
 11
508.80000000000751
 21
-221.79999999998839
 31
0.0
  0
LINE
  8
DETAIL
  6
CONTINUOUS
 62
     5
 10
505.80000000000751
 20
-665.650000000006
 30
0.0
 11
505.80000000000751
 21
-630.80000000000018
 31
0.0
  0
LINE
  8
DETAIL
  6
CONTINUOUS
 62
     5
 10
505.80000000000751
 20
-628.60000000000309
 30
0.0
 11
505.80000000000751
 21
-625.94999999999436
 31
0.0
  0
LINE
  8
DETAIL
  6
CONTINUOUS
 62
     5
 10
505.80000000000751
 20
-261.75
 30
0.0
 11
505.80000000000751
 21
-226.89999999999421
 31
0.0
  0
LINE
  8
DETAIL
  6
CONTINUOUS
 62
     5
 10
505.80000000000751
 20
-224.70000000001161
 30
0.0
 11
505.80000000000751
 21
-222.05000000000291
 31
0.0
  0
LINE
  8
DETAIL
  6
CONTINUOUS
 62
     5
 10
505.10000000000309
 20
-3.6999999999970901
 30
0.0
 11
505.10000000000309
 21
-4.3000000000029104
 31
0.0
  0
LINE
  8
DETAIL
  6
CONTINUOUS
 62
     5
 10
505.10000000000218
 20
-804.39999999999145
 30
0.0
 11
505.10000000000218
 21
-803.80000000000018
 31
0.0
  0
LINE
  8
DETAIL
  6
CONTINUOUS
 62
     5
 10
500.700000000008
 20
-402.59999999999718
 30
0.0
 11
500.700000000008
 21
-403.200000000003
 31
0.0
  0
LINE
  8
DETAIL
  6
CONTINUOUS
 62
     5
 10
500.700000000008
 20
-806.60000000000309
 30
0.0
 11
500.700000000008
 21
-807.19999999999436
 31
0.0
  0
LINE
  8
DETAIL
  6
CONTINUOUS
 62
     5
 10
500.700000000008
 20
-405.40000000000009
 30
0.0
 11
500.700000000008
 21
-404.79999999999433
 31
0.0
  0
LINE
  8
DETAIL
  6
CONTINUOUS
 62
     5
 10
500.700000000008
 20
-1.3000000000029099
 30
0.0
 11
500.700000000008
 21
-0.8000000000029104
 31
0.0
  0
LINE
  8
DETAIL
  6
CONTINUOUS
 62
     5
 10
499.20000000000073
 20
-3.6000000000058212
 30
0.0
 11
499.20000000000073
 21
-177.67246678800441
 31
0.0
  0
LINE
  8
DETAIL
  6
CONTINUOUS
 62
     5
 10
499.20000000000073
 20
-180.24445412399649
 30
0.0
 11
499.20000000000073
 21
-223.95554640800401
 31
0.0
  0
LINE
  8
DETAIL
  6
CONTINUOUS
 62
     5
 10
499.20000000000073
 20
-226.52753793400191
 30
0.0
 11
499.20000000000073
 21
-360.80000000000882
 31
0.0
  0
LINE
  8
DETAIL
  6
CONTINUOUS
 62
     5
 10
499.20000000000073
 20
-387.9896511299944
 30
0.0
 11
499.20000000000073
 21
-390.49280449600201
 31
0.0
  0
LINE
  8
DETAIL
  6
CONTINUOUS
 62
     5
 10
499.20000000000073
 20
-407.59999999999718
 30
0.0
 11
499.20000000000073
 21
-412.700000000003
 31
0.0
  0
LINE
  8
DETAIL
  6
CONTINUOUS
 62
     5
 10
499.20000000000073
 20
-395.29999999999433
 30
0.0
 11
499.20000000000073
 21
-400.50000000000591
 31
0.0
  0
LINE
  8
DETAIL
  6
CONTINUOUS
 62
     5
 10
499.20000000000073
 20
-417.50297631399599
 30
0.0
 11
499.20000000000073
 21
-420.01034887000287
 31
0.0
  0
LINE
  8
DETAIL
  6
CONTINUOUS
 62
     5
 10
499.20000000000073
 20
-447.19999999998839
 30
0.0
 11
499.19999999999982
 21
-581.57246678801039
 31
0.0
  0
LINE
  8
DETAIL
  6
CONTINUOUS
 62
     5
 10
499.19999999999982
 20
-584.14445412400255
 30
0.0
 11
499.19999999999982
 21
-627.85554640799546
 31
0.0
  0
LINE
  8
DETAIL
  6
CONTINUOUS
 62
     5
 10
499.19999999999982
 20
-630.42753793399334
 30
0.0
 11
499.19999999999982
 21
-804.49999999999727
 31
0.0
  0
LINE
  8
DETAIL
  6
CONTINUOUS
 62
     5
 10
498.90000000000509
 20
-418.8509667999956
 30
0.0
 11
498.90000000000509
 21
-419.00000000000591
 31
0.0
  0
LINE
  8
DETAIL
  6
CONTINUOUS
 62
     5
 10
498.90000000000509
 20
-389.14903320000172
 30
0.0
 11
498.90000000000509
 21
-360.80000000000882
 31
0.0
  0
LINE
  8
DETAIL
  6
CONTINUOUS
 62
     5
 10
498.70000000000709
 20
-625.85000000000309
 30
0.0
 11
498.70000000000709
 21
-613.44999999999436
 31
0.0
  0
LINE
  8
DETAIL
  6
CONTINUOUS
 62
     5
 10
498.70000000000709
 20
-598.44999999999436
 30
0.0
 11
498.70000000000709
 21
-586.05000000000018
 31
0.0
  0
LINE
  8
DETAIL
  6
CONTINUOUS
 62
     5
 10
498.700000000008
 20
-221.94999999999709
 30
0.0
 11
498.700000000008
 21
-209.55000000000291
 31
0.0
  0
LINE
  8
DETAIL
  6
CONTINUOUS
 62
     5
 10
498.700000000008
 20
-194.55000000000291
 30
0.0
 11
498.700000000008
 21
-182.14999999999421
 31
0.0
  0
LINE
  8
DETAIL
  6
CONTINUOUS
 62
     5
 10
497.63816996600048
 20
-207.7730342599971
 30
0.0
 11
497.63816996600048
 21
-221.94999999999709
 31
0.0
  0
LINE
  8
DETAIL
  6
CONTINUOUS
 62
     5
 10
497.63816996599962
 20
-611.67303426000308
 30
0.0
 11
497.63816996599962
 21
-625.85000000000309
 31
0.0
  0
LINE
  8
DETAIL
  6
CONTINUOUS
 62
     5
 10
497.63816996599962
 20
-600.2269657400002
 30
0.0
 11
497.63816996599962
 21
-586.05000000000018
 31
0.0
  0
LINE
  8
DETAIL
  6
CONTINUOUS
 62
     5
 10
497.63816996600048
 20
-196.32696573999419
 30
0.0
 11
497.63816996600048
 21
-182.14999999999421
 31
0.0
  0
LINE
  8
DETAIL
  6
CONTINUOUS
 62
     5
 10
495.80000000000751
 20
-805.99999999999727
 30
0.0
 11
495.80000000000751
 21
-804.49999999999727
 31
0.0
  0
LINE
  8
DETAIL
  6
CONTINUOUS
 62
     5
 10
495.80000000000751
 20
-407.59999999999718
 30
0.0
 11
495.80000000000751
 21
-405.99999999999142
 31
0.0
  0
LINE
  8
DETAIL
  6
CONTINUOUS
 62
     5
 10
495.80000000000751
 20
-401.99999999999142
 30
0.0
 11
495.80000000000751
 21
-400.50000000000591
 31
0.0
  0
LINE
  8
DETAIL
  6
CONTINUOUS
 62
     5
 10
495.70000000000709
 20
-806.19999999999436
 30
0.0
 11
495.700000000008
 21
-405.79999999999433
 31
0.0
  0
LINE
  8
DETAIL
  6
CONTINUOUS
 62
     5
 10
495.700000000008
 20
-402.200000000003
 30
0.0
 11
495.700000000008
 21
-1.8000000000029099
 31
0.0
  0
LINE
  8
DETAIL
  6
CONTINUOUS
 62
     5
 10
495.20000000000073
 20
-1.8000000000029099
 30
0.0
 11
495.20000000000073
 21
-2.8000000000029099
 31
0.0
  0
LINE
  8
DETAIL
  6
CONTINUOUS
 62
     5
 10
495.20000000000073
 20
-405.79999999999433
 30
0.0
 11
495.20000000000073
 21
-406.80000000000882
 31
0.0
  0
LINE
  8
DETAIL
  6
CONTINUOUS
 62
     5
 10
495.19999999999982
 20
-806.19999999999436
 30
0.0
 11
495.19999999999982
 21
-805.19999999999436
 31
0.0
  0
LINE
  8
DETAIL
  6
CONTINUOUS
 62
     5
 10
495.20000000000073
 20
-402.200000000003
 30
0.0
 11
495.20000000000073
 21
-401.200000000003
 31
0.0
  0
LINE
  8
DETAIL
  6
CONTINUOUS
 62
     5
 10
-213.0
 20
-791.99999999999136
 30
0.0
 11
-225.99999999999909
 21
-779.00000000000591
 31
0.0
  0
LINE
  8
DETAIL
  6
CONTINUOUS
 62
     5
 10
-225.0
 20
-778.00000000000591
 30
0.0
 11
-211.9999999999927
 21
-790.99999999999136
 31
0.0
  0
LINE
  8
DETAIL
  6
CONTINUOUS
 62
     5
 10
494.84734603800098
 20
-401.200000000003
 30
0.0
 11
495.08343350199902
 21
-402.53891854199759
 31
0.0
  0
LINE
  8
DETAIL
  6
CONTINUOUS
 62
     5
 10
494.19999999999982
 20
-402.13573456877702
 30
0.0
 11
494.29558730000099
 21
-402.6778370839952
 31
0.0
  0
LINE
  8
DETAIL
  6
CONTINUOUS
 62
     5
 10
494.19999999999982
 20
-807.19999999999436
 30
0.0
 11
494.19999999999982
 21
-805.19999999999436
 31
0.0
  0
LINE
  8
DETAIL
  6
CONTINUOUS
 62
     5
 10
494.19999999999982
 20
-406.80000000000882
 30
0.0
 11
494.19999999999982
 21
-404.79999999999433
 31
0.0
  0
LINE
  8
DETAIL
  6
CONTINUOUS
 62
     5
 10
494.19999999999982
 20
-403.200000000003
 30
0.0
 11
494.19999999999982
 21
-401.200000000003
 31
0.0
  0
LINE
  8
DETAIL
  6
CONTINUOUS
 62
     5
 10
494.19999999999982
 20
-2.8000000000029099
 30
0.0
 11
494.19999999999982
 21
-0.8000000000029104
 31
0.0
  0
LINE
  8
DETAIL
  6
CONTINUOUS
 62
     5
 10
492.84708539000258
 20
0.0
 30
0.0
 11
492.84708539000258
 21
-0.8000000000029104
 31
0.0
  0
LINE
  8
DETAIL
  6
CONTINUOUS
 62
     5
 10
492.80000000000467
 20
-807.99999999999727
 30
0.0
 11
492.80000000000467
 21
-807.19999999999436
 31
0.0
  0
LINE
  8
DETAIL
  6
CONTINUOUS
 62
     5
 10
489.80000000000018
 20
-682.18833765000181
 30
0.0
 11
489.80000000000018
 21
-609.71166234800785
 31
0.0
  0
LINE
  8
DETAIL
  6
CONTINUOUS
 62
     5
 10
489.80000000000018
 20
-278.28833764999581
 30
0.0
 11
489.80000000000018
 21
-205.81166234800179
 31
0.0
  0
LINE
  8
DETAIL
  6
CONTINUOUS
 62
     5
 10
489.19999999999982
 20
-5.8000000000029104
 30
0.0
 11
489.19999999999982
 21
-7.0
 31
0.0
  0
LINE
  8
DETAIL
  6
CONTINUOUS
 62
     5
 10
489.19999999999982
 20
-409.79999999999433
 30
0.0
 11
489.19999999999982
 21
-410.99999999999142
 31
0.0
  0
LINE
  8
DETAIL
  6
CONTINUOUS
 62
     5
 10
489.19999999999982
 20
-802.19999999999436
 30
0.0
 11
489.19999999999982
 21
-801.00000000001182
 31
0.0
  0
LINE
  8
DETAIL
  6
CONTINUOUS
 62
     5
 10
489.19999999999982
 20
-398.19999999998839
 30
0.0
 11
489.19999999999982
 21
-397.00000000000591
 31
0.0
  0
LINE
  8
DETAIL
  6
CONTINUOUS
 62
     5
 10
480.700000000008
 20
-10.0
 30
0.0
 11
480.700000000008
 21
-108.5500000000029
 31
0.0
  0
LINE
  8
DETAIL
  6
CONTINUOUS
 62
     5
 10
480.700000000008
 20
-126.5500000000029
 30
0.0
 11
480.700000000008
 21
-190.05000000000291
 31
0.0
  0
LINE
  8
DETAIL
  6
CONTINUOUS
 62
     5
 10
480.700000000008
 20
-294.05000000000291
 30
0.0
 11
480.700000000008
 21
-394.00000000000591
 31
0.0
  0
LINE
  8
DETAIL
  6
CONTINUOUS
 62
     5
 10
480.700000000008
 20
-414.00000000000591
 30
0.0
 11
480.70000000000709
 21
-512.44999999999436
 31
0.0
  0
LINE
  8
DETAIL
  6
CONTINUOUS
 62
     5
 10
480.70000000000709
 20
-530.45000000000891
 30
0.0
 11
480.70000000000709
 21
-593.94999999999436
 31
0.0
  0
LINE
  8
DETAIL
  6
CONTINUOUS
 62
     5
 10
480.70000000000709
 20
-697.95000000000891
 30
0.0
 11
480.70000000000709
 21
-797.99999999999727
 31
0.0
  0
LINE
  8
DETAIL
  6
CONTINUOUS
 62
     5
 10
480.0
 20
-95.500000000005457
 30
0.0
 11
480.0
 21
-791.99999999999136
 31
0.0
  0
LINE
  8
DETAIL
  6
CONTINUOUS
 62
     5
 10
479.0
 20
-791.99999999999136
 30
0.0
 11
479.0
 21
-95.500000000005457
 31
0.0
  0
LINE
  8
DETAIL
  6
CONTINUOUS
 62
     5
 10
478.50000000000819
 20
-95.000000000005457
 30
0.0
 11
478.50000000000819
 21
-94.000000000005457
 31
0.0
  0
LINE
  8
DETAIL
  6
CONTINUOUS
 62
     5
 10
477.5
 20
-96.000000000005457
 30
0.0
 11
477.5
 21
-95.000000000005457
 31
0.0
  0
LINE
  8
DETAIL
  6
CONTINUOUS
 62
     5
 10
476.99999999999909
 20
-791.99999999999136
 30
0.0
 11
476.99999999999909
 21
-793.00000000000591
 31
0.0
  0
LINE
  8
DETAIL
  6
CONTINUOUS
 62
     5
 10
473.50000000000728
 20
-95.000000000005457
 30
0.0
 11
473.50000000000728
 21
-94.000000000005457
 31
0.0
  0
LINE
  8
DETAIL
  6
CONTINUOUS
 62
     5
 10
470.0
 20
-193.29999999999379
 30
0.0
 11
470.0
 21
-295.29999999999382
 31
0.0
  0
LINE
  8
DETAIL
  6
CONTINUOUS
 62
     5
 10
470.0
 20
-592.60000000000309
 30
0.0
 11
470.0
 21
-694.60000000000309
 31
0.0
  0
LINE
  8
DETAIL
  6
CONTINUOUS
 62
     5
 10
465.0
 20
-778.00000000000591
 30
0.0
 11
465.0
 21
-699.60000000000309
 31
0.0
  0
LINE
  8
DETAIL
  6
CONTINUOUS
 62
     5
 10
465.0
 20
-587.60000000000309
 30
0.0
 11
465.0
 21
-420.00000000000591
 31
0.0
  0
LINE
  8
DETAIL
  6
CONTINUOUS
 62
     5
 10
465.0
 20
-385.99999999999142
 30
0.0
 11
465.0
 21
-300.29999999999382
 31
0.0
  0
LINE
  8
DETAIL
  6
CONTINUOUS
 62
     5
 10
465.0
 20
-188.29999999999379
 30
0.0
 11
465.0
 21
-109.5000000000055
 31
0.0
  0
LINE
  8
DETAIL
  6
CONTINUOUS
 62
     5
 10
495.08343350199902
 20
-405.46108145799963
 30
0.0
 11
494.84734603800098
 21
-406.80000000000882
 31
0.0
  0
LINE
  8
DETAIL
  6
CONTINUOUS
 62
     5
 10
494.29558730000099
 20
-405.32216291600213
 30
0.0
 11
494.19999999999982
 21
-405.86426543122019
 31
0.0
  0
LINE
  8
DETAIL
  6
CONTINUOUS
 62
     5
 10
498.02129645800233
 20
-599.90548444199976
 30
0.0
 11
497.63816996599962
 21
-600.2269657400002
 31
0.0
  0
LINE
  8
DETAIL
  6
CONTINUOUS
 62
     5
 10
-500.94999999999158
 20
-807.99999999999727
 30
0.0
 11
-495.87127970599431
 21
-807.99999999999727
 31
0.0
  0
LINE
  8
DETAIL
  6
CONTINUOUS
 62
     5
 10
500.94999999999982
 20
-807.99999999999727
 30
0.0
 11
495.87127970400252
 21
-807.99999999999727
 31
0.0
  0
LINE
  8
DETAIL
  6
CONTINUOUS
 62
     5
 10
492.80000000000467
 20
-807.99999999999727
 30
0.0
 11
-492.79999999999649
 21
-807.99999999999727
 31
0.0
  0
LINE
  8
DETAIL
  6
CONTINUOUS
 62
     5
 10
-500.94999999999158
 20
-807.19999999999436
 30
0.0
 11
-495.87127970599431
 21
-807.19999999999436
 31
0.0
  0
LINE
  8
DETAIL
  6
CONTINUOUS
 62
     5
 10
500.94999999999982
 20
-807.19999999999436
 30
0.0
 11
495.87127970400252
 21
-807.19999999999436
 31
0.0
  0
LINE
  8
DETAIL
  6
CONTINUOUS
 62
     5
 10
494.19999999999982
 20
-807.19999999999436
 30
0.0
 11
488.46730091800151
 21
-807.19999999999482
 31
0.0
  0
LINE
  8
DETAIL
  6
CONTINUOUS
 62
     5
 10
-488.46730091800242
 20
-807.19999999999436
 30
0.0
 11
-492.79999999999649
 21
-807.19999999999436
 31
0.0
  0
LINE
  8
DETAIL
  6
CONTINUOUS
 62
     5
 10
496.200000000008
 20
-806.70000000000891
 30
0.0
 11
500.95000008659548
 21
-806.69999999999436
 31
0.0
  0
LINE
  8
DETAIL
  6
CONTINUOUS
 62
     5
 10
500.700000000008
 20
-806.60000000000309
 30
0.0
 11
496.40000000000509
 21
-806.60000000000309
 31
0.0
  0
LINE
  8
DETAIL
  6
CONTINUOUS
 62
     5
 10
495.70000000000709
 20
-805.19999999999436
 30
0.0
 11
492.19999999999982
 21
-805.19999999999436
 31
0.0
  0
LINE
  8
DETAIL
  6
CONTINUOUS
 62
     5
 10
-492.79999999999649
 20
-805.19999999999391
 30
0.0
 11
-495.69999999999982
 21
-805.19999999999436
 31
0.0
  0
LINE
  8
DETAIL
  6
CONTINUOUS
 62
     5
 10
500.40000000000509
 20
-804.99999999999727
 30
0.0
 11
509.60000000000218
 21
-804.99999999999727
 31
0.0
  0
LINE
  8
DETAIL
  6
CONTINUOUS
 62
     5
 10
499.19999999999982
 20
-804.49999999999727
 30
0.0
 11
495.70000000000709
 21
-804.49999999999727
 31
0.0
  0
LINE
  8
DETAIL
  6
CONTINUOUS
 62
     5
 10
500.40000000000509
 20
-804.39999999999145
 30
0.0
 11
509.60000000000218
 21
-804.39999999999145
 31
0.0
  0
LINE
  8
DETAIL
  6
CONTINUOUS
 62
     5
 10
510.19999999999982
 20
-803.80000000000018
 30
0.0
 11
499.19999999999982
 21
-803.80000000000018
 31
0.0
  0
LINE
  8
DETAIL
  6
CONTINUOUS
 62
     5
 10
483.700000000008
 20
-801.00000000001182
 30
0.0
 11
489.19999999999982
 21
-801.00000000001182
 31
0.0
  0
LINE
  8
DETAIL
  6
CONTINUOUS
 62
     5
 10
478.00000000000728
 20
-794.00000000000591
 30
0.0
 11
211.5
 21
-794.00000000000591
 31
0.0
  0
LINE
  8
DETAIL
  6
CONTINUOUS
 62
     5
 10
-211.9999999999927
 20
-794.00000000000591
 30
0.0
 11
-478.49999999999909
 21
-794.00000000000591
 31
0.0
  0
LINE
  8
DETAIL
  6
CONTINUOUS
 62
     5
 10
478.00000000000728
 20
-793.00000000000591
 30
0.0
 11
211.5
 21
-793.00000000000591
 31
0.0
  0
LINE
  8
DETAIL
  6
CONTINUOUS
 62
     5
 10
-211.9999999999927
 20
-793.00000000000591
 30
0.0
 11
-478.49999999999909
 21
-793.00000000000591
 31
0.0
  0
LINE
  8
DETAIL
  6
CONTINUOUS
 62
     5
 10
211.00000000000821
 20
-792.50000000000591
 30
0.0
 11
210.0
 21
-792.50000000000591
 31
0.0
  0
LINE
  8
DETAIL
  6
CONTINUOUS
 62
     5
 10
-478.99999999999181
 20
-792.50000000000591
 30
0.0
 11
-479.99999999999909
 21
-792.50000000000591
 31
0.0
  0
LINE
  8
DETAIL
  6
CONTINUOUS
 62
     5
 10
212.0
 20
-791.50000000000591
 30
0.0
 11
211.00000000000821
 21
-791.50000000000591
 31
0.0
  0
LINE
  8
DETAIL
  6
CONTINUOUS
 62
     5
 10
-478.0
 20
-791.50000000000591
 30
0.0
 11
-478.99999999999181
 21
-791.50000000000591
 31
0.0
  0
LINE
  8
DETAIL
  6
CONTINUOUS
 62
     5
 10
-211.9999999999927
 20
-790.99999999999136
 30
0.0
 11
-211.0
 21
-790.99999999999136
 31
0.0
  0
LINE
  8
DETAIL
  6
CONTINUOUS
 62
     5
 10
478.00000000000728
 20
-790.99999999999136
 30
0.0
 11
479.0
 21
-790.99999999999136
 31
0.0
  0
LINE
  8
DETAIL
  6
CONTINUOUS
 62
     5
 10
211.00000000000821
 20
-787.50000000000591
 30
0.0
 11
210.0
 21
-787.50000000000591
 31
0.0
  0
LINE
  8
DETAIL
  6
CONTINUOUS
 62
     5
 10
-478.99999999999181
 20
-787.50000000000591
 30
0.0
 11
-479.99999999999909
 21
-787.50000000000591
 31
0.0
  0
LINE
  8
DETAIL
  6
CONTINUOUS
 62
     5
 10
494.84734603800013
 20
-805.19999999999436
 30
0.0
 11
495.08343350199902
 21
-806.53891854200356
 31
0.0
  0
LINE
  8
DETAIL
  6
CONTINUOUS
 62
     5
 10
494.19999999999982
 20
-806.13573456876884
 30
0.0
 11
494.29558730000008
 21
-806.67783708398656
 31
0.0
  0
LINE
  8
DETAIL
  6
CONTINUOUS
 62
     5
 10
495.08343350199988
 20
-1.4610814579937139
 30
0.0
 11
494.84734603800098
 21
-2.8000000000029099
 31
0.0
  0
LINE
  8
DETAIL
  6
CONTINUOUS
 62
     5
 10
494.29558730000099
 20
-1.3221629160107109
 30
0.0
 11
494.19999999999982
 21
-1.864265431212516
 31
0.0
  0
LINE
  8
DETAIL
  6
CONTINUOUS
 62
     5
 10
510.19999999999982
 20
-408.29999999999433
 30
0.0
 11
510.58091743000477
 21
-407.83642486000332
 31
0.0
  0
LINE
  8
DETAIL
  6
CONTINUOUS
 62
     5
 10
483.700000000008
 20
-527.44999999999436
 30
0.0
 11
480.70000000000709
 21
-530.45000000000891
 31
0.0
  0
LINE
  8
DETAIL
  6
CONTINUOUS
 62
     5
 10
225.5000000000073
 20
-779.00000000000591
 30
0.0
 11
212.5
 21
-791.99999999999136
 31
0.0
  0
LINE
  8
DETAIL
  6
CONTINUOUS
 62
     5
 10
212.0
 20
-791.50000000000591
 30
0.0
 11
225.0
 21
-778.49999999999136
 31
0.0
  0
LINE
  8
DETAIL
  6
CONTINUOUS
 62
     5
 10
-464.49999999999272
 20
-779.00000000000591
 30
0.0
 11
-225.99999999999909
 21
-779.00000000000591
 31
0.0
  0
LINE
  8
DETAIL
  6
CONTINUOUS
 62
     5
 10
225.5000000000073
 20
-779.00000000000591
 30
0.0
 11
464.0
 21
-779.00000000000591
 31
0.0
  0
LINE
  8
DETAIL
  6
CONTINUOUS
 62
     5
 10
-508.28822509999918
 20
-408.13725830001073
 30
0.0
 11
-499.8372582999973
 21
-416.58822509999158
 31
0.0
  0
LINE
  8
DETAIL
  6
CONTINUOUS
 62
     5
 10
-506.0254833999943
 20
-405.8745166000067
 30
0.0
 11
-497.57451660199422
 21
-414.32548340000221
 31
0.0
  0
LINE
  8
DETAIL
  6
CONTINUOUS
 62
     5
 10
-489.31438631001311
 20
-404.00000000000551
 30
0.0
 11
-487.21438630999728
 21
-406.09999999999718
 31
0.0
  0
LINE
  8
DETAIL
  6
CONTINUOUS
 62
     5
 10
-465.0
 20
-420.00000000000591
 30
0.0
 11
-478.99999999999181
 21
-406.00000000000591
 31
0.0
  0
LINE
  8
DETAIL
  6
CONTINUOUS
 62
     5
 10
480.700000000008
 20
-294.05000000000291
 30
0.0
 11
489.80000000000018
 21
-278.28833764999581
 31
0.0
  0
LINE
  8
DETAIL
  6
CONTINUOUS
 62
     5
 10
508.28822509800011
 20
-408.13725830001073
 30
0.0
 11
499.83725829999821
 21
-416.58822509999158
 31
0.0
  0
LINE
  8
DETAIL
  6
CONTINUOUS
 62
     5
 10
506.02548339800342
 20
-405.8745166000067
 30
0.0
 11
497.57451660000879
 21
-414.32548340000221
 31
0.0
  0
LINE
  8
DETAIL
  6
CONTINUOUS
 62
     5
 10
492.20000000000073
 20
-406.80000000000882
 30
0.0
 11
489.19999999999982
 21
-409.79999999999433
 31
0.0
  0
LINE
  8
DETAIL
  6
CONTINUOUS
 62
     5
 10
483.700000000008
 20
-410.99999999999142
 30
0.0
 11
480.700000000008
 21
-414.00000000000591
 31
0.0
  0
LINE
  8
DETAIL
  6
CONTINUOUS
 62
     5
 10
518.20000000000709
 20
-731.99999999999727
 30
0.0
 11
514.19999999999982
 21
-731.99999999999727
 31
0.0
  0
LINE
  8
DETAIL
  6
CONTINUOUS
 62
     5
 10
522.69999999999982
 20
-729.99999999999727
 30
0.0
 11
520.19999999999982
 21
-729.99999999999727
 31
0.0
  0
LINE
  8
DETAIL
  6
CONTINUOUS
 62
     5
 10
514.19999999999982
 20
-720.99999999999727
 30
0.0
 11
518.20000000000709
 21
-720.99999999999727
 31
0.0
  0
LINE
  8
DETAIL
  6
CONTINUOUS
 62
     5
 10
520.19999999999982
 20
-718.99999999998272
 30
0.0
 11
522.69999999999982
 21
-718.99999999998272
 31
0.0
  0
LINE
  8
DETAIL
  6
CONTINUOUS
 62
     5
 10
516.19998262400259
 20
-718.39999999999145
 30
0.0
 11
514.19999999999982
 21
-718.39999999999145
 31
0.0
  0
LINE
  8
DETAIL
  6
CONTINUOUS
 62
     5
 10
516.200000000008
 20
-713.900000000006
 30
0.0
 11
522.69999999999982
 21
-713.900000000006
 31
0.0
  0
LINE
  8
DETAIL
  6
CONTINUOUS
 62
     5
 10
530.70000000000709
 20
-714.10000000000605
 30
0.0
 11
609.50000000000546
 21
-714.10000000000605
 31
0.0
  0
LINE
  8
DETAIL
  6
CONTINUOUS
 62
     5
 10
611.30000000000018
 20
-711.5999999999915
 30
0.0
 11
610.70000000000255
 21
-711.5999999999915
 31
0.0
  0
LINE
  8
DETAIL
  6
CONTINUOUS
 62
     5
 10
-225.0
 20
-587.60000000000309
 30
0.0
 11
-220.0
 21
-592.60000000000309
 31
0.0
  0
LINE
  8
DETAIL
  6
CONTINUOUS
 62
     5
 10
479.0
 20
-406.00000000000591
 30
0.0
 11
465.0
 21
-420.00000000000591
 31
0.0
  0
LINE
  8
DETAIL
  6
CONTINUOUS
 62
     5
 10
514.19999999999982
 20
-679.99999999999727
 30
0.0
 11
522.69999999999982
 21
-679.99999999999727
 31
0.0
  0
LINE
  8
DETAIL
  6
CONTINUOUS
 62
     5
 10
505.80000000000751
 20
-658.29999999998563
 30
0.0
 11
509.30000000000018
 21
-658.29999999998563
 31
0.0
  0
LINE
  8
DETAIL
  6
CONTINUOUS
 62
     5
 10
541.30000000000746
 20
-652.10000000000309
 30
0.0
 11
535.30000000000746
 21
-652.10000000000309
 31
0.0
  0
LINE
  8
DETAIL
  6
CONTINUOUS
 62
     5
 10
541.30000000000746
 20
-651.10000000000309
 30
0.0
 11
535.30000000000746
 21
-651.10000000000309
 31
0.0
  0
LINE
  8
DETAIL
  6
CONTINUOUS
 62
     5
 10
534.30000000000018
 20
-650.10000000000309
 30
0.0
 11
532.29999999999927
 21
-650.10000000000309
 31
0.0
  0
LINE
  8
DETAIL
  6
CONTINUOUS
 62
     5
 10
-465.0
 20
-300.29999999999433
 30
0.0
 11
-470.0
 21
-295.29999999999433
 31
0.0
  0
LINE
  8
DETAIL
  6
CONTINUOUS
 62
     5
 10
220.0
 20
-592.60000000000309
 30
0.0
 11
225.0
 21
-587.60000000000309
 31
0.0
  0
LINE
  8
DETAIL
  6
CONTINUOUS
 62
     5
 10
470.0
 20
-295.29999999999382
 30
0.0
 11
465.0
 21
-300.29999999999382
 31
0.0
  0
LINE
  8
DETAIL
  6
CONTINUOUS
 62
     5
 10
534.30000000000018
 20
-632.30000000000018
 30
0.0
 11
530.70000000000709
 21
-632.30000000000018
 31
0.0
  0
LINE
  8
DETAIL
  6
CONTINUOUS
 62
     5
 10
532.33945436799968
 20
-630.80000000000018
 30
0.0
 11
501.08515332000019
 21
-630.80000000000018
 31
0.0
  0
LINE
  8
DETAIL
  6
CONTINUOUS
 62
     5
 10
532.33945436799968
 20
-628.60000000000309
 30
0.0
 11
501.08515332000019
 21
-628.60000000000309
 31
0.0
  0
LINE
  8
DETAIL
  6
CONTINUOUS
 62
     5
 10
532.29999999999927
 20
-627.400000000006
 30
0.0
 11
531.80000000000018
 21
-627.400000000006
 31
0.0
  0
LINE
  8
DETAIL
  6
CONTINUOUS
 62
     5
 10
531.80000000000018
 20
-626.30000000000018
 30
0.0
 11
530.70000000000709
 21
-626.30000000000018
 31
0.0
  0
LINE
  8
DETAIL
  6
CONTINUOUS
 62
     5
 10
495.70000000000709
 20
-625.85000000000309
 30
0.0
 11
498.69993501800042
 21
-625.85000000000309
 31
0.0
  0
LINE
  8
DETAIL
  6
CONTINUOUS
 62
     5
 10
531.80000000000018
 20
-623.30000000000018
 30
0.0
 11
530.70000000000709
 21
-623.30000000000018
 31
0.0
  0
LINE
  8
DETAIL
  6
CONTINUOUS
 62
     5
 10
532.29999999999927
 20
-622.19999999999436
 30
0.0
 11
531.80000000000018
 21
-622.19999999999436
 31
0.0
  0
LINE
  8
DETAIL
  6
CONTINUOUS
 62
     5
 10
533.30000000000746
 20
-618.30000000000018
 30
0.0
 11
534.30000000000018
 21
-618.30000000000018
 31
0.0
  0
LINE
  8
DETAIL
  6
CONTINUOUS
 62
     5
 10
225.0
 20
-110.0000000000055
 30
0.0
 11
225.0
 21
-188.29999999999379
 31
0.0
  0
LINE
  8
DETAIL
  6
CONTINUOUS
 62
     5
 10
225.0
 20
-300.29999999999382
 30
0.0
 11
225.0
 21
-385.99999999999142
 31
0.0
  0
LINE
  8
DETAIL
  6
CONTINUOUS
 62
     5
 10
225.0
 20
-420.00000000000591
 30
0.0
 11
225.0
 21
-587.60000000000309
 31
0.0
  0
LINE
  8
DETAIL
  6
CONTINUOUS
 62
     5
 10
225.0
 20
-699.60000000000309
 30
0.0
 11
225.0
 21
-778.49999999999136
 31
0.0
  0
LINE
  8
DETAIL
  6
CONTINUOUS
 62
     5
 10
220.0
 20
-694.60000000000309
 30
0.0
 11
220.0
 21
-592.60000000000309
 31
0.0
  0
LINE
  8
DETAIL
  6
CONTINUOUS
 62
     5
 10
220.0
 20
-295.29999999999382
 30
0.0
 11
220.0
 21
-193.29999999999379
 31
0.0
  0
LINE
  8
DETAIL
  6
CONTINUOUS
 62
     5
 10
216.5
 20
-793.00000000000591
 30
0.0
 11
216.5
 21
-794.00000000000591
 31
0.0
  0
LINE
  8
DETAIL
  6
CONTINUOUS
 62
     5
 10
213.0000000000073
 20
-96.000000000005457
 30
0.0
 11
213.0000000000073
 21
-95.000000000005457
 31
0.0
  0
LINE
  8
DETAIL
  6
CONTINUOUS
 62
     5
 10
212.5
 20
-791.99999999999136
 30
0.0
 11
212.5
 21
-793.00000000000591
 31
0.0
  0
LINE
  8
DETAIL
  6
CONTINUOUS
 62
     5
 10
211.5
 20
-793.00000000000591
 30
0.0
 11
211.5
 21
-794.00000000000591
 31
0.0
  0
LINE
  8
DETAIL
  6
CONTINUOUS
 62
     5
 10
211.00000000000821
 20
-792.50000000000591
 30
0.0
 11
211.00000000000821
 21
-96.000000000005457
 31
0.0
  0
LINE
  8
DETAIL
  6
CONTINUOUS
 62
     5
 10
210.0
 20
-792.50000000000591
 30
0.0
 11
210.0
 21
-96.000000000005457
 31
0.0
  0
LINE
  8
DETAIL
  6
CONTINUOUS
 62
     5
 10
495.70000000000709
 20
-586.05000000000018
 30
0.0
 11
498.69993501800042
 21
-586.05000000000018
 31
0.0
  0
LINE
  8
DETAIL
  6
CONTINUOUS
 62
     5
 10
501.08515332000019
 20
-583.400000000006
 30
0.0
 11
532.31135801600249
 21
-583.400000000006
 31
0.0
  0
LINE
  8
DETAIL
  6
CONTINUOUS
 62
     5
 10
501.08515332000019
 20
-581.19999999999436
 30
0.0
 11
532.31135801600249
 21
-581.19999999999436
 31
0.0
  0
LINE
  8
DETAIL
  6
CONTINUOUS
 62
     5
 10
261.18543172599948
 20
-546.62637097800052
 30
0.0
 11
261.14038095000518
 21
-546.62637097800052
 31
0.0
  0
LINE
  8
DETAIL
  6
CONTINUOUS
 62
     5
 10
514.19999999999982
 20
-542.99999999999727
 30
0.0
 11
522.69999999999982
 21
-542.99999999999727
 31
0.0
  0
LINE
  8
DETAIL
  6
CONTINUOUS
 62
     5
 10
-225.0
 20
-385.99999999999142
 30
0.0
 11
-211.0
 21
-399.99999999999142
 31
0.0
  0
LINE
  8
DETAIL
  6
CONTINUOUS
 62
     5
 10
498.02129645800233
 20
-196.00548444200831
 30
0.0
 11
497.63816996600048
 21
-196.32696573999419
 31
0.0
  0
LINE
  8
DETAIL
  6
CONTINUOUS
 62
     5
 10
514.19999999999982
 20
-531.99999999999727
 30
0.0
 11
522.69999999999982
 21
-531.99999999999727
 31
0.0
  0
LINE
  8
DETAIL
  6
CONTINUOUS
 62
     5
 10
516.19998262400259
 20
-528.39999999999145
 30
0.0
 11
514.19999999999982
 21
-528.39999999999145
 31
0.0
  0
LINE
  8
DETAIL
  6
CONTINUOUS
 62
     5
 10
483.700000000008
 20
-527.44999999999436
 30
0.0
 11
484.69999999999982
 21
-527.44999999999436
 31
0.0
  0
LINE
  8
DETAIL
  6
CONTINUOUS
 62
     5
 10
348.66243917600241
 20
-515.99999999999727
 30
0.0
 11
345.19999999999982
 21
-515.99999999999727
 31
0.0
  0
LINE
  8
DETAIL
  6
CONTINUOUS
 62
     5
 10
483.700000000008
 20
-515.45000000000891
 30
0.0
 11
484.69999999999982
 21
-515.45000000000891
 31
0.0
  0
LINE
  8
DETAIL
  6
CONTINUOUS
 62
     5
 10
-465.0
 20
-110.0000000000059
 30
0.0
 11
-478.0
 21
-97.000000000005912
 31
0.0
  0
LINE
  8
DETAIL
  6
CONTINUOUS
 62
     5
 10
-476.99999999999272
 20
-96.000000000005912
 30
0.0
 11
-463.99999999999181
 21
-109.0000000000059
 31
0.0
  0
LINE
  8
DETAIL
  6
CONTINUOUS
 62
     5
 10
510.19999999999982
 20
-4.3000000000029104
 30
0.0
 11
510.58091743000568
 21
-3.8364248599973512
 31
0.0
  0
LINE
  8
DETAIL
  6
CONTINUOUS
 62
     5
 10
211.00000000000821
 20
-399.99999999999142
 30
0.0
 11
225.0
 21
-385.99999999999142
 31
0.0
  0
LINE
  8
DETAIL
  6
CONTINUOUS
 62
     5
 10
483.700000000008
 20
-123.5500000000029
 30
0.0
 11
480.700000000008
 21
-126.5500000000029
 31
0.0
  0
LINE
  8
DETAIL
  6
CONTINUOUS
 62
     5
 10
478.00000000000728
 20
-96.500000000005457
 30
0.0
 11
465.0
 21
-109.5000000000055
 31
0.0
  0
LINE
  8
DETAIL
  6
CONTINUOUS
 62
     5
 10
464.49999999999909
 20
-109.0000000000055
 30
0.0
 11
477.5
 21
-96.000000000005457
 31
0.0
  0
LINE
  8
DETAIL
  6
CONTINUOUS
 62
     5
 10
520.20000000000073
 20
-492.99999999999733
 30
0.0
 11
522.69999999999982
 21
-492.99999999999733
 31
0.0
  0
LINE
  8
DETAIL
  6
CONTINUOUS
 62
     5
 10
514.19999999999982
 20
-490.99999999999733
 30
0.0
 11
518.200000000008
 21
-490.99999999999733
 31
0.0
  0
LINE
  8
DETAIL
  6
CONTINUOUS
 62
     5
 10
-545.49999963625578
 20
-447.20000000000351
 30
0.0
 11
-495.69999999999982
 21
-447.19999999998839
 31
0.0
  0
LINE
  8
DETAIL
  6
CONTINUOUS
 62
     5
 10
545.90000000000509
 20
-447.19999999998839
 30
0.0
 11
495.700000000008
 21
-447.19999999998839
 31
0.0
  0
LINE
  8
DETAIL
  6
CONTINUOUS
 62
     5
 10
-489.3143863100122
 20
0.0
 30
0.0
 11
-487.21438630999728
 21
-2.0999999999912689
 31
0.0
  0
LINE
  8
DETAIL
  6
CONTINUOUS
 62
     5
 10
225.0
 20
-699.60000000000309
 30
0.0
 11
220.0
 21
-694.60000000000309
 31
0.0
  0
LINE
  8
DETAIL
  6
CONTINUOUS
 62
     5
 10
492.20000000000073
 20
-2.8000000000029099
 30
0.0
 11
489.19999999999982
 21
-5.8000000000029104
 31
0.0
  0
LINE
  8
DETAIL
  6
CONTINUOUS
 62
     5
 10
483.700000000008
 20
-7.0
 30
0.0
 11
480.700000000008
 21
-10.0
 31
0.0
  0
LINE
  8
DETAIL
  6
CONTINUOUS
 62
     5
 10
489.31438631001862
 20
0.0
 30
0.0
 11
487.21438631000552
 21
-2.0999999999912689
 31
0.0
  0
LINE
  8
DETAIL
  6
CONTINUOUS
 62
     5
 10
543.700000000008
 20
-420.200000000003
 30
0.0
 11
543.90000000000509
 21
-420.200000000003
 31
0.0
  0
LINE
  8
DETAIL
  6
CONTINUOUS
 62
     5
 10
525.700000000008
 20
-420.200000000003
 30
0.0
 11
496.16704121000288
 21
-420.200000000003
 31
0.0
  0
LINE
  8
DETAIL
  6
CONTINUOUS
 62
     5
 10
-543.29999963625869
 20
-420.20000000001801
 30
0.0
 11
-543.49999963625578
 21
-420.20000000001801
 31
0.0
  0
LINE
  8
DETAIL
  6
CONTINUOUS
 62
     5
 10
611.30000000000018
 20
-411.59999999999133
 30
0.0
 11
610.70000000000255
 21
-411.59999999999133
 31
0.0
  0
LINE
  8
DETAIL
  6
CONTINUOUS
 62
     5
 10
483.700000000008
 20
-410.99999999999142
 30
0.0
 11
489.19999999999982
 21
-410.99999999999142
 31
0.0
  0
LINE
  8
DETAIL
  6
CONTINUOUS
 62
     5
 10
508.12548339800293
 20
-408.29999999999433
 30
0.0
 11
510.19999999999982
 21
-408.29999999999433
 31
0.0
  0
LINE
  8
DETAIL
  6
CONTINUOUS
 62
     5
 10
503.600000000004
 20
-408.29999999999433
 30
0.0
 11
499.20000000000073
 21
-408.29999999999433
 31
0.0
  0
LINE
  8
DETAIL
  6
CONTINUOUS
 62
     5
 10
509.60000000000218
 20
-407.700000000003
 30
0.0
 11
508.8362127840046
 21
-407.700000000003
 31
0.0
  0
LINE
  8
DETAIL
  6
CONTINUOUS
 62
     5
 10
504.19999999999982
 20
-407.700000000003
 30
0.0
 11
500.40000000000509
 21
-407.700000000003
 31
0.0
  0
LINE
  8
DETAIL
  6
CONTINUOUS
 62
     5
 10
499.20000000000073
 20
-407.59999999999718
 30
0.0
 11
495.700000000008
 21
-407.59999999999718
 31
0.0
  0
LINE
  8
DETAIL
  6
CONTINUOUS
 62
     5
 10
543.90000000000509
 20
-407.200000000003
 30
0.0
 11
510.55096679800499
 21
-407.200000000003
 31
0.0
  0
LINE
  8
DETAIL
  6
CONTINUOUS
 62
     5
 10
-510.5509667999977
 20
-407.200000000003
 30
0.0
 11
-543.89999999999691
 21
-407.200000000003
 31
0.0
  0
LINE
  8
DETAIL
  6
CONTINUOUS
 62
     5
 10
504.79999999999751
 20
-407.09999999999718
 30
0.0
 11
500.40000000000509
 21
-407.09999999999718
 31
0.0
  0
LINE
  8
DETAIL
  6
CONTINUOUS
 62
     5
 10
495.700000000008
 20
-406.80000000000882
 30
0.0
 11
492.20000000000073
 21
-406.80000000000882
 31
0.0
  0
LINE
  8
DETAIL
  6
CONTINUOUS
 62
     5
 10
-492.19999999999158
 20
-406.80000000000882
 30
0.0
 11
-495.69999999999982
 21
-406.80000000000882
 31
0.0
  0
LINE
  8
DETAIL
  6
CONTINUOUS
 62
     5
 10
500.700000000008
 20
-405.40000000000009
 30
0.0
 11
496.40000000000509
 21
-405.40000000000009
 31
0.0
  0
LINE
  8
DETAIL
  6
CONTINUOUS
 62
     5
 10
500.94999999999982
 20
-405.29999999999433
 30
0.0
 11
496.200000000008
 21
-405.29999999999433
 31
0.0
  0
LINE
  8
DETAIL
  6
CONTINUOUS
 62
     5
 10
500.94999999999982
 20
-404.79999999999433
 30
0.0
 11
495.87127970400252
 21
-404.79999999999433
 31
0.0
  0
LINE
  8
DETAIL
  6
CONTINUOUS
 62
     5
 10
-495.87127970599431
 20
-404.79999999999433
 30
0.0
 11
-500.94999999999158
 21
-404.79999999999433
 31
0.0
  0
LINE
  8
DETAIL
  6
CONTINUOUS
 62
     5
 10
-488.51438631001571
 20
-404.79999999999382
 30
0.0
 11
-492.79999999999649
 21
-404.79999999999472
 31
0.0
  0
LINE
  8
DETAIL
  6
CONTINUOUS
 62
     5
 10
-543.89999999999691
 20
-404.00000000000591
 30
0.0
 11
-510.5509667999977
 21
-404.00000000000591
 31
0.0
  0
LINE
  8
DETAIL
  6
CONTINUOUS
 62
     5
 10
-492.79999999999649
 20
-404.00000000000591
 30
0.0
 11
-479.99999999999909
 21
-404.00000000000591
 31
0.0
  0
LINE
  8
DETAIL
  6
CONTINUOUS
 62
     5
 10
-478.99999999999181
 20
-404.00000000000591
 30
0.0
 11
-211.0
 21
-404.00000000000591
 31
0.0
  0
LINE
  8
DETAIL
  6
CONTINUOUS
 62
     5
 10
-210.0
 20
-404.00000000000591
 30
0.0
 11
210.0
 21
-404.00000000000591
 31
0.0
  0
LINE
  8
DETAIL
  6
CONTINUOUS
 62
     5
 10
211.00000000000821
 20
-404.00000000000591
 30
0.0
 11
479.0
 21
-404.00000000000591
 31
0.0
  0
LINE
  8
DETAIL
  6
CONTINUOUS
 62
     5
 10
480.0
 20
-404.00000000000591
 30
0.0
 11
492.80000000000467
 21
-404.000000000005
 31
0.0
  0
LINE
  8
DETAIL
  6
CONTINUOUS
 62
     5
 10
510.55096679800499
 20
-404.00000000000591
 30
0.0
 11
543.90000000000509
 21
-404.00000000000591
 31
0.0
  0
LINE
  8
DETAIL
  6
CONTINUOUS
 62
     5
 10
500.94999999999982
 20
-404.00000000000591
 30
0.0
 11
495.87127970400252
 21
-404.00000000000591
 31
0.0
  0
LINE
  8
DETAIL
  6
CONTINUOUS
 62
     5
 10
-495.87127970599431
 20
-404.00000000000591
 30
0.0
 11
-500.94999999999158
 21
-404.00000000000591
 31
0.0
  0
LINE
  8
DETAIL
  6
CONTINUOUS
 62
     5
 10
-500.94999999999158
 20
-403.200000000003
 30
0.0
 11
-495.87127970599431
 21
-403.200000000003
 31
0.0
  0
LINE
  8
DETAIL
  6
CONTINUOUS
 62
     5
 10
500.94999999999982
 20
-403.200000000003
 30
0.0
 11
495.87127970400252
 21
-403.200000000003
 31
0.0
  0
LINE
  8
DETAIL
  6
CONTINUOUS
 62
     5
 10
494.19999999999982
 20
-403.200000000003
 30
0.0
 11
488.46730091801868
 21
-403.200000000003
 31
0.0
  0
LINE
  8
DETAIL
  6
CONTINUOUS
 62
     5
 10
496.200000000008
 20
-402.700000000003
 30
0.0
 11
500.94999999999982
 21
-402.700000000003
 31
0.0
  0
LINE
  8
DETAIL
  6
CONTINUOUS
 62
     5
 10
500.700000000008
 20
-402.59999999999718
 30
0.0
 11
496.40000000000509
 21
-402.59999999999718
 31
0.0
  0
LINE
  8
DETAIL
  6
CONTINUOUS
 62
     5
 10
495.700000000008
 20
-401.200000000003
 30
0.0
 11
492.20000000000073
 21
-401.200000000003
 31
0.0
  0
LINE
  8
DETAIL
  6
CONTINUOUS
 62
     5
 10
-492.19999999999158
 20
-401.200000000003
 30
0.0
 11
-495.69999999999982
 21
-401.200000000003
 31
0.0
  0
LINE
  8
DETAIL
  6
CONTINUOUS
 62
     5
 10
500.40000000000509
 20
-400.99999999999142
 30
0.0
 11
504.90000000000509
 21
-400.99999999999142
 31
0.0
  0
LINE
  8
DETAIL
  6
CONTINUOUS
 62
     5
 10
543.90000000000509
 20
-400.79999999999433
 30
0.0
 11
510.55096679800499
 21
-400.79999999999433
 31
0.0
  0
LINE
  8
DETAIL
  6
CONTINUOUS
 62
     5
 10
-510.5509667999977
 20
-400.79999999999433
 30
0.0
 11
-543.89999999999691
 21
-400.79999999999433
 31
0.0
  0
LINE
  8
DETAIL
  6
CONTINUOUS
 62
     5
 10
499.20000000000073
 20
-400.50000000000591
 30
0.0
 11
495.700000000008
 21
-400.50000000000591
 31
0.0
  0
LINE
  8
DETAIL
  6
CONTINUOUS
 62
     5
 10
500.40000000000509
 20
-400.40000000000009
 30
0.0
 11
504.29999999999927
 21
-400.40000000000009
 31
0.0
  0
LINE
  8
DETAIL
  6
CONTINUOUS
 62
     5
 10
509.00572631000517
 20
-400.40000000000009
 30
0.0
 11
509.60000000000218
 21
-400.40000000000009
 31
0.0
  0
LINE
  8
DETAIL
  6
CONTINUOUS
 62
     5
 10
510.19999999999982
 20
-399.80000000000882
 30
0.0
 11
508.22548339800051
 21
-399.80000000000882
 31
0.0
  0
LINE
  8
DETAIL
  6
CONTINUOUS
 62
     5
 10
503.700000000008
 20
-399.80000000000882
 30
0.0
 11
499.20000000000073
 21
-399.80000000000882
 31
0.0
  0
LINE
  8
DETAIL
  6
CONTINUOUS
 62
     5
 10
-225.0
 20
-188.2999999999943
 30
0.0
 11
-220.0
 21
-193.2999999999943
 31
0.0
  0
LINE
  8
DETAIL
  6
CONTINUOUS
 62
     5
 10
-220.0
 20
-694.60000000000309
 30
0.0
 11
-225.0
 21
-699.60000000000309
 31
0.0
  0
LINE
  8
DETAIL
  6
CONTINUOUS
 62
     5
 10
483.700000000008
 20
-397.00000000000591
 30
0.0
 11
489.19999999999982
 21
-397.00000000000591
 31
0.0
  0
LINE
  8
DETAIL
  6
CONTINUOUS
 62
     5
 10
543.700000000008
 20
-387.79999999999433
 30
0.0
 11
543.90000000000509
 21
-387.79999999999433
 31
0.0
  0
LINE
  8
DETAIL
  6
CONTINUOUS
 62
     5
 10
525.700000000008
 20
-387.79999999999433
 30
0.0
 11
499.98339895000748
 21
-387.79999999999433
 31
0.0
  0
LINE
  8
DETAIL
  6
CONTINUOUS
 62
     5
 10
-495.69999999999942
 20
-387.79999999999399
 30
0.0
 11
-525.29999963625869
 21
-387.80000000000928
 31
0.0
  0
LINE
  8
DETAIL
  6
CONTINUOUS
 62
     5
 10
-543.29999963625869
 20
-387.80000000000928
 30
0.0
 11
-543.49999963625578
 21
-387.80000000000928
 31
0.0
  0
LINE
  8
DETAIL
  6
CONTINUOUS
 62
     5
 10
-545.49999963625578
 20
-360.80000000002377
 30
0.0
 11
-495.69999999999982
 21
-360.80000000000882
 31
0.0
  0
LINE
  8
DETAIL
  6
CONTINUOUS
 62
     5
 10
545.90000000000509
 20
-360.80000000000882
 30
0.0
 11
495.700000000008
 21
-360.80000000000882
 31
0.0
  0
LINE
  8
DETAIL
  6
CONTINUOUS
 62
     5
 10
489.26730091801352
 20
-807.99999999999727
 30
0.0
 11
487.16730091800042
 21
-805.900000000006
 31
0.0
  0
LINE
  8
DETAIL
  6
CONTINUOUS
 62
     5
 10
480.70000000000709
 20
-797.99999999999727
 30
0.0
 11
483.700000000008
 21
-801.00000000001182
 31
0.0
  0
LINE
  8
DETAIL
  6
CONTINUOUS
 62
     5
 10
476.99999999999909
 20
-791.99999999999136
 30
0.0
 11
464.0
 21
-779.00000000000591
 31
0.0
  0
LINE
  8
DETAIL
  6
CONTINUOUS
 62
     5
 10
489.19999999999982
 20
-802.19999999999436
 30
0.0
 11
492.19999999999982
 21
-805.19999999999436
 31
0.0
  0
LINE
  8
DETAIL
  6
CONTINUOUS
 62
     5
 10
465.0
 20
-778.00000000000591
 30
0.0
 11
478.00000000000728
 21
-790.99999999999136
 31
0.0
  0
LINE
  8
BASIS
  6
DASHDOT
 62
     6
 10
0.0
 20
26.538727115723301
 30
0.0
 11
0.0
 21
-854.59804523845105
 31
0.0
  0
LINE
  8
DETAIL
  6
CONTINUOUS
 62
     5
 10
220.0
 20
-193.29999999999379
 30
0.0
 11
225.0
 21
-188.29999999999379
 31
0.0
  0
LINE
  8
DETAIL
  6
CONTINUOUS
 62
     5
 10
518.200000000008
 20
-328.10000000000582
 30
0.0
 11
514.19999999999982
 21
-328.10000000000582
 31
0.0
  0
LINE
  8
DETAIL
  6
CONTINUOUS
 62
     5
 10
522.69999999999982
 20
-326.09999999999133
 30
0.0
 11
520.20000000000073
 21
-326.09999999999133
 31
0.0
  0
LINE
  8
DETAIL
  6
CONTINUOUS
 62
     5
 10
514.19999999999982
 20
-317.09999999999133
 30
0.0
 11
518.200000000008
 21
-317.09999999999133
 31
0.0
  0
LINE
  8
DETAIL
  6
CONTINUOUS
 62
     5
 10
520.20000000000073
 20
-315.10000000000582
 30
0.0
 11
522.69999999999982
 21
-315.10000000000582
 31
0.0
  0
LINE
  8
DETAIL
  6
CONTINUOUS
 62
     5
 10
516.19998262400259
 20
-314.5
 30
0.0
 11
514.19999999999982
 21
-314.5
 31
0.0
  0
LINE
  8
DETAIL
  6
CONTINUOUS
 62
     5
 10
-489.26730091801443
 20
-807.99999999999727
 30
0.0
 11
-487.16730091799951
 21
-805.900000000006
 31
0.0
  0
LINE
  8
DETAIL
  6
CONTINUOUS
 62
     5
 10
-464.49999999999272
 20
-779.00000000000591
 30
0.0
 11
-477.5
 21
-791.99999999999136
 31
0.0
  0
LINE
  8
DETAIL
  6
CONTINUOUS
 62
     5
 10
-478.0
 20
-791.50000000000591
 30
0.0
 11
-465.0
 21
-778.49999999999136
 31
0.0
  0
LINE
  8
DETAIL
  6
CONTINUOUS
 62
     5
 10
514.19999999999982
 20
-276.09999999999133
 30
0.0
 11
522.69999999999982
 21
-276.09999999999133
 31
0.0
  0
LINE
  8
DETAIL
  6
CONTINUOUS
 62
     5
 10
505.80000000000751
 20
-254.4000000000087
 30
0.0
 11
509.30000000000018
 21
-254.4000000000087
 31
0.0
  0
LINE
  8
DETAIL
  6
CONTINUOUS
 62
     5
 10
497.63816996599962
 20
-611.67303426000308
 30
0.0
 11
498.02129645800233
 21
-611.99451555798896
 31
0.0
  0
LINE
  8
DETAIL
  6
CONTINUOUS
 62
     5
 10
225.0
 20
-420.00000000000591
 30
0.0
 11
211.00000000000821
 21
-406.00000000000591
 31
0.0
  0
LINE
  8
DETAIL
  6
CONTINUOUS
 62
     5
 10
510.19999999999982
 20
-803.80000000000018
 30
0.0
 11
510.58091743000477
 21
-804.26357514000574
 31
0.0
  0
LINE
  8
DETAIL
  6
CONTINUOUS
 62
     5
 10
541.30000000000746
 20
-248.19999999999709
 30
0.0
 11
535.30000000000746
 21
-248.19999999999709
 31
0.0
  0
LINE
  8
DETAIL
  6
CONTINUOUS
 62
     5
 10
541.30000000000746
 20
-247.19999999999709
 30
0.0
 11
535.30000000000746
 21
-247.19999999999709
 31
0.0
  0
LINE
  8
DETAIL
  6
CONTINUOUS
 62
     5
 10
534.30000000000018
 20
-246.19999999999709
 30
0.0
 11
532.30000000000018
 21
-246.19999999999709
 31
0.0
  0
LINE
  8
DETAIL
  6
CONTINUOUS
 62
     5
 10
534.30000000000018
 20
-228.39999999999421
 30
0.0
 11
530.700000000008
 21
-228.39999999999421
 31
0.0
  0
LINE
  8
DETAIL
  6
CONTINUOUS
 62
     5
 10
532.33945436800059
 20
-226.89999999999421
 30
0.0
 11
501.08515332000019
 21
-226.89999999999421
 31
0.0
  0
LINE
  8
DETAIL
  6
CONTINUOUS
 62
     5
 10
532.33945436800059
 20
-224.70000000001161
 30
0.0
 11
501.08515332000019
 21
-224.70000000001161
 31
0.0
  0
LINE
  8
DETAIL
  6
CONTINUOUS
 62
     5
 10
532.30000000000018
 20
-223.5
 30
0.0
 11
531.80000000000018
 21
-223.5
 31
0.0
  0
LINE
  8
DETAIL
  6
CONTINUOUS
 62
     5
 10
495.700000000008
 20
-221.94999999999709
 30
0.0
 11
498.69993501800042
 21
-221.94999999999709
 31
0.0
  0
LINE
  8
DETAIL
  6
CONTINUOUS
 62
     5
 10
532.30000000000018
 20
-218.30000000000291
 30
0.0
 11
531.80000000000018
 21
-218.30000000000291
 31
0.0
  0
LINE
  8
DETAIL
  6
CONTINUOUS
 62
     5
 10
533.30000000000746
 20
-214.4000000000087
 30
0.0
 11
534.30000000000018
 21
-214.4000000000087
 31
0.0
  0
LINE
  8
DETAIL
  6
CONTINUOUS
 62
     5
 10
465.0
 20
-587.60000000000309
 30
0.0
 11
470.0
 21
-592.60000000000309
 31
0.0
  0
LINE
  8
DETAIL
  6
CONTINUOUS
 62
     5
 10
-211.0
 20
-406.00000000000591
 30
0.0
 11
-225.0
 21
-420.00000000000591
 31
0.0
  0
LINE
  8
DETAIL
  6
CONTINUOUS
 62
     5
 10
495.700000000008
 20
-182.14999999999421
 30
0.0
 11
498.69993501800042
 21
-182.14999999999421
 31
0.0
  0
LINE
  8
DETAIL
  6
CONTINUOUS
 62
     5
 10
501.08515332000019
 20
-179.5
 30
0.0
 11
532.3113580160034
 21
-179.5
 31
0.0
  0
LINE
  8
DETAIL
  6
CONTINUOUS
 62
     5
 10
501.08515332000019
 20
-177.30000000000291
 30
0.0
 11
532.3113580160034
 21
-177.30000000000291
 31
0.0
  0
LINE
  8
DETAIL
  6
CONTINUOUS
 62
     5
 10
225.0
 20
-300.29999999999382
 30
0.0
 11
220.0
 21
-295.29999999999382
 31
0.0
  0
LINE
  8
DETAIL
  6
CONTINUOUS
 62
     5
 10
-210.0
 20
-95.500000000005912
 30
0.0
 11
-210.0
 21
-791.99999999999136
 31
0.0
  0
LINE
  8
DETAIL
  6
CONTINUOUS
 62
     5
 10
-211.0
 20
-791.99999999999136
 30
0.0
 11
-211.0
 21
-95.500000000005912
 31
0.0
  0
LINE
  8
DETAIL
  6
CONTINUOUS
 62
     5
 10
-211.49999999999179
 20
-95.000000000005912
 30
0.0
 11
-211.49999999999179
 21
-94.000000000005912
 31
0.0
  0
LINE
  8
DETAIL
  6
CONTINUOUS
 62
     5
 10
-212.5
 20
-96.000000000005912
 30
0.0
 11
-212.5
 21
-95.000000000005912
 31
0.0
  0
LINE
  8
DETAIL
  6
CONTINUOUS
 62
     5
 10
-213.0
 20
-791.99999999999136
 30
0.0
 11
-213.0
 21
-793.00000000000591
 31
0.0
  0
LINE
  8
DETAIL
  6
CONTINUOUS
 62
     5
 10
-216.49999999999179
 20
-95.000000000005912
 30
0.0
 11
-216.49999999999179
 21
-94.000000000005912
 31
0.0
  0
LINE
  8
DETAIL
  6
CONTINUOUS
 62
     5
 10
-220.0
 20
-193.2999999999943
 30
0.0
 11
-220.0
 21
-295.29999999999433
 31
0.0
  0
LINE
  8
DETAIL
  6
CONTINUOUS
 62
     5
 10
-220.0
 20
-592.60000000000309
 30
0.0
 11
-220.0
 21
-694.60000000000309
 31
0.0
  0
LINE
  8
DETAIL
  6
CONTINUOUS
 62
     5
 10
-225.0
 20
-778.00000000000591
 30
0.0
 11
-225.0
 21
-699.60000000000309
 31
0.0
  0
LINE
  8
DETAIL
  6
CONTINUOUS
 62
     5
 10
-225.0
 20
-587.60000000000309
 30
0.0
 11
-225.0
 21
-420.00000000000591
 31
0.0
  0
LINE
  8
DETAIL
  6
CONTINUOUS
 62
     5
 10
-225.0
 20
-385.99999999999142
 30
0.0
 11
-225.0
 21
-300.29999999999433
 31
0.0
  0
LINE
  8
DETAIL
  6
CONTINUOUS
 62
     5
 10
-225.0
 20
-188.2999999999943
 30
0.0
 11
-225.0
 21
-109.5000000000059
 31
0.0
  0
LINE
  8
DETAIL
  6
CONTINUOUS
 62
     5
 10
-470.0
 20
-592.60000000000309
 30
0.0
 11
-465.0
 21
-587.60000000000309
 31
0.0
  0
LINE
  8
DETAIL
  6
CONTINUOUS
 62
     5
 10
514.19999999999982
 20
-139.10000000000579
 30
0.0
 11
522.69999999999982
 21
-139.10000000000579
 31
0.0
  0
LINE
  8
DETAIL
  6
CONTINUOUS
 62
     5
 10
514.19999999999982
 20
-128.10000000000579
 30
0.0
 11
522.69999999999982
 21
-128.10000000000579
 31
0.0
  0
LINE
  8
DETAIL
  6
CONTINUOUS
 62
     5
 10
516.19998262400259
 20
-124.5
 30
0.0
 11
514.19999999999982
 21
-124.5
 31
0.0
  0
LINE
  8
DETAIL
  6
CONTINUOUS
 62
     5
 10
483.700000000008
 20
-123.5500000000029
 30
0.0
 11
484.69999999999982
 21
-123.5500000000029
 31
0.0
  0
LINE
  8
DETAIL
  6
CONTINUOUS
 62
     5
 10
348.66243917600332
 20
-111.99999999999091
 30
0.0
 11
345.20000000000073
 21
-111.99999999999091
 31
0.0
  0
LINE
  8
DETAIL
  6
CONTINUOUS
 62
     5
 10
483.700000000008
 20
-111.5500000000029
 30
0.0
 11
484.69999999999982
 21
-111.5500000000029
 31
0.0
  0
LINE
  8
DETAIL
  6
CONTINUOUS
 62
     5
 10
480.70000000000709
 20
-512.44999999999436
 30
0.0
 11
483.700000000008
 21
-515.45000000000891
 31
0.0
  0
LINE
  8
DETAIL
  6
CONTINUOUS
 62
     5
 10
-220.0
 20
-295.29999999999433
 30
0.0
 11
-225.0
 21
-300.29999999999433
 31
0.0
  0
LINE
  8
DETAIL
  6
CONTINUOUS
 62
     5
 10
464.49999999999909
 20
-109.0000000000055
 30
0.0
 11
226.0000000000073
 21
-109.0000000000055
 31
0.0
  0
LINE
  8
DETAIL
  6
CONTINUOUS
 62
     5
 10
-225.5
 20
-109.0000000000059
 30
0.0
 11
-463.99999999999181
 21
-109.0000000000059
 31
0.0
  0
LINE
  8
DETAIL
  6
CONTINUOUS
 62
     5
 10
516.200000000008
 20
-105.10000000000581
 30
0.0
 11
522.69999999999982
 21
-105.10000000000581
 31
0.0
  0
LINE
  8
DETAIL
  6
CONTINUOUS
 62
     5
 10
530.700000000008
 20
-105.10000000000581
 30
0.0
 11
609.50000000000546
 21
-105.10000000000581
 31
0.0
  0
LINE
  8
DETAIL
  6
CONTINUOUS
 62
     5
 10
-211.0
 20
-100.5000000000059
 30
0.0
 11
-210.0
 21
-100.5000000000059
 31
0.0
  0
LINE
  8
DETAIL
  6
CONTINUOUS
 62
     5
 10
479.0
 20
-100.5000000000055
 30
0.0
 11
480.0
 21
-100.5000000000055
 31
0.0
  0
LINE
  8
DETAIL
  6
CONTINUOUS
 62
     5
 10
212.0
 20
-97.000000000005457
 30
0.0
 11
211.00000000000821
 21
-97.000000000005457
 31
0.0
  0
LINE
  8
DETAIL
  6
CONTINUOUS
 62
     5
 10
-478.0
 20
-97.000000000005912
 30
0.0
 11
-478.99999999999181
 21
-97.000000000005912
 31
0.0
  0
LINE
  8
DETAIL
  6
CONTINUOUS
 62
     5
 10
-211.9999999999927
 20
-96.500000000005912
 30
0.0
 11
-211.0
 21
-96.500000000005912
 31
0.0
  0
LINE
  8
DETAIL
  6
CONTINUOUS
 62
     5
 10
478.00000000000728
 20
-96.500000000005457
 30
0.0
 11
479.0
 21
-96.500000000005457
 31
0.0
  0
LINE
  8
DETAIL
  6
CONTINUOUS
 62
     5
 10
-211.0
 20
-95.500000000005912
 30
0.0
 11
-210.0
 21
-95.500000000005912
 31
0.0
  0
LINE
  8
DETAIL
  6
CONTINUOUS
 62
     5
 10
479.0
 20
-95.500000000005457
 30
0.0
 11
480.0
 21
-95.500000000005457
 31
0.0
  0
LINE
  8
DETAIL
  6
CONTINUOUS
 62
     5
 10
478.50000000000819
 20
-95.000000000005457
 30
0.0
 11
212.0
 21
-95.000000000005457
 31
0.0
  0
LINE
  8
DETAIL
  6
CONTINUOUS
 62
     5
 10
-211.49999999999179
 20
-95.000000000005912
 30
0.0
 11
-478.0
 21
-95.000000000005912
 31
0.0
  0
LINE
  8
DETAIL
  6
CONTINUOUS
 62
     5
 10
-478.0
 20
-94.000000000005912
 30
0.0
 11
-211.49999999999179
 21
-94.000000000005912
 31
0.0
  0
LINE
  8
DETAIL
  6
CONTINUOUS
 62
     5
 10
212.0
 20
-94.000000000005457
 30
0.0
 11
478.50000000000819
 21
-94.000000000005457
 31
0.0
  0
LINE
  8
DETAIL
  6
CONTINUOUS
 62
     5
 10
520.20000000000073
 20
-89.100000000005821
 30
0.0
 11
522.69999999999982
 21
-89.100000000005821
 31
0.0
  0
LINE
  8
DETAIL
  6
CONTINUOUS
 62
     5
 10
514.19999999999982
 20
-87.099999999991269
 30
0.0
 11
518.200000000008
 21
-87.099999999991269
 31
0.0
  0
LINE
  8
DETAIL
  6
CONTINUOUS
 62
     5
 10
465.0
 20
-385.99999999999142
 30
0.0
 11
479.0
 21
-399.99999999999142
 31
0.0
  0
LINE
  8
DETAIL
  6
CONTINUOUS
 62
     5
 10
489.26730091803438
 20
-404.00000000000591
 30
0.0
 11
487.16730091800758
 21
-401.90000000001459
 31
0.0
  0
LINE
  8
DETAIL
  6
CONTINUOUS
 62
     5
 10
480.700000000008
 20
-394.00000000000591
 30
0.0
 11
483.700000000008
 21
-397.00000000000591
 31
0.0
  0
LINE
  8
DETAIL
  6
CONTINUOUS
 62
     5
 10
489.19999999999982
 20
-398.19999999998839
 30
0.0
 11
492.20000000000073
 21
-401.200000000003
 31
0.0
  0
LINE
  8
DETAIL
  6
CONTINUOUS
 62
     5
 10
489.80000000000018
 20
-609.71166234800785
 30
0.0
 11
480.70000000000709
 21
-593.94999999999436
 31
0.0
  0
LINE
  8
DETAIL
  6
CONTINUOUS
 62
     5
 10
495.70000000000709
 20
-608.31602540400945
 30
0.0
 11
497.63816996599962
 21
-611.67303426000308
 31
0.0
  0
LINE
  8
DETAIL
  6
CONTINUOUS
 62
     5
 10
506.02548339800342
 20
-402.12548340000512
 30
0.0
 11
497.57451660000879
 21
-393.67451659999512
 31
0.0
  0
LINE
  8
DETAIL
  6
CONTINUOUS
 62
     5
 10
508.28822509800011
 20
-399.8627416999866
 30
0.0
 11
499.83725829999821
 21
-391.41177490000558
 31
0.0
  0
LINE
  8
DETAIL
  6
CONTINUOUS
 62
     5
 10
225.0
 20
-110.0000000000055
 30
0.0
 11
212.0
 21
-97.000000000005457
 31
0.0
  0
LINE
  8
DETAIL
  6
CONTINUOUS
 62
     5
 10
213.0000000000073
 20
-96.000000000005457
 30
0.0
 11
226.0000000000073
 21
-109.0000000000055
 31
0.0
  0
LINE
  8
DETAIL
  6
CONTINUOUS
 62
     5
 10
510.19999999999982
 20
-399.80000000000882
 30
0.0
 11
510.58091743000477
 21
-400.26357513999977
 31
0.0
  0
LINE
  8
DETAIL
  6
CONTINUOUS
 62
     5
 10
-478.99999999999181
 20
-399.99999999999142
 30
0.0
 11
-465.0
 21
-385.99999999999142
 31
0.0
  0
LINE
  8
DETAIL
  6
CONTINUOUS
 62
     5
 10
-506.0254833999943
 20
-402.12548340000512
 30
0.0
 11
-497.57451660199422
 21
-393.67451659999512
 31
0.0
  0
LINE
  8
DETAIL
  6
CONTINUOUS
 62
     5
 10
-508.28822509999918
 20
-399.8627416999866
 30
0.0
 11
-499.8372582999973
 21
-391.41177490000558
 31
0.0
  0
LINE
  8
DETAIL
  6
CONTINUOUS
 62
     5
 10
-211.9999999999927
 20
-96.500000000005912
 30
0.0
 11
-225.0
 21
-109.5000000000059
 31
0.0
  0
LINE
  8
DETAIL
  6
CONTINUOUS
 62
     5
 10
-225.5
 20
-109.0000000000059
 30
0.0
 11
-212.5
 21
-96.000000000005912
 31
0.0
  0
LINE
  8
DETAIL
  6
CONTINUOUS
 62
     5
 10
483.700000000008
 20
-7.0
 30
0.0
 11
489.19999999999982
 21
-7.0
 31
0.0
  0
LINE
  8
DETAIL
  6
CONTINUOUS
 62
     5
 10
510.19999999999982
 20
-4.3000000000029104
 30
0.0
 11
499.20000000000073
 21
-4.3000000000029104
 31
0.0
  0
LINE
  8
DETAIL
  6
CONTINUOUS
 62
     5
 10
509.60000000000309
 20
-3.6999999999970901
 30
0.0
 11
500.40000000000509
 21
-3.6999999999970901
 31
0.0
  0
LINE
  8
DETAIL
  6
CONTINUOUS
 62
     5
 10
499.20000000000073
 20
-3.6000000000058212
 30
0.0
 11
495.700000000008
 21
-3.6000000000058212
 31
0.0
  0
LINE
  8
DETAIL
  6
CONTINUOUS
 62
     5
 10
509.60000000000309
 20
-3.1000000000058212
 30
0.0
 11
500.40000000000509
 21
-3.1000000000058212
 31
0.0
  0
LINE
  8
DETAIL
  6
CONTINUOUS
 62
     5
 10
495.700000000008
 20
-2.8000000000029099
 30
0.0
 11
492.20000000000073
 21
-2.8000000000029099
 31
0.0
  0
LINE
  8
DETAIL
  6
CONTINUOUS
 62
     5
 10
-492.84708539199801
 20
-2.8000000000029099
 30
0.0
 11
-495.69999999999982
 21
-2.8000000000029099
 31
0.0
  0
LINE
  8
DETAIL
  6
CONTINUOUS
 62
     5
 10
500.94999999999982
 20
-1.3000000000029099
 30
0.0
 11
496.200000000008
 21
-1.3000000000029099
 31
0.0
  0
LINE
  8
DETAIL
  6
CONTINUOUS
 62
     5
 10
488.51438631000752
 20
-0.8000000000029104
 30
0.0
 11
494.19999999999982
 21
-0.8000000000029104
 31
0.0
  0
LINE
  8
DETAIL
  6
CONTINUOUS
 62
     5
 10
500.94999999999982
 20
-0.8000000000029104
 30
0.0
 11
495.87127970400252
 21
-0.8000000000029104
 31
0.0
  0
LINE
  8
DETAIL
  6
CONTINUOUS
 62
     5
 10
-495.87127970599431
 20
-0.8000000000029104
 30
0.0
 11
-500.94999999999158
 21
-0.8000000000029104
 31
0.0
  0
LINE
  8
DETAIL
  6
CONTINUOUS
 62
     5
 10
-488.51438631000019
 20
-0.8000000000029104
 30
0.0
 11
-492.84708539199801
 21
-0.8000000000029104
 31
0.0
  0
LINE
  8
DETAIL
  6
CONTINUOUS
 62
     5
 10
500.94999999999982
 20
0.0
 30
0.0
 11
495.87127970400252
 21
0.0
 31
0.0
  0
LINE
  8
DETAIL
  6
CONTINUOUS
 62
     5
 10
492.84708539000258
 20
0.0
 30
0.0
 11
-492.84708539199801
 21
0.0
 31
0.0
  0
LINE
  8
DETAIL
  6
CONTINUOUS
 62
     5
 10
-495.87127970599431
 20
0.0
 30
0.0
 11
-500.94999999999158
 21
0.0
 31
0.0
  0
LINE
  8
DETAIL
  6
CONTINUOUS
 62
     5
 10
-494.03500474999692
 20
-2.8000000000029099
 30
0.0
 11
-494.29558729999741
 21
-1.3221629160107109
 31
0.0
  0
LINE
  8
DETAIL
  6
CONTINUOUS
 62
     5
 10
-494.84734603999999
 20
-2.8000000000029099
 30
0.0
 11
-495.08343350399991
 21
-1.4610814579937139
 31
0.0
  0
LINE
  8
DETAIL
  6
CONTINUOUS
 62
     5
 10
-494.29558729999741
 20
-806.67783708398656
 30
0.0
 11
-494.03500474999692
 21
-805.19999999999436
 31
0.0
  0
LINE
  8
DETAIL
  6
CONTINUOUS
 62
     5
 10
-495.08343350399991
 20
-806.53891854200356
 30
0.0
 11
-494.84734603999999
 21
-805.19999999999436
 31
0.0
  0
LINE
  8
DETAIL
  6
CONTINUOUS
 62
     5
 10
497.63816996600048
 20
-207.7730342599971
 30
0.0
 11
498.02129645800233
 21
-208.09451555799751
 31
0.0
  0
LINE
  8
DETAIL
  6
CONTINUOUS
 62
     5
 10
465.0
 20
-188.29999999999379
 30
0.0
 11
470.0
 21
-193.29999999999379
 31
0.0
  0
LINE
  8
DETAIL
  6
CONTINUOUS
 62
     5
 10
-465.0
 20
-110.0000000000059
 30
0.0
 11
-465.0
 21
-188.2999999999943
 31
0.0
  0
LINE
  8
DETAIL
  6
CONTINUOUS
 62
     5
 10
-465.0
 20
-300.29999999999433
 30
0.0
 11
-465.0
 21
-385.99999999999142
 31
0.0
  0
LINE
  8
DETAIL
  6
CONTINUOUS
 62
     5
 10
-465.0
 20
-420.00000000000591
 30
0.0
 11
-465.0
 21
-587.60000000000309
 31
0.0
  0
LINE
  8
DETAIL
  6
CONTINUOUS
 62
     5
 10
-465.0
 20
-699.60000000000309
 30
0.0
 11
-465.0
 21
-778.49999999999136
 31
0.0
  0
LINE
  8
DETAIL
  6
CONTINUOUS
 62
     5
 10
480.700000000008
 20
-108.5500000000029
 30
0.0
 11
483.700000000008
 21
-111.5500000000029
 31
0.0
  0
LINE
  8
DETAIL
  6
CONTINUOUS
 62
     5
 10
489.80000000000018
 20
-205.81166234800179
 30
0.0
 11
480.700000000008
 21
-190.05000000000291
 31
0.0
  0
LINE
  8
DETAIL
  6
CONTINUOUS
 62
     5
 10
495.700000000008
 20
-204.41602540400339
 30
0.0
 11
497.63816996600048
 21
-207.7730342599971
 31
0.0
  0
LINE
  8
DETAIL
  6
CONTINUOUS
 62
     5
 10
-494.03500474999692
 20
-406.80000000000882
 30
0.0
 11
-494.29558729999741
 21
-405.32216291600213
 31
0.0
  0
LINE
  8
DETAIL
  6
CONTINUOUS
 62
     5
 10
-494.84734603999999
 20
-406.80000000000882
 30
0.0
 11
-495.08343350399991
 21
-405.46108145799963
 31
0.0
  0
LINE
  8
DETAIL
  6
CONTINUOUS
 62
     5
 10
-470.0
 20
-694.60000000000309
 30
0.0
 11
-470.0
 21
-592.60000000000309
 31
0.0
  0
LINE
  8
DETAIL
  6
CONTINUOUS
 62
     5
 10
-470.0
 20
-295.29999999999433
 30
0.0
 11
-470.0
 21
-193.2999999999943
 31
0.0
  0
LINE
  8
DETAIL
  6
CONTINUOUS
 62
     5
 10
-473.5
 20
-793.00000000000591
 30
0.0
 11
-473.5
 21
-794.00000000000591
 31
0.0
  0
LINE
  8
DETAIL
  6
CONTINUOUS
 62
     5
 10
-476.99999999999272
 20
-96.000000000005912
 30
0.0
 11
-476.99999999999272
 21
-95.000000000005912
 31
0.0
  0
LINE
  8
DETAIL
  6
CONTINUOUS
 62
     5
 10
-477.5
 20
-791.99999999999136
 30
0.0
 11
-477.5
 21
-793.00000000000591
 31
0.0
  0
LINE
  8
DETAIL
  6
CONTINUOUS
 62
     5
 10
-478.49999999999909
 20
-793.00000000000591
 30
0.0
 11
-478.49999999999909
 21
-794.00000000000591
 31
0.0
  0
LINE
  8
DETAIL
  6
CONTINUOUS
 62
     5
 10
-478.99999999999181
 20
-792.50000000000591
 30
0.0
 11
-478.99999999999181
 21
-96.000000000005912
 31
0.0
  0
LINE
  8
DETAIL
  6
CONTINUOUS
 62
     5
 10
-479.99999999999909
 20
-792.50000000000591
 30
0.0
 11
-479.99999999999909
 21
-96.000000000005912
 31
0.0
  0
LINE
  8
DETAIL
  6
CONTINUOUS
 62
     5
 10
-492.19999999999158
 20
-404.79999999999433
 30
0.0
 11
-492.19999999999158
 21
-406.80000000000882
 31
0.0
  0
LINE
  8
DETAIL
  6
CONTINUOUS
 62
     5
 10
-492.19999999999158
 20
-403.200000000003
 30
0.0
 11
-492.19999999999158
 21
-401.200000000003
 31
0.0
  0
LINE
  8
DETAIL
  6
CONTINUOUS
 62
     5
 10
-492.79999999999649
 20
-807.99999999999727
 30
0.0
 11
-492.79999999999649
 21
-805.19999999999436
 31
0.0
  0
LINE
  8
DETAIL
  6
CONTINUOUS
 62
     5
 10
-492.84708539199801
 20
-2.8000000000029099
 30
0.0
 11
-492.84708539199801
 21
0.0
 31
0.0
  0
LINE
  8
DETAIL
  6
CONTINUOUS
 62
     5
 10
-495.19999999999982
 20
-1.8000000000029099
 30
0.0
 11
-495.19999999999982
 21
-2.8000000000029099
 31
0.0
  0
LINE
  8
DETAIL
  6
CONTINUOUS
 62
     5
 10
-495.19999999999982
 20
-405.79999999999433
 30
0.0
 11
-495.19999999999982
 21
-406.80000000000882
 31
0.0
  0
LINE
  8
DETAIL
  6
CONTINUOUS
 62
     5
 10
-495.19999999999982
 20
-806.19999999999436
 30
0.0
 11
-495.19999999999982
 21
-805.19999999999436
 31
0.0
  0
LINE
  8
DETAIL
  6
CONTINUOUS
 62
     5
 10
-495.19999999999982
 20
-402.200000000003
 30
0.0
 11
-495.19999999999982
 21
-401.200000000003
 31
0.0
  0
LINE
  8
DETAIL
  6
CONTINUOUS
 62
     5
 10
-495.69999999999982
 20
-806.19999999999436
 30
0.0
 11
-495.69999999999982
 21
-405.79999999999433
 31
0.0
  0
LINE
  8
DETAIL
  6
CONTINUOUS
 62
     5
 10
-495.69999999999982
 20
-402.200000000003
 30
0.0
 11
-495.69999999999982
 21
-1.8000000000029099
 31
0.0
  0
LINE
  8
DETAIL
  6
CONTINUOUS
 62
     5
 10
-498.89999999999691
 20
-389.14903320000172
 30
0.0
 11
-498.89999999999691
 21
-389.00000000000591
 31
0.0
  0
LINE
  8
DETAIL
  6
CONTINUOUS
 62
     5
 10
-500.69999999999982
 20
-807.19999999999436
 30
0.0
 11
-500.69999999999982
 21
-806.70000000000891
 31
0.0
  0
LINE
  8
DETAIL
  6
CONTINUOUS
 62
     5
 10
-500.69999999999982
 20
-405.29999999999433
 30
0.0
 11
-500.69999999999982
 21
-404.79999999999433
 31
0.0
  0
LINE
  8
DETAIL
  6
CONTINUOUS
 62
     5
 10
-500.69999999999982
 20
-403.200000000003
 30
0.0
 11
-500.69999999999982
 21
-402.700000000003
 31
0.0
  0
LINE
  8
DETAIL
  6
CONTINUOUS
 62
     5
 10
-500.69999999999982
 20
-1.3000000000029099
 30
0.0
 11
-500.69999999999982
 21
-0.8000000000029104
 31
0.0
  0
LINE
  8
DETAIL
  6
CONTINUOUS
 62
     5
 10
-494.29558729999741
 20
-402.6778370839952
 30
0.0
 11
-494.03500474999692
 21
-401.200000000003
 31
0.0
  0
LINE
  8
DETAIL
  6
CONTINUOUS
 62
     5
 10
-495.08343350399991
 20
-402.53891854199759
 30
0.0
 11
-494.84734603999999
 21
-401.200000000003
 31
0.0
  0
LINE
  8
DETAIL
  6
CONTINUOUS
 62
     5
 10
-470.0
 20
-193.2999999999943
 30
0.0
 11
-465.0
 21
-188.2999999999943
 31
0.0
  0
LINE
  8
DETAIL
  6
CONTINUOUS
 62
     5
 10
-528.29999963625778
 20
-423.20000000000351
 30
0.0
 11
-528.29999963625778
 21
-431.00000000000642
 31
0.0
  0
LINE
  8
DETAIL
  6
CONTINUOUS
 62
     5
 10
-528.29999963625778
 20
-384.80000000000928
 30
0.0
 11
-528.29999963625778
 21
-377.00000000000642
 31
0.0
  0
LINE
  8
DETAIL
  6
CONTINUOUS
 62
     5
 10
-538.29999963625869
 20
-425.20000000001801
 30
0.0
 11
-538.29999963625869
 21
-431.00000000000642
 31
0.0
  0
LINE
  8
DETAIL
  6
CONTINUOUS
 62
     5
 10
-538.29999963625869
 20
-382.80000000000928
 30
0.0
 11
-538.29999963625869
 21
-377.00000000000642
 31
0.0
  0
LINE
  8
DETAIL
  6
CONTINUOUS
 62
     5
 10
-543.89999999999691
 20
-407.200000000003
 30
0.0
 11
-543.89999999999691
 21
-400.79999999999433
 31
0.0
  0
LINE
  8
DETAIL
  6
CONTINUOUS
 62
     5
 10
-548.49999963625578
 20
-425.20000000001801
 30
0.0
 11
-548.49999963625578
 21
-444.20000000001801
 31
0.0
  0
LINE
  8
DETAIL
  6
CONTINUOUS
 62
     5
 10
-548.49999963625578
 20
-382.80000000000928
 30
0.0
 11
-548.49999963625578
 21
-363.80000000000928
 31
0.0
  0
ARC
  8
DETAIL
  6
CONTINUOUS
 62
     5
 10
609.50000000000546
 20
-712.89999999999441
 30
0.0
 40
1.1999999999999991
 50
270.0
 51
0.0
  0
ARC
  8
DETAIL
  6
CONTINUOUS
 62
     5
 10
475.60000000000309
 20
-761.69192476400076
 30
0.0
 40
55.099999999999952
 50
309.40977859100411
 51
0.0
  0
CIRCLE
  8
DETAIL
  6
CONTINUOUS
 62
     5
 10
471.00000000000819
 20
-738.60000000000309
 30
0.0
 40
4.6999999999999984
  0
CIRCLE
  8
DETAIL
  6
CONTINUOUS
 62
     5
 10
435.0
 20
-785.00000000000591
 30
0.0
 40
4.6999999999999984
  0
ARC
  8
DETAIL
  6
CONTINUOUS
 62
     5
 10
478.00000000000728
 20
-791.99999999999136
 30
0.0
 40
1.9999999999999989
 50
270.0
 51
0.0
  0
ARC
  8
DETAIL
  6
CONTINUOUS
 62
     5
 10
495.87127970400252
 20
-806.400000000006
 30
0.0
 40
1.599999999999999
 50
189.99999999995231
 51
270.0
  0
ARC
  8
DETAIL
  6
CONTINUOUS
 62
     5
 10
500.40000000000509
 20
-803.80000000000018
 30
0.0
 40
1.1999999999999991
 50
180.0
 51
270.0
  0
ARC
  8
DETAIL
  6
CONTINUOUS
 62
     5
 10
520.19999999999982
 20
-719.99999999999727
 30
0.0
 40
0.9999999999999994
 50
90.0
 51
180.0
  0
ARC
  8
DETAIL
  6
CONTINUOUS
 62
     5
 10
518.20000000000709
 20
-719.99999999999727
 30
0.0
 40
0.9999999999999994
 50
270.0
 51
0.0
  0
ARC
  8
DETAIL
  6
CONTINUOUS
 62
     5
 10
478.00000000000728
 20
-791.99999999999136
 30
0.0
 40
0.9999999999999994
 50
270.0
 51
0.0
  0
ARC
  8
DETAIL
  6
CONTINUOUS
 62
     5
 10
496.200000000008
 20
-806.19999999999436
 30
0.0
 40
0.9999999999999994
 50
180.0
 51
270.0
  0
ARC
  8
DETAIL
  6
CONTINUOUS
 62
     5
 10
518.20000000000709
 20
-730.99999999999727
 30
0.0
 40
0.9999999999999994
 50
270.0
 51
0.0
  0
ARC
  8
DETAIL
  6
CONTINUOUS
 62
     5
 10
520.19999999999982
 20
-730.99999999999727
 30
0.0
 40
0.9999999999999994
 50
90.0
 51
180.0
  0
ARC
  8
DETAIL
  6
CONTINUOUS
 62
     5
 10
495.87127970400252
 20
-806.400000000006
 30
0.0
 40
0.7999999999999996
 50
189.99999999995231
 51
270.0
  0
ARC
  8
DETAIL
  6
CONTINUOUS
 62
     5
 10
496.40000000000509
 20
-805.99999999999727
 30
0.0
 40
0.5999999999999996
 50
180.0
 51
270.0
  0
ARC
  8
DETAIL
  6
CONTINUOUS
 62
     5
 10
500.40000000000509
 20
-803.80000000000018
 30
0.0
 40
0.5999999999999996
 50
180.0
 51
270.0
  0
ARC
  8
DETAIL
  6
CONTINUOUS
 62
     5
 10
509.60000000000218
 20
-804.39999999999145
 30
0.0
 40
0.5999999999999996
 50
270.0
 51
90.0
  0
ARC
  8
DETAIL
  6
CONTINUOUS
 62
     5
 10
496.200000000008
 20
-806.19999999999436
 30
0.0
 40
0.4999999999999997
 50
180.0
 51
270.0
  0
ARC
  8
DETAIL
  6
CONTINUOUS
 62
     5
 10
529.29999999999745
 20
-655.30000000000018
 30
0.0
 40
2.9999999999999978
 50
297.85219319736262
 51
0.0
  0
ARC
  8
DETAIL
  6
CONTINUOUS
 62
     5
 10
535.30000000000746
 20
-650.10000000000309
 30
0.0
 40
1.9999999999999989
 50
180.0
 51
270.0
  0
ARC
  8
DETAIL
  6
CONTINUOUS
 62
     5
 10
532.3398655919973
 20
-629.69999999999436
 30
0.0
 40
1.099999999999999
 50
270.0
 51
90.0
  0
ARC
  8
DETAIL
  6
CONTINUOUS
 62
     5
 10
532.29999999999927
 20
-621.19999999999436
 30
0.0
 40
0.9999999999999994
 50
270.0
 51
351.00000000003439
  0
ARC
  8
DETAIL
  6
CONTINUOUS
 62
     5
 10
532.29999999999927
 20
-628.39999999999145
 30
0.0
 40
0.9999999999999994
 50
0.0
 51
90.0
  0
ARC
  8
DETAIL
  6
CONTINUOUS
 62
     5
 10
535.30000000000746
 20
-650.10000000000309
 30
0.0
 40
0.9999999999999994
 50
180.0
 51
270.0
  0
ARC
  8
DETAIL
  6
CONTINUOUS
 62
     5
 10
431.13145750400417
 20
-605.99999999999727
 30
0.0
 40
91.999999999999957
 50
324.26913508861048
 51
325.35262492618341
  0
CIRCLE
  8
DETAIL
  6
CONTINUOUS
 62
     5
 10
519.79999999999927
 20
-638.30000000000018
 30
0.0
 40
3.9999999999999978
  0
ARC
  8
DETAIL
  6
CONTINUOUS
 62
     5
 10
519.79999999999927
 20
-653.30000000000018
 30
0.0
 40
2.8999999999999981
 50
180.0
 51
0.0
  0
ARC
  8
DETAIL
  6
CONTINUOUS
 62
     5
 10
508.80000000000751
 20
-628.30000000000018
 30
0.0
 40
2.4999999999999991
 50
90.0
 51
186.89516759812861
  0
ARC
  8
DETAIL
  6
CONTINUOUS
 62
     5
 10
508.80000000000751
 20
-648.30000000000018
 30
0.0
 40
2.4999999999999991
 50
90.0
 51
270.0
  0
ARC
  8
DETAIL
  6
CONTINUOUS
 62
     5
 10
496.80000000000018
 20
-613.44999999999436
 30
0.0
 40
1.899999999999999
 50
0.0
 51
49.99999999997906
  0
ARC
  8
DETAIL
  6
CONTINUOUS
 62
     5
 10
507.55000000000467
 20
-665.650000000006
 30
0.0
 40
1.7499999999999989
 50
180.0
 51
0.0
  0
ARC
  8
DETAIL
  6
CONTINUOUS
 62
     5
 10
507.55000000000467
 20
-625.94999999999436
 30
0.0
 40
1.7499999999999989
 50
0.0
 51
180.0
  0
ARC
  8
DETAIL
  6
CONTINUOUS
 62
     5
 10
345.0
 20
-645.99999999999727
 30
0.0
 40
129.99999999999989
 50
90.0
 51
164.0576313944317
  0
ARC
  8
DETAIL
  6
CONTINUOUS
 62
     5
 10
345.0
 20
-645.94999999999436
 30
0.0
 40
129.99999999999989
 50
15.930119846773669
 51
164.06988015315179
  0
ARC
  8
DETAIL
  6
CONTINUOUS
 62
     5
 10
345.0
 20
-645.94999999999436
 30
0.0
 40
129.99999999999989
 50
195.93011984677369
 51
344.06988015322639
  0
CIRCLE
  8
DETAIL
  6
CONTINUOUS
 62
     5
 10
255.0
 20
-785.00000000000591
 30
0.0
 40
4.6999999999999984
  0
CIRCLE
  8
DETAIL
  6
CONTINUOUS
 62
     5
 10
219.0
 20
-738.60000000000309
 30
0.0
 40
4.6999999999999984
  0
ARC
  8
DETAIL
  6
CONTINUOUS
 62
     5
 10
532.3398655919973
 20
-582.30000000000018
 30
0.0
 40
1.099999999999999
 50
270.0
 51
90.0
  0
ARC
  8
DETAIL
  6
CONTINUOUS
 62
     5
 10
484.69999999999982
 20
-521.44999999999436
 30
0.0
 40
5.9999999999999956
 50
270.0
 51
90.0
  0
ARC
  8
DETAIL
  6
CONTINUOUS
 62
     5
 10
496.80000000000018
 20
-598.44999999999436
 30
0.0
 40
1.899999999999999
 50
310.00000000002092
 51
0.0
  0
ARC
  8
DETAIL
  6
CONTINUOUS
 62
     5
 10
543.90000000000509
 20
-425.200000000003
 30
0.0
 40
4.9999999999999973
 50
0.0
 51
90.0
  0
ARC
  8
DETAIL
  6
CONTINUOUS
 62
     5
 10
533.700000000008
 20
-430.99999999999142
 30
0.0
 40
4.9999999999999973
 50
180.0
 51
0.0
  0
ARC
  8
DETAIL
  6
CONTINUOUS
 62
     5
 10
543.700000000008
 20
-425.200000000003
 30
0.0
 40
4.9999999999999973
 50
90.0
 51
180.0
  0
ARC
  8
DETAIL
  6
CONTINUOUS
 62
     5
 10
545.90000000000509
 20
-444.200000000003
 30
0.0
 40
2.9999999999999978
 50
270.0
 51
0.0
  0
ARC
  8
DETAIL
  6
CONTINUOUS
 62
     5
 10
525.700000000008
 20
-423.19999999998839
 30
0.0
 40
2.9999999999999978
 50
0.0
 51
90.0
  0
ARC
  8
DETAIL
  6
CONTINUOUS
 62
     5
 10
475.60000000000309
 20
-450.40807523400008
 30
0.0
 40
55.099999999999952
 50
0.0
 51
3.3381666126276182
  0
ARC
  8
DETAIL
  6
CONTINUOUS
 62
     5
 10
475.60000000000309
 20
-450.40807523400008
 30
0.0
 40
55.099999999999952
 50
33.248167957311288
 51
50.590221408995987
  0
ARC
  8
DETAIL
  6
CONTINUOUS
 62
     5
 10
502.10000000000309
 20
-418.8509667999956
 30
0.0
 40
6.3999999999999968
 50
135.00000000001381
 51
180.0
  0
ARC
  8
DETAIL
  6
CONTINUOUS
 62
     5
 10
510.55096679800499
 20
-410.40000000000009
 30
0.0
 40
6.3999999999999968
 50
90.0
 51
135.00000000001381
  0
ARC
  8
DETAIL
  6
CONTINUOUS
 62
     5
 10
510.55096679800499
 20
-410.40000000000009
 30
0.0
 40
3.199999999999998
 50
90.0
 51
135.000000000152
  0
ARC
  8
DETAIL
  6
CONTINUOUS
 62
     5
 10
502.10000000000309
 20
-418.8509667999956
 30
0.0
 40
3.199999999999998
 50
135.00000000001381
 51
180.0
  0
ARC
  8
DETAIL
  6
CONTINUOUS
 62
     5
 10
495.87127970400252
 20
-405.59999999999718
 30
0.0
 40
1.599999999999999
 50
90.0
 51
170.00000000004769
  0
ARC
  8
DETAIL
  6
CONTINUOUS
 62
     5
 10
500.40000000000509
 20
-408.29999999999433
 30
0.0
 40
1.1999999999999991
 50
90.0
 51
180.0
  0
ARC
  8
DETAIL
  6
CONTINUOUS
 62
     5
 10
496.200000000008
 20
-405.79999999999433
 30
0.0
 40
0.9999999999999994
 50
90.0
 51
180.0
  0
ARC
  8
DETAIL
  6
CONTINUOUS
 62
     5
 10
520.20000000000073
 20
-491.99999999999733
 30
0.0
 40
0.9999999999999994
 50
180.0
 51
270.0
  0
ARC
  8
DETAIL
  6
CONTINUOUS
 62
     5
 10
518.200000000008
 20
-491.99999999999733
 30
0.0
 40
0.9999999999999994
 50
0.0
 51
90.0
  0
ARC
  8
DETAIL
  6
CONTINUOUS
 62
     5
 10
495.87127970400252
 20
-405.59999999999718
 30
0.0
 40
0.7999999999999996
 50
90.0
 51
170.00000000004769
  0
ARC
  8
DETAIL
  6
CONTINUOUS
 62
     5
 10
496.40000000000509
 20
-405.99999999999142
 30
0.0
 40
0.5999999999999996
 50
90.0
 51
180.0
  0
ARC
  8
DETAIL
  6
CONTINUOUS
 62
     5
 10
500.40000000000509
 20
-408.29999999999433
 30
0.0
 40
0.5999999999999996
 50
90.0
 51
180.0
  0
ARC
  8
DETAIL
  6
CONTINUOUS
 62
     5
 10
509.60000000000218
 20
-407.700000000003
 30
0.0
 40
0.5999999999999996
 50
270.0
 51
48.761283764101996
  0
ARC
  8
DETAIL
  6
CONTINUOUS
 62
     5
 10
496.200000000008
 20
-405.79999999999433
 30
0.0
 40
0.4999999999999997
 50
90.0
 51
180.0
  0
ARC
  8
DETAIL
  6
CONTINUOUS
 62
     5
 10
-345.0
 20
-645.94999999999436
 30
0.0
 40
129.99999999999989
 50
15.930119846773669
 51
164.06988015315179
  0
ARC
  8
DETAIL
  6
CONTINUOUS
 62
     5
 10
-345.0
 20
-645.94999999999436
 30
0.0
 40
129.99999999999989
 50
195.93011984677369
 51
344.06988015322639
  0
CIRCLE
  8
DETAIL
  6
CONTINUOUS
 62
     5
 10
-218.99999999999179
 20
-738.60000000000309
 30
0.0
 40
4.6999999999999984
  0
CIRCLE
  8
DETAIL
  6
CONTINUOUS
 62
     5
 10
-254.99999999999909
 20
-785.00000000000591
 30
0.0
 40
4.6999999999999984
  0
ARC
  8
DETAIL
  6
CONTINUOUS
 62
     5
 10
-211.9999999999927
 20
-791.99999999999136
 30
0.0
 40
1.9999999999999989
 50
270.0
 51
0.0
  0
ARC
  8
DETAIL
  6
CONTINUOUS
 62
     5
 10
-211.9999999999927
 20
-791.99999999999136
 30
0.0
 40
0.9999999999999994
 50
270.0
 51
0.0
  0
CIRCLE
  8
DETAIL
  6
CONTINUOUS
 62
     5
 10
-435.0
 20
-785.00000000000591
 30
0.0
 40
4.6999999999999984
  0
CIRCLE
  8
DETAIL
  6
CONTINUOUS
 62
     5
 10
-471.0
 20
-738.60000000000309
 30
0.0
 40
4.6999999999999984
  0
ARC
  8
DETAIL
  6
CONTINUOUS
 62
     5
 10
-495.87127970599431
 20
-806.400000000006
 30
0.0
 40
1.599999999999999
 50
270.0
 51
350.00000000004769
  0
ARC
  8
DETAIL
  6
CONTINUOUS
 62
     5
 10
-496.19999999999982
 20
-806.19999999999436
 30
0.0
 40
0.9999999999999994
 50
270.0
 51
0.0
  0
ARC
  8
DETAIL
  6
CONTINUOUS
 62
     5
 10
-495.87127970599431
 20
-806.400000000006
 30
0.0
 40
0.7999999999999996
 50
270.0
 51
350.00000000004769
  0
ARC
  8
DETAIL
  6
CONTINUOUS
 62
     5
 10
-496.19999999999982
 20
-806.19999999999436
 30
0.0
 40
0.4999999999999997
 50
270.0
 51
0.0
  0
ARC
  8
DETAIL
  6
CONTINUOUS
 62
     5
 10
-502.099999999994
 20
-418.8509667999956
 30
0.0
 40
6.3999999999999968
 50
0.0
 51
44.999999999986187
  0
ARC
  8
DETAIL
  6
CONTINUOUS
 62
     5
 10
-510.5509667999977
 20
-410.40000000000009
 30
0.0
 40
6.3999999999999968
 50
44.999999999986187
 51
90.0
  0
ARC
  8
DETAIL
  6
CONTINUOUS
 62
     5
 10
-533.29999963625869
 20
-431.00000000000642
 30
0.0
 40
4.9999999999999973
 50
180.0
 51
0.0
  0
ARC
  8
DETAIL
  6
CONTINUOUS
 62
     5
 10
-543.29999963625869
 20
-425.20000000001801
 30
0.0
 40
4.9999999999999973
 50
0.0
 51
90.0
  0
ARC
  8
DETAIL
  6
CONTINUOUS
 62
     5
 10
-543.49999963625578
 20
-425.20000000001801
 30
0.0
 40
4.9999999999999973
 50
90.0
 51
180.0
  0
ARC
  8
DETAIL
  6
CONTINUOUS
 62
     5
 10
-510.5509667999977
 20
-410.40000000000009
 30
0.0
 40
3.199999999999998
 50
44.999999999986187
 51
90.0
  0
ARC
  8
DETAIL
  6
CONTINUOUS
 62
     5
 10
-545.49999963625578
 20
-444.20000000001801
 30
0.0
 40
2.9999999999999978
 50
180.0
 51
270.0
  0
ARC
  8
DETAIL
  6
CONTINUOUS
 62
     5
 10
-525.29999963625869
 20
-423.20000000000351
 30
0.0
 40
2.9999999999999978
 50
90.0
 51
180.0
  0
ARC
  8
DETAIL
  6
CONTINUOUS
 62
     5
 10
-495.87127970599431
 20
-405.59999999999718
 30
0.0
 40
1.599999999999999
 50
9.9999999999522906
 51
90.0
  0
ARC
  8
DETAIL
  6
CONTINUOUS
 62
     5
 10
-496.19999999999982
 20
-405.79999999999433
 30
0.0
 40
0.9999999999999994
 50
0.0
 51
77.74252274759138
  0
ARC
  8
DETAIL
  6
CONTINUOUS
 62
     5
 10
-495.87127970599431
 20
-405.59999999999718
 30
0.0
 40
0.7999999999999996
 50
9.9999999999522906
 51
90.0
  0
ARC
  8
DETAIL
  6
CONTINUOUS
 62
     5
 10
-496.19999999999982
 20
-405.79999999999433
 30
0.0
 40
0.4999999999999997
 50
0.0
 51
90.0
  0
ARC
  8
DETAIL
  6
CONTINUOUS
 62
     5
 10
502.10000000000309
 20
-389.14903320000172
 30
0.0
 40
6.3999999999999968
 50
180.0
 51
224.99999999998619
  0
ARC
  8
DETAIL
  6
CONTINUOUS
 62
     5
 10
510.55096679800499
 20
-397.59999999999718
 30
0.0
 40
6.3999999999999968
 50
224.99999999998619
 51
270.0
  0
ARC
  8
DETAIL
  6
CONTINUOUS
 62
     5
 10
533.700000000008
 20
-376.99999999999142
 30
0.0
 40
4.9999999999999973
 50
0.0
 51
180.0
  0
ARC
  8
DETAIL
  6
CONTINUOUS
 62
     5
 10
543.700000000008
 20
-382.79999999999433
 30
0.0
 40
4.9999999999999973
 50
180.0
 51
270.0
  0
ARC
  8
DETAIL
  6
CONTINUOUS
 62
     5
 10
543.90000000000509
 20
-382.79999999999433
 30
0.0
 40
4.9999999999999973
 50
270.0
 51
0.0
  0
ARC
  8
DETAIL
  6
CONTINUOUS
 62
     5
 10
502.10000000000309
 20
-389.14903320000172
 30
0.0
 40
3.199999999999998
 50
180.0
 51
224.99999999998619
  0
ARC
  8
DETAIL
  6
CONTINUOUS
 62
     5
 10
510.55096679800499
 20
-397.59999999999718
 30
0.0
 40
3.199999999999998
 50
224.99999999998619
 51
270.0
  0
ARC
  8
DETAIL
  6
CONTINUOUS
 62
     5
 10
545.90000000000509
 20
-363.79999999999433
 30
0.0
 40
2.9999999999999978
 50
0.0
 51
90.0
  0
ARC
  8
DETAIL
  6
CONTINUOUS
 62
     5
 10
525.700000000008
 20
-384.79999999999433
 30
0.0
 40
2.9999999999999978
 50
270.0
 51
0.0
  0
ARC
  8
DETAIL
  6
CONTINUOUS
 62
     5
 10
495.87127970400252
 20
-402.40000000001459
 30
0.0
 40
1.599999999999999
 50
189.99999999995231
 51
270.0
  0
ARC
  8
DETAIL
  6
CONTINUOUS
 62
     5
 10
500.40000000000509
 20
-399.80000000000882
 30
0.0
 40
1.1999999999999991
 50
180.0
 51
270.0
  0
ARC
  8
DETAIL
  6
CONTINUOUS
 62
     5
 10
520.20000000000073
 20
-316.09999999999133
 30
0.0
 40
0.9999999999999994
 50
90.0
 51
180.0
  0
ARC
  8
DETAIL
  6
CONTINUOUS
 62
     5
 10
518.200000000008
 20
-316.09999999999133
 30
0.0
 40
0.9999999999999994
 50
270.0
 51
0.0
  0
ARC
  8
DETAIL
  6
CONTINUOUS
 62
     5
 10
496.200000000008
 20
-402.200000000003
 30
0.0
 40
0.9999999999999994
 50
180.0
 51
270.0
  0
ARC
  8
DETAIL
  6
CONTINUOUS
 62
     5
 10
518.200000000008
 20
-327.09999999999133
 30
0.0
 40
0.9999999999999994
 50
270.0
 51
0.0
  0
ARC
  8
DETAIL
  6
CONTINUOUS
 62
     5
 10
520.20000000000073
 20
-327.09999999999133
 30
0.0
 40
0.9999999999999994
 50
90.0
 51
180.0
  0
ARC
  8
DETAIL
  6
CONTINUOUS
 62
     5
 10
495.87127970400252
 20
-402.40000000001459
 30
0.0
 40
0.7999999999999996
 50
189.99999999995231
 51
270.0
  0
ARC
  8
DETAIL
  6
CONTINUOUS
 62
     5
 10
496.40000000000509
 20
-401.99999999999142
 30
0.0
 40
0.5999999999999996
 50
180.0
 51
270.0
  0
ARC
  8
DETAIL
  6
CONTINUOUS
 62
     5
 10
500.40000000000509
 20
-399.80000000000882
 30
0.0
 40
0.5999999999999996
 50
180.0
 51
270.0
  0
ARC
  8
DETAIL
  6
CONTINUOUS
 62
     5
 10
509.60000000000218
 20
-400.40000000000009
 30
0.0
 40
0.5999999999999996
 50
322.95468321248552
 51
90.0
  0
ARC
  8
DETAIL
  6
CONTINUOUS
 62
     5
 10
496.200000000008
 20
-402.200000000003
 30
0.0
 40
0.4999999999999997
 50
180.0
 51
270.0
  0
ARC
  8
DETAIL
  6
CONTINUOUS
 62
     5
 10
475.60000000000309
 20
-357.69192476399479
 30
0.0
 40
55.099999999999952
 50
309.40977859100411
 51
326.87734230964952
  0
ARC
  8
DETAIL
  6
CONTINUOUS
 62
     5
 10
475.60000000000309
 20
-357.69192476399479
 30
0.0
 40
55.099999999999952
 50
356.76595853424618
 51
0.0
  0
CIRCLE
  8
DETAIL
  6
CONTINUOUS
 62
     5
 10
519.80000000000018
 20
-234.4000000000087
 30
0.0
 40
3.9999999999999978
  0
ARC
  8
DETAIL
  6
CONTINUOUS
 62
     5
 10
529.29999999999745
 20
-251.39999999999421
 30
0.0
 40
2.9999999999999978
 50
297.85219319736262
 51
0.0
  0
ARC
  8
DETAIL
  6
CONTINUOUS
 62
     5
 10
519.80000000000018
 20
-249.4000000000087
 30
0.0
 40
2.8999999999999981
 50
180.0
 51
0.0
  0
ARC
  8
DETAIL
  6
CONTINUOUS
 62
     5
 10
508.80000000000751
 20
-224.4000000000087
 30
0.0
 40
2.4999999999999991
 50
90.0
 51
186.89516759812861
  0
ARC
  8
DETAIL
  6
CONTINUOUS
 62
     5
 10
508.80000000000751
 20
-244.4000000000087
 30
0.0
 40
2.4999999999999991
 50
90.0
 51
270.0
  0
ARC
  8
DETAIL
  6
CONTINUOUS
 62
     5
 10
535.30000000000746
 20
-246.19999999999709
 30
0.0
 40
1.9999999999999989
 50
180.0
 51
270.0
  0
ARC
  8
DETAIL
  6
CONTINUOUS
 62
     5
 10
496.80000000000018
 20
-209.55000000000291
 30
0.0
 40
1.899999999999999
 50
0.0
 51
49.99999999997906
  0
ARC
  8
DETAIL
  6
CONTINUOUS
 62
     5
 10
507.55000000000558
 20
-261.75
 30
0.0
 40
1.7499999999999989
 50
180.0
 51
0.0
  0
ARC
  8
DETAIL
  6
CONTINUOUS
 62
     5
 10
507.55000000000558
 20
-222.05000000000291
 30
0.0
 40
1.7499999999999989
 50
0.0
 51
180.0
  0
ARC
  8
DETAIL
  6
CONTINUOUS
 62
     5
 10
532.3398655919982
 20
-225.80000000000291
 30
0.0
 40
1.099999999999999
 50
270.0
 51
90.0
  0
ARC
  8
DETAIL
  6
CONTINUOUS
 62
     5
 10
532.30000000000018
 20
-217.30000000000291
 30
0.0
 40
0.9999999999999994
 50
270.0
 51
351.00000000003439
  0
ARC
  8
DETAIL
  6
CONTINUOUS
 62
     5
 10
532.30000000000018
 20
-224.5
 30
0.0
 40
0.9999999999999994
 50
0.0
 51
90.0
  0
ARC
  8
DETAIL
  6
CONTINUOUS
 62
     5
 10
535.30000000000746
 20
-246.19999999999709
 30
0.0
 40
0.9999999999999994
 50
180.0
 51
270.0
  0
ARC
  8
DETAIL
  6
CONTINUOUS
 62
     5
 10
345.0
 20
-242.00000000000361
 30
0.0
 40
129.99999999999989
 50
15.930119846773669
 51
164.06988015315179
  0
ARC
  8
DETAIL
  6
CONTINUOUS
 62
     5
 10
345.0
 20
-242.00000000000361
 30
0.0
 40
129.99999999999989
 50
195.93011984677369
 51
344.06988015322639
  0
ARC
  8
DETAIL
  6
CONTINUOUS
 62
     5
 10
475.60000000000309
 20
-46.408075233994168
 30
0.0
 40
55.099999999999952
 50
0.0
 51
50.590221408995987
  0
ARC
  8
DETAIL
  6
CONTINUOUS
 62
     5
 10
484.69999999999982
 20
-117.5500000000029
 30
0.0
 40
5.9999999999999956
 50
270.0
 51
90.0
  0
CIRCLE
  8
DETAIL
  6
CONTINUOUS
 62
     5
 10
435.0
 20
-103.0000000000055
 30
0.0
 40
4.6999999999999984
  0
CIRCLE
  8
DETAIL
  6
CONTINUOUS
 62
     5
 10
471.00000000000819
 20
-149.3000000000084
 30
0.0
 40
4.6999999999999984
  0
ARC
  8
DETAIL
  6
CONTINUOUS
 62
     5
 10
496.80000000000018
 20
-194.55000000000291
 30
0.0
 40
1.899999999999999
 50
310.00000000002092
 51
0.0
  0
ARC
  8
DETAIL
  6
CONTINUOUS
 62
     5
 10
495.87127970400252
 20
-1.600000000005821
 30
0.0
 40
1.599999999999999
 50
90.0
 51
170.00000000004769
  0
ARC
  8
DETAIL
  6
CONTINUOUS
 62
     5
 10
500.40000000000509
 20
-4.3000000000029104
 30
0.0
 40
1.1999999999999991
 50
90.0
 51
180.0
  0
ARC
  8
DETAIL
  6
CONTINUOUS
 62
     5
 10
609.50000000000546
 20
-106.3000000000029
 30
0.0
 40
1.1999999999999991
 50
0.0
 51
90.0
  0
ARC
  8
DETAIL
  6
CONTINUOUS
 62
     5
 10
532.3398655919982
 20
-178.39999999999421
 30
0.0
 40
1.099999999999999
 50
270.0
 51
90.0
  0
ARC
  8
DETAIL
  6
CONTINUOUS
 62
     5
 10
496.200000000008
 20
-1.8000000000029099
 30
0.0
 40
0.9999999999999994
 50
90.0
 51
180.0
  0
ARC
  8
DETAIL
  6
CONTINUOUS
 62
     5
 10
520.20000000000073
 20
-88.100000000005821
 30
0.0
 40
0.9999999999999994
 50
180.0
 51
270.0
  0
ARC
  8
DETAIL
  6
CONTINUOUS
 62
     5
 10
518.200000000008
 20
-88.100000000005821
 30
0.0
 40
0.9999999999999994
 50
0.0
 51
90.0
  0
ARC
  8
DETAIL
  6
CONTINUOUS
 62
     5
 10
495.87127970400252
 20
-1.600000000005821
 30
0.0
 40
0.7999999999999996
 50
90.0
 51
170.00000000004769
  0
ARC
  8
DETAIL
  6
CONTINUOUS
 62
     5
 10
500.40000000000509
 20
-4.3000000000029104
 30
0.0
 40
0.5999999999999996
 50
90.0
 51
180.0
  0
ARC
  8
DETAIL
  6
CONTINUOUS
 62
     5
 10
509.60000000000309
 20
-3.6999999999970901
 30
0.0
 40
0.5999999999999996
 50
270.0
 51
90.0
  0
ARC
  8
DETAIL
  6
CONTINUOUS
 62
     5
 10
496.200000000008
 20
-1.8000000000029099
 30
0.0
 40
0.4999999999999997
 50
90.0
 51
180.0
  0
CIRCLE
  8
DETAIL
  6
CONTINUOUS
 62
     5
 10
255.0
 20
-103.0000000000055
 30
0.0
 40
4.6999999999999984
  0
CIRCLE
  8
DETAIL
  6
CONTINUOUS
 62
     5
 10
219.0
 20
-149.3000000000084
 30
0.0
 40
4.6999999999999984
  0
ARC
  8
DETAIL
  6
CONTINUOUS
 62
     5
 10
212.0
 20
-96.000000000005457
 30
0.0
 40
1.9999999999999989
 50
90.0
 51
180.0
  0
ARC
  8
DETAIL
  6
CONTINUOUS
 62
     5
 10
212.0
 20
-96.000000000005457
 30
0.0
 40
0.9999999999999994
 50
90.0
 51
180.0
  0
ARC
  8
DETAIL
  6
CONTINUOUS
 62
     5
 10
-345.0
 20
-242.00000000000321
 30
0.0
 40
129.99999999999989
 50
15.930119846773669
 51
164.06988015315179
  0
ARC
  8
DETAIL
  6
CONTINUOUS
 62
     5
 10
-345.0
 20
-242.00000000000321
 30
0.0
 40
129.99999999999989
 50
195.93011984677369
 51
344.06988015322639
  0
ARC
  8
DETAIL
  6
CONTINUOUS
 62
     5
 10
-502.099999999994
 20
-389.14903320000172
 30
0.0
 40
6.3999999999999968
 50
315.00000000001381
 51
0.0
  0
ARC
  8
DETAIL
  6
CONTINUOUS
 62
     5
 10
-510.5509667999977
 20
-397.59999999999718
 30
0.0
 40
6.3999999999999968
 50
270.0
 51
315.00000000001381
  0
ARC
  8
DETAIL
  6
CONTINUOUS
 62
     5
 10
-543.49999963625578
 20
-382.80000000000928
 30
0.0
 40
4.9999999999999973
 50
180.0
 51
270.0
  0
ARC
  8
DETAIL
  6
CONTINUOUS
 62
     5
 10
-533.29999963625869
 20
-377.00000000000642
 30
0.0
 40
4.9999999999999973
 50
0.0
 51
180.0
  0
ARC
  8
DETAIL
  6
CONTINUOUS
 62
     5
 10
-543.29999963625869
 20
-382.80000000000928
 30
0.0
 40
4.9999999999999973
 50
270.0
 51
0.0
  0
ARC
  8
DETAIL
  6
CONTINUOUS
 62
     5
 10
-510.5509667999977
 20
-397.59999999999718
 30
0.0
 40
3.199999999999998
 50
270.0
 51
315.00000000001381
  0
ARC
  8
DETAIL
  6
CONTINUOUS
 62
     5
 10
-502.099999999994
 20
-389.14903320000172
 30
0.0
 40
3.199999999999998
 50
315.00000000001381
 51
0.0
  0
ARC
  8
DETAIL
  6
CONTINUOUS
 62
     5
 10
-545.49999963625578
 20
-363.80000000000928
 30
0.0
 40
2.9999999999999978
 50
90.0
 51
180.0
  0
ARC
  8
DETAIL
  6
CONTINUOUS
 62
     5
 10
-525.29999963625869
 20
-384.80000000000928
 30
0.0
 40
2.9999999999999978
 50
180.0
 51
270.0
  0
ARC
  8
DETAIL
  6
CONTINUOUS
 62
     5
 10
-495.87127970599431
 20
-402.40000000001459
 30
0.0
 40
1.599999999999999
 50
270.0
 51
350.00000000004769
  0
ARC
  8
DETAIL
  6
CONTINUOUS
 62
     5
 10
-496.19999999999982
 20
-402.200000000003
 30
0.0
 40
0.9999999999999994
 50
282.25747725240859
 51
0.0
  0
ARC
  8
DETAIL
  6
CONTINUOUS
 62
     5
 10
-495.87127970599431
 20
-402.40000000001459
 30
0.0
 40
0.7999999999999996
 50
270.0
 51
350.00000000004769
  0
ARC
  8
DETAIL
  6
CONTINUOUS
 62
     5
 10
-496.19999999999982
 20
-402.200000000003
 30
0.0
 40
0.4999999999999997
 50
270.0
 51
0.0
  0
CIRCLE
  8
DETAIL
  6
CONTINUOUS
 62
     5
 10
-254.99999999999909
 20
-103.0000000000059
 30
0.0
 40
4.6999999999999984
  0
CIRCLE
  8
DETAIL
  6
CONTINUOUS
 62
     5
 10
-218.99999999999179
 20
-149.30000000000879
 30
0.0
 40
4.6999999999999984
  0
CIRCLE
  8
DETAIL
  6
CONTINUOUS
 62
     5
 10
-471.0
 20
-149.30000000000879
 30
0.0
 40
4.6999999999999984
  0
CIRCLE
  8
DETAIL
  6
CONTINUOUS
 62
     5
 10
-435.0
 20
-103.0000000000059
 30
0.0
 40
4.6999999999999984
  0
ARC
  8
DETAIL
  6
CONTINUOUS
 62
     5
 10
-478.0
 20
-96.000000000005912
 30
0.0
 40
1.9999999999999989
 50
90.0
 51
180.0
  0
ARC
  8
DETAIL
  6
CONTINUOUS
 62
     5
 10
-495.87127970599431
 20
-1.600000000005821
 30
0.0
 40
1.599999999999999
 50
9.9999999999522906
 51
90.0
  0
ARC
  8
DETAIL
  6
CONTINUOUS
 62
     5
 10
-478.0
 20
-96.000000000005912
 30
0.0
 40
0.9999999999999994
 50
90.0
 51
180.0
  0
ARC
  8
DETAIL
  6
CONTINUOUS
 62
     5
 10
-496.19999999999982
 20
-1.8000000000029099
 30
0.0
 40
0.9999999999999994
 50
0.0
 51
77.74252274759138
  0
ARC
  8
DETAIL
  6
CONTINUOUS
 62
     5
 10
-495.87127970599431
 20
-1.600000000005821
 30
0.0
 40
0.7999999999999996
 50
9.9999999999522906
 51
90.0
  0
ARC
  8
DETAIL
  6
CONTINUOUS
 62
     5
 10
-496.19999999999982
 20
-1.8000000000029099
 30
0.0
 40
0.4999999999999997
 50
0.0
 51
90.0
  0
LINE
  8
DETAIL
  6
CONTINUOUS
 62
     5
 10
531.19722441999784
 20
-221.96815917103589
 30
0.0
 11
531.19157217705128
 21
-222.19978187556327
 31
0.0
  0
LINE
  8
DETAIL
  6
CONTINUOUS
 62
     5
 10
531.19157217705128
 20
-222.19978187556327
 30
0.0
 11
531.17978582531975
 21
-222.43043576884537
 31
0.0
  0
LINE
  8
DETAIL
  6
CONTINUOUS
 62
     5
 10
531.17978582531975
 20
-222.43043576884537
 30
0.0
 11
531.16095641429195
 21
-222.66011717280867
 31
0.0
  0
LINE
  8
DETAIL
  6
CONTINUOUS
 62
     5
 10
531.16095641429195
 20
-222.66011717280867
 30
0.0
 11
531.13523667716254
 21
-222.88937163409892
 31
0.0
  0
LINE
  8
DETAIL
  6
CONTINUOUS
 62
     5
 10
531.13523667716254
 20
-222.88937163409892
 30
0.0
 11
531.10292923535269
 21
-223.11880727645328
 31
0.0
  0
LINE
  8
DETAIL
  6
CONTINUOUS
 62
     5
 10
531.10292923535269
 20
-223.11880727645328
 30
0.0
 11
531.06343655646651
 21
-223.34811282334374
 31
0.0
  0
LINE
  8
DETAIL
  6
CONTINUOUS
 62
     5
 10
531.06343655646651
 20
-223.34811282334374
 30
0.0
 11
531.01512048270808
 21
-223.5759141229299
 31
0.0
  0
LINE
  8
DETAIL
  6
CONTINUOUS
 62
     5
 10
531.01512048270808
 20
-223.5759141229299
 30
0.0
 11
530.95628489342971
 21
-223.80077782119963
 31
0.0
  0
LINE
  8
DETAIL
  6
CONTINUOUS
 62
     5
 10
530.95628489342971
 20
-223.80077782119963
 30
0.0
 11
530.88523366798415
 21
-224.02127056414113
 31
0.0
  0
LINE
  8
DETAIL
  6
CONTINUOUS
 62
     5
 10
530.88523366798415
 20
-224.02127056414113
 30
0.0
 11
530.80027068572451
 21
-224.23595899774239
 31
0.0
  0
LINE
  8
DETAIL
  6
CONTINUOUS
 62
     5
 10
530.80027068572451
 20
-224.23595899774239
 30
0.0
 11
530.69969982600287
 21
-224.4434097679914
 31
0.0
  0
LINE
  8
DETAIL
  6
CONTINUOUS
 62
     5
 10
533.1692480400061
 20
-224.00856628800099
 30
0.0
 11
533.13956351109709
 21
-224.13312732402864
 31
0.0
  0
LINE
  8
DETAIL
  6
CONTINUOUS
 62
     5
 10
533.13956351109709
 20
-224.13312732402864
 30
0.0
 11
533.10777369550578
 21
-224.25723295484443
 31
0.0
  0
LINE
  8
DETAIL
  6
CONTINUOUS
 62
     5
 10
533.10777369550578
 20
-224.25723295484443
 30
0.0
 11
533.07380002450873
 21
-224.38078904625561
 31
0.0
  0
LINE
  8
DETAIL
  6
CONTINUOUS
 62
     5
 10
533.07380002450873
 20
-224.38078904625561
 30
0.0
 11
533.03756392938305
 21
-224.50370146406937
 31
0.0
  0
LINE
  8
DETAIL
  6
CONTINUOUS
 62
     5
 10
533.03756392938305
 20
-224.50370146406937
 30
0.0
 11
532.99898684140555
 21
-224.62587607409284
 31
0.0
  0
LINE
  8
DETAIL
  6
CONTINUOUS
 62
     5
 10
532.99898684140555
 20
-224.62587607409284
 30
0.0
 11
532.95799019185324
 21
-224.74721874213333
 31
0.0
  0
LINE
  8
DETAIL
  6
CONTINUOUS
 62
     5
 10
532.95799019185324
 20
-224.74721874213333
 30
0.0
 11
532.91449541200291
 21
-224.8676353339979
 31
0.0
  0
LINE
  8
DETAIL
  6
CONTINUOUS
 62
     5
 10
530.69975623400751
 20
-179.75668292000771
 30
0.0
 11
530.83647237542482
 21
-180.05230368212935
 31
0.0
  0
LINE
  8
DETAIL
  6
CONTINUOUS
 62
     5
 10
530.83647237542482
 20
-180.05230368212935
 30
0.0
 11
530.9427970131693
 21
-180.36133617714063
 31
0.0
  0
LINE
  8
DETAIL
  6
CONTINUOUS
 62
     5
 10
530.9427970131693
 20
-180.36133617714063
 30
0.0
 11
531.02479778893826
 21
-180.67905304902413
 31
0.0
  0
LINE
  8
DETAIL
  6
CONTINUOUS
 62
     5
 10
531.02479778893826
 20
-180.67905304902413
 30
0.0
 11
531.08841024402409
 21
-181.00083182086649
 31
0.0
  0
LINE
  8
DETAIL
  6
CONTINUOUS
 62
     5
 10
531.08841024402409
 20
-181.00083182086649
 30
0.0
 11
531.13684632404488
 21
-181.32421237305763
 31
0.0
  0
LINE
  8
DETAIL
  6
CONTINUOUS
 62
     5
 10
531.13684632404488
 20
-181.32421237305763
 30
0.0
 11
531.17075853166273
 21
-181.64876661673952
 31
0.0
  0
LINE
  8
DETAIL
  6
CONTINUOUS
 62
     5
 10
531.17075853166273
 20
-181.64876661673952
 30
0.0
 11
531.19070013945475
 21
-181.97414524526906
 31
0.0
  0
LINE
  8
DETAIL
  6
CONTINUOUS
 62
     5
 10
531.19070013945475
 20
-181.97414524526906
 30
0.0
 11
531.19722441999784
 21
-182.29999895200311
 31
0.0
  0
LINE
  8
DETAIL
  6
CONTINUOUS
 62
     5
 10
532.91446398400512
 20
-179.33227306799381
 30
0.0
 11
533.03534440041994
 21
-179.68932955260138
 31
0.0
  0
LINE
  8
DETAIL
  6
CONTINUOUS
 62
     5
 10
533.03534440041994
 20
-179.68932955260138
 30
0.0
 11
533.1361250356855
 21
-180.05290078691658
 31
0.0
  0
LINE
  8
DETAIL
  6
CONTINUOUS
 62
     5
 10
533.1361250356855
 20
-180.05290078691658
 30
0.0
 11
533.21910722571306
 21
-180.42129938649643
 31
0.0
  0
LINE
  8
DETAIL
  6
CONTINUOUS
 62
     5
 10
533.21910722571306
 20
-180.42129938649643
 30
0.0
 11
533.28527856933704
 21
-180.79344716118553
 31
0.0
  0
LINE
  8
DETAIL
  6
CONTINUOUS
 62
     5
 10
533.28527856933704
 20
-180.79344716118553
 30
0.0
 11
533.33540751356736
 21
-181.16836754393219
 31
0.0
  0
LINE
  8
DETAIL
  6
CONTINUOUS
 62
     5
 10
533.33540751356736
 20
-181.16836754393219
 30
0.0
 11
533.37026250541464
 21
-181.54508396768483
 31
0.0
  0
LINE
  8
DETAIL
  6
CONTINUOUS
 62
     5
 10
533.37026250541464
 20
-181.54508396768483
 30
0.0
 11
533.39061199188893
 21
-181.92261986539182
 31
0.0
  0
LINE
  8
DETAIL
  6
CONTINUOUS
 62
     5
 10
533.39061199188893
 20
-181.92261986539182
 30
0.0
 11
533.39722442000038
 21
-182.29999867000149
 31
0.0
  0
LINE
  8
DETAIL
  6
CONTINUOUS
 62
     5
 10
496.10225905000237
 20
-182.14984616800211
 30
0.0
 11
496.2239051794034
 21
-181.2123151597672
 31
0.0
  0
LINE
  8
DETAIL
  6
CONTINUOUS
 62
     5
 10
496.2239051794034
 20
-181.2123151597672
 30
0.0
 11
496.52414736054351
 21
-180.30098170226566
 31
0.0
  0
LINE
  8
DETAIL
  6
CONTINUOUS
 62
     5
 10
496.52414736054351
 20
-180.30098170226566
 30
0.0
 11
496.99052084772103
 21
-179.45526565372035
 31
0.0
  0
LINE
  8
DETAIL
  6
CONTINUOUS
 62
     5
 10
496.99052084772103
 20
-179.45526565372035
 30
0.0
 11
497.61056089523413
 21
-178.71458687235406
 31
0.0
  0
LINE
  8
DETAIL
  6
CONTINUOUS
 62
     5
 10
497.61056089523413
 20
-178.71458687235406
 30
0.0
 11
498.3672608989728
 21
-178.11385899602212
 31
0.0
  0
LINE
  8
DETAIL
  6
CONTINUOUS
 62
     5
 10
498.3672608989728
 20
-178.11385899602212
 30
0.0
 11
499.22525854825381
 21
-177.669783985468
 31
0.0
  0
LINE
  8
DETAIL
  6
CONTINUOUS
 62
     5
 10
499.22525854825381
 20
-177.669783985468
 30
0.0
 11
500.14455505076512
 21
-177.39446370031536
 31
0.0
  0
LINE
  8
DETAIL
  6
CONTINUOUS
 62
     5
 10
500.14455505076512
 20
-177.39446370031536
 30
0.0
 11
501.08515161400828
 21
-177.30000000000291
 31
0.0
  0
LINE
  8
DETAIL
  6
CONTINUOUS
 62
     5
 10
498.30403263600329
 20
-182.14976399599979
 30
0.0
 11
498.38214641248328
 21
-181.63472410607812
 31
0.0
  0
LINE
  8
DETAIL
  6
CONTINUOUS
 62
     5
 10
498.38214641248328
 20
-181.63472410607812
 30
0.0
 11
498.55652337476016
 21
-181.13588409207105
 31
0.0
  0
LINE
  8
DETAIL
  6
CONTINUOUS
 62
     5
 10
498.55652337476016
 20
-181.13588409207105
 30
0.0
 11
498.8202866987512
 21
-180.67412471121838
 31
0.0
  0
LINE
  8
DETAIL
  6
CONTINUOUS
 62
     5
 10
498.8202866987512
 20
-180.67412471121838
 30
0.0
 11
499.16655956037391
 21
-180.27032672076001
 31
0.0
  0
LINE
  8
DETAIL
  6
CONTINUOUS
 62
     5
 10
499.16655956037391
 20
-180.27032672076001
 30
0.0
 11
499.5861117584252
 21
-179.94304333395044
 31
0.0
  0
LINE
  8
DETAIL
  6
CONTINUOUS
 62
     5
 10
499.5861117584252
 20
-179.94304333395044
 30
0.0
 11
500.06001374063601
 21
-179.70123488322659
 31
0.0
  0
LINE
  8
DETAIL
  6
CONTINUOUS
 62
     5
 10
500.06001374063601
 20
-179.70123488322659
 30
0.0
 11
500.56683749972331
 21
-179.5513906716738
 31
0.0
  0
LINE
  8
DETAIL
  6
CONTINUOUS
 62
     5
 10
500.56683749972331
 20
-179.5513906716738
 30
0.0
 11
501.08515502600039
 21
-179.5
 31
0.0
  0
LINE
  8
DETAIL
  6
CONTINUOUS
 62
     5
 10
501.08515502600039
 20
-224.70000000001161
 30
0.0
 11
500.55511287606055
 21
-224.64609160828934
 31
0.0
  0
LINE
  8
DETAIL
  6
CONTINUOUS
 62
     5
 10
500.55511287606055
 20
-224.64609160828934
 30
0.0
 11
500.03737834059666
 21
-224.48913631845824
 31
0.0
  0
LINE
  8
DETAIL
  6
CONTINUOUS
 62
     5
 10
500.03737834059666
 20
-224.48913631845824
 30
0.0
 11
499.55489371243414
 21
-224.23628649981632
 31
0.0
  0
LINE
  8
DETAIL
  6
CONTINUOUS
 62
     5
 10
499.55489371243414
 20
-224.23628649981632
 30
0.0
 11
499.13060128165949
 21
-223.89469452427983
 31
0.0
  0
LINE
  8
DETAIL
  6
CONTINUOUS
 62
     5
 10
499.13060128165949
 20
-223.89469452427983
 30
0.0
 11
498.78466675734563
 21
-223.47416691746614
 31
0.0
  0
LINE
  8
DETAIL
  6
CONTINUOUS
 62
     5
 10
498.78466675734563
 20
-223.47416691746614
 30
0.0
 11
498.52647949895163
 21
-222.99481139486272
 31
0.0
  0
LINE
  8
DETAIL
  6
CONTINUOUS
 62
     5
 10
498.52647949895163
 20
-222.99481139486272
 30
0.0
 11
498.36281483549794
 21
-222.47923444239763
 31
0.0
  0
LINE
  8
DETAIL
  6
CONTINUOUS
 62
     5
 10
498.36281483549794
 20
-222.47923444239763
 30
0.0
 11
498.30044809600531
 21
-221.9500425459992
 31
0.0
  0
LINE
  8
DETAIL
  6
CONTINUOUS
 62
     5
 10
501.08515161400828
 20
-226.89999999999421
 30
0.0
 11
500.13285736227135
 21
-226.80300321777801
 31
0.0
  0
LINE
  8
DETAIL
  6
CONTINUOUS
 62
     5
 10
500.13285736227135
 20
-226.80300321777801
 30
0.0
 11
499.20268310097583
 21
-226.52053177173715
 31
0.0
  0
LINE
  8
DETAIL
  6
CONTINUOUS
 62
     5
 10
499.20268310097583
 20
-226.52053177173715
 30
0.0
 11
498.33617032379004
 21
-226.06535959452071
 31
0.0
  0
LINE
  8
DETAIL
  6
CONTINUOUS
 62
     5
 10
498.33617032379004
 20
-226.06535959452071
 30
0.0
 11
497.57486052418619
 21
-225.45026061896792
 31
0.0
  0
LINE
  8
DETAIL
  6
CONTINUOUS
 62
     5
 10
497.57486052418619
 20
-225.45026061896792
 30
0.0
 11
496.95537894655274
 21
-224.69279460199294
 31
0.0
  0
LINE
  8
DETAIL
  6
CONTINUOUS
 62
     5
 10
496.95537894655274
 20
-224.69279460199294
 30
0.0
 11
496.49488683548458
 21
-223.82946893258043
 31
0.0
  0
LINE
  8
DETAIL
  6
CONTINUOUS
 62
     5
 10
496.49488683548458
 20
-223.82946893258043
 30
0.0
 11
496.20572917222074
 21
-222.90147949061992
 31
0.0
  0
LINE
  8
DETAIL
  6
CONTINUOUS
 62
     5
 10
496.20572917222074
 20
-222.90147949061992
 30
0.0
 11
496.1002509380005
 21
-221.9500221560011
 31
0.0
  0
LINE
  8
DETAIL
  6
CONTINUOUS
 62
     5
 10
531.18169603999922
 20
-626.30074036599854
 30
0.0
 11
531.16068536310911
 21
-626.56289604257745
 31
0.0
  0
LINE
  8
DETAIL
  6
CONTINUOUS
 62
     5
 10
531.16068536310911
 20
-626.56289604257745
 30
0.0
 11
531.13070755808326
 21
-626.82450584013134
 31
0.0
  0
LINE
  8
DETAIL
  6
CONTINUOUS
 62
     5
 10
531.13070755808326
 20
-626.82450584013134
 30
0.0
 11
531.09212006378471
 21
-627.08637918333238
 31
0.0
  0
LINE
  8
DETAIL
  6
CONTINUOUS
 62
     5
 10
531.09212006378471
 20
-627.08637918333238
 30
0.0
 11
531.04357948800862
 21
-627.34758829983127
 31
0.0
  0
LINE
  8
DETAIL
  6
CONTINUOUS
 62
     5
 10
531.04357948800862
 20
-627.34758829983127
 30
0.0
 11
530.98258750919206
 21
-627.60602579404554
 31
0.0
  0
LINE
  8
DETAIL
  6
CONTINUOUS
 62
     5
 10
530.98258750919206
 20
-627.60602579404554
 30
0.0
 11
530.9066237944852
 21
-627.85956178847675
 31
0.0
  0
LINE
  8
DETAIL
  6
CONTINUOUS
 62
     5
 10
530.9066237944852
 20
-627.85956178847675
 30
0.0
 11
530.81316801103844
 21
-628.10606640562696
 31
0.0
  0
LINE
  8
DETAIL
  6
CONTINUOUS
 62
     5
 10
530.81316801103844
 20
-628.10606640562696
 30
0.0
 11
530.69969982600196
 21
-628.3434097679974
 31
0.0
  0
LINE
  8
DETAIL
  6
CONTINUOUS
 62
     5
 10
533.16924804000519
 20
-627.90856628799247
 30
0.0
 11
533.13956351109641
 21
-628.03312732402549
 31
0.0
  0
LINE
  8
DETAIL
  6
CONTINUOUS
 62
     5
 10
533.13956351109641
 20
-628.03312732402549
 30
0.0
 11
533.10777369550522
 21
-628.1572329548452
 31
0.0
  0
LINE
  8
DETAIL
  6
CONTINUOUS
 62
     5
 10
533.10777369550522
 20
-628.1572329548452
 30
0.0
 11
533.07380002450827
 21
-628.28078904625886
 31
0.0
  0
LINE
  8
DETAIL
  6
CONTINUOUS
 62
     5
 10
533.07380002450827
 20
-628.28078904625886
 30
0.0
 11
533.0375639293826
 21
-628.40370146407417
 31
0.0
  0
LINE
  8
DETAIL
  6
CONTINUOUS
 62
     5
 10
533.0375639293826
 20
-628.40370146407417
 30
0.0
 11
532.9989868414051
 21
-628.52587607409851
 31
0.0
  0
LINE
  8
DETAIL
  6
CONTINUOUS
 62
     5
 10
532.9989868414051
 20
-628.52587607409851
 30
0.0
 11
532.95799019185301
 21
-628.64721874213933
 31
0.0
  0
LINE
  8
DETAIL
  6
CONTINUOUS
 62
     5
 10
532.95799019185301
 20
-628.64721874213933
 30
0.0
 11
532.91449541200291
 21
-628.7676353340039
 31
0.0
  0
LINE
  8
DETAIL
  6
CONTINUOUS
 62
     5
 10
530.69975623400751
 20
-583.65668292001374
 30
0.0
 11
530.83647237542425
 21
-583.95230368213515
 31
0.0
  0
LINE
  8
DETAIL
  6
CONTINUOUS
 62
     5
 10
530.83647237542425
 20
-583.95230368213515
 30
0.0
 11
530.94279701316873
 21
-584.26133617714606
 31
0.0
  0
LINE
  8
DETAIL
  6
CONTINUOUS
 62
     5
 10
530.94279701316873
 20
-584.26133617714606
 30
0.0
 11
531.02479778893792
 21
-584.5790530490284
 31
0.0
  0
LINE
  8
DETAIL
  6
CONTINUOUS
 62
     5
 10
531.02479778893792
 20
-584.5790530490284
 30
0.0
 11
531.08841024402386
 21
-584.90083182086835
 31
0.0
  0
LINE
  8
DETAIL
  6
CONTINUOUS
 62
     5
 10
531.08841024402386
 20
-584.90083182086835
 30
0.0
 11
531.13684632404477
 21
-585.22421237305684
 31
0.0
  0
LINE
  8
DETAIL
  6
CONTINUOUS
 62
     5
 10
531.13684632404477
 20
-585.22421237305684
 30
0.0
 11
531.17075853166261
 21
-585.54876661673723
 31
0.0
  0
LINE
  8
DETAIL
  6
CONTINUOUS
 62
     5
 10
531.17075853166261
 20
-585.54876661673723
 30
0.0
 11
531.19070013945429
 21
-585.87414524526844
 31
0.0
  0
LINE
  8
DETAIL
  6
CONTINUOUS
 62
     5
 10
531.19070013945429
 20
-585.87414524526844
 30
0.0
 11
531.19722441999693
 21
-586.19999895200908
 31
0.0
  0
LINE
  8
DETAIL
  6
CONTINUOUS
 62
     5
 10
532.91446398400421
 20
-583.23227306799981
 30
0.0
 11
533.03534440041915
 21
-583.5893295526073
 31
0.0
  0
LINE
  8
DETAIL
  6
CONTINUOUS
 62
     5
 10
533.03534440041915
 20
-583.5893295526073
 30
0.0
 11
533.13612503568493
 21
-583.95290078692256
 31
0.0
  0
LINE
  8
DETAIL
  6
CONTINUOUS
 62
     5
 10
533.13612503568493
 20
-583.95290078692256
 30
0.0
 11
533.21910722571261
 21
-584.32129938650246
 31
0.0
  0
LINE
  8
DETAIL
  6
CONTINUOUS
 62
     5
 10
533.21910722571261
 20
-584.32129938650246
 30
0.0
 11
533.28527856933658
 21
-584.69344716119156
 31
0.0
  0
LINE
  8
DETAIL
  6
CONTINUOUS
 62
     5
 10
533.28527856933658
 20
-584.69344716119156
 30
0.0
 11
533.33540751356691
 21
-585.06836754393817
 31
0.0
  0
LINE
  8
DETAIL
  6
CONTINUOUS
 62
     5
 10
533.33540751356691
 20
-585.06836754393817
 30
0.0
 11
533.37026250541419
 21
-585.44508396769095
 31
0.0
  0
LINE
  8
DETAIL
  6
CONTINUOUS
 62
     5
 10
533.37026250541419
 20
-585.44508396769095
 30
0.0
 11
533.39061199188859
 21
-585.82261986539788
 31
0.0
  0
LINE
  8
DETAIL
  6
CONTINUOUS
 62
     5
 10
533.39061199188859
 20
-585.82261986539788
 30
0.0
 11
533.39722442000038
 21
-586.19999867000752
 31
0.0
  0
LINE
  8
DETAIL
  6
CONTINUOUS
 62
     5
 10
496.10225905000237
 20
-586.04984616799356
 30
0.0
 11
496.22390517940329
 21
-585.11231515975976
 31
0.0
  0
LINE
  8
DETAIL
  6
CONTINUOUS
 62
     5
 10
496.22390517940329
 20
-585.11231515975976
 30
0.0
 11
496.52414736054328
 21
-584.20098170226129
 31
0.0
  0
LINE
  8
DETAIL
  6
CONTINUOUS
 62
     5
 10
496.52414736054328
 20
-584.20098170226129
 30
0.0
 11
496.99052084772069
 21
-583.35526565371947
 31
0.0
  0
LINE
  8
DETAIL
  6
CONTINUOUS
 62
     5
 10
496.99052084772069
 20
-583.35526565371947
 30
0.0
 11
497.61056089523368
 21
-582.61458687235643
 31
0.0
  0
LINE
  8
DETAIL
  6
CONTINUOUS
 62
     5
 10
497.61056089523368
 20
-582.61458687235643
 30
0.0
 11
498.3672608989724
 21
-582.01385899602644
 31
0.0
  0
LINE
  8
DETAIL
  6
CONTINUOUS
 62
     5
 10
498.3672608989724
 20
-582.01385899602644
 30
0.0
 11
499.22525854825358
 21
-581.56978398547176
 31
0.0
  0
LINE
  8
DETAIL
  6
CONTINUOUS
 62
     5
 10
499.22525854825358
 20
-581.56978398547176
 30
0.0
 11
500.14455505076512
 21
-581.29446370031519
 31
0.0
  0
LINE
  8
DETAIL
  6
CONTINUOUS
 62
     5
 10
500.14455505076512
 20
-581.29446370031519
 30
0.0
 11
501.08515161400828
 21
-581.19999999999436
 31
0.0
  0
LINE
  8
DETAIL
  6
CONTINUOUS
 62
     5
 10
498.30403263600238
 20
-586.04976399600582
 30
0.0
 11
498.38214641248237
 21
-585.53472410608401
 31
0.0
  0
LINE
  8
DETAIL
  6
CONTINUOUS
 62
     5
 10
498.38214641248237
 20
-585.53472410608401
 30
0.0
 11
498.55652337475931
 21
-585.03588409207669
 31
0.0
  0
LINE
  8
DETAIL
  6
CONTINUOUS
 62
     5
 10
498.55652337475931
 20
-585.03588409207669
 30
0.0
 11
498.82028669875035
 21
-584.57412471122279
 31
0.0
  0
LINE
  8
DETAIL
  6
CONTINUOUS
 62
     5
 10
498.82028669875035
 20
-584.57412471122279
 30
0.0
 11
499.16655956037323
 21
-584.17032672076243
 31
0.0
  0
LINE
  8
DETAIL
  6
CONTINUOUS
 62
     5
 10
499.16655956037323
 20
-584.17032672076243
 30
0.0
 11
499.58611175842475
 21
-583.84304333394982
 31
0.0
  0
LINE
  8
DETAIL
  6
CONTINUOUS
 62
     5
 10
499.58611175842475
 20
-583.84304333394982
 30
0.0
 11
500.06001374063578
 21
-583.60123488322404
 31
0.0
  0
LINE
  8
DETAIL
  6
CONTINUOUS
 62
     5
 10
500.06001374063578
 20
-583.60123488322404
 30
0.0
 11
500.56683749972319
 21
-583.45139067167258
 31
0.0
  0
LINE
  8
DETAIL
  6
CONTINUOUS
 62
     5
 10
500.56683749972319
 20
-583.45139067167258
 30
0.0
 11
501.08515502600039
 21
-583.400000000006
 31
0.0
  0
LINE
  8
DETAIL
  6
CONTINUOUS
 62
     5
 10
501.08515502600039
 20
-628.60000000000309
 30
0.0
 11
500.55511287606004
 21
-628.54609160828807
 31
0.0
  0
LINE
  8
DETAIL
  6
CONTINUOUS
 62
     5
 10
500.55511287606004
 20
-628.54609160828807
 30
0.0
 11
500.03737834059586
 21
-628.38913631845878
 31
0.0
  0
LINE
  8
DETAIL
  6
CONTINUOUS
 62
     5
 10
500.03737834059586
 20
-628.38913631845878
 30
0.0
 11
499.55489371243323
 21
-628.13628649981592
 31
0.0
  0
LINE
  8
DETAIL
  6
CONTINUOUS
 62
     5
 10
499.55489371243323
 20
-628.13628649981592
 30
0.0
 11
499.13060128165858
 21
-627.7946945242785
 31
0.0
  0
LINE
  8
DETAIL
  6
CONTINUOUS
 62
     5
 10
499.13060128165858
 20
-627.7946945242785
 30
0.0
 11
498.78466675734472
 21
-627.37416691746591
 31
0.0
  0
LINE
  8
DETAIL
  6
CONTINUOUS
 62
     5
 10
498.78466675734472
 20
-627.37416691746591
 30
0.0
 11
498.52647949895083
 21
-626.8948113948652
 31
0.0
  0
LINE
  8
DETAIL
  6
CONTINUOUS
 62
     5
 10
498.52647949895083
 20
-626.8948113948652
 30
0.0
 11
498.36281483549737
 21
-626.37923444240255
 31
0.0
  0
LINE
  8
DETAIL
  6
CONTINUOUS
 62
     5
 10
498.36281483549737
 20
-626.37923444240255
 30
0.0
 11
498.30044809600531
 21
-625.85004254600517
 31
0.0
  0
LINE
  8
DETAIL
  6
CONTINUOUS
 62
     5
 10
501.08515161400828
 20
-630.80000000000018
 30
0.0
 11
500.1328573622709
 21
-630.70300321778404
 31
0.0
  0
LINE
  8
DETAIL
  6
CONTINUOUS
 62
     5
 10
500.1328573622709
 20
-630.70300321778404
 30
0.0
 11
499.20268310097532
 21
-630.42053177174307
 31
0.0
  0
LINE
  8
DETAIL
  6
CONTINUOUS
 62
     5
 10
499.20268310097532
 20
-630.42053177174307
 30
0.0
 11
498.33617032378953
 21
-629.9653595945266
 31
0.0
  0
LINE
  8
DETAIL
  6
CONTINUOUS
 62
     5
 10
498.33617032378953
 20
-629.9653595945266
 30
0.0
 11
497.57486052418574
 21
-629.35026061897395
 31
0.0
  0
LINE
  8
DETAIL
  6
CONTINUOUS
 62
     5
 10
497.57486052418574
 20
-629.35026061897395
 30
0.0
 11
496.95537894655229
 21
-628.59279460199889
 31
0.0
  0
LINE
  8
DETAIL
  6
CONTINUOUS
 62
     5
 10
496.95537894655229
 20
-628.59279460199889
 30
0.0
 11
496.4948868354839
 21
-627.72946893258643
 31
0.0
  0
LINE
  8
DETAIL
  6
CONTINUOUS
 62
     5
 10
496.4948868354839
 20
-627.72946893258643
 30
0.0
 11
496.20572917221989
 21
-626.80147949062598
 31
0.0
  0
LINE
  8
DETAIL
  6
CONTINUOUS
 62
     5
 10
496.20572917221989
 20
-626.80147949062598
 30
0.0
 11
496.10025093799959
 21
-625.85002215600707
 31
0.0
  0
LINE
  8
DETAIL
  6
CONTINUOUS
 62
     5
 10
498.90000000000509
 20
-389.00000000000591
 30
0.0
 11
498.90498875028186
 21
-388.75763168674098
 31
0.0
  0
LINE
  8
DETAIL
  6
CONTINUOUS
 62
     5
 10
498.90498875028186
 20
-388.75763168674098
 30
0.0
 11
498.93019293858231
 21
-388.51036003282246
 31
0.0
  0
LINE
  8
DETAIL
  6
CONTINUOUS
 62
     5
 10
498.93019293858231
 20
-388.51036003282246
 30
0.0
 11
498.99096947111167
 21
-388.27912481487363
 31
0.0
  0
LINE
  8
DETAIL
  6
CONTINUOUS
 62
     5
 10
498.99096947111167
 20
-388.27912481487363
 30
0.0
 11
499.10267525407528
 21
-388.08486580951774
 31
0.0
  0
LINE
  8
DETAIL
  6
CONTINUOUS
 62
     5
 10
499.10267525407528
 20
-388.08486580951774
 30
0.0
 11
499.27644397141529
 21
-387.945250605963
 31
0.0
  0
LINE
  8
DETAIL
  6
CONTINUOUS
 62
     5
 10
499.27644397141529
 20
-387.945250605963
 30
0.0
 11
499.49752524852556
 21
-387.85789161153076
 31
0.0
  0
LINE
  8
DETAIL
  6
CONTINUOUS
 62
     5
 10
499.49752524852556
 20
-387.85789161153076
 30
0.0
 11
499.74136708041954
 21
-387.81280684954379
 31
0.0
  0
LINE
  8
DETAIL
  6
CONTINUOUS
 62
     5
 10
499.74136708041954
 20
-387.81280684954379
 30
0.0
 11
499.98339895000748
 21
-387.79999999999433
 31
0.0
  0
LINE
  8
DETAIL
  6
CONTINUOUS
 62
     5
 10
498.90000000000509
 20
-419.00000000000591
 30
0.0
 11
498.90016264740444
 21
-419.17032310257076
 31
0.0
  0
LINE
  8
DETAIL
  6
CONTINUOUS
 62
     5
 10
498.90016264740444
 20
-419.17032310257076
 30
0.0
 11
498.90648066718296
 21
-419.34186376247857
 31
0.0
  0
LINE
  8
DETAIL
  6
CONTINUOUS
 62
     5
 10
498.90648066718296
 20
-419.34186376247857
 30
0.0
 11
498.92769917571172
 21
-419.51075251577112
 31
0.0
  0
LINE
  8
DETAIL
  6
CONTINUOUS
 62
     5
 10
498.92769917571172
 20
-419.51075251577112
 30
0.0
 11
498.97256328936146
 21
-419.67311989848992
 31
0.0
  0
LINE
  8
DETAIL
  6
CONTINUOUS
 62
     5
 10
498.97256328936146
 20
-419.67311989848992
 30
0.0
 11
499.04954970450109
 21
-419.82499718737489
 31
0.0
  0
LINE
  8
DETAIL
  6
CONTINUOUS
 62
     5
 10
499.04954970450109
 20
-419.82499718737489
 30
0.0
 11
499.15969416291972
 21
-419.95966406110369
 31
0.0
  0
LINE
  8
DETAIL
  6
CONTINUOUS
 62
     5
 10
499.15969416291972
 20
-419.95966406110369
 30
0.0
 11
499.29581084868403
 21
-420.06735994027264
 31
0.0
  0
LINE
  8
DETAIL
  6
CONTINUOUS
 62
     5
 10
499.29581084868403
 20
-420.06735994027264
 30
0.0
 11
499.45028891800303
 21
-420.13816707399968
 31
0.0
  0
LINE
  8
DETAIL
  6
CONTINUOUS
 62
     5
 10
499.45028891800303
 20
-420.13816707399968
 30
0.0
 11
499.47229529770613
 21
-420.14460077460024
 31
0.0
  0
LINE
  8
DETAIL
  6
CONTINUOUS
 62
     5
 10
499.47229529770613
 20
-420.14460077460024
 30
0.0
 11
499.49444344019633
 21
-420.15056170966204
 31
0.0
  0
LINE
  8
DETAIL
  6
CONTINUOUS
 62
     5
 10
499.49444344019633
 20
-420.15056170966204
 30
0.0
 11
499.51671599683215
 21
-420.15607048678811
 31
0.0
  0
LINE
  8
DETAIL
  6
CONTINUOUS
 62
     5
 10
499.51671599683215
 20
-420.15607048678811
 30
0.0
 11
499.53909561897188
 21
-420.16114771358104
 31
0.0
  0
LINE
  8
DETAIL
  6
CONTINUOUS
 62
     5
 10
499.53909561897188
 20
-420.16114771358104
 30
0.0
 11
499.56156495797427
 21
-420.16581399764402
 31
0.0
  0
LINE
  8
DETAIL
  6
CONTINUOUS
 62
     5
 10
499.56156495797427
 20
-420.16581399764402
 30
0.0
 11
499.58410666519774
 21
-420.17008994657965
 31
0.0
  0
LINE
  8
DETAIL
  6
CONTINUOUS
 62
     5
 10
499.58410666519774
 20
-420.17008994657965
 30
0.0
 11
499.60670339200078
 21
-420.17399616799088
 31
0.0
  0
LINE
  8
DETAIL
  6
CONTINUOUS
 62
     5
 10
496.16704121000288
 20
-420.200000000003
 30
0.0
 11
496.0259697479637
 21
-420.17354276040936
 31
0.0
  0
LINE
  8
DETAIL
  6
CONTINUOUS
 62
     5
 10
496.0259697479637
 20
-420.17354276040936
 30
0.0
 11
495.90712154613084
 21
-420.09627984733703
 31
0.0
  0
LINE
  8
DETAIL
  6
CONTINUOUS
 62
     5
 10
495.90712154613084
 20
-420.09627984733703
 30
0.0
 11
495.8268833445095
 21
-419.97871499877169
 31
0.0
  0
LINE
  8
DETAIL
  6
CONTINUOUS
 62
     5
 10
495.8268833445095
 20
-419.97871499877169
 30
0.0
 11
495.77543730273783
 21
-419.84349919833653
 31
0.0
  0
LINE
  8
DETAIL
  6
CONTINUOUS
 62
     5
 10
495.77543730273783
 20
-419.84349919833653
 30
0.0
 11
495.74307923855787
 21
-419.70519685112924
 31
0.0
  0
LINE
  8
DETAIL
  6
CONTINUOUS
 62
     5
 10
495.74307923855787
 20
-419.70519685112924
 30
0.0
 11
495.72377038627315
 21
-419.56536560790562
 31
0.0
  0
LINE
  8
DETAIL
  6
CONTINUOUS
 62
     5
 10
495.72377038627315
 20
-419.56536560790562
 30
0.0
 11
495.71194110999579
 21
-419.42457582596643
 31
0.0
  0
LINE
  8
DETAIL
  6
CONTINUOUS
 62
     5
 10
495.71194110999579
 20
-419.42457582596643
 30
0.0
 11
495.70468251766562
 21
-419.28323071681399
 31
0.0
  0
LINE
  8
DETAIL
  6
CONTINUOUS
 62
     5
 10
495.70468251766562
 20
-419.28323071681399
 30
0.0
 11
495.70101446883814
 21
-419.1416123293177
 31
0.0
  0
LINE
  8
DETAIL
  6
CONTINUOUS
 62
     5
 10
495.70101446883814
 20
-419.1416123293177
 30
0.0
 11
495.700000000008
 21
-419.00000000000591
 31
0.0
  0
LINE
  8
BASIS
  6
DASHDOT
 62
     6
 10
-575.00000000077671
 20
-242.00000000000321
 30
0.0
 11
575.20000000078016
 21
-242.00000000000361
 31
0.0
  0
LINE
  8
BASIS
  6
DASHDOT
 62
     6
 10
-345.0
 20
27.950000000768341
 30
0.0
 11
-345.0
 21
-835.95000000078016
 31
0.0
  0
LINE
  8
BASIS
  6
DASHDOT
 62
     6
 10
345.0
 20
27.950000000775621
 30
0.0
 11
345.0
 21
-835.95000000078744
 31
0.0
  0
LINE
  8
BASIS
  6
DASHDOT
 62
     6
 10
-575.20000000077653
 20
-645.99999999999727
 30
0.0
 11
575.20000000078016
 21
-645.99999999999727
 31
0.0
  0
LINE
  8
DETAIL
  6
CONTINUOUS
 62
     5
 10
495.70000000000709
 20
-603.58397459599382
 30
0.0
 11
497.63816996599962
 21
-600.2269657400002
 31
0.0
  0
LINE
  8
DETAIL
  6
CONTINUOUS
 62
     5
 10
495.700000000008
 20
-199.63145444769179
 30
0.0
 11
497.63816996600048
 21
-196.2744455916982
 31
0.0
  0
LINE
  8
DETAIL
  6
CONTINUOUS
 62
     5
 10
-497.69999999999158
 20
-0.8000000000029104
 30
0.0
 11
-497.69999999999158
 21
-2.0999999999912689
 31
0.0
  0
ARC
  8
DETAIL
  6
CONTINUOUS
 62
     5
 10
-500.94999999999982
 20
-1.0500000000029099
 30
0.0
 40
1.0499999999999989
 50
89.999980152159793
 51
269.99999999989569
  0
ARC
  8
DETAIL
  6
CONTINUOUS
 62
     5
 10
-500.94999999999982
 20
-1.0500000000029099
 30
0.0
 40
0.2499999999999999
 50
89.999980152159793
 51
269.99999999958311
  0
LINE
  8
DETAIL
  6
CONTINUOUS
 62
     5
 10
-497.69999999999158
 20
-2.0999999999912689
 30
0.0
 11
-500.94999999999982
 21
-2.0999999999912689
 31
0.0
  0
LINE
  8
DETAIL
  6
CONTINUOUS
 62
     5
 10
-496.19999999999982
 20
-1.3000000000029099
 30
0.0
 11
-500.94999999999982
 21
-1.3000000000029099
 31
0.0
  0
LINE
  8
DETAIL
  6
CONTINUOUS
 62
     5
 10
-497.69999999999158
 20
-404.79999999999433
 30
0.0
 11
-497.69999999999158
 21
-406.09999999999718
 31
0.0
  0
ARC
  8
DETAIL
  6
CONTINUOUS
 62
     5
 10
-500.94999999999982
 20
-405.05000000000882
 30
0.0
 40
1.0499999999999989
 50
89.999980152159793
 51
269.99999999989569
  0
ARC
  8
DETAIL
  6
CONTINUOUS
 62
     5
 10
-500.94999999999982
 20
-405.05000000000882
 30
0.0
 40
0.2499999999999999
 50
89.999980152159793
 51
269.99999999958311
  0
LINE
  8
DETAIL
  6
CONTINUOUS
 62
     5
 10
-497.69999999999158
 20
-406.09999999999718
 30
0.0
 11
-500.94999999999982
 21
-406.09999999999718
 31
0.0
  0
LINE
  8
DETAIL
  6
CONTINUOUS
 62
     5
 10
-496.19999999999982
 20
-405.29999999999433
 30
0.0
 11
-500.94999999999982
 21
-405.29999999999433
 31
0.0
  0
LINE
  8
DETAIL
  6
CONTINUOUS
 62
     5
 10
-497.69999999999158
 20
-403.20000000001761
 30
0.0
 11
-497.69999999998981
 21
-401.90000000001459
 31
0.0
  0
ARC
  8
DETAIL
  6
CONTINUOUS
 62
     5
 10
-500.94999999999982
 20
-402.950000000003
 30
0.0
 40
1.0499999999999989
 50
90.000000000052125
 51
270.00001984778811
  0
ARC
  8
DETAIL
  6
CONTINUOUS
 62
     5
 10
-500.94999999999982
 20
-402.950000000003
 30
0.0
 40
0.2499999999999999
 50
90.000000000364764
 51
270.00001984778811
  0
LINE
  8
DETAIL
  6
CONTINUOUS
 62
     5
 10
-497.69999999998981
 20
-401.90000000001459
 30
0.0
 11
-500.94999999999982
 21
-401.90000000001459
 31
0.0
  0
LINE
  8
DETAIL
  6
CONTINUOUS
 62
     5
 10
-496.19999999999982
 20
-402.700000000003
 30
0.0
 11
-500.94999999999982
 21
-402.700000000003
 31
0.0
  0
LINE
  8
DETAIL
  6
CONTINUOUS
 62
     5
 10
-497.70000008658741
 20
-807.20000000000891
 30
0.0
 11
-497.70000008658741
 21
-805.900000000006
 31
0.0
  0
ARC
  8
DETAIL
  6
CONTINUOUS
 62
     5
 10
-500.95000008659463
 20
-806.94999999999436
 30
0.0
 40
1.0499999999999989
 50
90.000000000104222
 51
270.00001984784018
  0
ARC
  8
DETAIL
  6
CONTINUOUS
 62
     5
 10
-500.95000008659463
 20
-806.94999999999436
 30
0.0
 40
0.2499999999999999
 50
90.00000000041689
 51
270.00001984784018
  0
LINE
  8
DETAIL
  6
CONTINUOUS
 62
     5
 10
-497.70000008658741
 20
-805.900000000006
 30
0.0
 11
-500.95000008659463
 21
-805.900000000006
 31
0.0
  0
LINE
  8
DETAIL
  6
CONTINUOUS
 62
     5
 10
-496.19999999999982
 20
-806.70000000000891
 30
0.0
 11
-500.95000008659463
 21
-806.69999999999436
 31
0.0
  0
LINE
  8
DETAIL
  6
CONTINUOUS
 62
     5
 10
497.69999999999249
 20
-0.8000000000029104
 30
0.0
 11
497.69999999999249
 21
-2.0999999999912689
 31
0.0
  0
ARC
  8
DETAIL
  6
CONTINUOUS
 62
     5
 10
500.94999999999982
 20
-1.0500000000029099
 30
0.0
 40
1.0499999999999989
 50
270.00000000010431
 51
90.000019847840207
  0
ARC
  8
DETAIL
  6
CONTINUOUS
 62
     5
 10
500.94999999999982
 20
-1.0500000000029099
 30
0.0
 40
0.2499999999999999
 50
270.00000000041689
 51
90.000019847840207
  0
LINE
  8
DETAIL
  6
CONTINUOUS
 62
     5
 10
497.69999999999249
 20
-2.0999999999912689
 30
0.0
 11
500.94999999999982
 21
-2.0999999999912689
 31
0.0
  0
LINE
  8
DETAIL
  6
CONTINUOUS
 62
     5
 10
497.69999999999158
 20
-404.79999999999433
 30
0.0
 11
497.69999999999158
 21
-406.09999999999718
 31
0.0
  0
ARC
  8
DETAIL
  6
CONTINUOUS
 62
     5
 10
500.94999999999982
 20
-405.05000000000882
 30
0.0
 40
1.0499999999999989
 50
270.00000000010431
 51
90.000019847840207
  0
ARC
  8
DETAIL
  6
CONTINUOUS
 62
     5
 10
500.94999999999982
 20
-405.05000000000882
 30
0.0
 40
0.2499999999999999
 50
270.00000000041689
 51
90.000019847840207
  0
LINE
  8
DETAIL
  6
CONTINUOUS
 62
     5
 10
497.69999999999158
 20
-406.09999999999718
 30
0.0
 11
500.94999999999982
 21
-406.09999999999718
 31
0.0
  0
LINE
  8
DETAIL
  6
CONTINUOUS
 62
     5
 10
497.69999999999158
 20
-403.20000000001761
 30
0.0
 11
497.69999999999158
 21
-401.90000000001459
 31
0.0
  0
ARC
  8
DETAIL
  6
CONTINUOUS
 62
     5
 10
500.94999999999982
 20
-402.950000000003
 30
0.0
 40
1.0499999999999989
 50
269.99998015221189
 51
89.999999999947889
  0
ARC
  8
DETAIL
  6
CONTINUOUS
 62
     5
 10
500.94999999999982
 20
-402.950000000003
 30
0.0
 40
0.2499999999999999
 50
269.99998015221189
 51
89.999999999635236
  0
LINE
  8
DETAIL
  6
CONTINUOUS
 62
     5
 10
497.69999999999158
 20
-401.90000000001459
 30
0.0
 11
500.94999999999982
 21
-401.90000000001459
 31
0.0
  0
LINE
  8
DETAIL
  6
CONTINUOUS
 62
     5
 10
497.70000008658741
 20
-807.20000000000891
 30
0.0
 11
497.70000008658741
 21
-805.900000000006
 31
0.0
  0
ARC
  8
DETAIL
  6
CONTINUOUS
 62
     5
 10
500.95000008659548
 20
-806.94999999999436
 30
0.0
 40
1.0499999999999989
 50
269.99998015215982
 51
89.999999999895778
  0
ARC
  8
DETAIL
  6
CONTINUOUS
 62
     5
 10
500.95000008659548
 20
-806.94999999999436
 30
0.0
 40
0.2499999999999999
 50
269.99998015215982
 51
89.99999999958311
  0
LINE
  8
DETAIL
  6
CONTINUOUS
 62
     5
 10
497.70000008658741
 20
-805.900000000006
 30
0.0
 11
500.95000008659548
 21
-805.900000000006
 31
0.0
  0
LINE
  8
DETAIL
  6
CONTINUOUS
 62
     5
 10
487.16730091800042
 20
-805.900000000006
 30
0.0
 11
-487.16730091799951
 21
-805.900000000006
 31
0.0
  0
LINE
  8
DETAIL
  6
CONTINUOUS
 62
     5
 10
479.0
 20
-406.09999999999718
 30
0.0
 11
211.00000000000821
 21
-406.09999999999718
 31
0.0
  0
LINE
  8
DETAIL
  6
CONTINUOUS
 62
     5
 10
210.0
 20
-406.09999999999718
 30
0.0
 11
-210.0
 21
-406.09999999999718
 31
0.0
  0
LINE
  8
DETAIL
  6
CONTINUOUS
 62
     5
 10
-211.0
 20
-406.09999999999718
 30
0.0
 11
-478.99999999999181
 21
-406.09999999999718
 31
0.0
  0
LINE
  8
DETAIL
  6
CONTINUOUS
 62
     5
 10
-479.99999999999909
 20
-406.09999999999718
 30
0.0
 11
-487.21438630999728
 21
-406.09999999999718
 31
0.0
  0
LINE
  8
DETAIL
  6
CONTINUOUS
 62
     5
 10
487.16730091800758
 20
-401.90000000001459
 30
0.0
 11
480.0
 21
-401.90000000001459
 31
0.0
  0
LINE
  8
DETAIL
  6
CONTINUOUS
 62
     5
 10
479.0
 20
-401.90000000001459
 30
0.0
 11
211.00000000000821
 21
-401.90000000001459
 31
0.0
  0
LINE
  8
DETAIL
  6
CONTINUOUS
 62
     5
 10
210.0
 20
-401.90000000001459
 30
0.0
 11
-210.0
 21
-401.90000000001459
 31
0.0
  0
LINE
  8
DETAIL
  6
CONTINUOUS
 62
     5
 10
-211.0
 20
-401.90000000001459
 30
0.0
 11
-478.99999999999181
 21
-401.90000000001459
 31
0.0
  0
LINE
  8
DETAIL
  6
CONTINUOUS
 62
     5
 10
487.21438631000552
 20
-2.0999999999912689
 30
0.0
 11
-487.21438630999728
 21
-2.0999999999912689
 31
0.0
  0
LINE
  8
DETAIL
  6
CONTINUOUS
 62
     5
 10
-492.79999999999649
 20
-401.200000000003
 30
0.0
 11
-492.79999999999649
 21
-406.80000000000882
 31
0.0
  0
LINE
  8
DETAIL
  6
CONTINUOUS
 62
     5
 10
-489.3143863100122
 20
-404.00000000000551
 30
0.0
 11
-487.21438630999728
 21
-401.90000000001459
 31
0.0
  0
LINE
  8
DETAIL
  6
CONTINUOUS
 62
     5
 10
-488.5143863100152
 20
-403.20000000001761
 30
0.0
 11
-492.79999999999649
 21
-403.2000000000171
 31
0.0
  0
LINE
  8
DETAIL
  6
CONTINUOUS
 62
     5
 10
-479.99999999999909
 20
-401.90000000001459
 30
0.0
 11
-487.21438630999728
 21
-401.90000000001459
 31
0.0
  0
LINE
  8
DETAIL
  6
CONTINUOUS
 62
     5
 10
494.19999999999982
 20
-404.80000000000882
 30
0.0
 11
488.46730091801868
 21
-404.80000000000882
 31
0.0
  0
LINE
  8
DETAIL
  6
CONTINUOUS
 62
     5
 10
489.26730091803438
 20
-404.00000000000591
 30
0.0
 11
487.16730091800758
 21
-406.09999999999718
 31
0.0
  0
LINE
  8
DETAIL
  6
CONTINUOUS
 62
     5
 10
487.16730091800758
 20
-406.09999999999718
 30
0.0
 11
480.0
 21
-406.09999999999718
 31
0.0
  0
LINE
  8
DETAIL
  6
CONTINUOUS
 62
     5
 10
492.80000000000467
 20
-403.200000000003
 30
0.0
 11
492.80000000000467
 21
-404.80000000000882
 31
0.0
  0
LINE
  8
DETAIL
  6
CONTINUOUS
 62
     5
 10
-495.69999999999942
 20
-420.20000000001733
 30
0.0
 11
-525.29999963625869
 21
-420.20000000003262
 31
0.0
  0
LINE
  8
DETAIL
  6
CONTINUOUS
 62
     5
 10
-498.89999999999691
 20
-418.85096680001021
 30
0.0
 11
-498.89999999999691
 21
-419.00000000000591
 31
0.0
  0
ARC
  8
DETAIL
  6
CONTINUOUS
 62
     5
 10
-502.099999999994
 20
-418.85096680001021
 30
0.0
 40
3.199999999999998
 50
0.0
 51
44.999999999995403
  0
LINE
  8
SIZE
  6
CONTINUOUS
 62
    30
 10
502.0
 20
18.950000181863292
 30
0.0
 11
502.0
 21
397.66147932465742
 31
0.0
  0
LINE
  8
SIZE
  6
CONTINUOUS
 62
    30
 10
-502.0
 20
18.950000181863292
 30
0.0
 11
-502.0
 21
397.66147932465742
 31
0.0
  0
LINE
  8
SIZE
  6
CONTINUOUS
 62
    30
 10
490.0
 20
377.66147932465742
 30
0.0
 11
-490.0
 21
377.66147932465742
 31
0.0
  0
CIRCLE
  8
SIZE
  6
CONTINUOUS
 62
    30
 10
502.0
 20
377.66147932465742
 30
0.0
 40
6.0
  0
LINE
  8
SIZE
  6
CONTINUOUS
 62
    30
 10
502.0
 20
377.66147932465742
 30
0.0
 11
490.0
 21
377.66147932465742
 31
0.0
  0
CIRCLE
  8
SIZE
  6
CONTINUOUS
 62
    30
 10
-502.0
 20
377.66147932465742
 30
0.0
 40
6.0
  0
LINE
  8
SIZE
  6
CONTINUOUS
 62
    30
 10
-502.0
 20
377.66147932465742
 30
0.0
 11
-490.0
 21
377.66147932465742
 31
0.0
  0
TEXT
  8
SIZE
  6
CONTINUOUS
 62
    30
 10
-103.104
 20
402.66147932465742
 30
0.0
 40
64.0
  1
1004
 50
0.0
 41
0.9
 51
0.0
  7
STANDARD
 71
     0
 72
     1
 11
0.0
 21
402.66147932465742
 31
0.0
210
0.0
220
0.0
230
1.0
  0
POINT
  8
DEFPOINTS
  6
CONTINUOUS
 62
    30
 10
502.0
 20
-1.0499998181367121
 30
0.0
  0
POINT
  8
DEFPOINTS
  6
CONTINUOUS
 62
    30
 10
-502.0
 20
-1.0499998181367121
 30
0.0
  0
POINT
  8
DEFPOINTS
  6
CONTINUOUS
 62
    30
 10
-502.0
 20
377.66147932465742
 30
0.0
  0
LINE
  8
SIZE
  6
CONTINUOUS
 62
    30
 10
-345.0
 20
47.950000000768341
 30
0.0
 11
-345.0
 21
133.41443612358671
 31
0.0
  0
LINE
  8
SIZE
  6
CONTINUOUS
 62
    30
 10
345.0
 20
47.950000000775617
 30
0.0
 11
345.0
 21
133.41443612358671
 31
0.0
  0
LINE
  8
SIZE
  6
CONTINUOUS
 62
    30
 10
-333.0
 20
113.4144361235867
 30
0.0
 11
333.0
 21
113.4144361235867
 31
0.0
  0
CIRCLE
  8
SIZE
  6
CONTINUOUS
 62
    30
 10
-345.0
 20
113.4144361235867
 30
0.0
 40
6.0
  0
LINE
  8
SIZE
  6
CONTINUOUS
 62
    30
 10
-345.0
 20
113.4144361235867
 30
0.0
 11
-333.0
 21
113.4144361235867
 31
0.0
  0
CIRCLE
  8
SIZE
  6
CONTINUOUS
 62
    30
 10
345.0
 20
113.4144361235867
 30
0.0
 40
6.0
  0
LINE
  8
SIZE
  6
CONTINUOUS
 62
    30
 10
345.0
 20
113.4144361235867
 30
0.0
 11
333.0
 21
113.4144361235867
 31
0.0
  0
TEXT
  8
SIZE
  6
CONTINUOUS
 62
    30
 10
-80.927999999999997
 20
138.41443612358671
 30
0.0
 40
64.0
  1
690
 50
0.0
 41
0.9
 51
0.0
  7
STANDARD
 71
     0
 72
     1
 11
0.0
 21
138.41443612358671
 31
0.0
210
0.0
220
0.0
230
1.0
  0
POINT
  8
DEFPOINTS
  6
CONTINUOUS
 62
    30
 10
-345.0
 20
27.950000000768341
 30
0.0
  0
POINT
  8
DEFPOINTS
  6
CONTINUOUS
 62
    30
 10
345.0
 20
27.950000000775621
 30
0.0
  0
POINT
  8
DEFPOINTS
  6
CONTINUOUS
 62
    30
 10
345.0
 20
113.4144361235867
 30
0.0
  0
LINE
  8
SIZE
  6
CONTINUOUS
 62
    30
 10
480.0
 20
-75.500000000005457
 30
0.0
 11
480.0
 21
273.3384007691493
 31
0.0
  0
LINE
  8
SIZE
  6
CONTINUOUS
 62
    30
 10
210.0
 20
-76.000000000005457
 30
0.0
 11
210.0
 21
273.3384007691493
 31
0.0
  0
LINE
  8
SIZE
  6
CONTINUOUS
 62
    30
 10
468.0
 20
253.3384007691493
 30
0.0
 11
222.0
 21
253.3384007691493
 31
0.0
  0
CIRCLE
  8
SIZE
  6
CONTINUOUS
 62
    30
 10
480.0
 20
253.3384007691493
 30
0.0
 40
6.0
  0
LINE
  8
SIZE
  6
CONTINUOUS
 62
    30
 10
480.0
 20
253.3384007691493
 30
0.0
 11
468.0
 21
253.3384007691493
 31
0.0
  0
CIRCLE
  8
SIZE
  6
CONTINUOUS
 62
    30
 10
210.0
 20
253.3384007691493
 30
0.0
 40
6.0
  0
LINE
  8
SIZE
  6
CONTINUOUS
 62
    30
 10
210.0
 20
253.3384007691493
 30
0.0
 11
222.0
 21
253.3384007691493
 31
0.0
  0
TEXT
  8
SIZE
  6
CONTINUOUS
 62
    30
 10
264.072
 20
278.3384007691493
 30
0.0
 40
64.0
  1
270
 50
0.0
 41
0.9
 51
0.0
  7
STANDARD
 71
     0
 72
     1
 11
345.0
 21
278.3384007691493
 31
0.0
210
0.0
220
0.0
230
1.0
  0
POINT
  8
DEFPOINTS
  6
CONTINUOUS
 62
    30
 10
480.0
 20
-95.500000000005457
 30
0.0
  0
POINT
  8
DEFPOINTS
  6
CONTINUOUS
 62
    30
 10
210.0
 20
-96.000000000005457
 30
0.0
  0
POINT
  8
DEFPOINTS
  6
CONTINUOUS
 62
    30
 10
210.0
 20
253.3384007691493
 30
0.0
  0
LINE
  8
SIZE
  6
CONTINUOUS
 62
    30
 10
-479.99999999999909
 20
-76.000000000005912
 30
0.0
 11
-479.99999999999909
 21
273.3384007691493
 31
0.0
  0
LINE
  8
SIZE
  6
CONTINUOUS
 62
    30
 10
-210.0
 20
-75.500000000005912
 30
0.0
 11
-210.0
 21
273.3384007691493
 31
0.0
  0
LINE
  8
SIZE
  6
CONTINUOUS
 62
    30
 10
-467.99999999999909
 20
253.3384007691493
 30
0.0
 11
-222.0
 21
253.3384007691493
 31
0.0
  0
CIRCLE
  8
SIZE
  6
CONTINUOUS
 62
    30
 10
-479.99999999999909
 20
253.3384007691493
 30
0.0
 40
6.0
  0
LINE
  8
SIZE
  6
CONTINUOUS
 62
    30
 10
-479.99999999999909
 20
253.3384007691493
 30
0.0
 11
-467.99999999999909
 21
253.3384007691493
 31
0.0
  0
CIRCLE
  8
SIZE
  6
CONTINUOUS
 62
    30
 10
-210.0
 20
253.3384007691493
 30
0.0
 40
6.0
  0
LINE
  8
SIZE
  6
CONTINUOUS
 62
    30
 10
-210.0
 20
253.3384007691493
 30
0.0
 11
-222.0
 21
253.3384007691493
 31
0.0
  0
TEXT
  8
SIZE
  6
CONTINUOUS
 62
    30
 10
-425.92799999999949
 20
278.3384007691493
 30
0.0
 40
64.0
  1
270
 50
0.0
 41
0.9
 51
0.0
  7
STANDARD
 71
     0
 72
     1
 11
-344.99999999999949
 21
278.3384007691493
 31
0.0
210
0.0
220
0.0
230
1.0
  0
POINT
  8
DEFPOINTS
  6
CONTINUOUS
 62
    30
 10
-479.99999999999909
 20
-96.000000000005912
 30
0.0
  0
POINT
  8
DEFPOINTS
  6
CONTINUOUS
 62
    30
 10
-210.0
 20
-95.500000000005912
 30
0.0
  0
POINT
  8
DEFPOINTS
  6
CONTINUOUS
 62
    30
 10
-210.0
 20
253.3384007691493
 30
0.0
  0
LINE
  8
SIZE
  6
CONTINUOUS
 62
    30
 10
520.94999963626947
 20
-0.0000000000027253
 30
0.0
 11
982.94711038119181
 21
-0.000000000002651
 31
0.0
  0
LINE
  8
SIZE
  6
CONTINUOUS
 62
    30
 10
520.95000000000016
 20
-807.99999999999773
 30
0.0
 11
982.94711038119203
 21
-807.99999999999761
 31
0.0
  0
LINE
  8
SIZE
  6
CONTINUOUS
 62
    30
 10
962.94711038119181
 20
-12.000000000002659
 30
0.0
 11
962.94711038119203
 21
-795.99999999999761
 31
0.0
  0
CIRCLE
  8
SIZE
  6
CONTINUOUS
 62
    30
 10
962.94711038119181
 20
-0.0000000000026542
 30
0.0
 40
6.0
  0
LINE
  8
SIZE
  6
CONTINUOUS
 62
    30
 10
962.94711038119181
 20
-0.0000000000026542
 30
0.0
 11
962.94711038119181
 21
-12.000000000002654
 31
0.0
  0
CIRCLE
  8
SIZE
  6
CONTINUOUS
 62
    30
 10
962.94711038119203
 20
-807.99999999999761
 30
0.0
 40
6.0
  0
LINE
  8
SIZE
  6
CONTINUOUS
 62
    30
 10
962.94711038119203
 20
-807.99999999999761
 30
0.0
 11
962.94711038119203
 21
-795.99999999999761
 31
0.0
  0
TEXT
  8
SIZE
  6
CONTINUOUS
 62
    30
 10
937.94711038119158
 20
-484.92800000000028
 30
0.0
 40
64.0
  1
808
 50
90.0
 41
0.9
 51
0.0
  7
STANDARD
 71
     0
 72
     1
 11
937.94711038119158
 21
-404.00000000000028
 31
0.0
210
0.0
220
0.0
230
1.0
  0
POINT
  8
DEFPOINTS
  6
CONTINUOUS
 62
    30
 10
500.94999963626952
 20
-0.0000000000027285
 30
0.0
  0
POINT
  8
DEFPOINTS
  6
CONTINUOUS
 62
    30
 10
500.94999999999999
 20
-807.99999999999773
 30
0.0
  0
POINT
  8
DEFPOINTS
  6
CONTINUOUS
 62
    30
 10
962.94711038119203
 20
-807.99999999999761
 30
0.0
  0
LINE
  8
SIZE
  6
CONTINUOUS
 62
    30
 10
-498.00000000000023
 20
-94.000000000005954
 30
0.0
 11
-638.65442424239859
 21
-94.000000000005969
 31
0.0
  0
LINE
  8
SIZE
  6
CONTINUOUS
 62
    30
 10
-498.49999999999932
 20
-794.00000000000637
 30
0.0
 11
-638.65442424239836
 21
-794.00000000000637
 31
0.0
  0
LINE
  8
SIZE
  6
CONTINUOUS
 62
    30
 10
-618.65442424239859
 20
-106.000000000006
 30
0.0
 11
-618.65442424239836
 21
-782.00000000000637
 31
0.0
  0
CIRCLE
  8
SIZE
  6
CONTINUOUS
 62
    30
 10
-618.65442424239859
 20
-94.000000000005969
 30
0.0
 40
6.0
  0
LINE
  8
SIZE
  6
CONTINUOUS
 62
    30
 10
-618.65442424239859
 20
-94.000000000005969
 30
0.0
 11
-618.65442424239859
 21
-106.00000000000597
 31
0.0
  0
CIRCLE
  8
SIZE
  6
CONTINUOUS
 62
    30
 10
-618.65442424239836
 20
-794.00000000000637
 30
0.0
 40
6.0
  0
LINE
  8
SIZE
  6
CONTINUOUS
 62
    30
 10
-618.65442424239836
 20
-794.00000000000637
 30
0.0
 11
-618.65442424239836
 21
-782.00000000000637
 31
0.0
  0
TEXT
  8
SIZE
  6
CONTINUOUS
 62
    30
 10
-643.65442424239848
 20
-525.50400000000593
 30
0.0
 40
64.0
  1
700
 50
90.0
 41
0.9
 51
0.0
  7
STANDARD
 71
     0
 72
     1
 11
-643.65442424239848
 21
-444.00000000000591
 31
0.0
210
0.0
220
0.0
230
1.0
  0
POINT
  8
DEFPOINTS
  6
CONTINUOUS
 62
    30
 10
-478.00000000000023
 20
-94.00000000000594
 30
0.0
  0
POINT
  8
DEFPOINTS
  6
CONTINUOUS
 62
    30
 10
-478.49999999999932
 20
-794.00000000000637
 30
0.0
  0
POINT
  8
DEFPOINTS
  6
CONTINUOUS
 62
    30
 10
-618.65442424239836
 20
-794.00000000000637
 30
0.0
  0
LINE
  8
BASIS
  6
DASHDOT
 62
     6
 10
-575.00000000077671
 20
-404.00000000000591
 30
0.0
 11
575.20000000078016
 21
-404.00000000000642
 31
0.0
  0
LINE
  8
BASIS
  6
DASHDOT
 62
     6
 10
-575.00000000077671
 20
-444.00000000000591
 30
0.0
 11
575.20000000078016
 21
-444.00000000000642
 31
0.0
  0
LINE
  8
SIZE
  6
CONTINUOUS
 62
    30
 10
595.00000000077694
 20
-404.00000000000608
 30
0.0
 11
828.17479939355724
 21
-404.00000000000608
 31
0.0
  0
LINE
  8
SIZE
  6
CONTINUOUS
 62
    30
 10
595.00000000077694
 20
-444.00000000000608
 30
0.0
 11
828.17479939355724
 21
-444.00000000000608
 31
0.0
  0
LINE
  8
SIZE
  6
CONTINUOUS
 62
    30
 10
808.17479939355724
 20
-456.00000000000608
 30
0.0
 11
808.17479939355724
 21
-468.00000000000608
 31
0.0
  0
LINE
  8
SIZE
  6
CONTINUOUS
 62
    30
 10
808.17479939355724
 20
-392.00000000000608
 30
0.0
 11
808.17479939355712
 21
-236.7428571428631
 31
0.0
  0
LINE
  8
SIZE
  6
CONTINUOUS
 62
    30
 10
808.17479939355724
 20
-444.00000000000608
 30
0.0
 11
808.17479939355724
 21
-404.00000000000608
 31
0.0
  0
CIRCLE
  8
SIZE
  6
CONTINUOUS
 62
    30
 10
808.17479939355724
 20
-444.00000000000608
 30
0.0
 40
6.0
  0
LINE
  8
SIZE
  6
CONTINUOUS
 62
    30
 10
808.17479939355724
 20
-444.00000000000608
 30
0.0
 11
808.17479939355724
 21
-456.00000000000608
 31
0.0
  0
CIRCLE
  8
SIZE
  6
CONTINUOUS
 62
    30
 10
808.17479939355724
 20
-404.00000000000608
 30
0.0
 40
6.0
  0
LINE
  8
SIZE
  6
CONTINUOUS
 62
    30
 10
808.17479939355724
 20
-404.00000000000608
 30
0.0
 11
808.17479939355724
 21
-392.00000000000608
 31
0.0
  0
TEXT
  8
SIZE
  6
CONTINUOUS
 62
    30
 10
783.1747993935569
 20
-363.09142857143473
 30
0.0
 40
64.0
  1
40
 50
90.0
 41
0.9
 51
0.0
  7
STANDARD
 71
     0
 72
     1
 11
783.1747993935569
 21
-308.37142857143471
 31
0.0
210
0.0
220
0.0
230
1.0
  0
POINT
  8
DEFPOINTS
  6
CONTINUOUS
 62
    30
 10
575.00000000077694
 20
-404.00000000000608
 30
0.0
  0
POINT
  8
DEFPOINTS
  6
CONTINUOUS
 62
    30
 10
575.00000000077694
 20
-444.00000000000608
 30
0.0
  0
POINT
  8
DEFPOINTS
  6
CONTINUOUS
 62
    30
 10
808.17479939355724
 20
-444.00000000000608
 30
0.0
  0
LINE
  8
SIZE
  6
CONTINUOUS
 62
    30
 10
495.70000000000709
 20
-826.19999999999436
 30
0.0
 11
495.70000000000709
 21
-975.25550318634214
 31
0.0
  0
LINE
  8
SIZE
  6
CONTINUOUS
 62
    30
 10
610.70000000000528
 20
-732.69999999999436
 30
0.0
 11
610.70000000000528
 21
-975.25550318634214
 31
0.0
  0
LINE
  8
SIZE
  6
CONTINUOUS
 62
    30
 10
507.70000000000709
 20
-955.25550318634214
 30
0.0
 11
598.70000000000528
 21
-955.25550318634214
 31
0.0
  0
LINE
  8
SIZE
  6
CONTINUOUS
 62
    30
 10
610.70000000000528
 20
-955.25550318634214
 30
0.0
 11
798.87142857143442
 21
-955.25550318634214
 31
0.0
  0
CIRCLE
  8
SIZE
  6
CONTINUOUS
 62
    30
 10
495.70000000000709
 20
-955.25550318634214
 30
0.0
 40
6.0
  0
LINE
  8
SIZE
  6
CONTINUOUS
 62
    30
 10
495.70000000000709
 20
-955.25550318634214
 30
0.0
 11
507.70000000000709
 21
-955.25550318634214
 31
0.0
  0
CIRCLE
  8
SIZE
  6
CONTINUOUS
 62
    30
 10
610.70000000000528
 20
-955.25550318634214
 30
0.0
 40
6.0
  0
LINE
  8
SIZE
  6
CONTINUOUS
 62
    30
 10
610.70000000000528
 20
-955.25550318634214
 30
0.0
 11
598.70000000000528
 21
-955.25550318634214
 31
0.0
  0
TEXT
  8
SIZE
  6
CONTINUOUS
 62
    30
 10
641.95371428572014
 20
-930.25550318634214
 30
0.0
 40
64.0
  1
115
 50
0.0
 41
0.9
 51
0.0
  7
STANDARD
 71
     0
 72
     1
 11
710.78571428572013
 21
-930.25550318634214
 31
0.0
210
0.0
220
0.0
230
1.0
  0
POINT
  8
DEFPOINTS
  6
CONTINUOUS
 62
    30
 10
495.70000000000709
 20
-806.19999999999436
 30
0.0
  0
POINT
  8
DEFPOINTS
  6
CONTINUOUS
 62
    30
 10
610.70000000000528
 20
-712.69999999999436
 30
0.0
  0
POINT
  8
DEFPOINTS
  6
CONTINUOUS
 62
    30
 10
610.70000000000528
 20
-955.25550318634214
 30
0.0
  0
POINT
  8
ARRANGE
  6
CONTINUOUS
 62
     1
 10
0.0
 20
0.0
 30
0.0
 50
90.0
  0
CIRCLE
  8
ARRANGE
  6
CONTINUOUS
 62
     1
 10
0.0
 20
0.0
 30
0.0
 40
40.0
  0
LINE
  8
OUTLINE
  6
CONTINUOUS
 62
     3
 10
510.58091743229028
 20
-3.8364248596635662
 30
0.0
 11
510.20000000000709
 21
-4.3000000000029104
 31
0.0
  0
LINE
  8
OUTLINE
  6
CONTINUOUS
 62
     3
 10
510.20000000000709
 20
-4.3000000000029104
 30
0.0
 11
509.60000000000309
 21
-4.2999999999971124
 31
0.0
  0
ARC
  8
OUTLINE
  6
CONTINUOUS
 62
     3
 10
509.60000000000309
 20
-3.700000000001467
 30
0.0
 40
0.5999999999956455
 50
270.0
 51
90.0
  0
LINE
  8
OUTLINE
  6
CONTINUOUS
 62
     3
 10
509.60000000000309
 20
-3.1000000000058212
 30
0.0
 11
500.4000003637384
 21
-3.1000000000067298
 31
0.0
  0
ARC
  8
OUTLINE
  6
CONTINUOUS
 62
     3
 10
500.39999999999799
 20
-4.2999999999993772
 30
0.0
 40
1.199999999992702
 50
90.0
 51
180.0
  0
LINE
  8
OUTLINE
  6
CONTINUOUS
 62
     3
 10
499.20000000000528
 20
-4.3000000000029104
 30
0.0
 11
499.20000036373222
 21
-3.6000000000067298
 31
0.0
  0
LINE
  8
OUTLINE
  6
CONTINUOUS
 62
     3
 10
499.20000036373222
 20
-3.6000000000067298
 30
0.0
 11
495.70000036373222
 21
-3.6000000000067298
 31
0.0
  0
LINE
  8
OUTLINE
  6
CONTINUOUS
 62
     3
 10
495.70000036373222
 20
-3.6000000000067298
 30
0.0
 11
495.70000036373222
 21
-1.8000000000038201
 31
0.0
  0
ARC
  8
OUTLINE
  6
CONTINUOUS
 62
     3
 10
496.19999974281552
 20
-1.7999993790871203
 30
0.0
 40
0.4999993790836857
 50
90.0
 51
180.0
  0
LINE
  8
OUTLINE
  6
CONTINUOUS
 62
     3
 10
496.20000036373222
 20
-1.3000000000038201
 30
0.0
 11
497.70000036373949
 21
-1.3000000000038201
 31
0.0
  0
LINE
  8
OUTLINE
  6
CONTINUOUS
 62
     3
 10
497.70000036373949
 20
-1.3000000000038201
 30
0.0
 11
497.70000036373949
 21
-2.1000000000067298
 31
0.0
  0
LINE
  8
OUTLINE
  6
CONTINUOUS
 62
     3
 10
497.70000036373949
 20
-2.1000000000067298
 30
0.0
 11
500.96141273305972
 21
-2.0999379780894292
 31
0.0
  0
ARC
  8
OUTLINE
  6
CONTINUOUS
 62
     3
 10
500.95000036373244
 20
-1.0500000000038807
 30
0.0
 40
1.0500000000000154
 50
270.62275568722043
 51
90.0
  0
LINE
  8
OUTLINE
  6
CONTINUOUS
 62
     3
 10
500.95000036373222
 20
-0.0000000000038654
 30
0.0
 11
495.87128006773582
 21
-0.0000000000067075
 31
0.0
  0
ARC
  8
OUTLINE
  6
CONTINUOUS
 62
     3
 10
495.87128006773423
 20
-1.60000000000517
 30
0.0
 40
1.5999999999984624
 50
90.0
 51
170.00000000008561
  0
LINE
  8
OUTLINE
  6
CONTINUOUS
 62
     3
 10
494.29558766291581
 20
-1.3221629157407051
 30
0.0
 11
494.20000036373222
 21
-1.864265431507192
 31
0.0
  0
LINE
  8
OUTLINE
  6
CONTINUOUS
 62
     3
 10
494.20000036373222
 20
-1.864265431507192
 30
0.0
 11
494.20000036373222
 21
-0.8000000000038199
 31
0.0
  0
LINE
  8
OUTLINE
  6
CONTINUOUS
 62
     3
 10
494.20000036373222
 20
-0.8000000000038199
 30
0.0
 11
492.84708575573768
 21
-0.8000000000038199
 31
0.0
  0
LINE
  8
OUTLINE
  6
CONTINUOUS
 62
     3
 10
492.84708575573768
 20
-0.8000000000038199
 30
0.0
 11
492.84708575573768
 21
-0.0000000000009095
 31
0.0
  0
LINE
  8
OUTLINE
  6
CONTINUOUS
 62
     3
 10
492.84708575573768
 20
-0.0000000000009095
 30
0.0
 11
-492.84708502826197
 21
-0.0000000000009095
 31
0.0
  0
LINE
  8
OUTLINE
  6
CONTINUOUS
 62
     3
 10
-492.84708502826197
 20
-0.0000000000009095
 30
0.0
 11
-492.84708502826197
 21
-2.799999999989268
 31
0.0
  0
LINE
  8
OUTLINE
  6
CONTINUOUS
 62
     3
 10
-492.84708502826197
 20
-2.799999999989268
 30
0.0
 11
-494.03500438625719
 21
-2.799999999989268
 31
0.0
  0
LINE
  8
OUTLINE
  6
CONTINUOUS
 62
     3
 10
-494.03500438625719
 20
-2.799999999989268
 30
0.0
 11
-494.29558693744087
 21
-1.3221629157378629
 31
0.0
  0
ARC
  8
OUTLINE
  6
CONTINUOUS
 62
     3
 10
-495.87127934227408
 20
-1.600000000016349
 30
0.0
 40
1.6000000000154391
 50
10.000000000316902
 51
90.0
  0
LINE
  8
OUTLINE
  6
CONTINUOUS
 62
     3
 10
-495.871279342261
 20
-0.0000000000009095
 30
0.0
 11
-500.94999963626742
 21
-0.0000000000009095
 31
0.0
  0
ARC
  8
OUTLINE
  6
CONTINUOUS
 62
     3
 10
-500.94999963626833
 20
-1.0500000000023415
 30
0.0
 40
1.050000000001432
 50
90.0
 51
270.0
  0
LINE
  8
OUTLINE
  6
CONTINUOUS
 62
     3
 10
-500.94999963626918
 20
-2.100000000003774
 30
0.0
 11
-497.69999963626009
 21
-2.1000000000067298
 31
0.0
  0
LINE
  8
OUTLINE
  6
CONTINUOUS
 62
     3
 10
-497.69999963626009
 20
-2.1000000000067298
 30
0.0
 11
-497.69999963626009
 21
-1.3000000000038201
 31
0.0
  0
LINE
  8
OUTLINE
  6
CONTINUOUS
 62
     3
 10
-497.69999963626009
 20
-1.3000000000038201
 30
0.0
 11
-496.19999963626742
 21
-1.3000000000038201
 31
0.0
  0
ARC
  8
OUTLINE
  6
CONTINUOUS
 62
     3
 10
-496.19999963627083
 20
-1.8000000000090504
 30
0.0
 40
0.5000000000052303
 50
0.0
 51
90.0
  0
LINE
  8
OUTLINE
  6
CONTINUOUS
 62
     3
 10
-495.6999996362656
 20
-1.8000000000038201
 30
0.0
 11
-495.69999963626009
 21
-360.80000000000928
 31
0.0
  0
LINE
  8
OUTLINE
  6
CONTINUOUS
 62
     3
 10
-495.69999963626009
 20
-360.80000000000928
 30
0.0
 11
-545.49999963625578
 21
-360.80000000000928
 31
0.0
  0
ARC
  8
OUTLINE
  6
CONTINUOUS
 62
     3
 10
-545.49999963625703
 20
-363.80000000000803
 30
0.0
 40
2.9999999999987774
 50
90.0
 51
180.0
  0
LINE
  8
OUTLINE
  6
CONTINUOUS
 62
     3
 10
-548.49999963625578
 20
-363.80000000000928
 30
0.0
 11
-548.49999963625578
 21
-382.80000000000928
 31
0.0
  0
ARC
  8
OUTLINE
  6
CONTINUOUS
 62
     3
 10
-543.39999963625723
 20
-382.70000000001079
 30
0.0
 40
5.1009802979412564
 50
181.12330271405881
 51
358.87669728594119
  0
LINE
  8
OUTLINE
  6
CONTINUOUS
 62
     3
 10
-538.29999963625869
 20
-382.80000000000928
 30
0.0
 11
-538.29999963625869
 21
-377.00000000000642
 31
0.0
  0
ARC
  8
OUTLINE
  6
CONTINUOUS
 62
     3
 10
-533.29999963625869
 20
-377.00000000000642
 30
0.0
 40
5.0
 50
0.0
 51
180.0
  0
LINE
  8
OUTLINE
  6
CONTINUOUS
 62
     3
 10
-528.29999963625869
 20
-377.00000000000642
 30
0.0
 11
-528.29999963625869
 21
-384.80000000000928
 31
0.0
  0
ARC
  8
OUTLINE
  6
CONTINUOUS
 62
     3
 10
-525.29999963625994
 20
-384.80000000001053
 30
0.0
 40
2.9999999999987774
 50
180.0
 51
270.0
  0
LINE
  8
OUTLINE
  6
CONTINUOUS
 62
     3
 10
-525.29999963625869
 20
-387.80000000000928
 30
0.0
 11
-499.98339858825881
 21
-387.80000000000928
 31
0.0
  0
ARC
  8
OUTLINE
  6
CONTINUOUS
 62
     3
 10
-500.21407799148517
 20
-389.09732872359518
 30
0.0
 40
1.317677807399799
 50
4.2359432177639746
 51
79.917553183826669
  0
LINE
  8
OUTLINE
  6
CONTINUOUS
 62
     3
 10
-498.89999963625718
 20
-389.00000000000767
 30
0.0
 11
-498.8999996362536
 21
-389.14903320001667
 31
0.0
  0
ARC
  8
OUTLINE
  6
CONTINUOUS
 62
     3
 10
-502.06877842491957
 20
-389.16196544957262
 30
0.0
 40
3.1688051777567536
 50
314.76616885662611
 51
0.2338311554246957
  0
LINE
  8
OUTLINE
  6
CONTINUOUS
 62
     3
 10
-499.83725793625757
 20
-391.41177490000609
 30
0.0
 11
-508.2882247362586
 21
-399.86274170001622
 31
0.0
  0
ARC
  8
OUTLINE
  6
CONTINUOUS
 62
     3
 10
-510.55096643669151
 20
-397.59999999796696
 30
0.0
 40
3.2000000020423438
 50
270.0
 51
314.99999997953591
  0
LINE
  8
OUTLINE
  6
CONTINUOUS
 62
     3
 10
-510.55096643625711
 20
-400.80000000000928
 30
0.0
 11
-543.89999963625723
 21
-400.80000000000928
 31
0.0
  0
LINE
  8
OUTLINE
  6
CONTINUOUS
 62
     3
 10
-543.89999963625723
 20
-400.80000000000928
 30
0.0
 11
-543.89999963625723
 21
-407.20000000001801
 31
0.0
  0
LINE
  8
OUTLINE
  6
CONTINUOUS
 62
     3
 10
-543.89999963625723
 20
-407.20000000001801
 30
0.0
 11
-510.55096643625711
 21
-407.20000000001801
 31
0.0
  0
ARC
  8
OUTLINE
  6
CONTINUOUS
 62
     3
 10
-510.55096643619186
 20
-410.39999999990249
 30
0.0
 40
3.1999999998844761
 50
44.999999999732267
 51
90.0
  0
LINE
  8
OUTLINE
  6
CONTINUOUS
 62
     3
 10
-508.28822473646602
 20
-408.1372583001978
 30
0.0
 11
-499.83725793645772
 21
-416.58822510021349
 31
0.0
  0
ARC
  8
OUTLINE
  6
CONTINUOUS
 62
     3
 10
-502.09999963624921
 20
-418.8509668000097
 30
0.0
 40
3.1999999999956361
 50
0.0
 51
45.000000000059742
  0
LINE
  8
OUTLINE
  6
CONTINUOUS
 62
     3
 10
-498.8999996362536
 20
-418.85096680001061
 30
0.0
 11
-498.89999963625718
 21
-419.000000000005
 31
0.0
  0
ARC
  8
OUTLINE
  6
CONTINUOUS
 62
     3
 10
-500.21407799148545
 20
-418.90267127641738
 30
0.0
 40
1.317677807400065
 50
280.08244681618385
 51
355.76405678223205
  0
LINE
  8
OUTLINE
  6
CONTINUOUS
 62
     3
 10
-499.98339858825881
 20
-420.20000000000351
 30
0.0
 11
-525.29999963625869
 21
-420.20000000001801
 31
0.0
  0
ARC
  8
OUTLINE
  6
CONTINUOUS
 62
     3
 10
-525.29999963628438
 20
-423.19999999999231
 30
0.0
 40
2.9999999999743241
 50
90.0
 51
180.0
  0
LINE
  8
OUTLINE
  6
CONTINUOUS
 62
     3
 10
-528.29999963625869
 20
-423.20000000000351
 30
0.0
 11
-528.29999963625869
 21
-431.00000000000642
 31
0.0
  0
ARC
  8
OUTLINE
  6
CONTINUOUS
 62
     3
 10
-533.29999963625869
 20
-431.00000000000642
 30
0.0
 40
5.0
 50
180.0
 51
0.0
  0
LINE
  8
OUTLINE
  6
CONTINUOUS
 62
     3
 10
-538.29999963625869
 20
-431.00000000000642
 30
0.0
 11
-538.29999963625869
 21
-425.20000000000351
 31
0.0
  0
ARC
  8
OUTLINE
  6
CONTINUOUS
 62
     3
 10
-543.39999963625723
 20
-425.300000000002
 30
0.0
 40
5.1009802979412564
 50
1.1233027140587524
 51
178.87669728594119
  0
LINE
  8
OUTLINE
  6
CONTINUOUS
 62
     3
 10
-548.49999963625578
 20
-425.20000000000351
 30
0.0
 11
-548.49999963625578
 21
-444.20000000000351
 31
0.0
  0
ARC
  8
OUTLINE
  6
CONTINUOUS
 62
     3
 10
-545.49999963623179
 20
-444.19999999999402
 30
0.0
 40
3.0000000000240066
 50
180.0
 51
270.0
  0
LINE
  8
OUTLINE
  6
CONTINUOUS
 62
     3
 10
-545.49999963625578
 20
-447.20000000001801
 30
0.0
 11
-495.69999963626009
 21
-447.20000000001801
 31
0.0
  0
LINE
  8
OUTLINE
  6
CONTINUOUS
 62
     3
 10
-495.69999963626009
 20
-447.20000000001801
 30
0.0
 11
-495.69999999999982
 21
-806.19999999999436
 31
0.0
  0
ARC
  8
OUTLINE
  6
CONTINUOUS
 62
     3
 10
-496.20000000000135
 20
-806.19999999999277
 30
0.0
 40
0.5000000000015429
 50
270.0
 51
0.0
  0
LINE
  8
OUTLINE
  6
CONTINUOUS
 62
     3
 10
-496.19999999999982
 20
-806.69999999999436
 30
0.0
 11
-497.69999999999072
 21
-806.69999999999436
 31
0.0
  0
LINE
  8
OUTLINE
  6
CONTINUOUS
 62
     3
 10
-497.69999999999072
 20
-806.69999999999436
 30
0.0
 11
-497.69999999999072
 21
-805.89999999999145
 31
0.0
  0
LINE
  8
OUTLINE
  6
CONTINUOUS
 62
     3
 10
-497.69999999999072
 20
-805.89999999999145
 30
0.0
 11
-500.94999999999982
 21
-805.89999999999145
 31
0.0
  0
ARC
  8
OUTLINE
  6
CONTINUOUS
 62
     3
 10
-500.94999999999982
 20
-806.94999999999436
 30
0.0
 40
1.0500000000029106
 50
90.0
 51
270.0
  0
LINE
  8
OUTLINE
  6
CONTINUOUS
 62
     3
 10
-500.94999999999982
 20
-807.99999999999727
 30
0.0
 11
-495.87127970599522
 21
-807.99999999999136
 31
0.0
  0
ARC
  8
OUTLINE
  6
CONTINUOUS
 62
     3
 10
-495.87127970599647
 20
-806.39999999998884
 30
0.0
 40
1.6000000000025794
 50
270.0
 51
349.99999999985653
  0
LINE
  8
OUTLINE
  6
CONTINUOUS
 62
     3
 10
-494.29558730117509
 20
-806.67783708426032
 30
0.0
 11
-494.03500474998782
 21
-805.19999999999436
 31
0.0
  0
LINE
  8
OUTLINE
  6
CONTINUOUS
 62
     3
 10
-494.03500474998782
 20
-805.19999999999436
 30
0.0
 11
-492.79999999999649
 21
-805.19999999999436
 31
0.0
  0
LINE
  8
OUTLINE
  6
CONTINUOUS
 62
     3
 10
-492.79999999999649
 20
-805.19999999999436
 30
0.0
 11
-492.79999999999649
 21
-807.19999999999436
 31
0.0
  0
LINE
  8
OUTLINE
  6
CONTINUOUS
 62
     3
 10
-492.79999999999649
 20
-807.19999999999436
 30
0.0
 11
-492.79999999999649
 21
-807.99999999999727
 31
0.0
  0
LINE
  8
OUTLINE
  6
CONTINUOUS
 62
     3
 10
-492.79999999999649
 20
-807.99999999999727
 30
0.0
 11
492.80000000000018
 21
-807.99999999999727
 31
0.0
  0
LINE
  8
OUTLINE
  6
CONTINUOUS
 62
     3
 10
492.80000000000018
 20
-807.99999999999727
 30
0.0
 11
492.80000000000018
 21
-807.19999999999436
 31
0.0
  0
LINE
  8
OUTLINE
  6
CONTINUOUS
 62
     3
 10
492.80000000000018
 20
-807.19999999999436
 30
0.0
 11
494.19999999999982
 21
-807.19999999999436
 31
0.0
  0
LINE
  8
OUTLINE
  6
CONTINUOUS
 62
     3
 10
494.19999999999982
 20
-807.19999999999436
 30
0.0
 11
494.19999999999982
 21
-806.13573456876975
 31
0.0
  0
LINE
  8
OUTLINE
  6
CONTINUOUS
 62
     3
 10
494.19999999999982
 20
-806.13573456876975
 30
0.0
 11
494.29558729918341
 21
-806.67783708426032
 31
0.0
  0
ARC
  8
OUTLINE
  6
CONTINUOUS
 62
     3
 10
495.87127970400502
 20
-806.39999999998849
 30
0.0
 40
1.6000000000028642
 50
190.00000000015405
 51
270.0
  0
LINE
  8
OUTLINE
  6
CONTINUOUS
 62
     3
 10
495.87127970400343
 20
-807.99999999999136
 30
0.0
 11
500.95000000001443
 21
-807.99999999999432
 31
0.0
  0
ARC
  8
OUTLINE
  6
CONTINUOUS
 62
     3
 10
500.95000000001528
 20
-806.94999999999436
 30
0.0
 40
1.0499999999999543
 50
270.0
 51
90.0
  0
LINE
  8
OUTLINE
  6
CONTINUOUS
 62
     3
 10
500.95000000001619
 20
-805.89999999999441
 30
0.0
 11
497.70000000000709
 21
-805.89999999999145
 31
0.0
  0
LINE
  8
OUTLINE
  6
CONTINUOUS
 62
     3
 10
497.70000000000709
 20
-805.89999999999145
 30
0.0
 11
497.70000008658741
 21
-806.60000000000309
 31
0.0
  0
LINE
  8
OUTLINE
  6
CONTINUOUS
 62
     3
 10
497.70000008658741
 20
-806.60000000000309
 30
0.0
 11
496.40000000000509
 21
-806.59999999999729
 31
0.0
  0
ARC
  8
OUTLINE
  6
CONTINUOUS
 62
     3
 10
496.40000000000623
 20
-805.99999999999568
 30
0.0
 40
0.6000000000015603
 50
180.0
 51
270.0
  0
LINE
  8
OUTLINE
  6
CONTINUOUS
 62
     3
 10
495.80000000000467
 20
-805.99999999999727
 30
0.0
 11
495.80000000000751
 21
-804.49999999999727
 31
0.0
  0
LINE
  8
OUTLINE
  6
CONTINUOUS
 62
     3
 10
495.80000000000751
 20
-804.49999999999727
 30
0.0
 11
499.19999999999982
 21
-804.49999999999727
 31
0.0
  0
LINE
  8
OUTLINE
  6
CONTINUOUS
 62
     3
 10
499.19999999999982
 20
-804.49999999999727
 30
0.0
 11
499.19999999999982
 21
-803.80000000000018
 31
0.0
  0
ARC
  8
OUTLINE
  6
CONTINUOUS
 62
     3
 10
500.40000000001129
 20
-803.79999999998881
 30
0.0
 40
1.2000000000114661
 50
180.0
 51
270.0
  0
LINE
  8
OUTLINE
  6
CONTINUOUS
 62
     3
 10
500.400000000006
 20
-805.00000000000023
 30
0.0
 11
509.60000000005948
 21
-804.99999999999136
 31
0.0
  0
ARC
  8
OUTLINE
  6
CONTINUOUS
 62
     3
 10
509.60000000003129
 20
-804.39999999999145
 30
0.0
 40
0.5999999999999091
 50
270.0
 51
90.0
  0
LINE
  8
OUTLINE
  6
CONTINUOUS
 62
     3
 10
509.60000000000309
 20
-803.79999999999154
 30
0.0
 11
510.20000000000709
 21
-803.80000000000018
 31
0.0
  0
LINE
  8
OUTLINE
  6
CONTINUOUS
 62
     3
 10
510.20000000000709
 20
-803.80000000000018
 30
0.0
 11
510.58091743091518
 21
-804.26357513947642
 31
0.0
  0
ARC
  8
OUTLINE
  6
CONTINUOUS
 62
     3
 10
475.60000000000366
 20
-761.69192476400053
 30
0.0
 40
55.100000000000058
 50
309.40977859057557
 51
359.88759627501236
  0
LINE
  8
OUTLINE
  6
CONTINUOUS
 62
     3
 10
530.69989396784422
 20
-761.80002070626097
 30
0.0
 11
530.70000000000709
 21
-714.10000000000605
 31
0.0
  0
LINE
  8
OUTLINE
  6
CONTINUOUS
 62
     3
 10
530.70000000000709
 20
-714.10000000000605
 30
0.0
 11
609.50010639587799
 21
-714.09999999999445
 31
0.0
  0
ARC
  8
OUTLINE
  6
CONTINUOUS
 62
     3
 10
609.50010639587811
 20
-712.89999999999384
 30
0.0
 40
1.2000000000005975
 50
270.0
 51
0.0
  0
LINE
  8
OUTLINE
  6
CONTINUOUS
 62
     3
 10
610.70010639587872
 20
-712.89999999999395
 30
0.0
 11
610.70010639589145
 21
-711.60000000000605
 31
0.0
  0
LINE
  8
OUTLINE
  6
CONTINUOUS
 62
     3
 10
610.70010639589145
 20
-711.60000000000605
 30
0.0
 11
611.30010639589545
 21
-711.60000000000605
 31
0.0
  0
LINE
  8
OUTLINE
  6
CONTINUOUS
 62
     3
 10
611.30010639589545
 20
-711.60000000000605
 30
0.0
 11
611.30000036373258
 21
-411.49999999801281
 31
0.0
  0
LINE
  8
OUTLINE
  6
CONTINUOUS
 62
     3
 10
611.30000036373258
 20
-411.49999999801281
 30
0.0
 11
610.70000036371584
 21
-106.2999999915188
 31
0.0
  0
ARC
  8
OUTLINE
  6
CONTINUOUS
 62
     3
 10
609.50000036371534
 20
-106.29999999799612
 30
0.0
 40
1.2000000000005251
 50
0.0
 51
90.0
  0
LINE
  8
OUTLINE
  6
CONTINUOUS
 62
     3
 10
609.50000036371512
 20
-105.0999999979956
 30
0.0
 11
530.70000036373222
 21
-105.0999999980078
 31
0.0
  0
LINE
  8
OUTLINE
  6
CONTINUOUS
 62
     3
 10
530.70000036373222
 20
-105.0999999980078
 30
0.0
 11
530.70000036373585
 21
-46.308075234009273
 31
0.0
  0
ARC
  8
OUTLINE
  6
CONTINUOUS
 62
     3
 10
475.80121785920301
 20
-46.312875289593883
 30
0.0
 40
54.898782714378399
 50
0.0050096361554779
 51
50.689397674047314
  0
ARC
  8
DETAIL
  6
CONTINUOUS
 62
     5
 10
-500.21407799148437
 20
-418.90267127641903
 30
0.0
 40
1.3176778073979409
 50
280.08244681615088
 51
355.76405678227411
  0
ARC
  8
DETAIL
  6
CONTINUOUS
 62
     5
 10
-500.21407799148437
 20
-389.0973287235928
 30
0.0
 40
1.3176778073979409
 50
4.2359432177259482
 51
79.917553183849137
  0
LINE
  8
BASIS
  6
DASHDOT
 62
     6
 10
-522.50000000000909
 20
-454.00001249801238
 30
0.0
 11
-522.50000000000909
 21
-353.99998749801131
 31
0.0
  0
LINE
  8
BASIS
  6
DASHDOT
 62
     6
 10
572.50001249999877
 20
-403.99999999801548
 30
0.0
 11
472.49998749999759
 21
-403.99999999801548
 31
0.0
  0
LINE
  8
BASIS
  6
DASHDOT
 62
     6
 10
-472.4999875000085
 20
-403.99999999800463
 30
0.0
 11
-572.50001250000605
 21
-403.99999999800463
 31
0.0
  0
LINE
  8
BASIS
  6
DASHDOT
 62
     6
 10
522.49999999999818
 20
-454.00001249801608
 30
0.0
 11
522.49999999999818
 21
-353.99998749801489
 31
0.0
  0
CIRCLE
  8
FIX
  6
CONTINUOUS
 62
    11
 10
-522.50000000000909
 20
-403.99999999801179
 30
0.0
 40
7.5
  0
CIRCLE
  8
FIX
  6
CONTINUOUS
 62
    11
 10
522.49999999999818
 20
-403.99999999801548
 30
0.0
 40
7.5
  0
TEXT
  8
NOTE
  6
CONTINUOUS
 62
     4
 10
293.93202271798049
 20
-484.82755245177532
 30
0.0
 40
64.065641025638456
  1
OA
 41
0.9
  0
TEXT
  8
NOTE
  6
CONTINUOUS
 62
     4
 10
-387.16074782575652
 20
-484.82755245177532
 30
0.0
 40
64.065641025638456
  1
EA
 41
0.9
  0
TEXT
  8
ETC
  6
CONTINUOUS
 62
    61
 10
1571.80604252692
 20
784.62721794172012
 30
0.0
 40
64.065641025638456
  1
LGH-160RVX3-E_3
 41
0.9
  0
TEXT
  8
ETC
  6
CONTINUOUS
 62
    61
 10
1567.6157551997401
 20
666.55092812175008
 30
0.0
 40
64.065641025638456
  1
LOSSNAY
 41
0.9
  0
TEXT
  8
ETC
  6
CONTINUOUS
 62
    61
 10
1618.369154882394
 20
558.29123341718343
 30
0.0
 40
40.041025641024042
  1
LGH-160RVX3-E
 50
0.0
 41
0.9
 51
0.0
  7
STANDARD
 71
     0
 11
0.0
 21
0.0
 31
0.0
210
0.0
220
0.0
230
1.0
  0
LINE
  8
SIZE
  6
CONTINUOUS
 62
    30
 10
522.49999999999818
 20
-333.99998749801489
 30
0.0
 11
522.49999999999818
 21
507.96531032439731
 31
0.0
  0
LINE
  8
SIZE
  6
CONTINUOUS
 62
    30
 10
-522.50000000000909
 20
-333.99998749801131
 30
0.0
 11
-522.50000000000909
 21
507.96531032439731
 31
0.0
  0
LINE
  8
SIZE
  6
CONTINUOUS
 62
    30
 10
510.49999999999818
 20
487.96531032439731
 30
0.0
 11
-510.50000000000909
 21
487.96531032439731
 31
0.0
  0
CIRCLE
  8
SIZE
  6
CONTINUOUS
 62
    30
 10
522.49999999999818
 20
487.96531032439731
 30
0.0
 40
6.0
  0
LINE
  8
SIZE
  6
CONTINUOUS
 62
    30
 10
522.49999999999818
 20
487.96531032439731
 30
0.0
 11
510.49999999999818
 21
487.96531032439731
 31
0.0
  0
CIRCLE
  8
SIZE
  6
CONTINUOUS
 62
    30
 10
-522.50000000000909
 20
487.96531032439731
 30
0.0
 40
6.0
  0
LINE
  8
SIZE
  6
CONTINUOUS
 62
    30
 10
-522.50000000000909
 20
487.96531032439731
 30
0.0
 11
-510.50000000000909
 21
487.96531032439731
 31
0.0
  0
TEXT
  8
SIZE
  6
CONTINUOUS
 62
    30
 10
-102.52800000000546
 20
512.96531032439725
 30
0.0
 40
64.0
  1
1045
 50
0.0
 41
0.9
 51
0.0
  7
STANDARD
 71
     0
 72
     1
 11
-0.000000000005457
 21
512.96531032439725
 31
0.0
210
0.0
220
0.0
230
1.0
  0
POINT
  8
DEFPOINTS
  6
CONTINUOUS
 62
    30
 10
522.49999999999818
 20
-353.99998749801489
 30
0.0
  0
POINT
  8
DEFPOINTS
  6
CONTINUOUS
 62
    30
 10
-522.50000000000909
 20
-353.99998749801131
 30
0.0
  0
POINT
  8
DEFPOINTS
  6
CONTINUOUS
 62
    30
 10
-522.50000000000909
 20
487.96531032439731
 30
0.0
  0
LINE
  8
SIZE
  6
CONTINUOUS
 62
    30
 10
-548.50000000000364
 20
-343.79999999798378
 30
0.0
 11
-548.50000000000364
 21
507.96531032442817
 31
0.0
  0
LINE
  8
SIZE
  6
CONTINUOUS
 62
    30
 10
-522.50000000000909
 20
-333.99998749801131
 30
0.0
 11
-522.50000000000909
 21
507.96531032442817
 31
0.0
  0
LINE
  8
SIZE
  6
CONTINUOUS
 62
    30
 10
-510.50000000000909
 20
487.96531032442817
 30
0.0
 11
-498.50000000000909
 21
487.96531032442817
 31
0.0
  0
LINE
  8
SIZE
  6
CONTINUOUS
 62
    30
 10
-560.50000000000364
 20
487.96531032442817
 30
0.0
 11
-713.2142857142918
 21
487.96531032442817
 31
0.0
  0
LINE
  8
SIZE
  6
CONTINUOUS
 62
    30
 10
-522.50000000000909
 20
487.96531032442817
 30
0.0
 11
-548.50000000000364
 21
487.96531032442817
 31
0.0
  0
CIRCLE
  8
SIZE
  6
CONTINUOUS
 62
    30
 10
-522.50000000000909
 20
487.96531032442817
 30
0.0
 40
6.0
  0
LINE
  8
SIZE
  6
CONTINUOUS
 62
    30
 10
-522.50000000000909
 20
487.96531032442817
 30
0.0
 11
-510.50000000000909
 21
487.96531032442817
 31
0.0
  0
CIRCLE
  8
SIZE
  6
CONTINUOUS
 62
    30
 10
-548.50000000000364
 20
487.96531032442817
 30
0.0
 40
6.0
  0
LINE
  8
SIZE
  6
CONTINUOUS
 62
    30
 10
-548.50000000000364
 20
487.96531032442817
 30
0.0
 11
-560.50000000000364
 21
487.96531032442817
 31
0.0
  0
TEXT
  8
SIZE
  6
CONTINUOUS
 62
    30
 10
-696.52514285714892
 20
512.96531032442817
 30
0.0
 40
64.0
  1
26
 50
0.0
 41
0.9
 51
0.0
  7
STANDARD
 71
     0
 72
     1
 11
-642.95714285714894
 21
512.96531032442817
 31
0.0
210
0.0
220
0.0
230
1.0
  0
POINT
  8
DEFPOINTS
  6
CONTINUOUS
 62
    30
 10
-548.50000000000364
 20
-363.79999999798378
 30
0.0
  0
POINT
  8
DEFPOINTS
  6
CONTINUOUS
 62
    30
 10
-522.50000000000909
 20
-353.99998749801131
 30
0.0
  0
POINT
  8
DEFPOINTS
  6
CONTINUOUS
 62
    30
 10
-522.50000000000909
 20
487.96531032442817
 30
0.0
  0
TEXT
  8
NOTE
  6
CONTINUOUS
 62
     4
 10
664.00888520892659
 20
346.22969861754967
 30
0.0
 40
69.0
  1
Ceiling suspension fixture
 50
0.0
 41
0.9
 51
0.0
  7
STANDARD
 71
     0
 11
0.0
 21
0.0
 31
0.0
210
0.0
220
0.0
230
1.0
  0
TEXT
  8
NOTE
  6
CONTINUOUS
 62
     4
 10
664.00888520892659
 20
232.37969861754968
 30
0.0
 40
69.0
  1
(4-15X30 oval)
 50
0.0
 41
0.9
 51
0.0
  7
STANDARD
 71
     0
 11
0.0
 21
0.0
 31
0.0
210
0.0
220
0.0
230
1.0
  0
LINE
  8
NOTE
  6
CONTINUOUS
 62
     4
 10
654.00888520892659
 20
195.08684147469239
 30
0.0
 11
1870.5231709232121
 21
195.08684147469239
 31
0.0
  0
LINE
  8
NOTE
  6
CONTINUOUS
 62
     4
 10
538.64828257016552
 20
-371.56259667853811
 30
0.0
 11
522.50001221721504
 21
-403.99999697003068
 31
0.0
  0
LINE
  8
NOTE
  6
CONTINUOUS
 62
     4
 10
522.50001221721504
 20
-403.99999697003068
 30
0.0
 11
520.26606992455834
 21
-367.83425247478243
 31
0.0
  0
LINE
  8
NOTE
  6
CONTINUOUS
 62
     4
 10
522.50001221721504
 20
-403.99999697003068
 30
0.0
 11
536.4143402775087
 21
-335.39685218328987
 31
0.0
  0
LINE
  8
NOTE
  6
CONTINUOUS
 62
     4
 10
536.41434027750881
 20
-335.39685218328992
 30
0.0
 11
644.00888520892659
 21
195.08684147469239
 31
0.0
  0
LINE
  8
NOTE
  6
CONTINUOUS
 62
     4
 10
644.00888520892659
 20
195.08684147469239
 30
0.0
 11
654.00888520892659
 21
195.08684147469239
 31
0.0
  0
ENDSEC
  0
EOF
