  0
SECTION
  2
HEADER
  9
$ACADVER
  1
AC1009
  9
$DWGCODEPAGE
  3
dos932
  9
$INSBASE
 10
0.0
 20
0.0
 30
0.0
  9
$EXTMIN
 10
-997.46244725243196
 20
-1139.7857557048389
 30
-0.0000000000112498
  9
$EXTMAX
 10
2012.146008808799
 20
843.38379737849209
 30
0.0000000000002956
  9
$LIMMIN
 10
-2970.0
 20
-2100.0
  9
$LIMMAX
 10
2970.0
 20
2100.0
  9
$ORTHOMODE
 70
     1
  9
$REGENMODE
 70
     1
  9
$FILLMODE
 70
     1
  9
$QTEXTMODE
 70
     0
  9
$MIRRTEXT
 70
     0
  9
$LTSCALE
 40
20.0
  9
$ATTMODE
 70
     1
  9
$TEXTSIZE
 40
64.0
  9
$TRACEWID
 40
0.05
  9
$TEXTSTYLE
  7
STANDARD
  9
$CLAYER
  8
SIZE
  9
$CELTYPE
  6
CONTINUOUS
  9
$CECOLOR
 62
     7
  9
$DIMSCALE
 40
1.0
  9
$DIMASZ
 40
12.0
  9
$DIMEXO
 40
20.0
  9
$DIMDLI
 40
200.0
  9
$DIMRND
 40
0.0
  9
$DIMDLE
 40
0.0
  9
$DIMEXE
 40
20.0
  9
$DIMTP
 40
0.0
  9
$DIMTM
 40
0.0
  9
$DIMTXT
 40
64.0
  9
$DIMCEN
 40
0.09
  9
$DIMTSZ
 40
0.0
  9
$DIMTOL
 70
     0
  9
$DIMLIM
 70
     0
  9
$DIMTIH
 70
     0
  9
$DIMTOH
 70
     0
  9
$DIMSE1
 70
     0
  9
$DIMSE2
 70
     0
  9
$DIMTAD
 70
     1
  9
$DIMZIN
 70
     8
  9
$DIMBLK
  1

  9
$DIMASO
 70
     1
  9
$DIMSHO
 70
     0
  9
$DIMPOST
  1

  9
$DIMAPOST
  1

  9
$DIMALT
 70
     0
  9
$DIMALTD
 70
     2
  9
$DIMALTF
 40
25.399999999999999
  9
$DIMLFAC
 40
1.0
  9
$DIMTOFL
 70
     1
  9
$DIMTVP
 40
0.0
  9
$DIMTIX
 70
     1
  9
$DIMSOXD
 70
     0
  9
$DIMSAH
 70
     0
  9
$DIMBLK1
  1

  9
$DIMBLK2
  1

  9
$DIMSTYLE
  2
STANDARD
  9
$DIMCLRD
 70
     7
  9
$DIMCLRE
 70
     7
  9
$DIMCLRT
 70
     7
  9
$DIMTFAC
 40
1.0
  9
$DIMGAP
 40
25.0
  9
$LUNITS
 70
     2
  9
$LUPREC
 70
     4
  9
$SKETCHINC
 40
0.1
  9
$FILLETRAD
 40
3.0
  9
$AUNITS
 70
     1
  9
$AUPREC
 70
     3
  9
$MENU
  1
ACAD
  9
$ELEVATION
 40
0.0
  9
$PELEVATION
 40
0.0
  9
$THICKNESS
 40
0.0
  9
$LIMCHECK
 70
     0
  9
$CHAMFERA
 40
0.0
  9
$CHAMFERB
 40
0.0
  9
$SKPOLY
 70
     0
  9
$TDCREATE
 40
2453019.62301037
  9
$TDUPDATE
 40
2460045.429884004
  9
$TDINDWG
 40
1.7166826505
  9
$TDUSRTIMER
 40
1.7166826505
  9
$USRTIMER
 70
     1
  9
$ANGBASE
 50
0.0
  9
$ANGDIR
 70
     0
  9
$PDMODE
 70
     3
  9
$PDSIZE
 40
-2.0
  9
$PLINEWID
 40
0.0
  9
$SPLFRAME
 70
     0
  9
$SPLINETYPE
 70
     6
  9
$SPLINESEGS
 70
     8
  9
$SURFTAB1
 70
     6
  9
$SURFTAB2
 70
     6
  9
$SURFTYPE
 70
     6
  9
$SURFU
 70
     6
  9
$SURFV
 70
     6
  9
$UCSNAME
  2

  9
$UCSORG
 10
0.0
 20
0.0
 30
0.0
  9
$UCSXDIR
 10
1.0
 20
0.0
 30
0.0
  9
$UCSYDIR
 10
0.0
 20
1.0
 30
0.0
  9
$PUCSNAME
  2

  9
$PUCSORG
 10
0.0
 20
0.0
 30
0.0
  9
$PUCSXDIR
 10
1.0
 20
0.0
 30
0.0
  9
$PUCSYDIR
 10
0.0
 20
1.0
 30
0.0
  9
$USERI1
 70
     0
  9
$USERI2
 70
     0
  9
$USERI3
 70
     0
  9
$USERI4
 70
     0
  9
$USERI5
 70
     0
  9
$USERR1
 40
20.0
  9
$USERR2
 40
0.0
  9
$USERR3
 40
0.0
  9
$USERR4
 40
0.0
  9
$USERR5
 40
0.0
  9
$WORLDVIEW
 70
     1
  9
$SHADEDGE
 70
     3
  9
$SHADEDIF
 70
    70
  9
$TILEMODE
 70
     1
  9
$MAXACTVP
 70
    48
  9
$PINSBASE
 10
0.0
 20
0.0
 30
0.0
  9
$PLIMCHECK
 70
     0
  9
$PEXTMIN
 10
-100000000000000000000.0
 20
-100000000000000000000.0
 30
-100000000000000000000.0
  9
$PEXTMAX
 10
100000000000000000000.0
 20
100000000000000000000.0
 30
100000000000000000000.0
  9
$PLIMMIN
 10
0.0
 20
0.0
  9
$PLIMMAX
 10
12.0
 20
9.0
  9
$UNITMODE
 70
     0
  9
$VISRETAIN
 70
     0
  9
$PLINEGEN
 70
     0
  9
$PSLTSCALE
 70
     0
  9
$TREEDEPTH
 70
  3020
  9
$ATTDIA
 70
     0
  9
$ATTREQ
 70
     1
  9
$BLIPMODE
 70
     1
  9
$COORDS
 70
     1
  9
$DRAGMODE
 70
     2
  9
$OSMODE
 70
     0
  9
$HANDLING
 70
     0
  9
$HANDSEED
  5
F960
  0
ENDSEC
  0
SECTION
  2
TABLES
  0
TABLE
  2
LTYPE
 70
     2
  0
LTYPE
  2
CONTINUOUS
 70
     0
  3
実線
 72
    65
 73
     0
 40
0.0
  0
LTYPE
  2
DASHDOT
 70
     0
  3
____ _ ____ _ ____ _ ____ _ ____ _ ____ _ ____
 72
    65
 73
     4
 40
5.5
 49
4.0
 49
-0.6
 49
0.3
 49
-0.6
  0
ENDTAB
  0
TABLE
  2
LAYER
 70
    12
  0
LAYER
  2
0
 70
     0
 62
     7
  6
CONTINUOUS
  0
LAYER
  2
BASIS
 70
     0
 62
     6
  6
DASHDOT
  0
LAYER
  2
OUTLINE
 70
     0
 62
     3
  6
CONTINUOUS
  0
LAYER
  2
DETAIL
 70
     0
 62
     5
  6
CONTINUOUS
  0
LAYER
  2
SIZE
 70
     0
 62
    30
  6
CONTINUOUS
  0
LAYER
  2
ARRANGE
 70
     0
 62
     1
  6
CONTINUOUS
  0
LAYER
  2
DEFPOINTS
 70
     0
 62
     7
  6
CONTINUOUS
  0
LAYER
  2
ETC
 70
     0
 62
    61
  6
CONTINUOUS
  0
LAYER
  2
FIX
 70
     0
 62
    11
  6
CONTINUOUS
  0
LAYER
  2
NOTE
 70
     0
 62
     4
  6
CONTINUOUS
  0
LAYER
  2
SERVICESPACE
 70
    64
 62
     2
  6
DASHDOT
  0
LAYER
  2
SYMBOLLINE
 70
    64
 62
    15
  6
CONTINUOUS
  0
ENDTAB
  0
TABLE
  2
STYLE
 70
     1
  0
STYLE
  2
STANDARD
 70
     0
 40
64.0
 41
0.9
 50
0.0
 71
     0
 42
64.0
  3
SIMPLEX.shx
  4
BIGFONT.shx
  0
ENDTAB
  0
TABLE
  2
APPID
 70
    20
  0
APPID
  2
ACAD
 70
     0
  0
APPID
  2
AUTOCAD_POSTSCRIPT_FIGURE
 70
     0
  0
APPID
  2
ACAD_EXEMPT_FROM_CAD_STANDARDS
 70
     0
  0
APPID
  2
ACAD_PSEXT
 70
     0
  0
APPID
  2
ACAUTHENVIRON
 70
     0
  0
APPID
  2
GENIUS_GENOENT_13
 70
     0
  0
APPID
  2
GENIUS_GENCFG_13
 70
     0
  0
APPID
  2
GENIUS_GENCFG0_13
 70
     0
  0
APPID
  2
GENIUS_GENCFG1_13
 70
     0
  0
APPID
  2
GENIUS_GENCFG2_13
 70
     0
  0
APPID
  2
GENIUS_GENCFG3_13
 70
     0
  0
APPID
  2
GENIUS_GENCFG4_13
 70
     0
  0
APPID
  2
GENIUS_GEVCFG0_13
 70
     0
  0
APPID
  2
CONTENTBLOCKICON
 70
     0
  0
APPID
  2
CONTENTBLOCKDESCRIPTION
 70
     0
  0
APPID
  2
ACAD_NAV_VCDISPLAY
 70
     0
  0
APPID
  2
ACAD_MLEADERVER
 70
     0
  0
APPID
  2
ACDBDYNAMICBLOCKTRUENAME
 70
     0
  0
APPID
  2
ACDBDYNAMICBLOCKGUID
 70
     0
  0
APPID
  2
ACAD_DSTYLE_DIMRADIAL_EXTENSION
 70
     0
  0
ENDTAB
  0
TABLE
  2
DIMSTYLE
 70
     1
  0
DIMSTYLE
  2
STANDARD
 70
     0
  3

  4

  5
_ORIGIN
  6

  7

 40
1.0
 41
12.0
 42
20.0
 43
200.0
 44
20.0
 45
0.0
 46
0.0
 47
0.0
 48
0.0
140
64.0
141
0.09
142
0.0
143
25.399999999999999
144
1.0
145
0.0
146
1.0
147
25.0
 71
     0
 72
     0
 73
     0
 74
     0
 75
     0
 76
     0
 77
     1
 78
     8
170
     0
171
     2
172
     1
173
     0
174
     1
175
     0
176
     7
177
     7
178
     7
  0
ENDTAB
  0
TABLE
  2
VIEW
 70
     1
  0
VIEW
  2
ALL
 70
     0
 40
4282.6198079999986
 10
0.0
 20
41.309904000000003
 41
5940.0
 11
0.0
 21
0.0
 31
1.0
 12
0.0
 22
0.0
 32
0.0
 42
50.0
 43
0.0
 44
0.0
 50
0.0
 71
     0
  0
ENDTAB
  0
TABLE
  2
UCS
 70
     0
  0
ENDTAB
  0
TABLE
  2
VPORT
 70
     1
  0
VPORT
  2
*ACTIVE
 70
     0
 10
0.0
 20
0.0
 11
1.0
 21
1.0
 12
507.34178077818348
 22
-148.20097916317351
 13
0.0
 23
0.0
 14
1.0
 24
1.0
 15
0.0
 25
0.0
 16
0.0
 26
0.0
 36
1.0
 17
0.0
 27
0.0
 37
0.0
 40
1378.262398572348
 41
2.1699346405228761
 42
50.0
 43
0.0
 44
0.0
 50
0.0
 51
0.0
 71
     0
 72
  1000
 73
     1
 74
     3
 75
     0
 76
     0
 77
     0
 78
     0
  0
ENDTAB
  0
ENDSEC
  0
SECTION
  2
BLOCKS
  0
BLOCK
  8
0
  2
_ORIGIN
 70
     0
 10
0.0
 20
0.0
 30
0.0
  3
_ORIGIN
  1
_ORIGIN
  0
CIRCLE
  8
0
  6
CONTINUOUS
 62
     7
 10
0.0
 20
0.0
 30
0.0
 40
0.5
  0
LINE
  8
0
  6
CONTINUOUS
 62
     7
 10
0.0
 20
0.0
 30
0.0
 11
-1.0
 21
0.0
 31
0.0
  0
ENDBLK
  8
0
  0
ENDSEC
  0
SECTION
  2
ENTITIES
  0
LINE
  8
DETAIL
  6
CONTINUOUS
 62
     5
 10
-644.19999999999345
 20
-105.09999999801219
 30
0.0
 11
-644.19999999999345
 21
-46.308075234008363
 31
0.0
  0
LINE
  8
DETAIL
  6
CONTINUOUS
 62
     5
 10
-618.59999999999673
 20
-3.5999999999967258
 30
0.0
 11
-618.59999999999673
 21
-4.2000000000025466
 31
0.0
  0
LINE
  8
DETAIL
  6
CONTINUOUS
 62
     5
 10
-614.19999999999345
 20
-403.20000000000249
 30
0.0
 11
-614.19999999999345
 21
-402.69999999998799
 31
0.0
  0
LINE
  8
DETAIL
  6
CONTINUOUS
 62
     5
 10
-614.19999999999345
 20
-1.3000000000029099
 30
0.0
 11
-614.19999999999345
 21
-0.8000000000029104
 31
0.0
  0
LINE
  8
DETAIL
  6
CONTINUOUS
 62
     5
 10
-612.69999999999345
 20
-105.09999999801219
 30
0.0
 11
-612.69999999999345
 21
-3.6000000000058212
 31
0.0
  0
LINE
  8
DETAIL
  6
CONTINUOUS
 62
     5
 10
-609.19999999999345
 20
-402.20000000000249
 30
0.0
 11
-609.19999999999345
 21
-1.8000000000029099
 31
0.0
  0
LINE
  8
DETAIL
  6
CONTINUOUS
 62
     5
 10
-608.70000000000255
 20
-2.799999999988358
 30
0.0
 11
-608.70000000000255
 21
-1.8000000000029099
 31
0.0
  0
LINE
  8
DETAIL
  6
CONTINUOUS
 62
     5
 10
-608.70000000000255
 20
-401.20000000000249
 30
0.0
 11
-608.70000000000255
 21
-402.20000000000249
 31
0.0
  0
LINE
  8
DETAIL
  6
CONTINUOUS
 62
     5
 10
-607.69999999999345
 20
-0.8000000000029104
 30
0.0
 11
-607.69999999999345
 21
-2.799999999988358
 31
0.0
  0
LINE
  8
DETAIL
  6
CONTINUOUS
 62
     5
 10
-607.69999999999345
 20
-401.20000000000249
 30
0.0
 11
-607.69999999999345
 21
-403.20000000000249
 31
0.0
  0
LINE
  8
DETAIL
  6
CONTINUOUS
 62
     5
 10
-606.34708539199892
 20
0.0
 30
0.0
 11
-606.34708539199892
 21
-0.8000000000029104
 31
0.0
  0
LINE
  8
DETAIL
  6
CONTINUOUS
 62
     5
 10
-603.30000000000109
 20
-278.18833765001
 30
0.0
 11
-603.30000000000109
 21
-205.71166234800151
 31
0.0
  0
LINE
  8
DETAIL
  6
CONTINUOUS
 62
     5
 10
-602.69999999999527
 20
-398.2000000000171
 30
0.0
 11
-602.69999999999527
 21
-397.00000000000551
 31
0.0
  0
LINE
  8
DETAIL
  6
CONTINUOUS
 62
     5
 10
-602.69999999999527
 20
-5.7000000000025466
 30
0.0
 11
-602.69999999999527
 21
-6.9000000000141881
 31
0.0
  0
LINE
  8
DETAIL
  6
CONTINUOUS
 62
     5
 10
-594.19999999999345
 20
-9.8999999999996362
 30
0.0
 11
-594.19999999999345
 21
-189.9500000000171
 31
0.0
  0
LINE
  8
DETAIL
  6
CONTINUOUS
 62
     5
 10
-594.19999999999345
 20
-293.95000000000249
 30
0.0
 11
-594.19999999999345
 21
-394.00000000000551
 31
0.0
  0
LINE
  8
DETAIL
  6
CONTINUOUS
 62
     5
 10
-608.58343350199357
 20
-1.4610814580082661
 30
0.0
 11
-608.3473460379937
 21
-2.799999999988358
 31
0.0
  0
LINE
  8
DETAIL
  6
CONTINUOUS
 62
     5
 10
-607.79558729999371
 20
-1.322162914002547
 30
0.0
 11
-607.69999999999345
 21
-1.864265431506283
 31
0.0
  0
LINE
  8
DETAIL
  6
CONTINUOUS
 62
     5
 10
-608.3473460379937
 20
-401.20000000000249
 30
0.0
 11
-608.58343350199357
 21
-402.53891854199719
 31
0.0
  0
LINE
  8
DETAIL
  6
CONTINUOUS
 62
     5
 10
-607.7109900359992
 20
-402.19806215999961
 30
0.0
 11
-607.79558729999371
 21
-402.6778370840093
 31
0.0
  0
LINE
  8
DETAIL
  6
CONTINUOUS
 62
     5
 10
-603.30000000000109
 20
-205.71166234800151
 30
0.0
 11
-594.19999999999345
 21
-189.9500000000171
 31
0.0
  0
LINE
  8
DETAIL
  6
CONTINUOUS
 62
     5
 10
-430.93655276400023
 20
-377.35234159800348
 30
0.0
 11
-430.38689240599712
 21
-379.55690888200661
 31
0.0
  0
LINE
  8
DETAIL
  6
CONTINUOUS
 62
     5
 10
-488.37229503599701
 20
-107.1384191499983
 30
0.0
 11
-488.76683360999601
 21
-104.9008797120059
 31
0.0
  0
LINE
  8
DETAIL
  6
CONTINUOUS
 62
     5
 10
-418.74334369200011
 20
-376.65384613600509
 30
0.0
 11
-419.2930040500014
 21
-374.44927885200201
 31
0.0
  0
LINE
  8
DETAIL
  6
CONTINUOUS
 62
     5
 10
-476.94914057199821
 20
-102.8171015800053
 30
0.0
 11
-476.55460199999828
 21
-105.0546410179977
 31
0.0
  0
LINE
  8
DETAIL
  6
CONTINUOUS
 62
     5
 10
-614.44999999999345
 20
0.0
 30
0.0
 11
-609.37127970399706
 21
0.0
 31
0.0
  0
LINE
  8
DETAIL
  6
CONTINUOUS
 62
     5
 10
-606.34708539199892
 20
0.0
 30
0.0
 11
606.34708539200074
 21
0.0
 31
0.0
  0
LINE
  8
DETAIL
  6
CONTINUOUS
 62
     5
 10
609.37127970599977
 20
0.0
 30
0.0
 11
614.45000000000618
 21
0.0
 31
0.0
  0
LINE
  8
DETAIL
  6
CONTINUOUS
 62
     5
 10
-614.44999999999345
 20
-0.8000000000029104
 30
0.0
 11
-609.37127970399706
 21
-0.8000000000029104
 31
0.0
  0
LINE
  8
DETAIL
  6
CONTINUOUS
 62
     5
 10
-607.69999999999345
 20
-0.8000000000029104
 30
0.0
 11
-602.01438630999655
 21
-0.8000000000029104
 31
0.0
  0
LINE
  8
DETAIL
  6
CONTINUOUS
 62
     5
 10
609.37127970599977
 20
-0.8000000000029104
 30
0.0
 11
614.45000000000618
 21
-0.8000000000029104
 31
0.0
  0
LINE
  8
DETAIL
  6
CONTINUOUS
 62
     5
 10
602.01438631000383
 20
-0.8000000000029104
 30
0.0
 11
606.34708539200074
 21
-0.8000000000029104
 31
0.0
  0
LINE
  8
DETAIL
  6
CONTINUOUS
 62
     5
 10
609.70000000000618
 20
-1.3000000000029099
 30
0.0
 11
614.45000000000618
 21
-1.3000000000029099
 31
0.0
  0
LINE
  8
DETAIL
  6
CONTINUOUS
 62
     5
 10
-609.19999999999345
 20
-2.799999999988358
 30
0.0
 11
-605.69999999999345
 21
-2.799999999988358
 31
0.0
  0
LINE
  8
DETAIL
  6
CONTINUOUS
 62
     5
 10
606.34708539200074
 20
-2.799999999990177
 30
0.0
 11
609.20000000000437
 21
-2.799999999988358
 31
0.0
  0
LINE
  8
DETAIL
  6
CONTINUOUS
 62
     5
 10
-613.89999999999964
 20
-3.1000000000058212
 30
0.0
 11
-623.09999999999673
 21
-3.000000000005457
 31
0.0
  0
LINE
  8
DETAIL
  6
CONTINUOUS
 62
     5
 10
-612.69999999999345
 20
-3.6000000000058212
 30
0.0
 11
-609.19999999999345
 21
-3.6000000000058212
 31
0.0
  0
LINE
  8
DETAIL
  6
CONTINUOUS
 62
     5
 10
-613.89999999999964
 20
-3.6999999999970901
 30
0.0
 11
-623.09999999999673
 21
-3.5999999999967258
 31
0.0
  0
LINE
  8
DETAIL
  6
CONTINUOUS
 62
     5
 10
-623.70000000000073
 20
-4.2000000000025466
 30
0.0
 11
-612.69999999999345
 21
-4.2000000000025466
 31
0.0
  0
LINE
  8
DETAIL
  6
CONTINUOUS
 62
     5
 10
-597.19999999999345
 20
-6.9000000000141881
 30
0.0
 11
-602.69999999999527
 21
-6.9000000000141881
 31
0.0
  0
LINE
  8
DETAIL
  6
CONTINUOUS
 62
     5
 10
-605.69999999999345
 20
-401.20000000000249
 30
0.0
 11
-602.69999999999527
 21
-398.2000000000171
 31
0.0
  0
LINE
  8
DETAIL
  6
CONTINUOUS
 62
     5
 10
-597.19999999999345
 20
-397.00000000000551
 30
0.0
 11
-594.19999999999345
 21
-394.00000000000551
 31
0.0
  0
LINE
  8
DETAIL
  6
CONTINUOUS
 62
     5
 10
323.84615386400043
 20
-202.24334369000459
 30
0.0
 11
326.05072114799799
 21
-202.79300404800051
 31
0.0
  0
LINE
  8
DETAIL
  6
CONTINUOUS
 62
     5
 10
323.14765840000291
 20
-214.4365527639911
 30
0.0
 11
320.94309111800789
 21
-213.88689240600979
 31
0.0
  0
LINE
  8
DETAIL
  6
CONTINUOUS
 62
     5
 10
597.68289841800106
 20
-260.44914057199088
 30
0.0
 11
595.44535898200229
 21
-260.05460200000562
 31
0.0
  0
LINE
  8
DETAIL
  6
CONTINUOUS
 62
     5
 10
593.3615808500017
 20
-271.87229503599701
 30
0.0
 11
595.59912028600047
 21
-272.26683360799689
 31
0.0
  0
LINE
  8
DETAIL
  6
CONTINUOUS
 62
     5
 10
331.1331999380036
 20
-219.05613496800831
 30
0.0
 11
331.5930087820052
 21
-219.05613496800831
 31
0.0
  0
LINE
  8
BASIS
  6
DASHDOT
 62
     6
 10
-0.0000000062627805
 20
121.5633946460093
 30
0.0
 11
0.0000003574696166
 21
-929.46339464599077
 31
0.0
  0
LINE
  8
DETAIL
  6
CONTINUOUS
 62
     5
 10
-321.55464101799947
 20
-260.05460200000562
 30
0.0
 11
-319.31710158199888
 21
-260.44914057199088
 31
0.0
  0
LINE
  8
DETAIL
  6
CONTINUOUS
 62
     5
 10
-321.40087971399947
 20
-272.26683360799689
 30
0.0
 11
-323.6384191499983
 21
-271.87229503599701
 31
0.0
  0
LINE
  8
DETAIL
  6
CONTINUOUS
 62
     5
 10
-590.94927885200195
 20
-202.79300404800051
 30
0.0
 11
-593.15384613599963
 21
-202.24334369000459
 31
0.0
  0
LINE
  8
DETAIL
  6
CONTINUOUS
 62
     5
 10
-596.05690888199206
 20
-213.88689240600979
 30
0.0
 11
-593.85234159999709
 21
-214.4365527639911
 31
0.0
  0
LINE
  8
DETAIL
  6
CONTINUOUS
 62
     5
 10
-597.19999999999345
 20
-397.00000000000551
 30
0.0
 11
-602.69999999999527
 21
-397.00000000000551
 31
0.0
  0
LINE
  8
DETAIL
  6
CONTINUOUS
 62
     5
 10
-609.19999999999345
 20
-401.20000000000249
 30
0.0
 11
-605.69999999999345
 21
-401.20000000000249
 31
0.0
  0
LINE
  8
DETAIL
  6
CONTINUOUS
 62
     5
 10
605.70000000000618
 20
-401.20000000000249
 30
0.0
 11
609.20000000000437
 21
-401.20000000000249
 31
0.0
  0
LINE
  8
DETAIL
  6
CONTINUOUS
 62
     5
 10
609.70000000000618
 20
-402.69999999998799
 30
0.0
 11
614.45000000000618
 21
-402.69999999998799
 31
0.0
  0
LINE
  8
DETAIL
  6
CONTINUOUS
 62
     5
 10
614.45000000000618
 20
-403.20000000000249
 30
0.0
 11
609.37127970599977
 21
-403.20000000000249
 31
0.0
  0
LINE
  8
DETAIL
  6
CONTINUOUS
 62
     5
 10
-614.44999999999345
 20
-403.20000000000249
 30
0.0
 11
-609.37127970399706
 21
-403.20000000000249
 31
0.0
  0
LINE
  8
DETAIL
  6
CONTINUOUS
 62
     5
 10
-602.81438631000128
 20
0.0
 30
0.0
 11
-600.71438630999728
 21
-2.1000000000058212
 31
0.0
  0
LINE
  8
DETAIL
  6
CONTINUOUS
 62
     5
 10
-594.19999999999345
 20
-9.8999999999996362
 30
0.0
 11
-597.19999999999345
 21
-6.9000000000141881
 31
0.0
  0
LINE
  8
DETAIL
  6
CONTINUOUS
 62
     5
 10
-602.69999999999527
 20
-5.7000000000025466
 30
0.0
 11
-605.69999999999345
 21
-2.799999999988358
 31
0.0
  0
LINE
  8
DETAIL
  6
CONTINUOUS
 62
     5
 10
602.81438631000674
 20
0.0
 30
0.0
 11
600.71438631000092
 21
-2.1000000000058212
 31
0.0
  0
LINE
  8
DETAIL
  6
CONTINUOUS
 62
     5
 10
-623.70000000000073
 20
-4.2000000000025466
 30
0.0
 11
-624.08091743199839
 21
-3.7364248600115388
 31
0.0
  0
LINE
  8
DETAIL
  6
CONTINUOUS
 62
     5
 10
486.61310759400288
 20
-379.55690888200661
 30
0.0
 11
486.06344723599977
 21
-377.35234159800348
 31
0.0
  0
LINE
  8
DETAIL
  6
CONTINUOUS
 62
     5
 10
435.96743476200032
 20
-115.0216414960032
 30
0.0
 11
435.96743476200032
 21
-114.5590511359933
 31
0.0
  0
LINE
  8
DETAIL
  6
CONTINUOUS
 62
     5
 10
436.56054887600288
 20
-114.91872643401619
 30
0.0
 11
436.56054887600288
 21
-114.4521249900008
 31
0.0
  0
LINE
  8
DETAIL
  6
CONTINUOUS
 62
     5
 10
497.7069959499986
 20
-374.44927885200201
 30
0.0
 11
498.25665630799989
 21
-376.65384613600509
 31
0.0
  0
LINE
  8
DETAIL
  6
CONTINUOUS
 62
     5
 10
428.23316639000041
 20
-104.9008797120059
 30
0.0
 11
428.62770496400299
 21
-107.1384191499983
 31
0.0
  0
LINE
  8
DETAIL
  6
CONTINUOUS
 62
     5
 10
440.44539799999978
 20
-105.0546410179977
 30
0.0
 11
440.05085942800002
 21
-102.8171015800053
 31
0.0
  0
LINE
  8
DETAIL
  6
CONTINUOUS
 62
     5
 10
-594.19999999999345
 20
-293.95000000000249
 30
0.0
 11
-603.30000000000109
 21
-278.18833765001
 31
0.0
  0
LINE
  8
DETAIL
  6
CONTINUOUS
 62
     5
 10
607.79558730000281
 20
-402.6778370840093
 30
0.0
 11
607.53500474999601
 21
-401.20000000000249
 31
0.0
  0
LINE
  8
DETAIL
  6
CONTINUOUS
 62
     5
 10
607.53500474999601
 20
-2.799999999988358
 30
0.0
 11
607.79558730000281
 21
-1.322162914002547
 31
0.0
  0
LINE
  8
DETAIL
  6
CONTINUOUS
 62
     5
 10
608.58343350200448
 20
-402.53891854199719
 30
0.0
 11
608.34734603800462
 21
-401.20000000000249
 31
0.0
  0
LINE
  8
DETAIL
  6
CONTINUOUS
 62
     5
 10
606.34708539200074
 20
0.0
 30
0.0
 11
606.34708539200074
 21
-2.799999999988358
 31
0.0
  0
LINE
  8
DETAIL
  6
CONTINUOUS
 62
     5
 10
608.34734603800462
 20
-2.799999999988358
 30
0.0
 11
608.58343350200448
 21
-1.4610814580082661
 31
0.0
  0
LINE
  8
DETAIL
  6
CONTINUOUS
 62
     5
 10
608.69999999999891
 20
-402.20000000000249
 30
0.0
 11
608.69999999999891
 21
-401.20000000000249
 31
0.0
  0
LINE
  8
DETAIL
  6
CONTINUOUS
 62
     5
 10
608.69999999999891
 20
-1.8000000000029099
 30
0.0
 11
608.69999999999891
 21
-2.799999999988358
 31
0.0
  0
LINE
  8
DETAIL
  6
CONTINUOUS
 62
     5
 10
609.20000000000437
 20
-1.8000000000029099
 30
0.0
 11
609.20000000000437
 21
-402.20000000000249
 31
0.0
  0
LINE
  8
DETAIL
  6
CONTINUOUS
 62
     5
 10
610.70000036373858
 20
-404.80000000000842
 30
0.0
 11
610.70000000000437
 21
-403.20000000000249
 31
0.0
  0
LINE
  8
DETAIL
  6
CONTINUOUS
 62
     5
 10
611.19999999999891
 20
-1.3000000000029099
 30
0.0
 11
611.19999999999891
 21
-2.1000000000058212
 31
0.0
  0
LINE
  8
DETAIL
  6
CONTINUOUS
 62
     5
 10
611.19999999999891
 20
-401.89999999999958
 30
0.0
 11
611.19999999999891
 21
-403.20000000000249
 31
0.0
  0
LINE
  8
DETAIL
  6
CONTINUOUS
 62
     5
 10
614.20000000000618
 20
-0.8000000000029104
 30
0.0
 11
614.20000000000618
 21
-1.3000000000029099
 31
0.0
  0
LINE
  8
DETAIL
  6
CONTINUOUS
 62
     5
 10
614.20000000000618
 20
-402.69999999998799
 30
0.0
 11
614.20000000000618
 21
-403.20000000000249
 31
0.0
  0
ARC
  8
DETAIL
  6
CONTINUOUS
 62
     5
 10
-589.09999999999673
 20
-46.308075234008363
 30
0.0
 40
55.099999999999952
 50
129.40977859107761
 51
180.0
  0
ARC
  8
DETAIL
  6
CONTINUOUS
 62
     5
 10
-609.37127970399706
 20
-1.600000000005821
 30
0.0
 40
1.599999999999999
 50
9.9999999999522906
 51
90.0
  0
ARC
  8
DETAIL
  6
CONTINUOUS
 62
     5
 10
-613.81809785170117
 20
-4.2151976564055076
 30
0.0
 40
1.1182011334015489
 50
0.7787403844009981
 51
94.200365459653071
  0
ARC
  8
DETAIL
  6
CONTINUOUS
 62
     5
 10
-614.44999999999345
 20
-1.0500000000029099
 30
0.0
 40
1.0499999999999989
 50
89.999999999895778
 51
269.9999823998815
  0
ARC
  8
DETAIL
  6
CONTINUOUS
 62
     5
 10
-609.69999999999345
 20
-1.8000000000029099
 30
0.0
 40
0.9999999999999994
 50
0.0
 51
90.0
  0
ARC
  8
DETAIL
  6
CONTINUOUS
 62
     5
 10
-609.37127970399706
 20
-1.600000000005821
 30
0.0
 40
0.7999999999999996
 50
9.9999999999522906
 51
90.0
  0
ARC
  8
DETAIL
  6
CONTINUOUS
 62
     5
 10
-613.82151767800678
 20
-4.2158212136127986
 30
0.0
 40
0.5217576058622017
 50
1.73764163716842
 51
98.651216178322557
  0
ARC
  8
DETAIL
  6
CONTINUOUS
 62
     5
 10
-623.09999999999673
 20
-3.5999999999967258
 30
0.0
 40
0.5999999999999996
 50
90.0
 51
270.0
  0
ARC
  8
DETAIL
  6
CONTINUOUS
 62
     5
 10
-609.69999999999345
 20
-1.8000000000029099
 30
0.0
 40
0.4999999999999997
 50
0.0
 51
90.0
  0
ARC
  8
DETAIL
  6
CONTINUOUS
 62
     5
 10
-614.44999999999345
 20
-1.0500000000029099
 30
0.0
 40
0.2499999999999999
 50
89.99999999958311
 51
269.9999823998815
  0
ARC
  8
DETAIL
  6
CONTINUOUS
 62
     5
 10
-592.67000234399347
 20
-200.3027522380016
 30
0.0
 40
1.9999999999999989
 50
162.73584144567161
 51
256.00000000007782
  0
ARC
  8
DETAIL
  6
CONTINUOUS
 62
     5
 10
-482.46344851799398
 20
-106.09653008400529
 30
0.0
 40
5.9999999999999956
 50
190.00000000006949
 51
9.9999999999522906
  0
ARC
  8
DETAIL
  6
CONTINUOUS
 62
     5
 10
-490.73644911599882
 20
-105.2481760679966
 30
0.0
 40
1.9999999999999989
 50
9.9999999999522906
 51
103.2641585541282
  0
ARC
  8
DETAIL
  6
CONTINUOUS
 62
     5
 10
-474.97952506599722
 20
-102.46980522600821
 30
0.0
 40
1.9999999999999989
 50
96.735841445747397
 51
190.00000000006949
  0
ARC
  8
DETAIL
  6
CONTINUOUS
 62
     5
 10
609.37127970599977
 20
-1.600000000005821
 30
0.0
 40
1.599999999999999
 50
90.0
 51
169.99999999993051
  0
ARC
  8
DETAIL
  6
CONTINUOUS
 62
     5
 10
609.70000000000618
 20
-1.8000000000029099
 30
0.0
 40
0.9999999999999994
 50
102.25747725230229
 51
180.0
  0
ARC
  8
DETAIL
  6
CONTINUOUS
 62
     5
 10
609.37127970599977
 20
-1.600000000005821
 30
0.0
 40
0.7999999999999996
 50
90.0
 51
169.99999999993051
  0
ARC
  8
DETAIL
  6
CONTINUOUS
 62
     5
 10
609.70000000000618
 20
-1.8000000000029099
 30
0.0
 40
0.4999999999999997
 50
90.0
 51
180.0
  0
ARC
  8
DETAIL
  6
CONTINUOUS
 62
     5
 10
434.53655148200602
 20
-106.09653008400529
 30
0.0
 40
5.9999999999999956
 50
190.00000000006949
 51
9.9999999999522906
  0
ARC
  8
DETAIL
  6
CONTINUOUS
 62
     5
 10
426.26355088400118
 20
-105.2481760679966
 30
0.0
 40
1.9999999999999989
 50
9.9999999999522906
 51
103.2641585541282
  0
ARC
  8
DETAIL
  6
CONTINUOUS
 62
     5
 10
442.02047493400278
 20
-102.46980522600821
 30
0.0
 40
1.9999999999999989
 50
96.735841445747397
 51
190.00000000006949
  0
ARC
  8
DETAIL
  6
CONTINUOUS
 62
     5
 10
324.32999765600471
 20
-200.3027522380016
 30
0.0
 40
1.9999999999999989
 50
162.73584144567161
 51
256.00000000007782
  0
ARC
  8
DETAIL
  6
CONTINUOUS
 62
     5
 10
-592.40081022599043
 20
-208.6147784060031
 30
0.0
 40
5.9999999999999956
 50
256.00000000007782
 51
76.000000000077804
  0
ARC
  8
DETAIL
  6
CONTINUOUS
 62
     5
 10
-596.54075267399639
 20
-215.82748385801281
 30
0.0
 40
1.9999999999999989
 50
76.000000000077804
 51
169.2641585543488
  0
ARC
  8
DETAIL
  6
CONTINUOUS
 62
     5
 10
-458.50000000000182
 20
-242.0000000000164
 30
0.0
 40
142.49999999999989
 50
103.26415855423529
 51
162.73584144567161
  0
ARC
  8
DETAIL
  6
CONTINUOUS
 62
     5
 10
-458.50000000000182
 20
-242.0000000000164
 30
0.0
 40
142.49999999999989
 50
169.2641585543488
 51
280.73584144577069
  0
ARC
  8
DETAIL
  6
CONTINUOUS
 62
     5
 10
-458.50000000000182
 20
-242.0000000000164
 30
0.0
 40
142.49999999999989
 50
287.26415855433709
 51
346.73584144568463
  0
ARC
  8
DETAIL
  6
CONTINUOUS
 62
     5
 10
-458.50000000000182
 20
-242.0000000000164
 30
0.0
 40
142.49999999999989
 50
353.26415855435761
 51
96.735841445747397
  0
CIRCLE
  8
DETAIL
  6
CONTINUOUS
 62
     5
 10
-458.50000000000182
 20
-242.0000000000164
 30
0.0
 40
128.99999999999989
  0
CIRCLE
  8
DETAIL
  6
CONTINUOUS
 62
     5
 10
-458.50000000000182
 20
-242.0000000000164
 30
0.0
 40
120.9999999999999
  0
ARC
  8
DETAIL
  6
CONTINUOUS
 62
     5
 10
-322.59653008399982
 20
-265.96344851800131
 30
0.0
 40
5.9999999999999956
 50
80.000000000047706
 51
260.00000000004769
  0
ARC
  8
DETAIL
  6
CONTINUOUS
 62
     5
 10
-321.74817606799661
 20
-274.23644911400521
 30
0.0
 40
1.9999999999999989
 50
346.73584144577649
 51
80.000000000047706
  0
ARC
  8
DETAIL
  6
CONTINUOUS
 62
     5
 10
-318.9698052259937
 20
-258.47952506599722
 30
0.0
 40
1.9999999999999989
 50
260.00000000004769
 51
353.26415855435761
  0
ARC
  8
DETAIL
  6
CONTINUOUS
 62
     5
 10
-609.37127970399706
 20
-402.39999999999958
 30
0.0
 40
1.599999999999999
 50
270.0
 51
349.99999999993042
  0
ARC
  8
DETAIL
  6
CONTINUOUS
 62
     5
 10
-609.69999999999345
 20
-402.20000000000249
 30
0.0
 40
0.9999999999999994
 50
270.0
 51
0.0
  0
ARC
  8
DETAIL
  6
CONTINUOUS
 62
     5
 10
-609.37127970399706
 20
-402.39999999999958
 30
0.0
 40
0.7999999999999996
 50
270.0
 51
349.99999999993042
  0
ARC
  8
DETAIL
  6
CONTINUOUS
 62
     5
 10
-609.69999999999345
 20
-402.20000000000249
 30
0.0
 40
0.4999999999999997
 50
270.0
 51
0.0
  0
ARC
  8
DETAIL
  6
CONTINUOUS
 62
     5
 10
-425.11477840799671
 20
-375.90081022601407
 30
0.0
 40
5.9999999999999956
 50
13.999999999920631
 51
193.99999999992059
  0
ARC
  8
DETAIL
  6
CONTINUOUS
 62
     5
 10
-432.32748385999912
 20
-380.04075267400373
 30
0.0
 40
1.9999999999999989
 50
280.73584144577069
 51
13.999999999920631
  0
ARC
  8
DETAIL
  6
CONTINUOUS
 62
     5
 10
-416.80275223799441
 20
-376.17000234399347
 30
0.0
 40
1.9999999999999989
 50
193.99999999992059
 51
287.26415855433709
  0
ARC
  8
DETAIL
  6
CONTINUOUS
 62
     5
 10
458.49999999999818
 20
-242.0000000000164
 30
0.0
 40
142.49999999999989
 50
103.26415855423529
 51
162.73584144567161
  0
ARC
  8
DETAIL
  6
CONTINUOUS
 62
     5
 10
458.49999999999818
 20
-242.0000000000164
 30
0.0
 40
142.49999999999989
 50
169.2641585543488
 51
280.73584144577069
  0
ARC
  8
DETAIL
  6
CONTINUOUS
 62
     5
 10
458.49999999999818
 20
-242.0000000000164
 30
0.0
 40
142.49999999999989
 50
287.26415855433709
 51
346.73584144568463
  0
ARC
  8
DETAIL
  6
CONTINUOUS
 62
     5
 10
458.49999999999818
 20
-242.0000000000164
 30
0.0
 40
142.49999999999989
 50
353.26415855435761
 51
96.735841445747397
  0
CIRCLE
  8
DETAIL
  6
CONTINUOUS
 62
     5
 10
458.49999999999818
 20
-242.0000000000164
 30
0.0
 40
128.99999999999989
  0
CIRCLE
  8
DETAIL
  6
CONTINUOUS
 62
     5
 10
458.49999999999818
 20
-242.0000000000164
 30
0.0
 40
120.9999999999999
  0
ARC
  8
DETAIL
  6
CONTINUOUS
 62
     5
 10
324.59918977400588
 20
-208.6147784060031
 30
0.0
 40
5.9999999999999956
 50
256.00000000007782
 51
76.000000000077804
  0
ARC
  8
DETAIL
  6
CONTINUOUS
 62
     5
 10
320.45924732600361
 20
-215.82748385801281
 30
0.0
 40
1.9999999999999989
 50
76.000000000077804
 51
169.26415855424079
  0
ARC
  8
DETAIL
  6
CONTINUOUS
 62
     5
 10
594.40346991600018
 20
-265.96344851800131
 30
0.0
 40
5.9999999999999956
 50
80.000000000047706
 51
260.00000000004769
  0
ARC
  8
DETAIL
  6
CONTINUOUS
 62
     5
 10
595.25182393200339
 20
-274.23644911400521
 30
0.0
 40
1.9999999999999989
 50
346.73584144568463
 51
80.000000000047706
  0
ARC
  8
DETAIL
  6
CONTINUOUS
 62
     5
 10
598.03019477400449
 20
-258.47952506599722
 30
0.0
 40
1.9999999999999989
 50
260.00000000004769
 51
353.2641585541607
  0
ARC
  8
DETAIL
  6
CONTINUOUS
 62
     5
 10
491.88522159200329
 20
-375.90081022601407
 30
0.0
 40
5.9999999999999956
 50
13.999999999920631
 51
193.99999999992059
  0
ARC
  8
DETAIL
  6
CONTINUOUS
 62
     5
 10
484.67251614000088
 20
-380.04075267400373
 30
0.0
 40
1.9999999999999989
 50
280.73584144577069
 51
13.999999999920631
  0
ARC
  8
DETAIL
  6
CONTINUOUS
 62
     5
 10
500.19724776200559
 20
-376.17000234399347
 30
0.0
 40
1.9999999999999989
 50
193.99999999992059
 51
287.26415855433709
  0
ARC
  8
DETAIL
  6
CONTINUOUS
 62
     5
 10
609.37127970599977
 20
-402.39999999999958
 30
0.0
 40
1.599999999999999
 50
190.00000000006949
 51
270.0
  0
ARC
  8
DETAIL
  6
CONTINUOUS
 62
     5
 10
614.45000000000618
 20
-402.95000000000249
 30
0.0
 40
1.0499999999999989
 50
270.00000000010431
 51
90.000019847840207
  0
ARC
  8
DETAIL
  6
CONTINUOUS
 62
     5
 10
609.70000000000618
 20
-402.20000000000249
 30
0.0
 40
0.9999999999999994
 50
180.0
 51
257.74252274769771
  0
ARC
  8
DETAIL
  6
CONTINUOUS
 62
     5
 10
609.37127970599977
 20
-402.39999999999958
 30
0.0
 40
0.7999999999999996
 50
189.99999999993889
 51
270.0
  0
ARC
  8
DETAIL
  6
CONTINUOUS
 62
     5
 10
609.70000000000618
 20
-402.20000000000249
 30
0.0
 40
0.4999999999999997
 50
180.0
 51
270.0
  0
ARC
  8
DETAIL
  6
CONTINUOUS
 62
     5
 10
614.45000000000618
 20
-402.95000000000249
 30
0.0
 40
0.2499999999999999
 50
270.00000000041689
 51
90.000019847840207
  0
CIRCLE
  8
DETAIL
  6
CONTINUOUS
 62
     5
 10
555.37362902199311
 20
-145.12637097700099
 30
0.0
 40
4.6999999999999984
  0
CIRCLE
  8
DETAIL
  6
CONTINUOUS
 62
     5
 10
555.37362902199311
 20
-338.87362902300259
 30
0.0
 40
4.6999999999999984
  0
CIRCLE
  8
DETAIL
  6
CONTINUOUS
 62
     5
 10
361.62637097799228
 20
-338.87362902300259
 30
0.0
 40
4.6999999999999984
  0
CIRCLE
  8
DETAIL
  6
CONTINUOUS
 62
     5
 10
361.62637097799228
 20
-145.12637097700099
 30
0.0
 40
4.6999999999999984
  0
CIRCLE
  8
DETAIL
  6
CONTINUOUS
 62
     5
 10
-361.62637097800689
 20
-145.12637097700099
 30
0.0
 40
4.6999999999999984
  0
CIRCLE
  8
DETAIL
  6
CONTINUOUS
 62
     5
 10
-361.62637097800689
 20
-338.87362902300259
 30
0.0
 40
4.6999999999999984
  0
CIRCLE
  8
DETAIL
  6
CONTINUOUS
 62
     5
 10
-555.37362902200766
 20
-338.87362902300259
 30
0.0
 40
4.6999999999999984
  0
CIRCLE
  8
DETAIL
  6
CONTINUOUS
 62
     5
 10
-555.37362902200584
 20
-145.12637097700099
 30
0.0
 40
4.6999999999999984
  0
LINE
  8
BASIS
  6
DASHDOT
 62
     6
 10
-623.55027084936955
 20
-242.0000000000164
 30
0.0
 11
623.55027108842478
 21
-242.0000000000164
 31
0.0
  0
LINE
  8
BASIS
  6
DASHDOT
 62
     6
 10
-458.50000000000182
 20
-79.806950680083901
 30
0.0
 11
-458.50000000000182
 21
-404.19304931994878
 31
0.0
  0
LINE
  8
BASIS
  6
DASHDOT
 62
     6
 10
458.49999999999818
 20
-84.845756862732742
 30
0.0
 11
458.49999999999818
 21
-399.05424313730151
 31
0.0
  0
ARC
  8
DETAIL
  6
CONTINUOUS
 62
     5
 10
614.45000000000618
 20
-1.0500000000029099
 30
0.0
 40
1.0499999999999989
 50
270.00000000010431
 51
90.000019847840207
  0
ARC
  8
DETAIL
  6
CONTINUOUS
 62
     5
 10
614.45000000000618
 20
-1.0500000000029099
 30
0.0
 40
0.2499999999999999
 50
270.00000000041689
 51
90.000019847840207
  0
LINE
  8
DETAIL
  6
CONTINUOUS
 62
     5
 10
611.19999999999891
 20
-2.1000000000058212
 30
0.0
 11
614.45000000000618
 21
-2.1000000000058212
 31
0.0
  0
LINE
  8
DETAIL
  6
CONTINUOUS
 62
     5
 10
614.45000000000618
 20
-401.89999999999958
 30
0.0
 11
611.19999999999891
 21
-401.89999999999958
 31
0.0
  0
LINE
  8
DETAIL
  6
CONTINUOUS
 62
     5
 10
-611.20000000000073
 20
-1.3000000000029099
 30
0.0
 11
-611.20000000000073
 21
-2.1000000000058212
 31
0.0
  0
LINE
  8
DETAIL
  6
CONTINUOUS
 62
     5
 10
-611.20000000000073
 20
-401.89999999999958
 30
0.0
 11
-611.20000000000073
 21
-402.69999999998799
 31
0.0
  0
LINE
  8
DETAIL
  6
CONTINUOUS
 62
     5
 10
-611.20000000000073
 20
-2.1000000000058212
 30
0.0
 11
-614.45000000000982
 21
-2.1000000000058212
 31
0.0
  0
LINE
  8
DETAIL
  6
CONTINUOUS
 62
     5
 10
-609.69999999999345
 20
-1.3000000000029099
 30
0.0
 11
-614.45000000000982
 21
-1.3000000000029099
 31
0.0
  0
LINE
  8
DETAIL
  6
CONTINUOUS
 62
     5
 10
-614.45000000000982
 20
-402.69999999998799
 30
0.0
 11
-609.69999999999345
 21
-402.69999999998799
 31
0.0
  0
LINE
  8
DETAIL
  6
CONTINUOUS
 62
     5
 10
-614.45000000000982
 20
-401.89999999999958
 30
0.0
 11
-611.20000000000073
 21
-401.89999999999958
 31
0.0
  0
ARC
  8
DETAIL
  6
CONTINUOUS
 62
     5
 10
-614.45000000000982
 20
-402.95000000000249
 30
0.0
 40
1.0499999999999989
 50
90.000000000104222
 51
269.9999823998815
  0
ARC
  8
DETAIL
  6
CONTINUOUS
 62
     5
 10
-614.45000000000982
 20
-402.95000000000249
 30
0.0
 40
0.2499999999999999
 50
90.00000000041689
 51
269.9999823998815
  0
LINE
  8
DETAIL
  6
CONTINUOUS
 62
     5
 10
600.71438631000092
 20
-2.1000000000058212
 30
0.0
 11
-600.71438630999728
 21
-2.1000000000058212
 31
0.0
  0
LINE
  8
BASIS
  6
DASHDOT
 62
     6
 10
-678.94825048700477
 20
-202.00000000000551
 30
0.0
 11
678.94825069841136
 21
-202.00000000000551
 31
0.0
  0
LINE
  8
DETAIL
  6
CONTINUOUS
 62
     5
 10
-618.59999963626433
 20
-804.39999999999054
 30
0.0
 11
-618.59999963626433
 21
-803.79999999999927
 31
0.0
  0
LINE
  8
DETAIL
  6
CONTINUOUS
 62
     5
 10
-614.19999963626105
 20
-807.19999999999345
 30
0.0
 11
-614.19999963626105
 21
-806.69999999999345
 31
0.0
  0
LINE
  8
DETAIL
  6
CONTINUOUS
 62
     5
 10
-614.19999963626105
 20
-405.30000000000842
 30
0.0
 11
-614.19999963626105
 21
-404.80000000000842
 31
0.0
  0
LINE
  8
DETAIL
  6
CONTINUOUS
 62
     5
 10
-612.69999963626105
 20
-804.49999999999636
 30
0.0
 11
-612.69999963626105
 21
-718.39999999801148
 31
0.0
  0
LINE
  8
DETAIL
  6
CONTINUOUS
 62
     5
 10
-609.19999963626105
 20
-806.19999999999345
 30
0.0
 11
-609.19999963626105
 21
-405.79999999999382
 31
0.0
  0
LINE
  8
DETAIL
  6
CONTINUOUS
 62
     5
 10
-608.69999963627015
 20
-406.79999999999382
 30
0.0
 11
-608.69999963627015
 21
-405.79999999999382
 31
0.0
  0
LINE
  8
DETAIL
  6
CONTINUOUS
 62
     5
 10
-608.69999963627015
 20
-805.19999999999345
 30
0.0
 11
-608.69999963627015
 21
-806.19999999999345
 31
0.0
  0
LINE
  8
DETAIL
  6
CONTINUOUS
 62
     5
 10
-607.69999963626105
 20
-404.80000000000842
 30
0.0
 11
-607.69999963626105
 21
-406.79999999999382
 31
0.0
  0
LINE
  8
DETAIL
  6
CONTINUOUS
 62
     5
 10
-607.69999963626105
 20
-805.19999999999345
 30
0.0
 11
-607.69999963626105
 21
-807.19999999999345
 31
0.0
  0
LINE
  8
DETAIL
  6
CONTINUOUS
 62
     5
 10
-606.29999963626142
 20
-807.99999999999636
 30
0.0
 11
-606.29999963626142
 21
-807.19999999999345
 31
0.0
  0
LINE
  8
DETAIL
  6
CONTINUOUS
 62
     5
 10
-603.29999963626869
 20
-682.1883376500009
 30
0.0
 11
-603.29999963626869
 21
-609.71166234799239
 31
0.0
  0
LINE
  8
DETAIL
  6
CONTINUOUS
 62
     5
 10
-602.69999963626105
 20
-802.200000000008
 30
0.0
 11
-602.69999963626105
 21
-800.99999999999636
 31
0.0
  0
LINE
  8
DETAIL
  6
CONTINUOUS
 62
     5
 10
-602.69999963626105
 20
-409.79999999999382
 30
0.0
 11
-602.69999963626105
 21
-411.00000000000551
 31
0.0
  0
LINE
  8
DETAIL
  6
CONTINUOUS
 62
     5
 10
-594.19999963626105
 20
-414.00000000000551
 30
0.0
 11
-594.19999963626105
 21
-593.950000000008
 31
0.0
  0
LINE
  8
DETAIL
  6
CONTINUOUS
 62
     5
 10
-594.19999963626105
 20
-697.950000000008
 30
0.0
 11
-594.19999963626105
 21
-797.99999999999636
 31
0.0
  0
LINE
  8
DETAIL
  6
CONTINUOUS
 62
     5
 10
-608.58343313826117
 20
-405.46108145799923
 30
0.0
 11
-608.34734567426131
 21
-406.79999999999382
 31
0.0
  0
LINE
  8
DETAIL
  6
CONTINUOUS
 62
     5
 10
-607.79558693626132
 20
-405.322162914008
 30
0.0
 11
-607.71098967226681
 21
-405.80193783999681
 31
0.0
  0
LINE
  8
DETAIL
  6
CONTINUOUS
 62
     5
 10
-608.34734567426131
 20
-805.19999999999345
 30
0.0
 11
-608.58343313826117
 21
-806.53891854200265
 31
0.0
  0
LINE
  8
DETAIL
  6
CONTINUOUS
 62
     5
 10
-607.69999963626105
 20
-806.13573456876884
 30
0.0
 11
-607.79558693626132
 21
-806.6778370840002
 31
0.0
  0
LINE
  8
DETAIL
  6
CONTINUOUS
 62
     5
 10
-603.29999963626869
 20
-609.71166234799239
 30
0.0
 11
-594.19999963626105
 21
-593.950000000008
 31
0.0
  0
LINE
  8
DETAIL
  6
CONTINUOUS
 62
     5
 10
-430.93655240026777
 20
-781.35234159799438
 30
0.0
 11
-430.38689204226472
 21
-783.55690888199751
 31
0.0
  0
LINE
  8
DETAIL
  6
CONTINUOUS
 62
     5
 10
-488.37229467226462
 20
-511.1384191499892
 30
0.0
 11
-488.76683324626362
 21
-508.90087971199682
 31
0.0
  0
LINE
  8
DETAIL
  6
CONTINUOUS
 62
     5
 10
-418.74334332826771
 20
-780.65384613599599
 30
0.0
 11
-419.293003686269
 21
-778.44927885199286
 31
0.0
  0
LINE
  8
DETAIL
  6
CONTINUOUS
 62
     5
 10
-476.94914020826758
 20
-506.81710157999618
 30
0.0
 11
-476.55460163626589
 21
-509.05464101798862
 31
0.0
  0
LINE
  8
DETAIL
  6
CONTINUOUS
 62
     5
 10
-623.69999963626833
 20
-803.79999999999927
 30
0.0
 11
-624.08091706826599
 21
-804.26357513999028
 31
0.0
  0
LINE
  8
DETAIL
  6
CONTINUOUS
 62
     5
 10
602.76730128173404
 20
-807.99999999999636
 30
0.0
 11
600.66730128172821
 21
-805.89999999999054
 31
0.0
  0
LINE
  8
DETAIL
  6
CONTINUOUS
 62
     5
 10
-614.44999963626105
 20
-403.99999999999091
 30
0.0
 11
-609.37127934026466
 21
-403.99999999999091
 31
0.0
  0
LINE
  8
DETAIL
  6
CONTINUOUS
 62
     5
 10
-606.34708502826652
 20
-403.99999999999091
 30
0.0
 11
606.34708575573313
 21
-403.99999999999091
 31
0.0
  0
LINE
  8
DETAIL
  6
CONTINUOUS
 62
     5
 10
609.37128006973398
 20
-403.99999999999091
 30
0.0
 11
614.45000036373858
 21
-403.99999999999091
 31
0.0
  0
LINE
  8
DETAIL
  6
CONTINUOUS
 62
     5
 10
-614.44999963626105
 20
-404.80000000000842
 30
0.0
 11
-609.37127934026466
 21
-404.80000000000842
 31
0.0
  0
LINE
  8
DETAIL
  6
CONTINUOUS
 62
     5
 10
-607.69999963626105
 20
-404.80000000000842
 30
0.0
 11
-602.0143859462496
 21
-404.80000000000842
 31
0.0
  0
LINE
  8
DETAIL
  6
CONTINUOUS
 62
     5
 10
609.37128006973398
 20
-404.80000000000842
 30
0.0
 11
614.45000036373858
 21
-404.80000000000842
 31
0.0
  0
LINE
  8
DETAIL
  6
CONTINUOUS
 62
     5
 10
602.01438667371622
 20
-404.80000000000842
 30
0.0
 11
606.34708575573313
 21
-404.80000000000842
 31
0.0
  0
LINE
  8
DETAIL
  6
CONTINUOUS
 62
     5
 10
609.70000036373858
 20
-405.30000000000842
 30
0.0
 11
614.45000036373858
 21
-405.30000000000842
 31
0.0
  0
LINE
  8
DETAIL
  6
CONTINUOUS
 62
     5
 10
-609.19999963626105
 20
-406.79999999999382
 30
0.0
 11
-605.69999963626287
 21
-406.79999999999382
 31
0.0
  0
LINE
  8
DETAIL
  6
CONTINUOUS
 62
     5
 10
605.70000036373858
 20
-406.79999999999382
 30
0.0
 11
609.20000036373858
 21
-406.79999999999382
 31
0.0
  0
LINE
  8
DETAIL
  6
CONTINUOUS
 62
     5
 10
-597.19999963626105
 20
-411.00000000000551
 30
0.0
 11
-602.69999963626105
 21
-411.00000000000551
 31
0.0
  0
LINE
  8
DETAIL
  6
CONTINUOUS
 62
     5
 10
-605.69999963626287
 20
-805.19999999999345
 30
0.0
 11
-602.69999963626105
 21
-802.200000000008
 31
0.0
  0
LINE
  8
DETAIL
  6
CONTINUOUS
 62
     5
 10
-597.19999963626105
 20
-800.99999999999636
 30
0.0
 11
-594.19999963626105
 21
-797.99999999999636
 31
0.0
  0
LINE
  8
DETAIL
  6
CONTINUOUS
 62
     5
 10
-602.76730055427288
 20
-807.99999999999636
 30
0.0
 11
-600.66730055426342
 21
-805.89999999999054
 31
0.0
  0
LINE
  8
DETAIL
  6
CONTINUOUS
 62
     5
 10
323.84615422773282
 20
-606.24334368999553
 30
0.0
 11
326.05072151173039
 21
-606.79300404800597
 31
0.0
  0
LINE
  8
DETAIL
  6
CONTINUOUS
 62
     5
 10
323.14765876373531
 20
-618.43655276399659
 30
0.0
 11
320.94309148174028
 21
-617.8868924060007
 31
0.0
  0
LINE
  8
DETAIL
  6
CONTINUOUS
 62
     5
 10
597.68289878173346
 20
-664.4491405719964
 30
0.0
 11
595.44535934573469
 21
-664.05460199999652
 31
0.0
  0
LINE
  8
DETAIL
  6
CONTINUOUS
 62
     5
 10
593.3615812137341
 20
-675.87229503600247
 30
0.0
 11
595.59912064973287
 21
-676.26683360800234
 31
0.0
  0
LINE
  8
DETAIL
  6
CONTINUOUS
 62
     5
 10
331.133200301736
 20
-623.05613496799924
 30
0.0
 11
331.5930091457376
 21
-623.05613496799924
 31
0.0
  0
LINE
  8
DETAIL
  6
CONTINUOUS
 62
     5
 10
-321.55464065426708
 20
-664.05460199999652
 30
0.0
 11
-319.31710121826649
 21
-664.4491405719964
 31
0.0
  0
LINE
  8
DETAIL
  6
CONTINUOUS
 62
     5
 10
-321.40087935026708
 20
-676.26683360800234
 30
0.0
 11
-323.63841878626772
 21
-675.87229503600247
 31
0.0
  0
LINE
  8
DETAIL
  6
CONTINUOUS
 62
     5
 10
-590.94927848826956
 20
-606.79300404800597
 30
0.0
 11
-593.15384577226723
 21
-606.24334368999553
 31
0.0
  0
LINE
  8
DETAIL
  6
CONTINUOUS
 62
     5
 10
-596.05690851825966
 20
-617.8868924060007
 30
0.0
 11
-593.85234123626469
 21
-618.43655276399659
 31
0.0
  0
LINE
  8
DETAIL
  6
CONTINUOUS
 62
     5
 10
-597.19999963626105
 20
-800.99999999999636
 30
0.0
 11
-602.69999963626105
 21
-800.99999999999636
 31
0.0
  0
LINE
  8
DETAIL
  6
CONTINUOUS
 62
     5
 10
-623.69999963626833
 20
-803.79999999999927
 30
0.0
 11
-612.69999963626105
 21
-803.79999999999927
 31
0.0
  0
LINE
  8
DETAIL
  6
CONTINUOUS
 62
     5
 10
-623.09999963626433
 20
-804.39999999999054
 30
0.0
 11
-613.89999963626724
 21
-804.39999999999054
 31
0.0
  0
LINE
  8
DETAIL
  6
CONTINUOUS
 62
     5
 10
-612.69999963626105
 20
-804.49999999999636
 30
0.0
 11
-609.19999963626105
 21
-804.49999999999636
 31
0.0
  0
LINE
  8
DETAIL
  6
CONTINUOUS
 62
     5
 10
-623.09999963626433
 20
-804.99999999999636
 30
0.0
 11
-613.89999963626724
 21
-804.99999999999636
 31
0.0
  0
LINE
  8
DETAIL
  6
CONTINUOUS
 62
     5
 10
-609.19999963626105
 20
-805.19999999999345
 30
0.0
 11
-605.69999963626287
 21
-805.19999999999345
 31
0.0
  0
LINE
  8
DETAIL
  6
CONTINUOUS
 62
     5
 10
606.30000036373531
 20
-805.19999999999345
 30
0.0
 11
609.20000036373858
 21
-805.19999999999345
 31
0.0
  0
LINE
  8
DETAIL
  6
CONTINUOUS
 62
     5
 10
609.70000036373858
 20
-806.69999999999345
 30
0.0
 11
614.45000036373858
 21
-806.69999999999345
 31
0.0
  0
LINE
  8
DETAIL
  6
CONTINUOUS
 62
     5
 10
614.45000036373858
 20
-807.19999999999345
 30
0.0
 11
609.37128006973398
 21
-807.19999999999345
 31
0.0
  0
LINE
  8
DETAIL
  6
CONTINUOUS
 62
     5
 10
-601.96730055426815
 20
-807.19999999999345
 30
0.0
 11
-607.69999963626105
 21
-807.19999999999345
 31
0.0
  0
LINE
  8
DETAIL
  6
CONTINUOUS
 62
     5
 10
-614.44999963626105
 20
-807.19999999999345
 30
0.0
 11
-609.37127934026466
 21
-807.19999999999345
 31
0.0
  0
LINE
  8
DETAIL
  6
CONTINUOUS
 62
     5
 10
601.96730128173112
 20
-807.19999999999345
 30
0.0
 11
606.30000036373531
 21
-807.19999999999345
 31
0.0
  0
LINE
  8
DETAIL
  6
CONTINUOUS
 62
     5
 10
614.45000036373858
 20
-807.99999999999636
 30
0.0
 11
609.37128006973398
 21
-807.99999999999636
 31
0.0
  0
LINE
  8
DETAIL
  6
CONTINUOUS
 62
     5
 10
-614.44999963626105
 20
-807.99999999999636
 30
0.0
 11
-609.37127934026466
 21
-807.99999999999636
 31
0.0
  0
LINE
  8
DETAIL
  6
CONTINUOUS
 62
     5
 10
-606.29999963626142
 20
-807.99999999999636
 30
0.0
 11
606.30000036373531
 21
-807.99999999999636
 31
0.0
  0
LINE
  8
DETAIL
  6
CONTINUOUS
 62
     5
 10
-602.81438594625615
 20
-403.99999999998909
 30
0.0
 11
-600.71438594626306
 21
-406.10000000001128
 31
0.0
  0
LINE
  8
DETAIL
  6
CONTINUOUS
 62
     5
 10
-594.19999963626105
 20
-414.00000000000551
 30
0.0
 11
-597.19999963626105
 21
-411.00000000000551
 31
0.0
  0
LINE
  8
DETAIL
  6
CONTINUOUS
 62
     5
 10
-602.69999963626105
 20
-409.79999999999382
 30
0.0
 11
-605.69999963626287
 21
-406.79999999999382
 31
0.0
  0
LINE
  8
DETAIL
  6
CONTINUOUS
 62
     5
 10
602.81438667372277
 20
-403.99999999999091
 30
0.0
 11
600.71438667373332
 21
-406.10000000001128
 31
0.0
  0
LINE
  8
DETAIL
  6
CONTINUOUS
 62
     5
 10
486.61310795773528
 20
-783.55690888199751
 30
0.0
 11
486.06344759973399
 21
-781.35234159799438
 31
0.0
  0
LINE
  8
DETAIL
  6
CONTINUOUS
 62
     5
 10
435.96743512573272
 20
-519.02164149599412
 30
0.0
 11
435.96743512573272
 21
-518.55905113599874
 31
0.0
  0
LINE
  8
DETAIL
  6
CONTINUOUS
 62
     5
 10
436.56054923973528
 20
-518.91872643400711
 30
0.0
 11
436.56054923973528
 21
-518.45212498999172
 31
0.0
  0
LINE
  8
DETAIL
  6
CONTINUOUS
 62
     5
 10
497.706996313731
 20
-778.44927885199286
 30
0.0
 11
498.25665667173422
 21
-780.65384613599599
 31
0.0
  0
LINE
  8
DETAIL
  6
CONTINUOUS
 62
     5
 10
428.2331667537328
 20
-508.90087971199682
 30
0.0
 11
428.62770532773538
 21
-511.1384191499892
 31
0.0
  0
LINE
  8
DETAIL
  6
CONTINUOUS
 62
     5
 10
440.44539836373218
 20
-509.05464101798862
 30
0.0
 11
440.05085979173418
 21
-506.81710157999618
 31
0.0
  0
LINE
  8
DETAIL
  6
CONTINUOUS
 62
     5
 10
-594.19999963626105
 20
-697.950000000008
 30
0.0
 11
-603.29999963626869
 21
-682.1883376500009
 31
0.0
  0
LINE
  8
DETAIL
  6
CONTINUOUS
 62
     5
 10
607.7955876637352
 20
-806.6778370840002
 30
0.0
 11
607.53500511372658
 21
-805.19999999999345
 31
0.0
  0
LINE
  8
DETAIL
  6
CONTINUOUS
 62
     5
 10
607.53500511372658
 20
-406.79999999999382
 30
0.0
 11
607.7955876637352
 21
-405.322162914008
 31
0.0
  0
LINE
  8
DETAIL
  6
CONTINUOUS
 62
     5
 10
608.5834338657387
 20
-806.53891854200265
 30
0.0
 11
608.34734640173701
 21
-805.19999999999345
 31
0.0
  0
LINE
  8
DETAIL
  6
CONTINUOUS
 62
     5
 10
605.70000036373858
 20
-406.79999999999382
 30
0.0
 11
605.70000036373858
 21
-404.80000000000842
 31
0.0
  0
LINE
  8
DETAIL
  6
CONTINUOUS
 62
     5
 10
606.30000036373531
 20
-805.19999999999345
 30
0.0
 11
606.30000036373531
 21
-807.99999999999636
 31
0.0
  0
LINE
  8
DETAIL
  6
CONTINUOUS
 62
     5
 10
608.34734640173701
 20
-406.79999999999382
 30
0.0
 11
608.5834338657387
 21
-405.46108145799923
 31
0.0
  0
LINE
  8
DETAIL
  6
CONTINUOUS
 62
     5
 10
608.70000036372949
 20
-806.19999999999345
 30
0.0
 11
608.70000036372949
 21
-805.19999999999345
 31
0.0
  0
LINE
  8
DETAIL
  6
CONTINUOUS
 62
     5
 10
608.70000036372949
 20
-405.79999999999382
 30
0.0
 11
608.70000036372949
 21
-406.79999999999382
 31
0.0
  0
LINE
  8
DETAIL
  6
CONTINUOUS
 62
     5
 10
609.20000036373858
 20
-405.79999999999382
 30
0.0
 11
609.20000036373858
 21
-806.19999999999345
 31
0.0
  0
LINE
  8
DETAIL
  6
CONTINUOUS
 62
     5
 10
611.20000036372949
 20
-404.80000000000842
 30
0.0
 11
611.20000036372949
 21
-406.10000000001128
 31
0.0
  0
LINE
  8
DETAIL
  6
CONTINUOUS
 62
     5
 10
611.20000036372949
 20
-805.89999999999054
 30
0.0
 11
611.20000036372949
 21
-806.69999999999345
 31
0.0
  0
LINE
  8
DETAIL
  6
CONTINUOUS
 62
     5
 10
614.20000036373858
 20
-404.80000000000842
 30
0.0
 11
614.20000036373858
 21
-405.30000000000842
 31
0.0
  0
LINE
  8
DETAIL
  6
CONTINUOUS
 62
     5
 10
614.20000036373858
 20
-806.69999999999345
 30
0.0
 11
614.20000036373858
 21
-807.19999999999345
 31
0.0
  0
ARC
  8
DETAIL
  6
CONTINUOUS
 62
     5
 10
-609.37127934026466
 20
-405.59999999999673
 30
0.0
 40
1.599999999999999
 50
9.9999999999522906
 51
90.0
  0
ARC
  8
DETAIL
  6
CONTINUOUS
 62
     5
 10
-614.44999963626105
 20
-405.04999999999382
 30
0.0
 40
1.0499999999999989
 50
89.999999999895778
 51
269.9999823998815
  0
ARC
  8
DETAIL
  6
CONTINUOUS
 62
     5
 10
-609.69999963626105
 20
-405.79999999999382
 30
0.0
 40
0.9999999999999994
 50
0.0
 51
90.0
  0
ARC
  8
DETAIL
  6
CONTINUOUS
 62
     5
 10
-609.37127934026466
 20
-405.59999999999673
 30
0.0
 40
0.7999999999999996
 50
9.9999999999522906
 51
90.0
  0
ARC
  8
DETAIL
  6
CONTINUOUS
 62
     5
 10
-609.69999963626105
 20
-405.79999999999382
 30
0.0
 40
0.4999999999999997
 50
0.0
 51
90.0
  0
ARC
  8
DETAIL
  6
CONTINUOUS
 62
     5
 10
-614.44999963626105
 20
-405.04999999999382
 30
0.0
 40
0.2499999999999999
 50
89.99999999958311
 51
269.9999823998815
  0
ARC
  8
DETAIL
  6
CONTINUOUS
 62
     5
 10
-592.6700019802629
 20
-604.30275223800709
 30
0.0
 40
1.9999999999999989
 50
162.73584144567161
 51
256.00000000007782
  0
ARC
  8
DETAIL
  6
CONTINUOUS
 62
     5
 10
-482.46344815426158
 20
-510.09653008399619
 30
0.0
 40
5.9999999999999956
 50
190.00000000006949
 51
9.9999999999522906
  0
ARC
  8
DETAIL
  6
CONTINUOUS
 62
     5
 10
-490.73644875226819
 20
-509.24817606800212
 30
0.0
 40
1.9999999999999989
 50
9.9999999999522906
 51
103.2641585541282
  0
ARC
  8
DETAIL
  6
CONTINUOUS
 62
     5
 10
-474.97952470226483
 20
-506.46980522599921
 30
0.0
 40
1.9999999999999989
 50
96.735841445747397
 51
190.00000000006949
  0
ARC
  8
DETAIL
  6
CONTINUOUS
 62
     5
 10
609.37128006973398
 20
-405.59999999999673
 30
0.0
 40
1.599999999999999
 50
90.0
 51
169.99999999993051
  0
ARC
  8
DETAIL
  6
CONTINUOUS
 62
     5
 10
609.70000036373858
 20
-405.79999999999382
 30
0.0
 40
0.9999999999999994
 50
102.25747725230229
 51
180.0
  0
ARC
  8
DETAIL
  6
CONTINUOUS
 62
     5
 10
609.37128006973398
 20
-405.59999999999673
 30
0.0
 40
0.7999999999999996
 50
90.0
 51
169.99999999993051
  0
ARC
  8
DETAIL
  6
CONTINUOUS
 62
     5
 10
609.70000036373858
 20
-405.79999999999382
 30
0.0
 40
0.4999999999999997
 50
90.0
 51
180.0
  0
ARC
  8
DETAIL
  6
CONTINUOUS
 62
     5
 10
434.53655184573842
 20
-510.09653008399619
 30
0.0
 40
5.9999999999999956
 50
190.00000000006949
 51
9.9999999999522906
  0
ARC
  8
DETAIL
  6
CONTINUOUS
 62
     5
 10
426.26355124773357
 20
-509.24817606800212
 30
0.0
 40
1.9999999999999989
 50
9.9999999999522906
 51
103.2641585541282
  0
ARC
  8
DETAIL
  6
CONTINUOUS
 62
     5
 10
442.02047529773517
 20
-506.46980522599921
 30
0.0
 40
1.9999999999999989
 50
96.735841445747397
 51
190.00000000006949
  0
ARC
  8
DETAIL
  6
CONTINUOUS
 62
     5
 10
324.3299980197371
 20
-604.30275223800709
 30
0.0
 40
1.9999999999999989
 50
162.73584144567161
 51
256.00000000007782
  0
ARC
  8
DETAIL
  6
CONTINUOUS
 62
     5
 10
-592.40080986225985
 20
-612.614778405994
 30
0.0
 40
5.9999999999999956
 50
256.00000000007782
 51
76.000000000077804
  0
ARC
  8
DETAIL
  6
CONTINUOUS
 62
     5
 10
-596.540752310264
 20
-619.82748385800369
 30
0.0
 40
1.9999999999999989
 50
76.000000000077804
 51
169.2641585543488
  0
ARC
  8
DETAIL
  6
CONTINUOUS
 62
     5
 10
-458.49999963626942
 20
-646.00000000000728
 30
0.0
 40
142.49999999999989
 50
103.26415855423529
 51
162.73584144567161
  0
ARC
  8
DETAIL
  6
CONTINUOUS
 62
     5
 10
-458.49999963626942
 20
-646.00000000000728
 30
0.0
 40
142.49999999999989
 50
169.2641585543488
 51
280.73584144577069
  0
ARC
  8
DETAIL
  6
CONTINUOUS
 62
     5
 10
-458.49999963626942
 20
-646.00000000000728
 30
0.0
 40
142.49999999999989
 50
287.26415855433709
 51
346.73584144568463
  0
ARC
  8
DETAIL
  6
CONTINUOUS
 62
     5
 10
-458.49999963626942
 20
-646.00000000000728
 30
0.0
 40
142.49999999999989
 50
353.26415855435761
 51
96.735841445747397
  0
CIRCLE
  8
DETAIL
  6
CONTINUOUS
 62
     5
 10
-458.49999963626942
 20
-646.00000000000728
 30
0.0
 40
128.99999999999989
  0
CIRCLE
  8
DETAIL
  6
CONTINUOUS
 62
     5
 10
-458.49999963626942
 20
-646.00000000000728
 30
0.0
 40
120.9999999999999
  0
ARC
  8
DETAIL
  6
CONTINUOUS
 62
     5
 10
-322.59652972026743
 20
-669.96344851800677
 30
0.0
 40
5.9999999999999956
 50
80.000000000047706
 51
260.00000000004769
  0
ARC
  8
DETAIL
  6
CONTINUOUS
 62
     5
 10
-321.74817570426421
 20
-678.23644911399606
 30
0.0
 40
1.9999999999999989
 50
346.73584144577649
 51
80.000000000047706
  0
ARC
  8
DETAIL
  6
CONTINUOUS
 62
     5
 10
-318.96980486226312
 20
-662.47952506600268
 30
0.0
 40
1.9999999999999989
 50
260.00000000004769
 51
353.26415855435761
  0
ARC
  8
DETAIL
  6
CONTINUOUS
 62
     5
 10
-589.09999963626433
 20
-761.69192476399985
 30
0.0
 40
55.099999999999952
 50
180.11240372497949
 51
230.5902214089223
  0
ARC
  8
DETAIL
  6
CONTINUOUS
 62
     5
 10
-609.37127934026466
 20
-806.39999999999054
 30
0.0
 40
1.599999999999999
 50
270.0
 51
349.99999999993042
  0
ARC
  8
DETAIL
  6
CONTINUOUS
 62
     5
 10
-613.89999963626724
 20
-803.79999999999927
 30
0.0
 40
1.1999999999999991
 50
270.0
 51
0.0
  0
ARC
  8
DETAIL
  6
CONTINUOUS
 62
     5
 10
-609.69999963626105
 20
-806.19999999999345
 30
0.0
 40
0.9999999999999994
 50
270.0
 51
0.0
  0
ARC
  8
DETAIL
  6
CONTINUOUS
 62
     5
 10
-609.37127934026466
 20
-806.39999999999054
 30
0.0
 40
0.7999999999999996
 50
270.0
 51
349.99999999993042
  0
ARC
  8
DETAIL
  6
CONTINUOUS
 62
     5
 10
-613.89999963626724
 20
-803.79999999999927
 30
0.0
 40
0.5999999999999996
 50
270.0
 51
0.0
  0
ARC
  8
DETAIL
  6
CONTINUOUS
 62
     5
 10
-623.09999963626433
 20
-804.39999999999054
 30
0.0
 40
0.5999999999999996
 50
90.0
 51
270.0
  0
ARC
  8
DETAIL
  6
CONTINUOUS
 62
     5
 10
-609.69999963626105
 20
-806.19999999999345
 30
0.0
 40
0.4999999999999997
 50
270.0
 51
0.0
  0
ARC
  8
DETAIL
  6
CONTINUOUS
 62
     5
 10
-425.11477804426431
 20
-779.90081022600498
 30
0.0
 40
5.9999999999999956
 50
13.999999999920631
 51
193.99999999992059
  0
ARC
  8
DETAIL
  6
CONTINUOUS
 62
     5
 10
-432.32748349626672
 20
-784.04075267399458
 30
0.0
 40
1.9999999999999989
 50
280.73584144577069
 51
13.999999999920631
  0
ARC
  8
DETAIL
  6
CONTINUOUS
 62
     5
 10
-416.80275187426201
 20
-780.17000234399893
 30
0.0
 40
1.9999999999999989
 50
193.99999999992059
 51
287.26415855433709
  0
ARC
  8
DETAIL
  6
CONTINUOUS
 62
     5
 10
458.50000036373058
 20
-646.00000000000728
 30
0.0
 40
142.49999999999989
 50
103.26415855423529
 51
162.73584144567161
  0
ARC
  8
DETAIL
  6
CONTINUOUS
 62
     5
 10
458.50000036373058
 20
-646.00000000000728
 30
0.0
 40
142.49999999999989
 50
169.2641585543488
 51
280.73584144577069
  0
ARC
  8
DETAIL
  6
CONTINUOUS
 62
     5
 10
458.50000036373058
 20
-646.00000000000728
 30
0.0
 40
142.49999999999989
 50
287.26415855433709
 51
346.73584144568463
  0
ARC
  8
DETAIL
  6
CONTINUOUS
 62
     5
 10
458.50000036373058
 20
-646.00000000000728
 30
0.0
 40
142.49999999999989
 50
353.26415855435761
 51
96.735841445747397
  0
CIRCLE
  8
DETAIL
  6
CONTINUOUS
 62
     5
 10
458.50000036373058
 20
-646.00000000000728
 30
0.0
 40
128.99999999999989
  0
CIRCLE
  8
DETAIL
  6
CONTINUOUS
 62
     5
 10
458.50000036373058
 20
-646.00000000000728
 30
0.0
 40
120.9999999999999
  0
ARC
  8
DETAIL
  6
CONTINUOUS
 62
     5
 10
324.59919013774021
 20
-612.614778405994
 30
0.0
 40
5.9999999999999956
 50
256.00000000007782
 51
76.000000000077804
  0
ARC
  8
DETAIL
  6
CONTINUOUS
 62
     5
 10
320.459247689736
 20
-619.82748385800369
 30
0.0
 40
1.9999999999999989
 50
76.000000000077804
 51
169.26415855424079
  0
ARC
  8
DETAIL
  6
CONTINUOUS
 62
     5
 10
594.40347027973257
 20
-669.96344851800677
 30
0.0
 40
5.9999999999999956
 50
80.000000000047706
 51
260.00000000004769
  0
ARC
  8
DETAIL
  6
CONTINUOUS
 62
     5
 10
595.25182429573579
 20
-678.23644911399606
 30
0.0
 40
1.9999999999999989
 50
346.73584144568463
 51
80.000000000047706
  0
ARC
  8
DETAIL
  6
CONTINUOUS
 62
     5
 10
598.0301951377387
 20
-662.47952506600268
 30
0.0
 40
1.9999999999999989
 50
260.00000000004769
 51
353.2641585541607
  0
ARC
  8
DETAIL
  6
CONTINUOUS
 62
     5
 10
491.88522195573569
 20
-779.90081022600498
 30
0.0
 40
5.9999999999999956
 50
13.999999999920631
 51
193.99999999992059
  0
ARC
  8
DETAIL
  6
CONTINUOUS
 62
     5
 10
484.67251650373328
 20
-784.04075267399458
 30
0.0
 40
1.9999999999999989
 50
280.73584144577069
 51
13.999999999920631
  0
ARC
  8
DETAIL
  6
CONTINUOUS
 62
     5
 10
500.19724812573799
 20
-780.17000234399893
 30
0.0
 40
1.9999999999999989
 50
193.99999999992059
 51
287.26415855433709
  0
ARC
  8
DETAIL
  6
CONTINUOUS
 62
     5
 10
609.37128006973398
 20
-806.39999999999054
 30
0.0
 40
1.599999999999999
 50
190.00000000006949
 51
270.0
  0
ARC
  8
DETAIL
  6
CONTINUOUS
 62
     5
 10
614.45000036373858
 20
-806.94999999999345
 30
0.0
 40
1.0499999999999989
 50
270.00000000010431
 51
90.000019847840207
  0
ARC
  8
DETAIL
  6
CONTINUOUS
 62
     5
 10
609.70000036373858
 20
-806.19999999999345
 30
0.0
 40
0.9999999999999994
 50
180.0
 51
270.0
  0
ARC
  8
DETAIL
  6
CONTINUOUS
 62
     5
 10
609.37128006973398
 20
-806.39999999999054
 30
0.0
 40
0.7999999999999996
 50
189.99999999993889
 51
270.0
  0
ARC
  8
DETAIL
  6
CONTINUOUS
 62
     5
 10
609.70000036373858
 20
-806.19999999999345
 30
0.0
 40
0.4999999999999997
 50
180.0
 51
270.0
  0
ARC
  8
DETAIL
  6
CONTINUOUS
 62
     5
 10
614.45000036373858
 20
-806.94999999999345
 30
0.0
 40
0.2499999999999999
 50
270.00000000041689
 51
90.000019847840207
  0
CIRCLE
  8
DETAIL
  6
CONTINUOUS
 62
     5
 10
555.37362938572551
 20
-549.12637097700645
 30
0.0
 40
4.6999999999999984
  0
CIRCLE
  8
DETAIL
  6
CONTINUOUS
 62
     5
 10
555.37362938572551
 20
-742.87362902299355
 30
0.0
 40
4.6999999999999984
  0
CIRCLE
  8
DETAIL
  6
CONTINUOUS
 62
     5
 10
361.62637134172468
 20
-742.87362902299355
 30
0.0
 40
4.6999999999999984
  0
CIRCLE
  8
DETAIL
  6
CONTINUOUS
 62
     5
 10
361.62637134172468
 20
-549.12637097700645
 30
0.0
 40
4.6999999999999984
  0
CIRCLE
  8
DETAIL
  6
CONTINUOUS
 62
     5
 10
-361.62637061427449
 20
-549.12637097700645
 30
0.0
 40
4.6999999999999984
  0
CIRCLE
  8
DETAIL
  6
CONTINUOUS
 62
     5
 10
-361.62637061427449
 20
-742.87362902299355
 30
0.0
 40
4.6999999999999984
  0
CIRCLE
  8
DETAIL
  6
CONTINUOUS
 62
     5
 10
-555.37362865827527
 20
-742.87362902299355
 30
0.0
 40
4.6999999999999984
  0
CIRCLE
  8
DETAIL
  6
CONTINUOUS
 62
     5
 10
-555.37362865827527
 20
-549.12637097700645
 30
0.0
 40
4.6999999999999984
  0
LINE
  8
BASIS
  6
DASHDOT
 62
     6
 10
-623.55027070953656
 20
-646.00000000000728
 30
0.0
 11
623.55027122826141
 21
-646.00000000000728
 31
0.0
  0
LINE
  8
BASIS
  6
DASHDOT
 62
     6
 10
-458.49999963626942
 20
-483.80695068007481
 30
0.0
 11
-458.49999963626942
 21
-808.19304931993975
 31
0.0
  0
LINE
  8
BASIS
  6
DASHDOT
 62
     6
 10
458.50000036373058
 20
-488.89575686272292
 30
0.0
 11
458.50000036373058
 21
-803.10424313729163
 31
0.0
  0
ARC
  8
DETAIL
  6
CONTINUOUS
 62
     5
 10
614.45000036373858
 20
-405.05000000000842
 30
0.0
 40
1.0499999999999989
 50
270.00000000010431
 51
90.000019847840207
  0
ARC
  8
DETAIL
  6
CONTINUOUS
 62
     5
 10
614.45000036373858
 20
-405.05000000000842
 30
0.0
 40
0.2499999999999999
 50
270.00000000041689
 51
90.000019847840207
  0
LINE
  8
DETAIL
  6
CONTINUOUS
 62
     5
 10
611.20000036372949
 20
-406.10000000001128
 30
0.0
 11
614.45000036373858
 21
-406.10000000001128
 31
0.0
  0
LINE
  8
DETAIL
  6
CONTINUOUS
 62
     5
 10
614.45000036373858
 20
-805.89999999999054
 30
0.0
 11
611.20000036372949
 21
-805.89999999999054
 31
0.0
  0
LINE
  8
DETAIL
  6
CONTINUOUS
 62
     5
 10
-611.19999963626833
 20
-405.30000000000842
 30
0.0
 11
-611.19999963626833
 21
-406.10000000001128
 31
0.0
  0
LINE
  8
DETAIL
  6
CONTINUOUS
 62
     5
 10
-611.19999963626833
 20
-805.89999999999054
 30
0.0
 11
-611.19999963626833
 21
-806.69999999999345
 31
0.0
  0
LINE
  8
DETAIL
  6
CONTINUOUS
 62
     5
 10
-611.19999963626833
 20
-406.10000000001128
 30
0.0
 11
-614.44999963627743
 21
-406.10000000001128
 31
0.0
  0
LINE
  8
DETAIL
  6
CONTINUOUS
 62
     5
 10
-609.69999963626105
 20
-405.30000000000842
 30
0.0
 11
-614.44999963627743
 21
-405.30000000000842
 31
0.0
  0
LINE
  8
DETAIL
  6
CONTINUOUS
 62
     5
 10
-614.44999963627743
 20
-806.69999999999345
 30
0.0
 11
-609.69999963626105
 21
-806.69999999999345
 31
0.0
  0
LINE
  8
DETAIL
  6
CONTINUOUS
 62
     5
 10
-614.44999963627743
 20
-805.89999999999054
 30
0.0
 11
-611.19999963626833
 21
-805.89999999999054
 31
0.0
  0
ARC
  8
DETAIL
  6
CONTINUOUS
 62
     5
 10
-614.44999963627743
 20
-806.94999999999345
 30
0.0
 40
1.0499999999999989
 50
90.000000000104222
 51
269.9999823998815
  0
ARC
  8
DETAIL
  6
CONTINUOUS
 62
     5
 10
-614.44999963627743
 20
-806.94999999999345
 30
0.0
 40
0.2499999999999999
 50
90.00000000041689
 51
269.9999823998815
  0
LINE
  8
DETAIL
  6
CONTINUOUS
 62
     5
 10
-600.66730055426342
 20
-805.89999999999054
 30
0.0
 11
600.66730128172821
 21
-805.89999999999054
 31
0.0
  0
LINE
  8
DETAIL
  6
CONTINUOUS
 62
     5
 10
600.71438667373332
 20
-406.10000000001128
 30
0.0
 11
-600.71438594626306
 21
-406.10000000001128
 31
0.0
  0
LINE
  8
BASIS
  6
DASHDOT
 62
     6
 10
-678.94825034716996
 20
-606.00000000001091
 30
0.0
 11
678.94825083824435
 21
-606.00000000001091
 31
0.0
  0
LINE
  8
DETAIL
  6
CONTINUOUS
 62
     5
 10
-724.79999999999382
 20
-411.49999999801179
 30
0.0
 11
-724.79999999999382
 21
-711.59999999801221
 31
0.0
  0
LINE
  8
DETAIL
  6
CONTINUOUS
 62
     5
 10
-724.19999999998981
 20
-712.89999999800057
 30
0.0
 11
-724.19999999998981
 21
-711.59999999801221
 31
0.0
  0
LINE
  8
DETAIL
  6
CONTINUOUS
 62
     5
 10
-724.19999999998981
 20
-106.2999999979947
 30
0.0
 11
-724.19999999998981
 21
-411.49999999801179
 31
0.0
  0
LINE
  8
DETAIL
  6
CONTINUOUS
 62
     5
 10
-680.09999999998945
 20
-412.99999999798268
 30
0.0
 11
-680.09999999998945
 21
-402.99999999799729
 31
0.0
  0
LINE
  8
DETAIL
  6
CONTINUOUS
 62
     5
 10
-678.93356526798379
 20
-412.99999999798268
 30
0.0
 11
-678.93356526798379
 21
-402.99999999799729
 31
0.0
  0
LINE
  8
DETAIL
  6
CONTINUOUS
 62
     5
 10
-675.80000000000109
 20
-402.99999999799729
 30
0.0
 11
-675.80000000000109
 21
-412.99999999798268
 31
0.0
  0
LINE
  8
DETAIL
  6
CONTINUOUS
 62
     5
 10
-674.09999999998945
 20
-404.19999999800888
 30
0.0
 11
-674.09999999998945
 21
-384.2005689960115
 31
0.0
  0
LINE
  8
DETAIL
  6
CONTINUOUS
 62
     5
 10
-674.09999999998945
 20
-412.99999999798268
 30
0.0
 11
-674.09999999998945
 21
-430.36807636800768
 31
0.0
  0
LINE
  8
DETAIL
  6
CONTINUOUS
 62
     5
 10
-666.09999999998945
 20
-404.19999999800888
 30
0.0
 11
-666.09999999998945
 21
-384.2005689960115
 31
0.0
  0
LINE
  8
DETAIL
  6
CONTINUOUS
 62
     5
 10
-666.09999999998945
 20
-412.99999999798268
 30
0.0
 11
-666.09999999998945
 21
-430.36550693000572
 31
0.0
  0
LINE
  8
DETAIL
  6
CONTINUOUS
 62
     5
 10
-664.39999999997599
 20
-402.99999999799729
 30
0.0
 11
-664.39999999997599
 21
-412.99999999798268
 31
0.0
  0
LINE
  8
DETAIL
  6
CONTINUOUS
 62
     5
 10
-662.00000000000364
 20
-382.79999999799838
 30
0.0
 11
-662.00000000000364
 21
-363.79999999798378
 31
0.0
  0
LINE
  8
DETAIL
  6
CONTINUOUS
 62
     5
 10
-662.00000000000364
 20
-425.19999999799262
 30
0.0
 11
-662.00000000000364
 21
-444.19999999799262
 31
0.0
  0
LINE
  8
DETAIL
  6
CONTINUOUS
 62
     5
 10
-661.23256776998096
 20
-412.99999999798268
 30
0.0
 11
-661.23256776998096
 21
-402.99999999799729
 31
0.0
  0
LINE
  8
DETAIL
  6
CONTINUOUS
 62
     5
 10
-660.09999999998945
 20
-402.99999999799729
 30
0.0
 11
-660.09999999998945
 21
-412.99999999798268
 31
0.0
  0
LINE
  8
DETAIL
  6
CONTINUOUS
 62
     5
 10
-657.49999999998181
 20
-400.7999999980002
 30
0.0
 11
-657.49999999998181
 21
-407.19999999799438
 31
0.0
  0
LINE
  8
DETAIL
  6
CONTINUOUS
 62
     5
 10
-651.80000000002474
 20
-382.79999999799838
 30
0.0
 11
-651.80000000002474
 21
-376.99999999799547
 31
0.0
  0
LINE
  8
DETAIL
  6
CONTINUOUS
 62
     5
 10
-651.80000000002474
 20
-425.19999999799262
 30
0.0
 11
-651.80000000002474
 21
-430.99999999801003
 31
0.0
  0
LINE
  8
DETAIL
  6
CONTINUOUS
 62
     5
 10
-641.80000000002474
 20
-384.79999999799838
 30
0.0
 11
-641.80000000002474
 21
-376.99999999799547
 31
0.0
  0
LINE
  8
DETAIL
  6
CONTINUOUS
 62
     5
 10
-641.80000000002474
 20
-423.19999999800712
 30
0.0
 11
-641.80000000002474
 21
-430.99999999801003
 31
0.0
  0
LINE
  8
DETAIL
  6
CONTINUOUS
 62
     5
 10
-667.65760783197584
 20
-435.27079684999438
 30
0.0
 11
-666.09999999998945
 21
-430.36550693000572
 31
0.0
  0
LINE
  8
DETAIL
  6
CONTINUOUS
 62
     5
 10
-612.49999999998363
 20
-389.14903320000121
 30
0.0
 11
-612.49999999998363
 21
-388.99999999801179
 31
0.0
  0
LINE
  8
DETAIL
  6
CONTINUOUS
 62
     5
 10
-612.49999999998363
 20
-418.85096679801609
 30
0.0
 11
-612.49999999998363
 21
-419.00001043244077
 31
0.0
  0
LINE
  8
DETAIL
  6
CONTINUOUS
 62
     5
 10
-621.88822509797865
 20
-399.86274169800708
 30
0.0
 11
-613.43725829997675
 21
-391.41177489999058
 31
0.0
  0
LINE
  8
DETAIL
  6
CONTINUOUS
 62
     5
 10
-619.62548339798923
 20
-402.1254833979965
 30
0.0
 11
-611.17451659998551
 21
-393.6745165999946
 31
0.0
  0
LINE
  8
DETAIL
  6
CONTINUOUS
 62
     5
 10
-609.30000000000109
 20
-105.09999999801219
 30
0.0
 11
-722.99999999997635
 21
-105.09999999801219
 31
0.0
  0
LINE
  8
DETAIL
  6
CONTINUOUS
 62
     5
 10
-659.00000000000728
 20
-360.79999999799838
 30
0.0
 11
-609.30000000000109
 21
-360.7999999980002
 31
0.0
  0
LINE
  8
DETAIL
  6
CONTINUOUS
 62
     5
 10
-666.09999999998945
 20
-384.19999999800888
 30
0.0
 11
-674.09999999998945
 21
-384.19999999800888
 31
0.0
  0
LINE
  8
DETAIL
  6
CONTINUOUS
 62
     5
 10
-656.80000000002474
 20
-387.79999999799838
 30
0.0
 11
-657.00000000000364
 21
-387.79999999799838
 31
0.0
  0
LINE
  8
DETAIL
  6
CONTINUOUS
 62
     5
 10
-638.80000000002474
 20
-387.79999999799838
 30
0.0
 11
-609.19999999999345
 21
-387.7999999980002
 31
0.0
  0
LINE
  8
DETAIL
  6
CONTINUOUS
 62
     5
 10
-657.49999999998181
 20
-400.7999999980002
 30
0.0
 11
-624.15096679796625
 21
-400.7999999980002
 31
0.0
  0
LINE
  8
DETAIL
  6
CONTINUOUS
 62
     5
 10
-680.09999999998945
 20
-402.99999999799729
 30
0.0
 11
-674.09999999998945
 21
-402.99999999799729
 31
0.0
  0
LINE
  8
DETAIL
  6
CONTINUOUS
 62
     5
 10
-666.09999999998945
 20
-402.99999999799729
 30
0.0
 11
-660.09999999998945
 21
-402.99999999799729
 31
0.0
  0
LINE
  8
DETAIL
  6
CONTINUOUS
 62
     5
 10
-624.15096679796625
 20
-403.99999999801179
 30
0.0
 11
-657.49999999998181
 21
-403.99999999801179
 31
0.0
  0
LINE
  8
DETAIL
  6
CONTINUOUS
 62
     5
 10
-666.09999999998945
 20
-404.19999999800888
 30
0.0
 11
-674.09999999998945
 21
-404.19999999800888
 31
0.0
  0
LINE
  8
DETAIL
  6
CONTINUOUS
 62
     5
 10
-657.49999999998181
 20
-407.19999999799438
 30
0.0
 11
-624.15096679796625
 21
-407.19999999799438
 31
0.0
  0
LINE
  8
DETAIL
  6
CONTINUOUS
 62
     5
 10
-724.19999999998981
 20
-411.49999999801179
 30
0.0
 11
-724.79999999999382
 21
-411.49999999801179
 31
0.0
  0
LINE
  8
DETAIL
  6
CONTINUOUS
 62
     5
 10
-680.09999999998945
 20
-412.99999999798268
 30
0.0
 11
-660.09999999998945
 21
-412.99999999798268
 31
0.0
  0
LINE
  8
DETAIL
  6
CONTINUOUS
 62
     5
 10
-656.80000000002474
 20
-420.19999999799262
 30
0.0
 11
-657.00000000000364
 21
-420.19999999799262
 31
0.0
  0
LINE
  8
DETAIL
  6
CONTINUOUS
 62
     5
 10
-638.80000000002474
 20
-420.19999999799262
 30
0.0
 11
-609.19999963626105
 21
-420.19999999799262
 31
0.0
  0
LINE
  8
DETAIL
  6
CONTINUOUS
 62
     5
 10
-669.56381456598865
 20
-436.66550692999408
 30
0.0
 11
-670.63711191799484
 21
-436.66550692999408
 31
0.0
  0
LINE
  8
DETAIL
  6
CONTINUOUS
 62
     5
 10
-659.00000000000728
 20
-447.19999999797801
 30
0.0
 11
-609.30000000000109
 21
-447.19999999797977
 31
0.0
  0
LINE
  8
DETAIL
  6
CONTINUOUS
 62
     5
 10
-724.79999999999382
 20
-711.59999999801221
 30
0.0
 11
-724.19999999998981
 21
-711.59999999801221
 31
0.0
  0
LINE
  8
DETAIL
  6
CONTINUOUS
 62
     5
 10
-609.30000000000109
 20
-714.09999999801221
 30
0.0
 11
-722.99999999997635
 21
-714.09999999801221
 31
0.0
  0
LINE
  8
DETAIL
  6
CONTINUOUS
 62
     5
 10
-619.62548339798923
 20
-405.87451660000619
 30
0.0
 11
-611.17451659998551
 21
-414.32548339799359
 31
0.0
  0
LINE
  8
DETAIL
  6
CONTINUOUS
 62
     5
 10
-621.88822509797865
 20
-408.13725829800211
 30
0.0
 11
-613.43725829997675
 21
-416.58822509799762
 31
0.0
  0
LINE
  8
DETAIL
  6
CONTINUOUS
 62
     5
 10
-674.09999999998945
 20
-430.36807636800768
 30
0.0
 11
-672.54333105600199
 21
-435.2707577879828
 31
0.0
  0
ARC
  8
DETAIL
  6
CONTINUOUS
 62
     5
 10
-722.99999999997635
 20
-106.2999999979947
 30
0.0
 40
1.1999999999999991
 50
90.0
 51
180.0
  0
ARC
  8
DETAIL
  6
CONTINUOUS
 62
     5
 10
-615.69999999999345
 20
-389.14903320000121
 30
0.0
 40
6.3999999999999968
 50
315.00000000000921
 51
0.0
  0
ARC
  8
DETAIL
  6
CONTINUOUS
 62
     5
 10
-624.15096679796625
 20
-397.59999999801772
 30
0.0
 40
6.3999999999999968
 50
270.0
 51
315.00000000000921
  0
ARC
  8
DETAIL
  6
CONTINUOUS
 62
     5
 10
-657.00000000000364
 20
-382.79999999799838
 30
0.0
 40
4.9999999999999973
 50
180.0
 51
270.0
  0
ARC
  8
DETAIL
  6
CONTINUOUS
 62
     5
 10
-646.80000000002474
 20
-376.99999999799547
 30
0.0
 40
4.9999999999999973
 50
0.0
 51
180.0
  0
ARC
  8
DETAIL
  6
CONTINUOUS
 62
     5
 10
-656.80000000002474
 20
-382.79999999799838
 30
0.0
 40
4.9999999999999973
 50
270.0
 51
0.0
  0
ARC
  8
DETAIL
  6
CONTINUOUS
 62
     5
 10
-624.15096679796625
 20
-397.59999999801772
 30
0.0
 40
3.199999999999998
 50
270.0
 51
315.00000000000921
  0
ARC
  8
DETAIL
  6
CONTINUOUS
 62
     5
 10
-615.69999999999345
 20
-389.14903320000121
 30
0.0
 40
3.199999999999998
 50
315.00000000000921
 51
0.0
  0
ARC
  8
DETAIL
  6
CONTINUOUS
 62
     5
 10
-659.00000000000728
 20
-363.79999999798378
 30
0.0
 40
2.9999999999999978
 50
90.0
 51
180.0
  0
ARC
  8
DETAIL
  6
CONTINUOUS
 62
     5
 10
-638.80000000002474
 20
-384.79999999799838
 30
0.0
 40
2.9999999999999978
 50
180.0
 51
270.0
  0
CIRCLE
  8
DETAIL
  6
CONTINUOUS
 62
     5
 10
-695.09999999998945
 20
-406.99999999799729
 30
0.0
 40
13.0
  0
CIRCLE
  8
DETAIL
  6
CONTINUOUS
 62
     5
 10
-695.09999999998945
 20
-433.99999999799729
 30
0.0
 40
13.0
  0
ARC
  8
DETAIL
  6
CONTINUOUS
 62
     5
 10
-646.80000000002474
 20
-430.99999999801003
 30
0.0
 40
4.9999999999999973
 50
180.0
 51
0.0
  0
ARC
  8
DETAIL
  6
CONTINUOUS
 62
     5
 10
-656.80000000002474
 20
-425.19999999799262
 30
0.0
 40
4.9999999999999973
 50
0.0
 51
90.0
  0
ARC
  8
DETAIL
  6
CONTINUOUS
 62
     5
 10
-657.00000000000364
 20
-425.19999999799262
 30
0.0
 40
4.9999999999999973
 50
90.0
 51
180.0
  0
ARC
  8
DETAIL
  6
CONTINUOUS
 62
     5
 10
-659.00000000000728
 20
-444.19999999799262
 30
0.0
 40
2.9999999999999978
 50
180.0
 51
270.0
  0
ARC
  8
DETAIL
  6
CONTINUOUS
 62
     5
 10
-638.80000000002474
 20
-423.19999999800712
 30
0.0
 40
2.9999999999999978
 50
90.0
 51
180.0
  0
ARC
  8
DETAIL
  6
CONTINUOUS
 62
     5
 10
-670.63711191799484
 20
-434.66550693000858
 30
0.0
 40
1.9999999999999989
 50
197.61536088913641
 51
270.0
  0
ARC
  8
DETAIL
  6
CONTINUOUS
 62
     5
 10
-669.56381456598865
 20
-434.66550693000858
 30
0.0
 40
1.9999999999999989
 50
270.0
 51
342.38346499348052
  0
ARC
  8
DETAIL
  6
CONTINUOUS
 62
     5
 10
-615.69999999999345
 20
-418.85096679801609
 30
0.0
 40
6.3999999999999968
 50
0.0
 51
44.999999999990777
  0
ARC
  8
DETAIL
  6
CONTINUOUS
 62
     5
 10
-624.15096679796625
 20
-410.39999999800602
 30
0.0
 40
6.3999999999999968
 50
44.999999999990777
 51
90.0
  0
ARC
  8
DETAIL
  6
CONTINUOUS
 62
     5
 10
-615.69999999999345
 20
-418.85096679801609
 30
0.0
 40
3.199999999999998
 50
0.0
 51
44.999999999990777
  0
ARC
  8
DETAIL
  6
CONTINUOUS
 62
     5
 10
-624.15096679796625
 20
-410.39999999800602
 30
0.0
 40
3.199999999999998
 50
44.999999999990777
 51
90.0
  0
CIRCLE
  8
DETAIL
  6
CONTINUOUS
 62
     5
 10
-699.49999999998363
 20
-668.84999999799402
 30
0.0
 40
13.0
  0
ARC
  8
DETAIL
  6
CONTINUOUS
 62
     5
 10
-722.99999999997635
 20
-712.89999999800057
 30
0.0
 40
1.1999999999999991
 50
180.0
 51
270.0
  0
LINE
  8
DETAIL
  6
CONTINUOUS
 62
     5
 10
-612.49999999998363
 20
-418.99999999801179
 30
0.0
 11
-612.50498875025198
 21
-419.24236831142053
 31
0.0
  0
LINE
  8
DETAIL
  6
CONTINUOUS
 62
     5
 10
-612.50498875025198
 20
-419.24236831142053
 30
0.0
 11
-612.53019293849798
 21
-419.48963996567142
 31
0.0
  0
LINE
  8
DETAIL
  6
CONTINUOUS
 62
     5
 10
-612.53019293849798
 20
-419.48963996567142
 30
0.0
 11
-612.59096947088267
 21
-419.72087518396074
 31
0.0
  0
LINE
  8
DETAIL
  6
CONTINUOUS
 62
     5
 10
-612.59096947088267
 20
-419.72087518396074
 30
0.0
 11
-612.70267525356689
 21
-419.91513418948495
 31
0.0
  0
LINE
  8
DETAIL
  6
CONTINUOUS
 62
     5
 10
-612.70267525356689
 20
-419.91513418948495
 30
0.0
 11
-612.87644397049121
 21
-420.05474939289553
 31
0.0
  0
LINE
  8
DETAIL
  6
CONTINUOUS
 62
     5
 10
-612.87644397049121
 20
-420.05474939289553
 30
0.0
 11
-613.09752524730618
 21
-420.14210838697772
 31
0.0
  0
LINE
  8
DETAIL
  6
CONTINUOUS
 62
     5
 10
-613.09752524730618
 20
-420.14210838697772
 30
0.0
 11
-613.34136707938035
 21
-420.18719314860812
 31
0.0
  0
LINE
  8
DETAIL
  6
CONTINUOUS
 62
     5
 10
-613.34136707938035
 20
-420.18719314860812
 30
0.0
 11
-613.5833989499788
 21
-420.19999999799438
 31
0.0
  0
LINE
  8
DETAIL
  6
CONTINUOUS
 62
     5
 10
-612.49999999998363
 20
-388.99999999801179
 30
0.0
 11
-612.50111638208784
 21
-388.84729207700644
 31
0.0
  0
LINE
  8
DETAIL
  6
CONTINUOUS
 62
     5
 10
-612.50111638208784
 20
-388.84729207700644
 30
0.0
 11
-612.50761532949684
 21
-388.69363844176098
 31
0.0
  0
LINE
  8
DETAIL
  6
CONTINUOUS
 62
     5
 10
-612.50761532949684
 20
-388.69363844176098
 30
0.0
 11
-612.52422154385499
 21
-388.54133452631828
 31
0.0
  0
LINE
  8
DETAIL
  6
CONTINUOUS
 62
     5
 10
-612.52422154385499
 20
-388.54133452631828
 30
0.0
 11
-612.55565972680654
 21
-388.39267576472128
 31
0.0
  0
LINE
  8
DETAIL
  6
CONTINUOUS
 62
     5
 10
-612.55565972680654
 20
-388.39267576472128
 30
0.0
 11
-612.60665457999585
 21
-388.24995759101284
 31
0.0
  0
LINE
  8
DETAIL
  6
CONTINUOUS
 62
     5
 10
-612.60665457999585
 20
-388.24995759101284
 30
0.0
 11
-612.68149074922826
 21
-388.11685041713929
 31
0.0
  0
LINE
  8
DETAIL
  6
CONTINUOUS
 62
     5
 10
-612.68149074922826
 20
-388.11685041713929
 30
0.0
 11
-612.78243059394003
 21
-388.00334339649942
 31
0.0
  0
LINE
  8
DETAIL
  6
CONTINUOUS
 62
     5
 10
-612.78243059394003
 20
-388.00334339649942
 30
0.0
 11
-612.90877223786583
 21
-387.9186746368735
 31
0.0
  0
LINE
  8
DETAIL
  6
CONTINUOUS
 62
     5
 10
-612.90877223786583
 20
-387.9186746368735
 30
0.0
 11
-613.0502889180043
 21
-387.86183292400352
 31
0.0
  0
LINE
  8
DETAIL
  6
CONTINUOUS
 62
     5
 10
-613.0502889180043
 20
-387.86183292400352
 30
0.0
 11
-613.07229529770223
 21
-387.85539922350904
 31
0.0
  0
LINE
  8
DETAIL
  6
CONTINUOUS
 62
     5
 10
-613.07229529770223
 20
-387.85539922350904
 30
0.0
 11
-613.09444344018812
 21
-387.84943828869461
 31
0.0
  0
LINE
  8
DETAIL
  6
CONTINUOUS
 62
     5
 10
-613.09444344018812
 20
-387.84943828869461
 30
0.0
 11
-613.11671599682074
 21
-387.84392951185094
 31
0.0
  0
LINE
  8
DETAIL
  6
CONTINUOUS
 62
     5
 10
-613.11671599682074
 20
-387.84392951185094
 30
0.0
 11
-613.13909561895832
 21
-387.8388522852685
 31
0.0
  0
LINE
  8
DETAIL
  6
CONTINUOUS
 62
     5
 10
-613.13909561895832
 20
-387.8388522852685
 30
0.0
 11
-613.16156495795963
 21
-387.83418600123838
 31
0.0
  0
LINE
  8
DETAIL
  6
CONTINUOUS
 62
     5
 10
-613.16156495795963
 20
-387.83418600123838
 30
0.0
 11
-613.18410666518287
 21
-387.82991005205122
 31
0.0
  0
LINE
  8
DETAIL
  6
CONTINUOUS
 62
     5
 10
-613.18410666518287
 20
-387.82991005205122
 30
0.0
 11
-613.20670339198659
 21
-387.82600382999772
 31
0.0
  0
LINE
  8
DETAIL
  6
CONTINUOUS
 62
     5
 10
-637.69999963626105
 20
-718.99999999800275
 30
0.0
 11
-637.69999963626105
 21
-714.09999999801221
 31
0.0
  0
LINE
  8
DETAIL
  6
CONTINUOUS
 62
     5
 10
-629.69999963626105
 20
-718.39999999801148
 30
0.0
 11
-629.69999963626105
 21
-714.09999999801221
 31
0.0
  0
LINE
  8
DETAIL
  6
CONTINUOUS
 62
     5
 10
-629.19999963626287
 20
-718.39999999801148
 30
0.0
 11
-629.19999963626287
 21
-720.9999999979882
 31
0.0
  0
LINE
  8
DETAIL
  6
CONTINUOUS
 62
     5
 10
-609.29999963626688
 20
-718.39999999801148
 30
0.0
 11
-629.69998226025746
 21
-718.39999999801148
 31
0.0
  0
LINE
  8
DETAIL
  6
CONTINUOUS
 62
     5
 10
-635.19999963626105
 20
-718.99999999800275
 30
0.0
 11
-637.69999963626105
 21
-718.99999999800275
 31
0.0
  0
LINE
  8
DETAIL
  6
CONTINUOUS
 62
     5
 10
-629.19999963626287
 20
-720.9999999979882
 30
0.0
 11
-633.19999963626105
 21
-720.9999999979882
 31
0.0
  0
ARC
  8
DETAIL
  6
CONTINUOUS
 62
     5
 10
-635.19999963626105
 20
-719.9999999980173
 30
0.0
 40
0.9999999999999994
 50
0.0
 51
90.0
  0
ARC
  8
DETAIL
  6
CONTINUOUS
 62
     5
 10
-633.19999963626105
 20
-719.9999999980173
 30
0.0
 40
0.9999999999999994
 50
180.0
 51
270.0
  0
LINE
  8
DETAIL
  6
CONTINUOUS
 62
     5
 10
-644.19989360410545
 20
-761.80002070625414
 30
0.0
 11
-644.19989360410545
 21
-714.09999999801221
 31
0.0
  0
LINE
  8
DETAIL
  6
CONTINUOUS
 62
     5
 10
-636.20000000000073
 20
-105.09999999801219
 30
0.0
 11
-636.20000000000073
 21
-77.999999998011845
 31
0.0
  0
LINE
  8
DETAIL
  6
CONTINUOUS
 62
     5
 10
-628.20000000000073
 20
-105.09999999801219
 30
0.0
 11
-628.20000000000073
 21
-78.399999998006024
 31
0.0
  0
LINE
  8
DETAIL
  6
CONTINUOUS
 62
     5
 10
-627.70000000000073
 20
-75.999999997997293
 30
0.0
 11
-627.70000000000073
 21
-78.399999998006024
 31
0.0
  0
LINE
  8
DETAIL
  6
CONTINUOUS
 62
     5
 10
-631.70000000000073
 20
-75.999999997997293
 30
0.0
 11
-627.70000000000073
 21
-75.999999997997293
 31
0.0
  0
LINE
  8
DETAIL
  6
CONTINUOUS
 62
     5
 10
-636.20000000000073
 20
-77.999999998011845
 30
0.0
 11
-633.70000000000255
 21
-77.999999998011845
 31
0.0
  0
LINE
  8
DETAIL
  6
CONTINUOUS
 62
     5
 10
-628.20000000000073
 20
-86.999999997997293
 30
0.0
 11
-631.70000000000073
 21
-86.999999997997293
 31
0.0
  0
LINE
  8
DETAIL
  6
CONTINUOUS
 62
     5
 10
-633.70000000000255
 20
-88.999999998026396
 30
0.0
 11
-636.20000000000073
 21
-88.999999998026396
 31
0.0
  0
ARC
  8
DETAIL
  6
CONTINUOUS
 62
     5
 10
-633.70000000000255
 20
-87.999999998011845
 30
0.0
 40
0.9999999999999994
 50
270.0
 51
0.0
  0
ARC
  8
DETAIL
  6
CONTINUOUS
 62
     5
 10
-631.70000000000073
 20
-87.999999998011845
 30
0.0
 40
0.9999999999999994
 50
90.0
 51
180.0
  0
ARC
  8
DETAIL
  6
CONTINUOUS
 62
     5
 10
-633.70000000000255
 20
-76.999999998011845
 30
0.0
 40
0.9999999999999994
 50
270.0
 51
0.0
  0
ARC
  8
DETAIL
  6
CONTINUOUS
 62
     5
 10
-631.70000000000073
 20
-76.999999998011845
 30
0.0
 40
0.9999999999999994
 50
90.0
 51
180.0
  0
LINE
  8
DETAIL
  6
CONTINUOUS
 62
     5
 10
621.78822509999736
 20
-399.86274170001519
 30
0.0
 11
613.33725829999639
 21
-391.41177490000518
 31
0.0
  0
LINE
  8
DETAIL
  6
CONTINUOUS
 62
     5
 10
619.52548339999339
 20
-402.12548340001922
 30
0.0
 11
611.07451660199331
 21
-393.67451660000921
 31
0.0
  0
LINE
  8
DETAIL
  6
CONTINUOUS
 62
     5
 10
658.99999999999454
 20
-360.80000000000842
 30
0.0
 11
609.19999999999891
 21
-360.80000000000842
 31
0.0
  0
LINE
  8
DETAIL
  6
CONTINUOUS
 62
     5
 10
609.20000000000437
 20
-387.80000000000842
 30
0.0
 11
638.79999999999745
 21
-387.80000000000842
 31
0.0
  0
LINE
  8
DETAIL
  6
CONTINUOUS
 62
     5
 10
656.79999999999745
 20
-387.80000000000842
 30
0.0
 11
656.99999999999454
 21
-387.80000000000842
 31
0.0
  0
LINE
  8
DETAIL
  6
CONTINUOUS
 62
     5
 10
624.05096679999588
 20
-400.80000000000842
 30
0.0
 11
657.399999999996
 21
-400.80000000000842
 31
0.0
  0
LINE
  8
DETAIL
  6
CONTINUOUS
 62
     5
 10
657.399999999996
 20
-404.00000000000551
 30
0.0
 11
624.05096679999588
 21
-404.00000000000551
 31
0.0
  0
LINE
  8
DETAIL
  6
CONTINUOUS
 62
     5
 10
624.05096679999588
 20
-407.2000000000171
 30
0.0
 11
657.399999999996
 21
-407.2000000000171
 31
0.0
  0
LINE
  8
DETAIL
  6
CONTINUOUS
 62
     5
 10
609.20000036373858
 20
-420.2000000000171
 30
0.0
 11
638.79999999999745
 21
-420.2000000000171
 31
0.0
  0
LINE
  8
DETAIL
  6
CONTINUOUS
 62
     5
 10
656.79999999999745
 20
-420.2000000000171
 30
0.0
 11
656.99999999999454
 21
-420.2000000000171
 31
0.0
  0
LINE
  8
DETAIL
  6
CONTINUOUS
 62
     5
 10
658.99999999999454
 20
-447.2000000000171
 30
0.0
 11
609.19999999999891
 21
-447.2000000000171
 31
0.0
  0
LINE
  8
DETAIL
  6
CONTINUOUS
 62
     5
 10
619.52548339999339
 20
-405.87451660000619
 30
0.0
 11
611.07451660199331
 21
-414.32548340001631
 31
0.0
  0
LINE
  8
DETAIL
  6
CONTINUOUS
 62
     5
 10
621.78822509999736
 20
-408.13725830001022
 30
0.0
 11
613.33725829999639
 21
-416.58822510000567
 31
0.0
  0
LINE
  8
DETAIL
  6
CONTINUOUS
 62
     5
 10
612.399999999996
 20
-388.99998962715841
 30
0.0
 11
612.399999999996
 21
-389.14903320001582
 31
0.0
  0
LINE
  8
DETAIL
  6
CONTINUOUS
 62
     5
 10
612.399999999996
 20
-418.8509668000097
 30
0.0
 11
612.399999999996
 21
-419.00000000002001
 31
0.0
  0
LINE
  8
DETAIL
  6
CONTINUOUS
 62
     5
 10
641.79999999999745
 20
-384.80000000000842
 30
0.0
 11
641.79999999999745
 21
-377.00000000000551
 31
0.0
  0
LINE
  8
DETAIL
  6
CONTINUOUS
 62
     5
 10
641.79999999999745
 20
-423.20000000000249
 30
0.0
 11
641.79999999999745
 21
-431.00000000000551
 31
0.0
  0
LINE
  8
DETAIL
  6
CONTINUOUS
 62
     5
 10
651.79999999999745
 20
-382.80000000000842
 30
0.0
 11
651.79999999999745
 21
-377.00000000000551
 31
0.0
  0
LINE
  8
DETAIL
  6
CONTINUOUS
 62
     5
 10
651.79999999999745
 20
-425.20000000000249
 30
0.0
 11
651.79999999999745
 21
-431.00000000000551
 31
0.0
  0
LINE
  8
DETAIL
  6
CONTINUOUS
 62
     5
 10
657.399999999996
 20
-400.80000000000842
 30
0.0
 11
657.399999999996
 21
-407.2000000000171
 31
0.0
  0
LINE
  8
DETAIL
  6
CONTINUOUS
 62
     5
 10
661.99999999999454
 20
-382.80000000000842
 30
0.0
 11
661.99999999999454
 21
-363.80000000000842
 31
0.0
  0
LINE
  8
DETAIL
  6
CONTINUOUS
 62
     5
 10
661.99999999999454
 20
-425.20000000000249
 30
0.0
 11
661.99999999999454
 21
-444.20000000000249
 31
0.0
  0
ARC
  8
DETAIL
  6
CONTINUOUS
 62
     5
 10
615.59999999999309
 20
-389.14903320001582
 30
0.0
 40
6.3999999999999968
 50
180.0
 51
224.99999999999079
  0
ARC
  8
DETAIL
  6
CONTINUOUS
 62
     5
 10
624.05096679999588
 20
-397.59999999999673
 30
0.0
 40
6.3999999999999968
 50
224.99999999999079
 51
270.0
  0
ARC
  8
DETAIL
  6
CONTINUOUS
 62
     5
 10
646.79999999999745
 20
-377.00000000000551
 30
0.0
 40
4.9999999999999973
 50
0.0
 51
180.0
  0
ARC
  8
DETAIL
  6
CONTINUOUS
 62
     5
 10
656.79999999999745
 20
-382.80000000000842
 30
0.0
 40
4.9999999999999973
 50
180.0
 51
270.0
  0
ARC
  8
DETAIL
  6
CONTINUOUS
 62
     5
 10
656.99999999999454
 20
-382.80000000000842
 30
0.0
 40
4.9999999999999973
 50
270.0
 51
0.0
  0
ARC
  8
DETAIL
  6
CONTINUOUS
 62
     5
 10
615.59999999999309
 20
-389.14903320001582
 30
0.0
 40
3.199999999999998
 50
180.0
 51
224.99999999999079
  0
ARC
  8
DETAIL
  6
CONTINUOUS
 62
     5
 10
624.05096679999588
 20
-397.59999999999673
 30
0.0
 40
3.199999999999998
 50
224.99999999999079
 51
270.0
  0
ARC
  8
DETAIL
  6
CONTINUOUS
 62
     5
 10
658.99999999999454
 20
-363.80000000000842
 30
0.0
 40
2.9999999999999978
 50
0.0
 51
90.0
  0
ARC
  8
DETAIL
  6
CONTINUOUS
 62
     5
 10
638.79999999999745
 20
-384.80000000000842
 30
0.0
 40
2.9999999999999978
 50
270.0
 51
0.0
  0
ARC
  8
DETAIL
  6
CONTINUOUS
 62
     5
 10
615.59999999999309
 20
-418.8509668000097
 30
0.0
 40
6.3999999999999968
 50
135.00000000000921
 51
180.0
  0
ARC
  8
DETAIL
  6
CONTINUOUS
 62
     5
 10
624.05096679999588
 20
-410.39999999999958
 30
0.0
 40
6.3999999999999968
 50
90.0
 51
135.00000000000921
  0
ARC
  8
DETAIL
  6
CONTINUOUS
 62
     5
 10
656.99999999999454
 20
-425.20000000000249
 30
0.0
 40
4.9999999999999973
 50
0.0
 51
90.0
  0
ARC
  8
DETAIL
  6
CONTINUOUS
 62
     5
 10
646.79999999999745
 20
-431.00000000000551
 30
0.0
 40
4.9999999999999973
 50
180.0
 51
0.0
  0
ARC
  8
DETAIL
  6
CONTINUOUS
 62
     5
 10
656.79999999999745
 20
-425.20000000000249
 30
0.0
 40
4.9999999999999973
 50
90.0
 51
180.0
  0
ARC
  8
DETAIL
  6
CONTINUOUS
 62
     5
 10
624.05096679999588
 20
-410.39999999999958
 30
0.0
 40
3.199999999999998
 50
90.0
 51
134.99999999986181
  0
ARC
  8
DETAIL
  6
CONTINUOUS
 62
     5
 10
615.59999999999309
 20
-418.8509668000097
 30
0.0
 40
3.199999999999998
 50
135.00000000000921
 51
180.0
  0
ARC
  8
DETAIL
  6
CONTINUOUS
 62
     5
 10
658.99999999999454
 20
-444.20000000000249
 30
0.0
 40
2.9999999999999978
 50
270.0
 51
0.0
  0
ARC
  8
DETAIL
  6
CONTINUOUS
 62
     5
 10
638.79999999999745
 20
-423.20000000000249
 30
0.0
 40
2.9999999999999978
 50
0.0
 51
90.0
  0
LINE
  8
DETAIL
  6
CONTINUOUS
 62
     5
 10
-607.69999963626105
 20
-403.19999999997339
 30
0.0
 11
-602.0143859462496
 21
-403.19999999997339
 31
0.0
  0
LINE
  8
DETAIL
  6
CONTINUOUS
 62
     5
 10
-602.81438594625615
 20
-403.99999999999272
 30
0.0
 11
-600.71438594626306
 21
-401.89999999997048
 31
0.0
  0
LINE
  8
DETAIL
  6
CONTINUOUS
 62
     5
 10
-606.34708502826652
 20
-404.80000000000842
 30
0.0
 11
-606.34708502826652
 21
-403.19999999997339
 31
0.0
  0
LINE
  8
DETAIL
  6
CONTINUOUS
 62
     5
 10
602.01438667371622
 20
-403.19999999997339
 30
0.0
 11
606.34708575573313
 21
-403.19999999997339
 31
0.0
  0
LINE
  8
DETAIL
  6
CONTINUOUS
 62
     5
 10
602.81438667372277
 20
-403.99999999999091
 30
0.0
 11
600.71438667373332
 21
-401.89999999997048
 31
0.0
  0
LINE
  8
DETAIL
  6
CONTINUOUS
 62
     5
 10
605.70000036373858
 20
-401.19999999998799
 30
0.0
 11
605.70000036373858
 21
-403.19999999997339
 31
0.0
  0
LINE
  8
DETAIL
  6
CONTINUOUS
 62
     5
 10
606.34708575573313
 20
-406.79999999999382
 30
0.0
 11
606.34708575573313
 21
-401.19999999998799
 31
0.0
  0
LINE
  8
DETAIL
  6
CONTINUOUS
 62
     5
 10
600.71438667373332
 20
-401.89999999997048
 30
0.0
 11
-600.71438594626306
 21
-401.89999999997048
 31
0.0
  0
LINE
  8
SIZE
  6
CONTINUOUS
 62
    30
 10
-615.49999999999272
 20
18.950000161266871
 30
0.0
 11
-615.49999999999272
 21
311.05395896871232
 31
0.0
  0
LINE
  8
SIZE
  6
CONTINUOUS
 62
    30
 10
615.50000000000546
 20
18.950000181863292
 30
0.0
 11
615.50000000000546
 21
311.05395896871232
 31
0.0
  0
LINE
  8
SIZE
  6
CONTINUOUS
 62
    30
 10
-603.49999999999272
 20
291.05395896871232
 30
0.0
 11
603.50000000000546
 21
291.05395896871232
 31
0.0
  0
CIRCLE
  8
SIZE
  6
CONTINUOUS
 62
    30
 10
-615.49999999999272
 20
291.05395896871232
 30
0.0
 40
6.0
  0
LINE
  8
SIZE
  6
CONTINUOUS
 62
    30
 10
-615.49999999999272
 20
291.05395896871232
 30
0.0
 11
-603.49999999999272
 21
291.05395896871232
 31
0.0
  0
CIRCLE
  8
SIZE
  6
CONTINUOUS
 62
    30
 10
615.50000000000546
 20
291.05395896871232
 30
0.0
 40
6.0
  0
LINE
  8
SIZE
  6
CONTINUOUS
 62
    30
 10
615.50000000000546
 20
291.05395896871232
 30
0.0
 11
603.50000000000546
 21
291.05395896871232
 31
0.0
  0
TEXT
  8
SIZE
  6
CONTINUOUS
 62
    30
 10
-95.615999999993647
 20
316.05395896871232
 30
0.0
 40
64.0
  1
1231
 50
0.0
 41
0.9
 51
0.0
  7
STANDARD
 71
     0
 72
     1
 11
0.0000000000063665
 21
316.05395896871232
 31
0.0
210
0.0
220
0.0
230
1.0
  0
POINT
  8
DEFPOINTS
  6
CONTINUOUS
 62
    30
 10
-615.49999999999272
 20
-1.0499998387331291
 30
0.0
  0
POINT
  8
DEFPOINTS
  6
CONTINUOUS
 62
    30
 10
615.50000000000546
 20
-1.0499998181367121
 30
0.0
  0
POINT
  8
DEFPOINTS
  6
CONTINUOUS
 62
    30
 10
615.50000000000546
 20
291.05395896871232
 30
0.0
  0
LINE
  8
SIZE
  6
CONTINUOUS
 62
    30
 10
458.49999999999818
 20
-64.845756862732742
 30
0.0
 11
458.49999999999818
 21
185.55951982625081
 31
0.0
  0
LINE
  8
SIZE
  6
CONTINUOUS
 62
    30
 10
-458.50000000000182
 20
-59.806950680083901
 30
0.0
 11
-458.50000000000182
 21
185.55951982625081
 31
0.0
  0
LINE
  8
SIZE
  6
CONTINUOUS
 62
    30
 10
446.49999999999818
 20
165.55951982625081
 30
0.0
 11
-446.50000000000182
 21
165.55951982625081
 31
0.0
  0
CIRCLE
  8
SIZE
  6
CONTINUOUS
 62
    30
 10
458.49999999999818
 20
165.55951982625081
 30
0.0
 40
6.0
  0
LINE
  8
SIZE
  6
CONTINUOUS
 62
    30
 10
458.49999999999818
 20
165.55951982625081
 30
0.0
 11
446.49999999999818
 21
165.55951982625081
 31
0.0
  0
CIRCLE
  8
SIZE
  6
CONTINUOUS
 62
    30
 10
-458.50000000000182
 20
165.55951982625081
 30
0.0
 40
6.0
  0
LINE
  8
SIZE
  6
CONTINUOUS
 62
    30
 10
-458.50000000000182
 20
165.55951982625081
 30
0.0
 11
-446.50000000000182
 21
165.55951982625081
 31
0.0
  0
TEXT
  8
SIZE
  6
CONTINUOUS
 62
    30
 10
-74.592000000001832
 20
190.55951982625081
 30
0.0
 40
64.0
  1
917
 50
0.0
 41
0.9
 51
0.0
  7
STANDARD
 71
     0
 72
     1
 11
-0.000000000001819
 21
190.55951982625081
 31
0.0
210
0.0
220
0.0
230
1.0
  0
POINT
  8
DEFPOINTS
  6
CONTINUOUS
 62
    30
 10
458.49999999999818
 20
-84.845756862732742
 30
0.0
  0
POINT
  8
DEFPOINTS
  6
CONTINUOUS
 62
    30
 10
-458.50000000000182
 20
-79.806950680083901
 30
0.0
  0
POINT
  8
DEFPOINTS
  6
CONTINUOUS
 62
    30
 10
-458.50000000000182
 20
165.55951982625081
 30
0.0
  0
LINE
  8
SIZE
  6
CONTINUOUS
 62
    30
 10
-724.19999999997708
 20
-732.89999999800057
 30
0.0
 11
-724.19999999997708
 21
-1012.3100063333241
 31
0.0
  0
LINE
  8
SIZE
  6
CONTINUOUS
 62
    30
 10
-609.19999963626105
 20
-826.19999999999345
 30
0.0
 11
-609.19999963626105
 21
-1012.3100063333241
 31
0.0
  0
LINE
  8
SIZE
  6
CONTINUOUS
 62
    30
 10
-621.19999963626105
 20
-992.31000633332405
 30
0.0
 11
-712.19999999997708
 21
-992.31000633332405
 31
0.0
  0
LINE
  8
SIZE
  6
CONTINUOUS
 62
    30
 10
-724.19999999997708
 20
-992.31000633332405
 30
0.0
 11
-912.37142857140623
 21
-992.31000633332405
 31
0.0
  0
CIRCLE
  8
SIZE
  6
CONTINUOUS
 62
    30
 10
-609.19999963626105
 20
-992.31000633332405
 30
0.0
 40
6.0
  0
LINE
  8
SIZE
  6
CONTINUOUS
 62
    30
 10
-609.19999963626105
 20
-992.31000633332405
 30
0.0
 11
-621.19999963626105
 21
-992.31000633332405
 31
0.0
  0
CIRCLE
  8
SIZE
  6
CONTINUOUS
 62
    30
 10
-724.19999999997708
 20
-992.31000633332405
 30
0.0
 40
6.0
  0
LINE
  8
SIZE
  6
CONTINUOUS
 62
    30
 10
-724.19999999997708
 20
-992.31000633332405
 30
0.0
 11
-712.19999999997708
 21
-992.31000633332405
 31
0.0
  0
TEXT
  8
SIZE
  6
CONTINUOUS
 62
    30
 10
-893.11771428569193
 20
-967.31000633332405
 30
0.0
 40
64.0
  1
115
 50
0.0
 41
0.9
 51
0.0
  7
STANDARD
 71
     0
 72
     1
 11
-824.28571428569194
 21
-967.31000633332405
 31
0.0
210
0.0
220
0.0
230
1.0
  0
POINT
  8
DEFPOINTS
  6
CONTINUOUS
 62
    30
 10
-724.19999999997708
 20
-712.89999999800057
 30
0.0
  0
POINT
  8
DEFPOINTS
  6
CONTINUOUS
 62
    30
 10
-609.19999963626105
 20
-806.19999999999345
 30
0.0
  0
POINT
  8
DEFPOINTS
  6
CONTINUOUS
 62
    30
 10
-609.19999963626105
 20
-992.31000633332405
 30
0.0
  0
LINE
  8
SIZE
  6
CONTINUOUS
 62
    30
 10
698.94825069841158
 20
-202.0000000000056
 30
0.0
 11
935.26082995441379
 21
-202.00000000000551
 31
0.0
  0
LINE
  8
SIZE
  6
CONTINUOUS
 62
    30
 10
643.55027108842501
 20
-242.00000000001651
 30
0.0
 11
935.26082995441379
 21
-242.00000000001651
 31
0.0
  0
LINE
  8
SIZE
  6
CONTINUOUS
 62
    30
 10
915.26082995441379
 20
-254.00000000001651
 30
0.0
 11
915.26082995441391
 21
-266.00000000001643
 31
0.0
  0
LINE
  8
SIZE
  6
CONTINUOUS
 62
    30
 10
915.26082995441379
 20
-190.00000000000551
 30
0.0
 11
915.26082995441379
 21
-34.742857142860601
 31
0.0
  0
LINE
  8
SIZE
  6
CONTINUOUS
 62
    30
 10
915.26082995441379
 20
-242.00000000001651
 30
0.0
 11
915.26082995441379
 21
-202.00000000000551
 31
0.0
  0
CIRCLE
  8
SIZE
  6
CONTINUOUS
 62
    30
 10
915.26082995441379
 20
-242.00000000001651
 30
0.0
 40
6.0
  0
LINE
  8
SIZE
  6
CONTINUOUS
 62
    30
 10
915.26082995441379
 20
-242.00000000001651
 30
0.0
 11
915.26082995441379
 21
-254.00000000001651
 31
0.0
  0
CIRCLE
  8
SIZE
  6
CONTINUOUS
 62
    30
 10
915.26082995441379
 20
-202.00000000000551
 30
0.0
 40
6.0
  0
LINE
  8
SIZE
  6
CONTINUOUS
 62
    30
 10
915.26082995441379
 20
-202.00000000000551
 30
0.0
 11
915.26082995441379
 21
-190.00000000000551
 31
0.0
  0
TEXT
  8
SIZE
  6
CONTINUOUS
 62
    30
 10
890.26082995441357
 20
-161.09142857143235
 30
0.0
 40
64.0
  1
40
 50
90.0
 41
0.9
 51
0.0
  7
STANDARD
 71
     0
 72
     1
 11
890.26082995441357
 21
-106.3714285714323
 31
0.0
210
0.0
220
0.0
230
1.0
  0
POINT
  8
DEFPOINTS
  6
CONTINUOUS
 62
    30
 10
678.94825069841158
 20
-202.0000000000056
 30
0.0
  0
POINT
  8
DEFPOINTS
  6
CONTINUOUS
 62
    30
 10
623.55027108842501
 20
-242.00000000001651
 30
0.0
  0
POINT
  8
DEFPOINTS
  6
CONTINUOUS
 62
    30
 10
915.26082995441379
 20
-242.00000000001651
 30
0.0
  0
LINE
  8
SIZE
  6
CONTINUOUS
 62
    30
 10
634.4499999874663
 20
-0.0000000000036348
 30
0.0
 11
1217.003710256424
 21
-0.0000000000035411
 31
0.0
  0
LINE
  8
SIZE
  6
CONTINUOUS
 62
    30
 10
634.44999994628984
 20
-807.99999999999318
 30
0.0
 11
1217.003710256424
 21
-807.99999999999307
 31
0.0
  0
LINE
  8
SIZE
  6
CONTINUOUS
 62
    30
 10
1197.003710256424
 20
-12.000000000003549
 30
0.0
 11
1197.003710256424
 21
-795.99999999999307
 31
0.0
  0
CIRCLE
  8
SIZE
  6
CONTINUOUS
 62
    30
 10
1197.003710256424
 20
-0.0000000000035443
 30
0.0
 40
6.0
  0
LINE
  8
SIZE
  6
CONTINUOUS
 62
    30
 10
1197.003710256424
 20
-0.0000000000035443
 30
0.0
 11
1197.003710256424
 21
-12.000000000003544
 31
0.0
  0
CIRCLE
  8
SIZE
  6
CONTINUOUS
 62
    30
 10
1197.003710256424
 20
-807.99999999999307
 30
0.0
 40
6.0
  0
LINE
  8
SIZE
  6
CONTINUOUS
 62
    30
 10
1197.003710256424
 20
-807.99999999999307
 30
0.0
 11
1197.003710256424
 21
-795.99999999999307
 31
0.0
  0
TEXT
  8
SIZE
  6
CONTINUOUS
 62
    30
 10
1172.003710256424
 20
-484.92799999999863
 30
0.0
 40
64.0
  1
808
 50
90.0
 41
0.9
 51
0.0
  7
STANDARD
 71
     0
 72
     1
 11
1172.003710256424
 21
-403.99999999999875
 31
0.0
210
0.0
220
0.0
230
1.0
  0
POINT
  8
DEFPOINTS
  6
CONTINUOUS
 62
    30
 10
614.4499999874663
 20
-0.000000000003638
 30
0.0
  0
POINT
  8
DEFPOINTS
  6
CONTINUOUS
 62
    30
 10
614.44999994628984
 20
-807.99999999999318
 30
0.0
  0
POINT
  8
DEFPOINTS
  6
CONTINUOUS
 62
    30
 10
1197.003710256424
 20
-807.99999999999307
 30
0.0
  0
LINE
  8
SIZE
  6
CONTINUOUS
 62
    30
 10
698.94825047447944
 20
-202.0000000000056
 30
0.0
 11
1085.441241938948
 21
-202.00000000000551
 31
0.0
  0
LINE
  8
SIZE
  6
CONTINUOUS
 62
    30
 10
698.94825033464463
 20
-606.00000000001114
 30
0.0
 11
1085.441241938948
 21
-606.00000000001103
 31
0.0
  0
LINE
  8
SIZE
  6
CONTINUOUS
 62
    30
 10
1065.441241938948
 20
-214.00000000000551
 30
0.0
 11
1065.441241938948
 21
-594.00000000001103
 31
0.0
  0
CIRCLE
  8
SIZE
  6
CONTINUOUS
 62
    30
 10
1065.441241938948
 20
-202.00000000000551
 30
0.0
 40
6.0
  0
LINE
  8
SIZE
  6
CONTINUOUS
 62
    30
 10
1065.441241938948
 20
-202.00000000000551
 30
0.0
 11
1065.441241938948
 21
-214.00000000000551
 31
0.0
  0
CIRCLE
  8
SIZE
  6
CONTINUOUS
 62
    30
 10
1065.441241938948
 20
-606.00000000001103
 30
0.0
 40
6.0
  0
LINE
  8
SIZE
  6
CONTINUOUS
 62
    30
 10
1065.441241938948
 20
-606.00000000001103
 30
0.0
 11
1065.441241938948
 21
-594.00000000001103
 31
0.0
  0
TEXT
  8
SIZE
  6
CONTINUOUS
 62
    30
 10
1040.441241938948
 20
-486.08000000000857
 30
0.0
 40
64.0
  1
404
 50
90.0
 41
0.9
 51
0.0
  7
STANDARD
 71
     0
 72
     1
 11
1040.441241938948
 21
-404.00000000000853
 31
0.0
210
0.0
220
0.0
230
1.0
  0
POINT
  8
DEFPOINTS
  6
CONTINUOUS
 62
    30
 10
678.94825047447944
 20
-202.0000000000056
 30
0.0
  0
POINT
  8
DEFPOINTS
  6
CONTINUOUS
 62
    30
 10
678.94825033464463
 20
-606.00000000001114
 30
0.0
  0
POINT
  8
DEFPOINTS
  6
CONTINUOUS
 62
    30
 10
1065.441241938948
 20
-606.00000000001103
 30
0.0
  0
LINE
  8
SIZE
  6
CONTINUOUS
 62
    30
 10
698.94825083824458
 20
-606.00000000001114
 30
0.0
 11
935.26082995441391
 21
-606.00000000001103
 31
0.0
  0
LINE
  8
SIZE
  6
CONTINUOUS
 62
    30
 10
643.55027122826164
 20
-646.0000000000075
 30
0.0
 11
935.26082995441391
 21
-646.00000000000739
 31
0.0
  0
LINE
  8
SIZE
  6
CONTINUOUS
 62
    30
 10
915.26082995441391
 20
-658.00000000000739
 30
0.0
 11
915.26082995441391
 21
-670.00000000000739
 31
0.0
  0
LINE
  8
SIZE
  6
CONTINUOUS
 62
    30
 10
915.26082995441391
 20
-594.00000000001103
 30
0.0
 11
915.26082995441391
 21
-438.74285714286799
 31
0.0
  0
LINE
  8
SIZE
  6
CONTINUOUS
 62
    30
 10
915.26082995441391
 20
-646.00000000000739
 30
0.0
 11
915.26082995441391
 21
-606.00000000001103
 31
0.0
  0
CIRCLE
  8
SIZE
  6
CONTINUOUS
 62
    30
 10
915.26082995441391
 20
-646.00000000000739
 30
0.0
 40
6.0
  0
LINE
  8
SIZE
  6
CONTINUOUS
 62
    30
 10
915.26082995441391
 20
-646.00000000000739
 30
0.0
 11
915.26082995441391
 21
-658.00000000000739
 31
0.0
  0
CIRCLE
  8
SIZE
  6
CONTINUOUS
 62
    30
 10
915.26082995441391
 20
-606.00000000001103
 30
0.0
 40
6.0
  0
LINE
  8
SIZE
  6
CONTINUOUS
 62
    30
 10
915.26082995441391
 20
-606.00000000001103
 30
0.0
 11
915.26082995441391
 21
-594.00000000001103
 31
0.0
  0
TEXT
  8
SIZE
  6
CONTINUOUS
 62
    30
 10
890.26082995441357
 20
-565.09142857143979
 30
0.0
 40
64.0
  1
40
 50
90.0
 41
0.9
 51
0.0
  7
STANDARD
 71
     0
 72
     1
 11
890.26082995441357
 21
-510.37142857143971
 31
0.0
210
0.0
220
0.0
230
1.0
  0
POINT
  8
DEFPOINTS
  6
CONTINUOUS
 62
    30
 10
678.94825083824458
 20
-606.00000000001114
 30
0.0
  0
POINT
  8
DEFPOINTS
  6
CONTINUOUS
 62
    30
 10
623.55027122826164
 20
-646.0000000000075
 30
0.0
  0
POINT
  8
DEFPOINTS
  6
CONTINUOUS
 62
    30
 10
915.26082995441391
 20
-646.00000000000739
 30
0.0
  0
POINT
  8
ARRANGE
  6
CONTINUOUS
 62
     1
 10
0.0
 20
0.0
 30
0.0
 50
270.0
  0
CIRCLE
  8
ARRANGE
  6
CONTINUOUS
 62
     1
 10
0.0
 20
0.0
 30
0.0
 40
40.0
  0
LINE
  8
BASIS
  6
DASHDOT
 62
     6
 10
-636.00000000000909
 20
-454.00001249801238
 30
0.0
 11
-636.00000000000909
 21
-353.99998749801131
 31
0.0
  0
LINE
  8
BASIS
  6
DASHDOT
 62
     6
 10
686.00001249999877
 20
-403.99999999801548
 30
0.0
 11
585.99998749999759
 21
-403.99999999801548
 31
0.0
  0
LINE
  8
BASIS
  6
DASHDOT
 62
     6
 10
-585.9999875000085
 20
-403.99999999800463
 30
0.0
 11
-686.00001250000605
 21
-403.99999999800463
 31
0.0
  0
LINE
  8
BASIS
  6
DASHDOT
 62
     6
 10
635.99999999999818
 20
-454.00001249801608
 30
0.0
 11
635.99999999999818
 21
-353.99998749801489
 31
0.0
  0
LINE
  8
SIZE
  6
CONTINUOUS
 62
    30
 10
635.99999999999818
 20
-333.99998749801489
 30
0.0
 11
635.99999999999818
 21
433.26527741695651
 31
0.0
  0
LINE
  8
SIZE
  6
CONTINUOUS
 62
    30
 10
-636.00000000000909
 20
-333.99998749801131
 30
0.0
 11
-636.00000000000909
 21
433.26527741695651
 31
0.0
  0
LINE
  8
SIZE
  6
CONTINUOUS
 62
    30
 10
623.99999999999818
 20
413.26527741695651
 30
0.0
 11
-624.00000000000909
 21
413.26527741695651
 31
0.0
  0
CIRCLE
  8
SIZE
  6
CONTINUOUS
 62
    30
 10
635.99999999999818
 20
413.26527741695651
 30
0.0
 40
6.0
  0
LINE
  8
SIZE
  6
CONTINUOUS
 62
    30
 10
635.99999999999818
 20
413.26527741695651
 30
0.0
 11
623.99999999999818
 21
413.26527741695651
 31
0.0
  0
CIRCLE
  8
SIZE
  6
CONTINUOUS
 62
    30
 10
-636.00000000000909
 20
413.26527741695651
 30
0.0
 40
6.0
  0
LINE
  8
SIZE
  6
CONTINUOUS
 62
    30
 10
-636.00000000000909
 20
413.26527741695651
 30
0.0
 11
-624.00000000000909
 21
413.26527741695651
 31
0.0
  0
TEXT
  8
SIZE
  6
CONTINUOUS
 62
    30
 10
-101.37600000000548
 20
438.26527741695651
 30
0.0
 40
64.0
  1
1272
 50
0.0
 41
0.9
 51
0.0
  7
STANDARD
 71
     0
 72
     1
 11
-0.000000000005457
 21
438.26527741695651
 31
0.0
210
0.0
220
0.0
230
1.0
  0
POINT
  8
DEFPOINTS
  6
CONTINUOUS
 62
    30
 10
635.99999999999818
 20
-353.99998749801489
 30
0.0
  0
POINT
  8
DEFPOINTS
  6
CONTINUOUS
 62
    30
 10
-636.00000000000909
 20
-353.99998749801131
 30
0.0
  0
POINT
  8
DEFPOINTS
  6
CONTINUOUS
 62
    30
 10
-636.00000000000909
 20
413.26527741695651
 30
0.0
  0
LINE
  8
SIZE
  6
CONTINUOUS
 62
    30
 10
-662.00000000000364
 20
-343.79999999798378
 30
0.0
 11
-662.00000000000364
 21
433.26527741698737
 31
0.0
  0
LINE
  8
SIZE
  6
CONTINUOUS
 62
    30
 10
-636.00000000000909
 20
-333.99998749801131
 30
0.0
 11
-636.00000000000909
 21
433.26527741698737
 31
0.0
  0
LINE
  8
SIZE
  6
CONTINUOUS
 62
    30
 10
-624.00000000000909
 20
413.26527741698737
 30
0.0
 11
-612.00000000000909
 21
413.26527741698737
 31
0.0
  0
LINE
  8
SIZE
  6
CONTINUOUS
 62
    30
 10
-674.00000000000364
 20
413.26527741698737
 30
0.0
 11
-826.7142857142918
 21
413.26527741698737
 31
0.0
  0
LINE
  8
SIZE
  6
CONTINUOUS
 62
    30
 10
-636.00000000000909
 20
413.26527741698737
 30
0.0
 11
-662.00000000000364
 21
413.26527741698737
 31
0.0
  0
CIRCLE
  8
SIZE
  6
CONTINUOUS
 62
    30
 10
-636.00000000000909
 20
413.26527741698737
 30
0.0
 40
6.0
  0
LINE
  8
SIZE
  6
CONTINUOUS
 62
    30
 10
-636.00000000000909
 20
413.26527741698737
 30
0.0
 11
-624.00000000000909
 21
413.26527741698737
 31
0.0
  0
CIRCLE
  8
SIZE
  6
CONTINUOUS
 62
    30
 10
-662.00000000000364
 20
413.26527741698737
 30
0.0
 40
6.0
  0
LINE
  8
SIZE
  6
CONTINUOUS
 62
    30
 10
-662.00000000000364
 20
413.26527741698737
 30
0.0
 11
-674.00000000000364
 21
413.26527741698737
 31
0.0
  0
TEXT
  8
SIZE
  6
CONTINUOUS
 62
    30
 10
-810.02514285714892
 20
438.26527741698737
 30
0.0
 40
64.0
  1
26
 50
0.0
 41
0.9
 51
0.0
  7
STANDARD
 71
     0
 72
     1
 11
-756.45714285714894
 21
438.26527741698737
 31
0.0
210
0.0
220
0.0
230
1.0
  0
POINT
  8
DEFPOINTS
  6
CONTINUOUS
 62
    30
 10
-662.00000000000364
 20
-363.79999999798378
 30
0.0
  0
POINT
  8
DEFPOINTS
  6
CONTINUOUS
 62
    30
 10
-636.00000000000909
 20
-353.99998749801131
 30
0.0
  0
POINT
  8
DEFPOINTS
  6
CONTINUOUS
 62
    30
 10
-636.00000000000909
 20
413.26527741698737
 30
0.0
  0
CIRCLE
  8
FIX
  6
CONTINUOUS
 62
    11
 10
-636.00000000000909
 20
-403.99999999801179
 30
0.0
 40
7.5
  0
CIRCLE
  8
FIX
  6
CONTINUOUS
 62
    11
 10
635.99999999999818
 20
-403.99999999801548
 30
0.0
 40
7.5
  0
LINE
  8
OUTLINE
  6
CONTINUOUS
 62
     3
 10
-624.08091743228397
 20
-3.7364248596632019
 30
0.0
 11
-623.70000000000073
 21
-4.2000000000025466
 31
0.0
  0
LINE
  8
OUTLINE
  6
CONTINUOUS
 62
     3
 10
-623.70000000000073
 20
-4.2000000000025466
 30
0.0
 11
-623.09999999999673
 21
-4.1999999999966349
 31
0.0
  0
ARC
  8
OUTLINE
  6
CONTINUOUS
 62
     3
 10
-623.09999999999673
 20
-3.6000000000010459
 30
0.0
 40
0.599999999995589
 50
90.0
 51
270.0
  0
LINE
  8
OUTLINE
  6
CONTINUOUS
 62
     3
 10
-623.09999999999673
 20
-3.000000000005457
 30
0.0
 11
-613.89999999999964
 21
-3.1000000000058212
 31
0.0
  0
ARC
  8
OUTLINE
  6
CONTINUOUS
 62
     3
 10
-613.81809785169719
 20
-4.2151976564039586
 30
0.0
 40
1.1182011333979467
 50
0.7787403843223046
 51
94.200365459916611
  0
LINE
  8
OUTLINE
  6
CONTINUOUS
 62
     3
 10
-612.69999999999891
 20
-4.2000000000018636
 30
0.0
 11
-612.69999999999345
 21
-3.6000000000058212
 31
0.0
  0
LINE
  8
OUTLINE
  6
CONTINUOUS
 62
     3
 10
-612.69999999999345
 20
-3.6000000000058212
 30
0.0
 11
-609.19999999999345
 21
-3.6000000000058212
 31
0.0
  0
LINE
  8
OUTLINE
  6
CONTINUOUS
 62
     3
 10
-609.19999999999345
 20
-3.6000000000058212
 30
0.0
 11
-609.19999999999345
 21
-1.8000000000029099
 31
0.0
  0
ARC
  8
OUTLINE
  6
CONTINUOUS
 62
     3
 10
-609.69999999999516
 20
-1.8000000000046468
 30
0.0
 40
0.5000000000017369
 50
0.0
 51
90.0
  0
LINE
  8
OUTLINE
  6
CONTINUOUS
 62
     3
 10
-609.69999999999345
 20
-1.3000000000029099
 30
0.0
 11
-611.20000000000073
 21
-1.3000000000029099
 31
0.0
  0
LINE
  8
OUTLINE
  6
CONTINUOUS
 62
     3
 10
-611.20000000000073
 20
-1.3000000000029099
 30
0.0
 11
-611.20000000000073
 21
-2.1000000000058212
 31
0.0
  0
LINE
  8
OUTLINE
  6
CONTINUOUS
 62
     3
 10
-611.20000000000073
 20
-2.1000000000058212
 30
0.0
 11
-614.4614123693209
 21
-2.0999379780885188
 31
0.0
  0
ARC
  8
OUTLINE
  6
CONTINUOUS
 62
     3
 10
-614.44999999999368
 20
-1.0500000000029701
 30
0.0
 40
1.0500000000000149
 50
90.0
 51
269.37724431278275
  0
LINE
  8
OUTLINE
  6
CONTINUOUS
 62
     3
 10
-614.44999999999345
 20
-0.0000000000029559
 30
0.0
 11
-609.37127970399706
 21
-0.0000000000059117
 31
0.0
  0
ARC
  8
OUTLINE
  6
CONTINUOUS
 62
     3
 10
-609.37127970399536
 20
-1.600000000004294
 30
0.0
 40
1.5999999999983823
 50
9.9999999999199076
 51
90.0
  0
LINE
  8
OUTLINE
  6
CONTINUOUS
 62
     3
 10
-607.79558729917699
 20
-1.3221629157396819
 30
0.0
 11
-607.69999999999345
 21
-1.864265431506283
 31
0.0
  0
LINE
  8
OUTLINE
  6
CONTINUOUS
 62
     3
 10
-607.69999999999345
 20
-1.864265431506283
 30
0.0
 11
-607.69999999999345
 21
-0.8000000000029104
 31
0.0
  0
LINE
  8
OUTLINE
  6
CONTINUOUS
 62
     3
 10
-607.69999999999345
 20
-0.8000000000029104
 30
0.0
 11
-606.34708539199892
 21
-0.8000000000029104
 31
0.0
  0
LINE
  8
OUTLINE
  6
CONTINUOUS
 62
     3
 10
-606.34708539199892
 20
-0.8000000000029104
 30
0.0
 11
-606.34708539199892
 21
0.0
 31
0.0
  0
LINE
  8
OUTLINE
  6
CONTINUOUS
 62
     3
 10
-606.34708539199892
 20
0.0
 30
0.0
 11
606.34708539200074
 21
0.0
 31
0.0
  0
LINE
  8
OUTLINE
  6
CONTINUOUS
 62
     3
 10
606.34708539200074
 20
0.0
 30
0.0
 11
606.34708539200074
 21
-2.799999999988358
 31
0.0
  0
LINE
  8
OUTLINE
  6
CONTINUOUS
 62
     3
 10
606.34708539200074
 20
-2.799999999988358
 30
0.0
 11
607.53500474999601
 21
-2.799999999988358
 31
0.0
  0
LINE
  8
OUTLINE
  6
CONTINUOUS
 62
     3
 10
607.53500474999601
 20
-2.799999999988358
 30
0.0
 11
607.79558730117969
 21
-1.322162915736953
 31
0.0
  0
ARC
  8
OUTLINE
  6
CONTINUOUS
 62
     3
 10
609.37127970601273
 20
-1.6000000000152963
 30
0.0
 40
1.6000000000152965
 50
90.0
 51
169.99999999968702
  0
LINE
  8
OUTLINE
  6
CONTINUOUS
 62
     3
 10
609.37127970599977
 20
0.0
 30
0.0
 11
614.45000000000618
 21
0.0
 31
0.0
  0
ARC
  8
OUTLINE
  6
CONTINUOUS
 62
     3
 10
614.45000000000709
 20
-1.0500000000014325
 30
0.0
 40
1.0500000000014325
 50
270.0
 51
90.0
  0
LINE
  8
OUTLINE
  6
CONTINUOUS
 62
     3
 10
614.450000000008
 20
-2.1000000000028649
 30
0.0
 11
611.19999999999891
 21
-2.1000000000058212
 31
0.0
  0
LINE
  8
OUTLINE
  6
CONTINUOUS
 62
     3
 10
611.19999999999891
 20
-2.1000000000058212
 30
0.0
 11
611.19999999999891
 21
-1.3000000000029099
 31
0.0
  0
LINE
  8
OUTLINE
  6
CONTINUOUS
 62
     3
 10
611.19999999999891
 20
-1.3000000000029099
 30
0.0
 11
609.70000000000618
 21
-1.3000000000029099
 31
0.0
  0
ARC
  8
OUTLINE
  6
CONTINUOUS
 62
     3
 10
609.7000000000096
 20
-1.8000000000081402
 30
0.0
 40
0.5000000000052303
 50
90.0
 51
180.0
  0
LINE
  8
OUTLINE
  6
CONTINUOUS
 62
     3
 10
609.20000000000437
 20
-1.8000000000029099
 30
0.0
 11
609.19999999999891
 21
-360.80000000000842
 31
0.0
  0
LINE
  8
OUTLINE
  6
CONTINUOUS
 62
     3
 10
609.19999999999891
 20
-360.80000000000842
 30
0.0
 11
658.99999999999454
 21
-360.80000000000842
 31
0.0
  0
ARC
  8
OUTLINE
  6
CONTINUOUS
 62
     3
 10
658.99999999999579
 20
-363.80000000000717
 30
0.0
 40
2.9999999999987774
 50
0.0
 51
90.0
  0
LINE
  8
OUTLINE
  6
CONTINUOUS
 62
     3
 10
661.99999999999454
 20
-363.80000000000842
 30
0.0
 11
661.99999999999454
 21
-382.80000000000842
 31
0.0
  0
ARC
  8
OUTLINE
  6
CONTINUOUS
 62
     3
 10
656.899999999996
 20
-382.70000000000994
 30
0.0
 40
5.1009802979412564
 50
181.12330271405881
 51
358.87669728594119
  0
LINE
  8
OUTLINE
  6
CONTINUOUS
 62
     3
 10
651.79999999999745
 20
-382.80000000000842
 30
0.0
 11
651.79999999999745
 21
-377.00000000000551
 31
0.0
  0
ARC
  8
OUTLINE
  6
CONTINUOUS
 62
     3
 10
646.79999999999745
 20
-377.00000000000551
 30
0.0
 40
5.0
 50
0.0
 51
180.0
  0
LINE
  8
OUTLINE
  6
CONTINUOUS
 62
     3
 10
641.79999999999745
 20
-377.00000000000551
 30
0.0
 11
641.79999999999745
 21
-384.80000000000842
 31
0.0
  0
ARC
  8
OUTLINE
  6
CONTINUOUS
 62
     3
 10
638.7999999999987
 20
-384.80000000000967
 30
0.0
 40
2.9999999999987774
 50
270.0
 51
0.0
  0
LINE
  8
OUTLINE
  6
CONTINUOUS
 62
     3
 10
638.79999999999745
 20
-387.80000000000842
 30
0.0
 11
613.48339895199751
 21
-387.80000000000842
 31
0.0
  0
ARC
  8
OUTLINE
  6
CONTINUOUS
 62
     3
 10
613.71407835522382
 20
-389.0973287235941
 30
0.0
 40
1.3176778073995443
 50
100.08244681617265
 51
175.76405678224535
  0
LINE
  8
OUTLINE
  6
CONTINUOUS
 62
     3
 10
612.399999999996
 20
-389.00000000000682
 30
0.0
 11
612.39999999999236
 21
-389.14903320001582
 31
0.0
  0
ARC
  8
OUTLINE
  6
CONTINUOUS
 62
     3
 10
615.56877878865839
 20
-389.16196544957165
 30
0.0
 40
3.1688051777568611
 50
179.76616884457735
 51
225.23383114337469
  0
LINE
  8
OUTLINE
  6
CONTINUOUS
 62
     3
 10
613.33725829999639
 20
-391.41177490000518
 30
0.0
 11
621.78822509999736
 21
-399.86274170001519
 31
0.0
  0
ARC
  8
OUTLINE
  6
CONTINUOUS
 62
     3
 10
624.0509668004305
 20
-397.59999999796599
 30
0.0
 40
3.2000000020424526
 50
225.00000002046045
 51
270.0
  0
LINE
  8
OUTLINE
  6
CONTINUOUS
 62
     3
 10
624.05096679999588
 20
-400.80000000000842
 30
0.0
 11
657.399999999996
 21
-400.80000000000842
 31
0.0
  0
LINE
  8
OUTLINE
  6
CONTINUOUS
 62
     3
 10
657.399999999996
 20
-400.80000000000842
 30
0.0
 11
657.399999999996
 21
-407.2000000000171
 31
0.0
  0
LINE
  8
OUTLINE
  6
CONTINUOUS
 62
     3
 10
657.399999999996
 20
-407.2000000000171
 30
0.0
 11
624.05096679999588
 21
-407.2000000000171
 31
0.0
  0
ARC
  8
OUTLINE
  6
CONTINUOUS
 62
     3
 10
624.05096679993073
 20
-410.39999999990209
 30
0.0
 40
3.1999999998850046
 50
90.0
 51
135.00000000026341
  0
LINE
  8
OUTLINE
  6
CONTINUOUS
 62
     3
 10
621.78822510020473
 20
-408.13725830019689
 30
0.0
 11
613.33725830019648
 21
-416.58822510021281
 31
0.0
  0
ARC
  8
OUTLINE
  6
CONTINUOUS
 62
     3
 10
615.59999999998718
 20
-418.85096680000868
 30
0.0
 40
3.1999999999948465
 50
134.99999999993452
 51
180.0
  0
LINE
  8
OUTLINE
  6
CONTINUOUS
 62
     3
 10
612.39999999999236
 20
-418.8509668000097
 30
0.0
 11
612.399999999996
 21
-419.00000000000409
 31
0.0
  0
ARC
  8
OUTLINE
  6
CONTINUOUS
 62
     3
 10
613.71407835522382
 20
-418.90267127641681
 30
0.0
 40
1.3176778073995445
 50
184.23594321775465
 51
259.91755318382729
  0
LINE
  8
OUTLINE
  6
CONTINUOUS
 62
     3
 10
613.48339895199751
 20
-420.20000000000249
 30
0.0
 11
638.79999999999745
 21
-420.2000000000171
 31
0.0
  0
ARC
  8
OUTLINE
  6
CONTINUOUS
 62
     3
 10
638.80000000002292
 20
-423.19999999999163
 30
0.0
 40
2.9999999999745173
 50
0.0
 51
90.0
  0
LINE
  8
OUTLINE
  6
CONTINUOUS
 62
     3
 10
641.79999999999745
 20
-423.20000000000249
 30
0.0
 11
641.79999999999745
 21
-431.00000000000551
 31
0.0
  0
ARC
  8
OUTLINE
  6
CONTINUOUS
 62
     3
 10
646.79999999999745
 20
-431.00000000000551
 30
0.0
 40
5.0
 50
180.0
 51
0.0
  0
LINE
  8
OUTLINE
  6
CONTINUOUS
 62
     3
 10
651.79999999999745
 20
-431.00000000000551
 30
0.0
 11
651.79999999999745
 21
-425.20000000000249
 31
0.0
  0
ARC
  8
OUTLINE
  6
CONTINUOUS
 62
     3
 10
656.899999999996
 20
-425.30000000000098
 30
0.0
 40
5.1009802979412564
 50
1.1233027140587524
 51
178.87669728594119
  0
LINE
  8
OUTLINE
  6
CONTINUOUS
 62
     3
 10
661.99999999999454
 20
-425.20000000000249
 30
0.0
 11
661.99999999999454
 21
-444.20000000000249
 31
0.0
  0
ARC
  8
OUTLINE
  6
CONTINUOUS
 62
     3
 10
658.99999999997056
 20
-444.19999999999311
 30
0.0
 40
3.000000000024007
 50
270.0
 51
0.0
  0
LINE
  8
OUTLINE
  6
CONTINUOUS
 62
     3
 10
658.99999999999454
 20
-447.2000000000171
 30
0.0
 11
609.19999999999891
 21
-447.2000000000171
 31
0.0
  0
LINE
  8
OUTLINE
  6
CONTINUOUS
 62
     3
 10
609.19999999999891
 20
-447.2000000000171
 30
0.0
 11
609.20000036373858
 21
-806.19999999999345
 31
0.0
  0
ARC
  8
OUTLINE
  6
CONTINUOUS
 62
     3
 10
609.70000036374029
 20
-806.19999999999175
 30
0.0
 40
0.5000000000017369
 50
180.0
 51
270.0
  0
LINE
  8
OUTLINE
  6
CONTINUOUS
 62
     3
 10
609.70000036373858
 20
-806.69999999999345
 30
0.0
 11
611.20000036372949
 21
-806.69999999999345
 31
0.0
  0
LINE
  8
OUTLINE
  6
CONTINUOUS
 62
     3
 10
611.20000036372949
 20
-806.69999999999345
 30
0.0
 11
611.20000036372949
 21
-805.89999999999054
 31
0.0
  0
LINE
  8
OUTLINE
  6
CONTINUOUS
 62
     3
 10
611.20000036372949
 20
-805.89999999999054
 30
0.0
 11
614.45000036373858
 21
-805.89999999999054
 31
0.0
  0
ARC
  8
OUTLINE
  6
CONTINUOUS
 62
     3
 10
614.45000036373858
 20
-806.94999999999345
 30
0.0
 40
1.0500000000029106
 50
270.0
 51
90.0
  0
LINE
  8
OUTLINE
  6
CONTINUOUS
 62
     3
 10
614.45000036373858
 20
-807.99999999999636
 30
0.0
 11
609.37128006973398
 21
-807.99999999999056
 31
0.0
  0
ARC
  8
OUTLINE
  6
CONTINUOUS
 62
     3
 10
609.37128006973535
 20
-806.39999999998781
 30
0.0
 40
1.6000000000027019
 50
190.00000000014711
 51
270.0
  0
LINE
  8
OUTLINE
  6
CONTINUOUS
 62
     3
 10
607.79558766491391
 20
-806.67783708425941
 30
0.0
 11
607.53500511372658
 21
-805.19999999999345
 31
0.0
  0
LINE
  8
OUTLINE
  6
CONTINUOUS
 62
     3
 10
607.53500511372658
 20
-805.19999999999345
 30
0.0
 11
606.30000036373531
 21
-805.19999999999345
 31
0.0
  0
LINE
  8
OUTLINE
  6
CONTINUOUS
 62
     3
 10
606.30000036373531
 20
-805.19999999999345
 30
0.0
 11
606.30000036373531
 21
-807.19999999999357
 31
0.0
  0
LINE
  8
OUTLINE
  6
CONTINUOUS
 62
     3
 10
606.30000036373531
 20
-807.19999999999357
 30
0.0
 11
606.30000036373531
 21
-807.99999999999625
 31
0.0
  0
LINE
  8
OUTLINE
  6
CONTINUOUS
 62
     3
 10
606.30000036373531
 20
-807.99999999999625
 30
0.0
 11
-606.29999963626142
 21
-807.99999999999636
 31
0.0
  0
LINE
  8
OUTLINE
  6
CONTINUOUS
 62
     3
 10
-606.29999963626142
 20
-807.99999999999636
 30
0.0
 11
-606.29999963626142
 21
-807.19999999999345
 31
0.0
  0
LINE
  8
OUTLINE
  6
CONTINUOUS
 62
     3
 10
-606.29999963626142
 20
-807.19999999999345
 30
0.0
 11
-607.69999963626105
 21
-807.19999999999345
 31
0.0
  0
LINE
  8
OUTLINE
  6
CONTINUOUS
 62
     3
 10
-607.69999963626105
 20
-807.19999999999345
 30
0.0
 11
-607.69999963626105
 21
-806.13573456876884
 31
0.0
  0
LINE
  8
OUTLINE
  6
CONTINUOUS
 62
     3
 10
-607.69999963626105
 20
-806.13573456876884
 30
0.0
 11
-607.79558693544459
 21
-806.67783708425941
 31
0.0
  0
ARC
  8
OUTLINE
  6
CONTINUOUS
 62
     3
 10
-609.37127934026648
 20
-806.39999999998736
 30
0.0
 40
1.6000000000032264
 50
270.0
 51
349.9999999998397
  0
LINE
  8
OUTLINE
  6
CONTINUOUS
 62
     3
 10
-609.37127934026466
 20
-807.99999999999056
 30
0.0
 11
-614.44999963627561
 21
-807.99999999999341
 31
0.0
  0
ARC
  8
OUTLINE
  6
CONTINUOUS
 62
     3
 10
-614.44999963627652
 20
-806.94999999999345
 30
0.0
 40
1.0499999999999545
 50
90.0
 51
270.0
  0
LINE
  8
OUTLINE
  6
CONTINUOUS
 62
     3
 10
-614.44999963627743
 20
-805.8999999999935
 30
0.0
 11
-611.19999963626833
 21
-805.89999999999054
 31
0.0
  0
LINE
  8
OUTLINE
  6
CONTINUOUS
 62
     3
 10
-611.19999963626833
 20
-805.89999999999054
 30
0.0
 11
-611.19999963626833
 21
-806.69999999999345
 31
0.0
  0
LINE
  8
OUTLINE
  6
CONTINUOUS
 62
     3
 10
-611.19999963626833
 20
-806.69999999999345
 30
0.0
 11
-609.69999963626105
 21
-806.69999999999345
 31
0.0
  0
ARC
  8
OUTLINE
  6
CONTINUOUS
 62
     3
 10
-609.69999963626276
 20
-806.19999999999175
 30
0.0
 40
0.5000000000017369
 50
270.0
 51
0.0
  0
LINE
  8
OUTLINE
  6
CONTINUOUS
 62
     3
 10
-609.19999963626105
 20
-806.19999999999345
 30
0.0
 11
-609.19999963626105
 21
-804.49999999999636
 31
0.0
  0
LINE
  8
OUTLINE
  6
CONTINUOUS
 62
     3
 10
-609.19999963626105
 20
-804.49999999999636
 30
0.0
 11
-612.69999963626105
 21
-804.49999999999636
 31
0.0
  0
LINE
  8
OUTLINE
  6
CONTINUOUS
 62
     3
 10
-612.69999963626105
 20
-804.49999999999636
 30
0.0
 11
-612.69999963626105
 21
-803.79999999999927
 31
0.0
  0
ARC
  8
OUTLINE
  6
CONTINUOUS
 62
     3
 10
-613.89999963627247
 20
-803.7999999999879
 30
0.0
 40
1.2000000000114661
 50
270.0
 51
0.0
  0
LINE
  8
OUTLINE
  6
CONTINUOUS
 62
     3
 10
-613.89999963626724
 20
-804.99999999999932
 30
0.0
 11
-623.09999963632072
 21
-804.99999999999056
 31
0.0
  0
ARC
  8
OUTLINE
  6
CONTINUOUS
 62
     3
 10
-623.09999963629252
 20
-804.39999999999054
 30
0.0
 40
0.6000000000000229
 50
90.0
 51
270.0
  0
LINE
  8
OUTLINE
  6
CONTINUOUS
 62
     3
 10
-623.09999963626433
 20
-803.79999999999052
 30
0.0
 11
-623.69999963626833
 21
-803.79999999999927
 31
0.0
  0
LINE
  8
OUTLINE
  6
CONTINUOUS
 62
     3
 10
-623.69999963626833
 20
-803.79999999999927
 30
0.0
 11
-624.08091706717642
 21
-804.26357513947539
 31
0.0
  0
ARC
  8
OUTLINE
  6
CONTINUOUS
 62
     3
 10
-589.09999963626535
 20
-761.69192476399974
 30
0.0
 40
55.099999999999611
 50
180.11240372498742
 51
230.59022140942466
  0
LINE
  8
OUTLINE
  6
CONTINUOUS
 62
     3
 10
-644.19989360410545
 20
-761.80002070626006
 30
0.0
 11
-644.19989360410545
 21
-714.09999999801221
 31
0.0
  0
LINE
  8
OUTLINE
  6
CONTINUOUS
 62
     3
 10
-644.19989360410545
 20
-714.09999999801221
 30
0.0
 11
-722.99999999997635
 21
-714.09999999800061
 31
0.0
  0
ARC
  8
OUTLINE
  6
CONTINUOUS
 62
     3
 10
-722.99999999997669
 20
-712.89999999800023
 30
0.0
 40
1.2000000000004039
 50
180.0
 51
270.0
  0
LINE
  8
OUTLINE
  6
CONTINUOUS
 62
     3
 10
-724.19999999997708
 20
-712.89999999800023
 30
0.0
 11
-724.19999999998981
 21
-711.59999999801221
 31
0.0
  0
LINE
  8
OUTLINE
  6
CONTINUOUS
 62
     3
 10
-724.19999999998981
 20
-711.59999999801221
 30
0.0
 11
-724.79999999999382
 21
-711.59999999801221
 31
0.0
  0
LINE
  8
OUTLINE
  6
CONTINUOUS
 62
     3
 10
-724.79999999999382
 20
-711.59999999801221
 30
0.0
 11
-724.79999999999382
 21
-411.49999999801179
 31
0.0
  0
LINE
  8
OUTLINE
  6
CONTINUOUS
 62
     3
 10
-724.79999999999382
 20
-411.49999999801179
 30
0.0
 11
-724.19999999997708
 21
-106.29999999151779
 31
0.0
  0
ARC
  8
OUTLINE
  6
CONTINUOUS
 62
     3
 10
-722.99999999997669
 20
-106.2999999979951
 30
0.0
 40
1.2000000000004036
 50
90.0
 51
180.0
  0
LINE
  8
OUTLINE
  6
CONTINUOUS
 62
     3
 10
-722.99999999997635
 20
-105.0999999979947
 30
0.0
 11
-644.19999999999345
 21
-105.09999999800679
 31
0.0
  0
LINE
  8
OUTLINE
  6
CONTINUOUS
 62
     3
 10
-644.19999999999345
 20
-105.09999999800679
 30
0.0
 11
-644.19999999999709
 21
-46.308075234008363
 31
0.0
  0
ARC
  8
OUTLINE
  6
CONTINUOUS
 62
     3
 10
-589.09999999999673
 20
-46.308075234009088
 30
0.0
 40
55.100000000000406
 50
129.40977859242685
 51
180.0
  0
ARC
  8
DETAIL
  6
CONTINUOUS
 62
     5
 10
613.71407835522223
 20
-389.09732872359302
 30
0.0
 40
1.317677807398252
 50
100.0824468161247
 51
175.76405678229369
  0
ARC
  8
DETAIL
  6
CONTINUOUS
 62
     5
 10
613.71407835522223
 20
-418.90267127641789
 30
0.0
 40
1.317677807398252
 50
184.23594321770631
 51
259.91755318387533
  0
TEXT
  8
NOTE
  6
CONTINUOUS
 62
     4
 10
-537.16478401023414
 20
-274.48845329460619
 30
0.0
 40
64.065641025638456
  1
SA1
 41
0.9
  0
TEXT
  8
NOTE
  6
CONTINUOUS
 62
     4
 10
379.16499752251372
 20
-274.48845329460619
 30
0.0
 40
64.065641025638456
  1
RA1
 41
0.9
  0
TEXT
  8
NOTE
  6
CONTINUOUS
 62
     4
 10
-537.16478364650175
 20
-678.48845329459709
 30
0.0
 40
64.065641025638456
  1
SA2
 41
0.9
  0
TEXT
  8
NOTE
  6
CONTINUOUS
 62
     4
 10
379.16499788624611
 20
-678.48845329459709
 30
0.0
 40
64.065641025638456
  1
RA2
 41
0.9
  0
LINE
  8
SIZE
  6
CONTINUOUS
 62
    30
 10
-977.34178963015472
 20
-480.28812399604988
 30
0.0
 11
-585.19489695071911
 21
-605.53516186559534
 31
0.0
  0
LINE
  8
SIZE
  6
CONTINUOUS
 62
    30
 10
-331.80510335393433
 20
-686.46483813442137
 30
0.0
 11
-320.37398484580848
 21
-690.1158009736165
 31
0.0
  0
TEXT
  8
SIZE
  6
CONTINUOUS
 62
    30
 10
-960.56568264907492
 20
-459.40206138931563
 30
0.0
 40
64.0
  1
φ242
 50
342.28713845070808
 41
0.9
 51
0.0
  7
STANDARD
 71
     0
 72
     1
 11
-850.55259812687245
 21
-494.53892775373032
 31
0.0
210
0.0
220
0.0
230
1.0
  0
LINE
  8
SIZE
  6
CONTINUOUS
 62
    30
 10
-343.23622186206012
 20
-682.81387529522613
 30
0.0
 11
-573.76377844259332
 21
-609.18612470479047
 31
0.0
  0
CIRCLE
  8
SIZE
  6
CONTINUOUS
 62
    30
 10
-343.23622186206012
 20
-682.81387529522613
 30
0.0
 40
6.0
  0
LINE
  8
SIZE
  6
CONTINUOUS
 62
    30
 10
-343.23622186206012
 20
-682.81387529522613
 30
0.0
 11
-331.80510335393433
 21
-686.46483813442137
 31
0.0
  0
CIRCLE
  8
SIZE
  6
CONTINUOUS
 62
    30
 10
-573.76377844259332
 20
-609.18612470479047
 30
0.0
 40
6.0
  0
LINE
  8
SIZE
  6
CONTINUOUS
 62
    30
 10
-573.76377844259332
 20
-609.18612470479047
 30
0.0
 11
-585.19489695071911
 21
-605.53516186559523
 31
0.0
  0
POINT
  8
DEFPOINTS
  6
CONTINUOUS
 62
    30
 10
-573.76377844259332
 20
-609.18612470479047
 30
0.0
  0
POINT
  8
DEFPOINTS
  6
CONTINUOUS
 62
    30
 10
-343.23622186206012
 20
-682.81387529522613
 30
0.0
  0
LINE
  8
SIZE
  6
CONTINUOUS
 62
    30
 10
-997.28606674092293
 20
-792.22520454462847
 30
0.0
 11
-594.57752786522815
 21
-682.93110412029921
 31
0.0
  0
LINE
  8
SIZE
  6
CONTINUOUS
 62
    30
 10
-322.42247243941631
 20
-609.06889587971591
 30
0.0
 11
-310.84140625108409
 21
-605.92582318862731
 31
0.0
  0
TEXT
  8
SIZE
  6
CONTINUOUS
 62
    30
 10
-993.98802266990594
 20
-765.42577285099844
 30
0.0
 40
64.0
  1
φ258
 50
15.184180437030932
 41
0.9
 51
0.0
  7
STANDARD
 71
     0
 72
     1
 11
-883.08773285043605
 21
-735.32770876113398
 31
0.0
210
0.0
220
0.0
230
1.0
  0
LINE
  8
SIZE
  6
CONTINUOUS
 62
    30
 10
-334.00353862774858
 20
-612.21196857080452
 30
0.0
 11
-582.99646167689593
 21
-679.7880314292106
 31
0.0
  0
CIRCLE
  8
SIZE
  6
CONTINUOUS
 62
    30
 10
-334.00353862774858
 20
-612.21196857080452
 30
0.0
 40
6.0
  0
LINE
  8
SIZE
  6
CONTINUOUS
 62
    30
 10
-334.00353862774858
 20
-612.21196857080452
 30
0.0
 11
-322.42247243941631
 21
-609.06889587971591
 31
0.0
  0
CIRCLE
  8
SIZE
  6
CONTINUOUS
 62
    30
 10
-582.99646167689593
 20
-679.7880314292106
 30
0.0
 40
6.0
  0
LINE
  8
SIZE
  6
CONTINUOUS
 62
    30
 10
-582.99646167689593
 20
-679.7880314292106
 30
0.0
 11
-594.57752786522815
 21
-682.93110412029921
 31
0.0
  0
POINT
  8
DEFPOINTS
  6
CONTINUOUS
 62
    30
 10
-582.99646167689593
 20
-679.7880314292106
 30
0.0
  0
POINT
  8
DEFPOINTS
  6
CONTINUOUS
 62
    30
 10
-334.00353862774858
 20
-612.21196857080452
 30
0.0
  0
LINE
  8
SIZE
  6
CONTINUOUS
 62
    30
 10
-977.34178976995872
 20
-76.288123996058516
 30
0.0
 11
-585.19489709052482
 21
-201.53516186560361
 31
0.0
  0
LINE
  8
SIZE
  6
CONTINUOUS
 62
    30
 10
-331.80510349373998
 20
-282.46483813442973
 30
0.0
 11
-320.37398498561419
 21
-286.11580097362491
 31
0.0
  0
TEXT
  8
SIZE
  6
CONTINUOUS
 62
    30
 10
-960.5656827888788
 20
-55.402061389324118
 30
0.0
 40
64.0
  1
φ242
 50
342.28713845070803
 41
0.9
 51
0.0
  7
STANDARD
 71
     0
 72
     1
 11
-850.55259826667634
 21
-90.538927753738903
 31
0.0
210
0.0
220
0.0
230
1.0
  0
LINE
  8
SIZE
  6
CONTINUOUS
 62
    30
 10
-343.23622200186583
 20
-278.81387529523448
 30
0.0
 11
-573.76377858239903
 21
-205.1861247047988
 31
0.0
  0
CIRCLE
  8
SIZE
  6
CONTINUOUS
 62
    30
 10
-343.23622200186583
 20
-278.81387529523448
 30
0.0
 40
6.0
  0
LINE
  8
SIZE
  6
CONTINUOUS
 62
    30
 10
-343.23622200186583
 20
-278.81387529523448
 30
0.0
 11
-331.80510349374003
 21
-282.46483813442973
 31
0.0
  0
CIRCLE
  8
SIZE
  6
CONTINUOUS
 62
    30
 10
-573.76377858239903
 20
-205.1861247047988
 30
0.0
 40
6.0
  0
LINE
  8
SIZE
  6
CONTINUOUS
 62
    30
 10
-573.76377858239903
 20
-205.1861247047988
 30
0.0
 11
-585.19489709052482
 21
-201.53516186560358
 31
0.0
  0
POINT
  8
DEFPOINTS
  6
CONTINUOUS
 62
    30
 10
-573.76377858239903
 20
-205.1861247047988
 30
0.0
  0
POINT
  8
DEFPOINTS
  6
CONTINUOUS
 62
    30
 10
-343.23622200186583
 20
-278.81387529523448
 30
0.0
  0
LINE
  8
SIZE
  6
CONTINUOUS
 62
    30
 10
-997.28606688072648
 20
-388.22520454463711
 30
0.0
 11
-594.57752800503192
 21
-278.93110412030842
 31
0.0
  0
LINE
  8
SIZE
  6
CONTINUOUS
 62
    30
 10
-322.42247257922043
 20
-205.06889587972549
 30
0.0
 11
-310.8414063908881
 21
-201.92582318863691
 31
0.0
  0
TEXT
  8
SIZE
  6
CONTINUOUS
 62
    30
 10
-993.98802280970961
 20
-361.42577285100703
 30
0.0
 40
64.0
  1
φ258
 50
15.184180437030875
 41
0.9
 51
0.0
  7
STANDARD
 71
     0
 72
     1
 11
-883.08773299023972
 21
-331.32770876114262
 31
0.0
210
0.0
220
0.0
230
1.0
  0
LINE
  8
SIZE
  6
CONTINUOUS
 62
    30
 10
-334.0035387675527
 20
-208.21196857081409
 30
0.0
 11
-582.99646181669971
 21
-275.78803142921981
 31
0.0
  0
CIRCLE
  8
SIZE
  6
CONTINUOUS
 62
    30
 10
-334.0035387675527
 20
-208.21196857081409
 30
0.0
 40
6.0
  0
LINE
  8
SIZE
  6
CONTINUOUS
 62
    30
 10
-334.0035387675527
 20
-208.21196857081409
 30
0.0
 11
-322.42247257922043
 21
-205.06889587972549
 31
0.0
  0
CIRCLE
  8
SIZE
  6
CONTINUOUS
 62
    30
 10
-582.99646181669971
 20
-275.78803142921981
 30
0.0
 40
6.0
  0
LINE
  8
SIZE
  6
CONTINUOUS
 62
    30
 10
-582.99646181669971
 20
-275.78803142921981
 30
0.0
 11
-594.57752800503204
 21
-278.93110412030842
 31
0.0
  0
POINT
  8
DEFPOINTS
  6
CONTINUOUS
 62
    30
 10
-582.99646181669971
 20
-275.78803142921981
 30
0.0
  0
POINT
  8
DEFPOINTS
  6
CONTINUOUS
 62
    30
 10
-334.0035387675527
 20
-208.21196857081409
 30
0.0
  0
TEXT
  8
ETC
  6
CONTINUOUS
 62
    61
 10
1100.516734213925
 20
779.09322688715383
 30
0.0
 40
64.065641025638456
  1
LGH-200RVX3-E_2
 41
0.9
  0
TEXT
  8
ETC
  6
CONTINUOUS
 62
    61
 10
1096.326446886746
 20
661.01693706718379
 30
0.0
 40
64.065641025638456
  1
LOSSNAY
 41
0.9
  0
TEXT
  8
ETC
  6
CONTINUOUS
 62
    61
 10
1147.079846569399
 20
552.75724236261715
 30
0.0
 40
40.041025641024042
  1
LGH-200RVX3-E
 50
0.0
 41
0.9
 51
0.0
  7
STANDARD
 71
     0
 11
0.0
 21
0.0
 31
0.0
210
0.0
220
0.0
230
1.0
  0
TEXT
  8
NOTE
  6
CONTINUOUS
 62
     4
 10
-502.00078330774159
 20
-1001.5879117508994
 30
0.0
 40
69.0
  1
Power supply
 50
0.0
 41
0.9
 51
0.0
  7
STANDARD
 71
     0
 11
0.0
 21
0.0
 31
0.0
210
0.0
220
0.0
230
1.0
  0
TEXT
  8
NOTE
  6
CONTINUOUS
 62
     4
 10
-502.00078330774159
 20
-1115.4379117508993
 30
0.0
 40
69.0
  1
cable opening
 50
0.0
 41
0.9
 51
0.0
  7
STANDARD
 71
     0
 11
0.0
 21
0.0
 31
0.0
210
0.0
220
0.0
230
1.0
  0
LINE
  8
NOTE
  6
CONTINUOUS
 62
     4
 10
-512.00078330774159
 20
-1139.5879117508989
 30
0.0
 11
139.69921669225849
 21
-1139.5879117508989
 31
0.0
  0
LINE
  8
NOTE
  6
CONTINUOUS
 62
     4
 10
-695.92653876384225
 20
-704.90803582714443
 30
0.0
 11
-699.49999999998363
 21
-668.84999999799402
 31
0.0
  0
LINE
  8
NOTE
  6
CONTINUOUS
 62
     4
 10
-699.49999999998363
 20
-668.84999999799402
 30
0.0
 11
-678.3762295104018
 21
-698.29041258623693
 31
0.0
  0
LINE
  8
NOTE
  6
CONTINUOUS
 62
     4
 10
-699.49999999998363
 20
-668.84999999799402
 30
0.0
 11
-674.80276827426042
 21
-734.34844841538734
 31
0.0
  0
LINE
  8
NOTE
  6
CONTINUOUS
 62
     4
 10
-674.80276827426042
 20
-734.34844841538734
 30
0.0
 11
-522.00078330774159
 21
-1139.5879117508989
 31
0.0
  0
LINE
  8
NOTE
  6
CONTINUOUS
 62
     4
 10
-522.00078330774159
 20
-1139.5879117508989
 30
0.0
 11
-512.00078330774159
 21
-1139.5879117508989
 31
0.0
  0
TEXT
  8
NOTE
  6
CONTINUOUS
 62
     4
 10
777.50888520892659
 20
346.22969861754967
 30
0.0
 40
69.0
  1
Ceiling suspension fixture
 50
0.0
 41
0.9
 51
0.0
  7
STANDARD
 71
     0
 11
0.0
 21
0.0
 31
0.0
210
0.0
220
0.0
230
1.0
  0
TEXT
  8
NOTE
  6
CONTINUOUS
 62
     4
 10
777.50888520892659
 20
232.37969861754968
 30
0.0
 40
69.0
  1
(4-15X30 oval)
 50
0.0
 41
0.9
 51
0.0
  7
STANDARD
 71
     0
 11
0.0
 21
0.0
 31
0.0
210
0.0
220
0.0
230
1.0
  0
LINE
  8
NOTE
  6
CONTINUOUS
 62
     4
 10
767.50888520892659
 20
195.08684147469239
 30
0.0
 11
1984.0231709232121
 21
195.08684147469239
 31
0.0
  0
LINE
  8
NOTE
  6
CONTINUOUS
 62
     4
 10
652.14828257016552
 20
-371.56259667853811
 30
0.0
 11
636.00001221721504
 21
-403.99999697003068
 31
0.0
  0
LINE
  8
NOTE
  6
CONTINUOUS
 62
     4
 10
636.00001221721504
 20
-403.99999697003068
 30
0.0
 11
633.76606992455834
 21
-367.83425247478243
 31
0.0
  0
LINE
  8
NOTE
  6
CONTINUOUS
 62
     4
 10
636.00001221721504
 20
-403.99999697003068
 30
0.0
 11
649.9143402775087
 21
-335.39685218328987
 31
0.0
  0
LINE
  8
NOTE
  6
CONTINUOUS
 62
     4
 10
649.91434027750881
 20
-335.39685218328992
 30
0.0
 11
757.50888520892659
 21
195.08684147469239
 31
0.0
  0
LINE
  8
NOTE
  6
CONTINUOUS
 62
     4
 10
757.50888520892659
 20
195.08684147469239
 30
0.0
 11
767.50888520892659
 21
195.08684147469239
 31
0.0
  0
ENDSEC
  0
EOF
