  0
SECTION
  2
HEADER
  9
$ACADVER
  1
AC1015
  9
$ACADMAINTVER
 70
    20
  9
$DWGCODEPAGE
  3
ANSI_932
  9
$INSBASE
 10
0.0
 20
0.0
 30
0.0
  9
$EXTMIN
 10
-1123.126467430334
 20
-782.3361056521898
 30
-0.0000000349181948
  9
$EXTMAX
 10
1085.017039856698
 20
596.4993476388809
 30
0.0000000814935747
  9
$LIMMIN
 10
-4267.152221060483
 20
-2696.083210198413
  9
$LIMMAX
 10
7190.717422586465
 20
5141.155363923066
  9
$ORTHOMODE
 70
     0
  9
$REGENMODE
 70
     1
  9
$FILLMODE
 70
     1
  9
$QTEXTMODE
 70
     0
  9
$MIRRTEXT
 70
     0
  9
$LTSCALE
 40
20.0
  9
$ATTMODE
 70
     1
  9
$TEXTSIZE
 40
53.0
  9
$TRACEWID
 40
0.05
  9
$TEXTSTYLE
  7
kaigai_standard_1
  9
$CLAYER
  8
NOTE
  9
$CELTYPE
  6
BYLAYER
  9
$CECOLOR
 62
   256
  9
$CELTSCALE
 40
1.0
  9
$DISPSILH
 70
     0
  9
$DIMSCALE
 40
1.0
  9
$DIMASZ
 40
30.0
  9
$DIMEXO
 40
20.0
  9
$DIMDLI
 40
80.0
  9
$DIMRND
 40
0.0
  9
$DIMDLE
 40
0.0
  9
$DIMEXE
 40
20.0
  9
$DIMTP
 40
0.0
  9
$DIMTM
 40
0.0
  9
$DIMTXT
 40
40.0
  9
$DIMCEN
 40
0.09
  9
$DIMTSZ
 40
0.0
  9
$DIMTOL
 70
     0
  9
$DIMLIM
 70
     0
  9
$DIMTIH
 70
     0
  9
$DIMTOH
 70
     0
  9
$DIMSE1
 70
     0
  9
$DIMSE2
 70
     0
  9
$DIMTAD
 70
     1
  9
$DIMZIN
 70
     8
  9
$DIMBLK
  1
Small
  9
$DIMASO
 70
     1
  9
$DIMSHO
 70
     0
  9
$DIMPOST
  1

  9
$DIMAPOST
  1

  9
$DIMALT
 70
     0
  9
$DIMALTD
 70
     2
  9
$DIMALTF
 40
25.4
  9
$DIMLFAC
 40
1.0
  9
$DIMTOFL
 70
     1
  9
$DIMTVP
 40
0.0
  9
$DIMTIX
 70
     0
  9
$DIMSOXD
 70
     0
  9
$DIMSAH
 70
     0
  9
$DIMBLK1
  1

  9
$DIMBLK2
  1

  9
$DIMSTYLE
  2
kaigai_CADSYMBOL
  9
$DIMCLRD
 70
     0
  9
$DIMCLRE
 70
     0
  9
$DIMCLRT
 70
     0
  9
$DIMTFAC
 40
1.0
  9
$DIMGAP
 40
20.0
  9
$DIMJUST
 70
     0
  9
$DIMSD1
 70
     0
  9
$DIMSD2
 70
     0
  9
$DIMTOLJ
 70
     1
  9
$DIMTZIN
 70
     0
  9
$DIMALTZ
 70
     0
  9
$DIMALTTZ
 70
     0
  9
$DIMUPT
 70
     0
  9
$DIMDEC
 70
     1
  9
$DIMTDEC
 70
     1
  9
$DIMALTU
 70
     2
  9
$DIMALTTD
 70
     2
  9
$DIMTXSTY
  7
STANDARD
  9
$DIMAUNIT
 70
     0
  9
$DIMADEC
 70
     0
  9
$DIMALTRND
 40
0.0
  9
$DIMAZIN
 70
     2
  9
$DIMDSEP
 70
    46
  9
$DIMATFIT
 70
     3
  9
$DIMFRAC
 70
     0
  9
$DIMLDRBLK
  1
Open30
  9
$DIMLUNIT
 70
     2
  9
$DIMLWD
 70
    -2
  9
$DIMLWE
 70
    -2
  9
$DIMTMOVE
 70
     0
  9
$LUNITS
 70
     2
  9
$LUPREC
 70
     4
  9
$SKETCHINC
 40
0.1
  9
$FILLETRAD
 40
0.0
  9
$AUNITS
 70
     1
  9
$AUPREC
 70
     3
  9
$MENU
  1
ACAD
  9
$ELEVATION
 40
0.0
  9
$PELEVATION
 40
0.0
  9
$THICKNESS
 40
0.0
  9
$LIMCHECK
 70
     0
  9
$CHAMFERA
 40
0.0
  9
$CHAMFERB
 40
0.0
  9
$CHAMFERC
 40
0.0
  9
$CHAMFERD
 40
0.0
  9
$SKPOLY
 70
     0
  9
$TDCREATE
 40
2455902.607164352
  9
$TDUCREATE
 40
2455902.232169063
  9
$TDUPDATE
 40
2460202.638483796
  9
$TDUUPDATE
 40
2460202.263483797
  9
$TDINDWG
 40
1.6432014005
  9
$TDUSRTIMER
 40
1.6431977894
  9
$USRTIMER
 70
     1
  9
$ANGBASE
 50
0.0
  9
$ANGDIR
 70
     0
  9
$PDMODE
 70
     3
  9
$PDSIZE
 40
-2.0
  9
$PLINEWID
 40
0.0
  9
$SPLFRAME
 70
     0
  9
$SPLINETYPE
 70
     6
  9
$SPLINESEGS
 70
     8
  9
$HANDSEED
  5
9960B
  9
$SURFTAB1
 70
     6
  9
$SURFTAB2
 70
     6
  9
$SURFTYPE
 70
     6
  9
$SURFU
 70
     6
  9
$SURFV
 70
     6
  9
$UCSBASE
  2

  9
$UCSNAME
  2

  9
$UCSORG
 10
0.0
 20
0.0
 30
0.0
  9
$UCSXDIR
 10
1.0
 20
0.0
 30
0.0
  9
$UCSYDIR
 10
0.0
 20
1.0
 30
0.0
  9
$UCSORTHOREF
  2

  9
$UCSORTHOVIEW
 70
     0
  9
$UCSORGTOP
 10
0.0
 20
0.0
 30
0.0
  9
$UCSORGBOTTOM
 10
0.0
 20
0.0
 30
0.0
  9
$UCSORGLEFT
 10
0.0
 20
0.0
 30
0.0
  9
$UCSORGRIGHT
 10
0.0
 20
0.0
 30
0.0
  9
$UCSORGFRONT
 10
0.0
 20
0.0
 30
0.0
  9
$UCSORGBACK
 10
0.0
 20
0.0
 30
0.0
  9
$PUCSBASE
  2

  9
$PUCSNAME
  2

  9
$PUCSORG
 10
0.0
 20
0.0
 30
0.0
  9
$PUCSXDIR
 10
1.0
 20
0.0
 30
0.0
  9
$PUCSYDIR
 10
0.0
 20
1.0
 30
0.0
  9
$PUCSORTHOREF
  2

  9
$PUCSORTHOVIEW
 70
     0
  9
$PUCSORGTOP
 10
0.0
 20
0.0
 30
0.0
  9
$PUCSORGBOTTOM
 10
0.0
 20
0.0
 30
0.0
  9
$PUCSORGLEFT
 10
0.0
 20
0.0
 30
0.0
  9
$PUCSORGRIGHT
 10
0.0
 20
0.0
 30
0.0
  9
$PUCSORGFRONT
 10
0.0
 20
0.0
 30
0.0
  9
$PUCSORGBACK
 10
0.0
 20
0.0
 30
0.0
  9
$USERI1
 70
     0
  9
$USERI2
 70
     0
  9
$USERI3
 70
     0
  9
$USERI4
 70
     0
  9
$USERI5
 70
     0
  9
$USERR1
 40
20.0
  9
$USERR2
 40
0.0
  9
$USERR3
 40
0.0
  9
$USERR4
 40
0.0
  9
$USERR5
 40
0.0
  9
$WORLDVIEW
 70
     1
  9
$SHADEDGE
 70
     3
  9
$SHADEDIF
 70
    70
  9
$TILEMODE
 70
     1
  9
$MAXACTVP
 70
    48
  9
$PINSBASE
 10
0.0
 20
0.0
 30
0.0
  9
$PLIMCHECK
 70
     0
  9
$PEXTMIN
 10
1.000000000000000E+20
 20
1.000000000000000E+20
 30
1.000000000000000E+20
  9
$PEXTMAX
 10
-1.000000000000000E+20
 20
-1.000000000000000E+20
 30
-1.000000000000000E+20
  9
$PLIMMIN
 10
0.0
 20
0.0
  9
$PLIMMAX
 10
12.0
 20
9.0
  9
$UNITMODE
 70
     0
  9
$VISRETAIN
 70
     1
  9
$PLINEGEN
 70
     0
  9
$PSLTSCALE
 70
     1
  9
$TREEDEPTH
 70
  3020
  9
$CMLSTYLE
  2
STANDARD
  9
$CMLJUST
 70
     0
  9
$CMLSCALE
 40
1.0
  9
$PROXYGRAPHICS
 70
     1
  9
$MEASUREMENT
 70
     0
  9
$CELWEIGHT
370
    -1
  9
$ENDCAPS
280
     0
  9
$JOINSTYLE
280
     0
  9
$LWDISPLAY
290
     0
  9
$INSUNITS
 70
     0
  9
$HYPERLINKBASE
  1

  9
$STYLESHEET
  1
MONOCHROME.CTB
  9
$XEDIT
290
     1
  9
$CEPSNTYPE
380
     0
  9
$PSTYLEMODE
290
     1
  9
$FINGERPRINTGUID
  2
{E0B14F79-3871-45BD-B89A-A0F693FE2771}
  9
$VERSIONGUID
  2
{B01A1D08-C133-D542-A236-2A59147BFDCD}
  9
$EXTNAMES
290
     1
  9
$PSVPSCALE
 40
0.0
  9
$OLESTARTUP
290
     0
  0
ENDSEC
  0
SECTION
  2
CLASSES
  0
CLASS
  1
ACDBDICTIONARYWDFLT
  2
AcDbDictionaryWithDefault
  3
ObjectDBX Classes
 90
        0
280
     0
281
     0
  0
CLASS
  1
ACDBPLACEHOLDER
  2
AcDbPlaceHolder
  3
ObjectDBX Classes
 90
        0
280
     0
281
     0
  0
CLASS
  1
LAYOUT
  2
AcDbLayout
  3
ObjectDBX Classes
 90
        0
280
     0
281
     0
  0
CLASS
  1
DICTIONARYVAR
  2
AcDbDictionaryVar
  3
ObjectDBX Classes
 90
        0
280
     0
281
     0
  0
CLASS
  1
SORTENTSTABLE
  2
AcDbSortentsTable
  3
ObjectDBX Classes
 90
        0
280
     0
281
     0
  0
CLASS
  1
MATERIAL
  2
AcDbMaterial
  3
ObjectDBX Classes
 90
     1153
280
     0
281
     0
  0
CLASS
  1
VISUALSTYLE
  2
AcDbVisualStyle
  3
ObjectDBX Classes
 90
     4095
280
     0
281
     0
  0
CLASS
  1
TABLESTYLE
  2
AcDbTableStyle
  3
ObjectDBX Classes
 90
     4095
280
     0
281
     0
  0
CLASS
  1
SCALE
  2
AcDbScale
  3
ObjectDBX Classes
 90
     1153
280
     0
281
     0
  0
CLASS
  1
MLEADERSTYLE
  2
AcDbMLeaderStyle
  3
ACDB_MLEADERSTYLE_CLASS
 90
     4095
280
     0
281
     0
  0
CLASS
  1
CELLSTYLEMAP
  2
AcDbCellStyleMap
  3
ObjectDBX Classes
 90
     1152
280
     0
281
     0
  0
CLASS
  1
ACARRAYJIGENTITY
  2
AcArrayJigEntity
  3
ACAD_ARRAY
 90
    32897
280
     0
281
     1
  0
CLASS
  1
ACDBASSOCNETWORK
  2
AcDbAssocNetwork
  3
ObjectDBX Classes
 90
    33793
280
     0
281
     0
  0
CLASS
  1
ACDBASSOCACTION
  2
AcDbAssocAction
  3
ObjectDBX Classes
 90
    33793
280
     0
281
     0
  0
CLASS
  1
ACDBASSOCARRAYACTIONBODY
  2
AcDbAssocArrayActionBody
  3
ObjectDBX Classes
 90
    33793
280
     0
281
     0
  0
CLASS
  1
ACDBASSOCVERTEXACTIONPARAM
  2
AcDbAssocVertexActionParam
  3
ObjectDBX Classes
 90
    33793
280
     0
281
     0
  0
CLASS
  1
ACDBASSOCDEPENDENCY
  2
AcDbAssocDependency
  3
ObjectDBX Classes
 90
    33793
280
     0
281
     0
  0
CLASS
  1
ACDBASSOCARRAYRECTANGULARPARAMETERS
  2
AcDbAssocArrayRectangularParameters
  3
ObjectDBX Classes
 90
    33793
280
     0
281
     0
  0
CLASS
  1
ACAD_EVALUATION_GRAPH
  2
AcDbEvalGraph
  3
ObjectDBX Classes
 90
    33921
280
     0
281
     0
  0
CLASS
  1
ACAECUSTOBJ
  2
AcAeEditorObj
  3
AcAeEditorObj
 90
    33792
280
     0
281
     0
  0
CLASS
  1
ACDB_DYNAMICBLOCKPURGEPREVENTER_VERSION
  2
AcDbDynamicBlockPurgePreventer
  3
ObjectDBX Classes
 90
    33921
280
     0
281
     0
  0
CLASS
  1
ACDBSECTIONVIEWSTYLE
  2
AcDbSectionViewStyle
  3
ObjectDBX Classes
 90
     1025
280
     0
281
     0
  0
CLASS
  1
ACDBDETAILVIEWSTYLE
  2
AcDbDetailViewStyle
  3
ObjectDBX Classes
 90
     1025
280
     0
281
     0
  0
ENDSEC
  0
SECTION
  2
TABLES
  0
TABLE
  2
VPORT
  5
8
102
{ACAD_XDICTIONARY
360
70D15
102
}
330
0
100
AcDbSymbolTable
 70
     1
  0
VPORT
  5
513CD
330
8
100
AcDbSymbolTableRecord
100
AcDbViewportTableRecord
  2
*Active
 70
     0
 10
0.0
 20
0.0
 11
1.0
 21
1.0
 12
-19.0547137868179
 22
-92.9183790066545
 13
0.0
 23
0.0
 14
50.0
 24
50.0
 15
100.0
 25
100.0
 16
0.0
 26
0.0
 36
1.0
 17
0.0
 27
0.0
 37
0.0
 40
1390.106587786638
 41
2.151432469304229
 42
50.0
 43
0.0
 44
0.0
 50
0.0
 51
0.0
 71
     0
 72
  1000
 73
     1
 74
     0
 75
     0
 76
     0
 77
     0
 78
     0
281
     0
 65
     1
110
0.0
120
0.0
130
0.0
111
1.0
121
0.0
131
0.0
112
0.0
122
1.0
132
0.0
 79
     0
146
0.0
1001
ACAD_NAV_VCDISPLAY
1070
     3
  0
ENDTAB
  0
TABLE
  2
LTYPE
  5
5
330
0
100
AcDbSymbolTable
 70
     3
  0
LTYPE
  5
12
330
5
100
AcDbSymbolTableRecord
100
AcDbLinetypeTableRecord
  2
BYBLOCK
 70
     0
  3

 72
    65
 73
     0
 40
0.0
  0
LTYPE
  5
13
330
5
100
AcDbSymbolTableRecord
100
AcDbLinetypeTableRecord
  2
BYLAYER
 70
     0
  3

 72
    65
 73
     0
 40
0.0
  0
LTYPE
  5
14
330
5
100
AcDbSymbolTableRecord
100
AcDbLinetypeTableRecord
  2
CONTINUOUS
 70
     0
  3
実線
 72
    65
 73
     0
 40
0.0
  0
LTYPE
  5
1F
330
5
100
AcDbSymbolTableRecord
100
AcDbLinetypeTableRecord
  2
DASHDOT
 70
     0
  3
____ _ ____ _ ____ _ ____ _ ____ _ ____ _ ____
 72
    65
 73
     4
 40
5.5
 49
4.0
 74
     0
 49
-0.6
 74
     0
 49
0.3
 74
     0
 49
-0.6
 74
     0
  0
ENDTAB
  0
TABLE
  2
LAYER
  5
2
102
{ACAD_XDICTIONARY
360
5148D
102
}
330
0
100
AcDbSymbolTable
 70
    12
  0
LAYER
  5
E
102
{ACAD_XDICTIONARY
360
5144C
102
}
330
2
100
AcDbSymbolTableRecord
100
AcDbLayerTableRecord
  2
0
 70
     0
 62
     7
  6
CONTINUOUS
370
    -3
390
21F0
  0
LAYER
  5
25
102
{ACAD_XDICTIONARY
360
5144E
102
}
330
2
100
AcDbSymbolTableRecord
100
AcDbLayerTableRecord
  2
OUTLINE
 70
     0
 62
     3
  6
CONTINUOUS
370
    -3
390
21F0
  0
LAYER
  5
26
102
{ACAD_XDICTIONARY
360
51450
102
}
330
2
100
AcDbSymbolTableRecord
100
AcDbLayerTableRecord
  2
DETAIL
 70
     0
 62
     5
  6
CONTINUOUS
370
    -3
390
21F0
  0
LAYER
  5
27
102
{ACAD_XDICTIONARY
360
51452
102
}
330
2
100
AcDbSymbolTableRecord
100
AcDbLayerTableRecord
  2
BASIS
 70
     0
 62
     6
  6
DASHDOT
370
    -3
390
21F0
  0
LAYER
  5
28
102
{ACAD_XDICTIONARY
360
51454
102
}
330
2
100
AcDbSymbolTableRecord
100
AcDbLayerTableRecord
  2
SIZE
 70
     0
 62
    30
  6
CONTINUOUS
370
    -3
390
21F0
  0
LAYER
  5
29
102
{ACAD_XDICTIONARY
360
51456
102
}
330
2
100
AcDbSymbolTableRecord
100
AcDbLayerTableRecord
  2
NOTE
 70
     0
 62
     4
  6
CONTINUOUS
370
    -3
390
21F0
  0
LAYER
  5
2A
330
2
100
AcDbSymbolTableRecord
100
AcDbLayerTableRecord
  2
DEFPOINTS
 70
     0
 62
     7
  6
CONTINUOUS
290
     0
370
    -3
390
21F0
  0
LAYER
  5
2B
102
{ACAD_XDICTIONARY
360
51458
102
}
330
2
100
AcDbSymbolTableRecord
100
AcDbLayerTableRecord
  2
FIX
 70
     0
 62
    11
  6
CONTINUOUS
370
    -3
390
21F0
  0
LAYER
  5
2C
102
{ACAD_XDICTIONARY
360
5145A
102
}
330
2
100
AcDbSymbolTableRecord
100
AcDbLayerTableRecord
  2
ARRANGE
 70
     0
 62
     1
  6
CONTINUOUS
370
    -3
390
21F0
  0
LAYER
  5
2D
102
{ACAD_XDICTIONARY
360
5145C
102
}
330
2
100
AcDbSymbolTableRecord
100
AcDbLayerTableRecord
  2
ETC
 70
     0
 62
    61
  6
CONTINUOUS
370
    -3
390
21F0
  0
LAYER
  5
85433
102
{ACAD_XDICTIONARY
360
85434
102
}
330
2
100
AcDbSymbolTableRecord
100
AcDbLayerTableRecord
  2
SERVICESPACE
 70
     0
 62
     2
  6
DASHDOT
370
    -3
390
21F0
  0
LAYER
  5
85435
102
{ACAD_XDICTIONARY
360
85436
102
}
330
2
100
AcDbSymbolTableRecord
100
AcDbLayerTableRecord
  2
SYMBOLLINE
 70
     0
 62
    15
  6
CONTINUOUS
370
    -3
390
21F0
  0
ENDTAB
  0
TABLE
  2
STYLE
  5
3
330
0
100
AcDbSymbolTable
 70
     6
  0
STYLE
  5
F
330
3
100
AcDbSymbolTableRecord
100
AcDbTextStyleTableRecord
  2
STANDARD
 70
     0
 40
0.0
 41
0.9
 50
0.0
 71
     0
 42
64.0
  3
SIMPLEX
  4
BIGFONT
  0
STYLE
  5
30
330
3
100
AcDbSymbolTableRecord
100
AcDbTextStyleTableRecord
  2
STANDARD1
 70
     0
 40
60.0
 41
0.7
 50
0.0
 71
     0
 42
60.0
  3
MONOTXT.shx
  4
BIGFONT.shx
  0
STYLE
  5
51425
330
3
100
AcDbSymbolTableRecord
100
AcDbTextStyleTableRecord
  2
STANDARD_MODELNAME
 70
     0
 40
80.0
 41
0.8
 50
0.0
 71
     0
 42
64.0
  3
MONOTXT.shx
  4
BIGFONT.shx
  0
STYLE
  5
6FACE
330
3
100
AcDbSymbolTableRecord
100
AcDbTextStyleTableRecord
  2
kaigai_standard_1
 70
     0
 40
53.0
 41
0.51
 50
0.0
 71
     0
 42
53.0
  3
MONOTXT.shx
  4
BIGFONT.shx
  0
STYLE
  5
73585
330
3
100
AcDbSymbolTableRecord
100
AcDbTextStyleTableRecord
  2
ZU_SHPTB00001
 70
     0
 40
0.0
 41
1.0
 50
0.0
 71
     0
 42
0.0
  3
monotxt
  4
bigfont
  0
STYLE
  5
9924D
330
3
100
AcDbSymbolTableRecord
100
AcDbTextStyleTableRecord
  2
note
 70
     0
 40
0.0
 41
0.7
 50
0.0
 71
     0
 42
64.0
  3
SIMPLEX.shx
  4
BIGFONT.shx
  0
ENDTAB
  0
TABLE
  2
VIEW
  5
6
330
0
100
AcDbSymbolTable
 70
     1
  0
VIEW
  5
31
330
6
100
AcDbSymbolTableRecord
100
AcDbViewTableRecord
  2
ALL
 70
     0
 40
9000.0
 10
241.506647
 20
0.0
 41
12483.01
 11
0.0
 21
0.0
 31
1.0
 12
0.0
 22
0.0
 32
0.0
 42
50.0
 43
0.0
 44
0.0
 50
0.0
 71
     0
281
     0
 72
     0
  0
ENDTAB
  0
TABLE
  2
UCS
  5
7
330
0
100
AcDbSymbolTable
 70
     0
  0
ENDTAB
  0
TABLE
  2
APPID
  5
9
330
0
100
AcDbSymbolTable
 70
    17
  0
APPID
  5
10
330
9
100
AcDbSymbolTableRecord
100
AcDbRegAppTableRecord
  2
ACAD
 70
     0
  0
APPID
  5
51420
330
9
100
AcDbSymbolTableRecord
100
AcDbRegAppTableRecord
  2
ACAD_MLEADERVER
 70
     0
  0
APPID
  5
51424
330
9
100
AcDbSymbolTableRecord
100
AcDbRegAppTableRecord
  2
AcadAnnoPO
 70
     0
  0
APPID
  5
6B6C8
330
9
100
AcDbSymbolTableRecord
100
AcDbRegAppTableRecord
  2
ACAD_PSEXT
 70
     0
  0
APPID
  5
6CFAF
330
9
100
AcDbSymbolTableRecord
100
AcDbRegAppTableRecord
  2
ACAD_EXEMPT_FROM_CAD_STANDARDS
 70
     0
  0
APPID
  5
6E4A4
330
9
100
AcDbSymbolTableRecord
100
AcDbRegAppTableRecord
  2
ACAD_DSTYLE_DIMJAG
 70
     0
  0
APPID
  5
6E4A5
330
9
100
AcDbSymbolTableRecord
100
AcDbRegAppTableRecord
  2
ACAD_DSTYLE_DIMTALN
 70
     0
  0
APPID
  5
6EF6C
330
9
100
AcDbSymbolTableRecord
100
AcDbRegAppTableRecord
  2
ACAD_DSTYLE_DIMBREAK
 70
     0
  0
APPID
  5
70D0F
330
9
100
AcDbSymbolTableRecord
100
AcDbRegAppTableRecord
  2
ACAD_NAV_VCDISPLAY
 70
     0
  0
APPID
  5
990C9
330
9
100
AcDbSymbolTableRecord
100
AcDbRegAppTableRecord
  2
ACAUTHENVIRON
 70
     0
  0
APPID
  5
990CD
330
9
100
AcDbSymbolTableRecord
100
AcDbRegAppTableRecord
  2
AcDbDynamicBlockTrueName
 70
     0
  0
APPID
  5
990CE
330
9
100
AcDbSymbolTableRecord
100
AcDbRegAppTableRecord
  2
AcDbDynamicBlockGUID
 70
     0
  0
APPID
  5
9924F
330
9
100
AcDbSymbolTableRecord
100
AcDbRegAppTableRecord
  2
AcLayerTools
 70
     0
  0
APPID
  5
995BB
330
9
100
AcDbSymbolTableRecord
100
AcDbRegAppTableRecord
  2
ACAD_DSTYLE_DIMARC_LENGTH_SYMBOL
 70
     0
  0
APPID
  5
995BC
330
9
100
AcDbSymbolTableRecord
100
AcDbRegAppTableRecord
  2
ACAD_DSTYLE_DIM_LINETYPE
 70
     0
  0
APPID
  5
995BD
330
9
100
AcDbSymbolTableRecord
100
AcDbRegAppTableRecord
  2
ACAD_DSTYLE_DIM_EXT1_LINETYPE
 70
     0
  0
APPID
  5
995BE
330
9
100
AcDbSymbolTableRecord
100
AcDbRegAppTableRecord
  2
ACAD_DSTYLE_DIM_EXT2_LINETYPE
 70
     0
  0
ENDTAB
  0
TABLE
  2
DIMSTYLE
  5
A
330
0
100
AcDbSymbolTable
 70
     4
100
AcDbDimStyleTable
 71
     2
340
6EF6D
340
138
  0
DIMSTYLE
105
138
330
A
100
AcDbSymbolTableRecord
100
AcDbDimStyleTableRecord
  2
STANDARD
 70
     0
 73
     0
 74
     0
 77
     1
140
40.0
147
15.0
340
F
1001
ACAD_DSTYLE_DIMJAG
1070
   388
1040
1.5
1001
ACAD_DSTYLE_DIMTALN
1070
   392
1070
     0
  0
DIMSTYLE
105
6EF6D
330
A
100
AcDbSymbolTableRecord
100
AcDbDimStyleTableRecord
  2
kaigai_CADSYMBOL
 70
     0
 41
30.0
 42
20.0
 43
80.0
 44
20.0
 73
     0
 74
     0
 77
     1
 78
     8
 79
     2
140
40.0
147
20.0
172
     1
271
     1
272
     1
340
F
341
4C0C3
342
4C0BF
1001
ACAD_DSTYLE_DIMBREAK
1070
   391
1040
0.125
1001
ACAD_DSTYLE_DIMJAG
1070
   388
1040
1.5
1001
ACAD_DSTYLE_DIMTALN
1070
   392
1070
     0
  0
DIMSTYLE
105
7FE04
330
A
100
AcDbSymbolTableRecord
100
AcDbDimStyleTableRecord
  2
CADSYMBOL
 70
     0
 41
30.0
 42
20.0
 43
80.0
 44
20.0
 73
     0
 74
     0
 77
     1
 78
     8
 79
     2
140
60.0
147
20.0
172
     1
271
     1
272
     1
340
F
341
4C0C3
342
4C0BF
  0
DIMSTYLE
105
9924E
330
A
100
AcDbSymbolTableRecord
100
AcDbDimStyleTableRecord
  2
AM_ANSI
 70
     0
  4
mm
 41
0.12
 42
0.05
 43
0.5
 44
0.1
 47
0.1
 48
0.1
 78
     7
 79
     2
140
0.12
141
0.0
146
0.71
147
0.06
176
   256
177
   256
178
     2
274
     4
284
     7
340
F
371
    -1
372
    -1
1001
ACAD_DSTYLE_DIMARC_LENGTH_SYMBOL
1070
   379
1070
     1
1001
ACAD_DSTYLE_DIM_LINETYPE
1070
   380
1005
12
1001
ACAD_DSTYLE_DIM_EXT1_LINETYPE
1070
   381
1005
12
1001
ACAD_DSTYLE_DIM_EXT2_LINETYPE
1070
   382
1005
12
  0
ENDTAB
  0
TABLE
  2
BLOCK_RECORD
  5
1
330
0
100
AcDbSymbolTable
 70
     3
  0
BLOCK_RECORD
  5
18
102
{ACAD_XDICTIONARY
360
28B3
102
}
330
1
100
AcDbSymbolTableRecord
100
AcDbBlockTableRecord
  2
*MODEL_SPACE
340
21F3
  0
BLOCK_RECORD
  5
15
102
{ACAD_XDICTIONARY
360
29B6
102
}
330
1
100
AcDbSymbolTableRecord
100
AcDbBlockTableRecord
  2
*PAPER_SPACE
340
21F4
  0
BLOCK_RECORD
  5
4C0BF
330
1
100
AcDbSymbolTableRecord
100
AcDbBlockTableRecord
  2
_Small
340
0
  0
BLOCK_RECORD
  5
4C0C3
102
{ACAD_XDICTIONARY
360
990CA
102
}
330
1
100
AcDbSymbolTableRecord
100
AcDbBlockTableRecord
  2
_Open30
340
0
1001
AcDbDynamicBlockGUID
1000
{CF3FF556-EE00-416E-9104-4A9DDFC40C99}
  0
BLOCK_RECORD
  5
99250
102
{ACAD_XDICTIONARY
360
993E0
102
}
330
1
100
AcDbSymbolTableRecord
100
AcDbBlockTableRecord
  2
block
340
0
  0
ENDTAB
  0
ENDSEC
  0
SECTION
  2
BLOCKS
  0
BLOCK
  5
19
330
18
100
AcDbEntity
  8
0
100
AcDbBlockBegin
  2
*MODEL_SPACE
 70
     0
 10
0.0
 20
0.0
 30
0.0
  3
*MODEL_SPACE
  1

  0
ENDBLK
  5
1A
330
18
100
AcDbEntity
  8
0
100
AcDbBlockEnd
  0
BLOCK
  5
16
330
15
100
AcDbEntity
 67
     1
  8
0
100
AcDbBlockBegin
  2
*PAPER_SPACE
 70
     0
 10
0.0
 20
0.0
 30
0.0
  3
*PAPER_SPACE
  1

  0
ENDBLK
  5
17
330
15
100
AcDbEntity
 67
     1
  8
0
100
AcDbBlockEnd
  0
BLOCK
  5
4C0C1
330
4C0BF
100
AcDbEntity
  8
0
100
AcDbBlockBegin
  2
_Small
 70
     0
 10
0.0
 20
0.0
 30
0.0
  3
_Small
  1

  0
CIRCLE
  5
4C0C0
330
4C0BF
100
AcDbEntity
  8
0
  6
ByBlock
 62
     0
370
    -2
100
AcDbCircle
 10
0.0
 20
0.0
 30
0.0
 40
0.25
  0
ENDBLK
  5
4C0C2
330
4C0BF
100
AcDbEntity
  8
0
100
AcDbBlockEnd
  0
BLOCK
  5
4C0C7
330
4C0C3
100
AcDbEntity
  8
0
100
AcDbBlockBegin
  2
_Open30
 70
     0
 10
0.0
 20
0.0
 30
0.0
  3
_Open30
  1

  0
LINE
  5
990C6
330
4C0C3
100
AcDbEntity
  8
NOTE
100
AcDbLine
 10
-1.0
 20
0.26794919
 30
0.0
 11
0.0
 21
0.0
 31
0.0
  0
LINE
  5
990C7
330
4C0C3
100
AcDbEntity
  8
NOTE
100
AcDbLine
 10
0.0
 20
0.0
 30
0.0
 11
-1.0
 21
-0.26794919
 31
0.0
  0
LINE
  5
990C8
330
4C0C3
100
AcDbEntity
  8
NOTE
100
AcDbLine
 10
0.0
 20
0.0
 30
0.0
 11
-1.0
 21
0.0
 31
0.0
  0
ENDBLK
  5
4C0C8
330
4C0C3
100
AcDbEntity
  8
0
100
AcDbBlockEnd
  0
BLOCK
  5
993E2
330
99250
100
AcDbEntity
  8
0
100
AcDbBlockBegin
  2
block
 70
     0
 10
0.0
 20
0.0
 30
0.0
  3
block
  1

  0
TEXT
  5
99251
330
99250
100
AcDbEntity
  8
ETC
100
AcDbText
 10
-979.1296184143194
 20
536.3616567700588
 30
0.0
 40
60.0
  1
PEFY-M63VMA-A1_5
 50
0.0000029998804485
 41
0.8
100
AcDbText
  0
LINE
  5
99252
330
99250
100
AcDbEntity
  8
BASIS
100
AcDbLine
 10
0.0
 20
29.41240878974759
 30
0.0
 11
0.0
 21
-282.6696284795139
 31
0.0
  0
CIRCLE
  5
99253
330
99250
100
AcDbEntity
  8
ARRANGE
100
AcDbCircle
 10
0.0
 20
0.0
 30
0.0
 40
19.125
  0
LINE
  5
99254
330
99250
100
AcDbEntity
  8
DETAIL
100
AcDbLine
 10
242.9981402002923
 20
-239.985693848349
 30
0.0
 11
350.0000000000018
 21
-239.985693848349
 31
0.0
  0
LINE
  5
99255
330
99250
100
AcDbEntity
  8
DETAIL
100
AcDbLine
 10
340.9871244635124
 20
-65.09298998570421
 30
0.0
 11
340.9871244635124
 21
-43.56223175966556
 31
0.0
  0
LINE
  5
99256
330
99250
100
AcDbEntity
  8
DETAIL
100
AcDbLine
 10
308.9413447782554
 20
-43.56223175966556
 30
0.0
 11
308.9413447782554
 21
-65.09298998570421
 31
0.0
  0
LINE
  5
99257
330
99250
100
AcDbEntity
  8
DETAIL
100
AcDbLine
 10
333.977110157366
 20
-36.55221745351355
 30
0.0
 11
315.9513590844017
 21
-36.55221745351355
 31
0.0
  0
LINE
  5
99258
330
99250
100
AcDbEntity
  8
DETAIL
100
AcDbLine
 10
-308.9871244635233
 20
-36.55221745351355
 30
0.0
 11
-327.0128755364749
 21
-36.55221745351355
 31
0.0
  0
LINE
  5
99259
330
99250
100
AcDbEntity
  8
DETAIL
100
AcDbLine
 10
-301.9771101573624
 20
-65.09298998570421
 30
0.0
 11
-301.9771101573624
 21
-43.56223175966556
 31
0.0
  0
LINE
  5
9925A
330
99250
100
AcDbEntity
  8
DETAIL
100
AcDbLine
 10
-334.022889842634
 20
-43.56223175966556
 30
0.0
 11
-334.022889842634
 21
-65.09298998570421
 31
0.0
  0
ARC
  5
9925B
330
99250
100
AcDbEntity
  8
DETAIL
100
AcDbCircle
 10
337.9828326180286
 20
-65.09298998570421
 30
0.0
 40
3.0042918454936
100
AcDbArc
 50
180.0
 51
0.0
  0
ARC
  5
9925C
330
99250
100
AcDbEntity
  8
DETAIL
100
AcDbCircle
 10
311.9456366237664
 20
-65.09298998570421
 30
0.0
 40
3.0042918454936
100
AcDbArc
 50
180.0
 51
0.0
  0
ARC
  5
9925D
330
99250
100
AcDbEntity
  8
DETAIL
100
AcDbCircle
 10
333.977110157366
 20
-43.56223175966556
 30
0.0
 40
7.010014306151662
100
AcDbArc
 50
0.0
 51
90.0
  0
ARC
  5
9925E
330
99250
100
AcDbEntity
  8
DETAIL
100
AcDbCircle
 10
315.9513590844017
 20
-43.56223175966556
 30
0.0
 40
7.010014306151662
100
AcDbArc
 50
90.0
 51
180.0
  0
ARC
  5
9925F
330
99250
100
AcDbEntity
  8
DETAIL
100
AcDbCircle
 10
-304.9814020028607
 20
-65.09298998570421
 30
0.0
 40
3.004291845493576
100
AcDbArc
 50
180.0
 51
0.0
  0
ARC
  5
99260
330
99250
100
AcDbEntity
  8
DETAIL
100
AcDbCircle
 10
-331.0185979971229
 20
-65.09298998570421
 30
0.0
 40
3.0042918454936
100
AcDbArc
 50
180.0
 51
0.0
  0
ARC
  5
99261
330
99250
100
AcDbEntity
  8
DETAIL
100
AcDbCircle
 10
-308.9871244635233
 20
-43.56223175966556
 30
0.0
 40
7.010014306151662
100
AcDbArc
 50
0.0
 51
90.0
  0
ARC
  5
99262
330
99250
100
AcDbEntity
  8
DETAIL
100
AcDbCircle
 10
-327.0128755364749
 20
-43.56223175966556
 30
0.0
 40
7.010014306151714
100
AcDbArc
 50
90.0
 51
180.0
  0
LINE
  5
99263
330
99250
100
AcDbEntity
  8
DETAIL
100
AcDbLine
 10
381.9999999999908
 20
-22.99999999999409
 30
0.0
 11
381.9999999999908
 21
-200.9999999999941
 31
0.0
  0
LINE
  5
99264
330
99250
100
AcDbEntity
  8
DETAIL
100
AcDbLine
 10
350.0000000000018
 20
-72.10300429185259
 30
0.0
 11
350.0000000000018
 21
-24.03433476395435
 31
0.0
  0
LINE
  5
99265
330
99250
100
AcDbEntity
  8
DETAIL
100
AcDbLine
 10
350.0000000000018
 20
0.0000000000059117
 30
0.0
 11
350.0000000000018
 21
-24.03433476395435
 31
0.0
  0
LINE
  5
99266
330
99250
100
AcDbEntity
  8
DETAIL
100
AcDbLine
 10
334.9785407725485
 20
-60.0933060445734
 30
0.0
 11
334.9785407725485
 21
-65.09298998570421
 31
0.0
  0
LINE
  5
99267
330
99250
100
AcDbEntity
  8
DETAIL
100
AcDbLine
 10
330.9728183118841
 20
-15.02145922747854
 30
0.0
 11
330.9728183118841
 21
-24.03433476395435
 31
0.0
  0
LINE
  5
99268
330
99250
100
AcDbEntity
  8
DETAIL
100
AcDbLine
 10
318.9556509299127
 20
-15.02145922747854
 30
0.0
 11
318.9556509299127
 21
-24.03433476395435
 31
0.0
  0
LINE
  5
99269
330
99250
100
AcDbEntity
  8
DETAIL
100
AcDbLine
 10
314.9499284692483
 20
-65.09298998570421
 30
0.0
 11
314.9499284692483
 21
-60.0933060445734
 31
0.0
  0
LINE
  5
9926A
330
99250
100
AcDbEntity
  8
DETAIL
100
AcDbLine
 10
299.9284692417806
 20
-72.10300429185259
 30
0.0
 11
299.9284692417806
 21
-24.03433476395435
 31
0.0
  0
LINE
  5
9926B
330
99250
100
AcDbEntity
  8
DETAIL
100
AcDbLine
 10
299.9284692417806
 20
-15.02145922747854
 30
0.0
 11
299.9284692417806
 21
-24.03433476395435
 31
0.0
  0
LINE
  5
9926C
330
99250
100
AcDbEntity
  8
DETAIL
100
AcDbLine
 10
194.0772532188948
 20
-9.012875536488763
 30
0.0
 11
194.0772532188948
 21
-0.0000000000090949
 31
0.0
  0
LINE
  5
9926D
330
99250
100
AcDbEntity
  8
DETAIL
100
AcDbLine
 10
-73.27330530052496
 20
-249.9999999999941
 30
0.0
 11
350.0000000000018
 21
-249.9999999999941
 31
0.0
  0
LINE
  5
9926E
330
99250
100
AcDbEntity
  8
DETAIL
100
AcDbLine
 10
242.9981402002923
 20
-239.985693848349
 30
0.0
 11
-349.9999999999982
 21
-239.985693848349
 31
0.0
  0
LINE
  5
9926F
330
99250
100
AcDbEntity
  8
DETAIL
100
AcDbLine
 10
382.0000000000018
 20
-200.9999999999941
 30
0.0
 11
350.0000000000018
 21
-200.9999999999941
 31
0.0
  0
LINE
  5
99270
330
99250
100
AcDbEntity
  8
DETAIL
100
AcDbLine
 10
346.9957081545199
 20
-75.10729613734929
 30
0.0
 11
302.9327610872915
 21
-75.10729613734929
 31
0.0
  0
LINE
  5
99271
330
99250
100
AcDbEntity
  8
DETAIL
100
AcDbLine
 10
-296.9241773962785
 20
-75.10729613734929
 30
0.0
 11
-340.9871244635088
 21
-75.10729613734929
 31
0.0
  0
LINE
  5
99272
330
99250
100
AcDbEntity
  8
DETAIL
100
AcDbLine
 10
-328.014306151641
 20
-60.08583690987984
 30
0.0
 11
-307.9856938483426
 21
-60.08583690987984
 31
0.0
  0
LINE
  5
99273
330
99250
100
AcDbEntity
  8
DETAIL
100
AcDbLine
 10
314.9499284692483
 20
-60.08583690987984
 30
0.0
 11
334.9785407725485
 21
-60.08583690987984
 31
0.0
  0
LINE
  5
99274
330
99250
100
AcDbEntity
  8
DETAIL
100
AcDbLine
 10
346.9957081545199
 20
-27.03862660945129
 30
0.0
 11
333.977110157366
 21
-27.03862660945129
 31
0.0
  0
LINE
  5
99275
330
99250
100
AcDbEntity
  8
DETAIL
100
AcDbLine
 10
315.9513590844017
 20
-27.03862660945129
 30
0.0
 11
302.9327610872915
 21
-27.03862660945129
 31
0.0
  0
LINE
  5
99276
330
99250
100
AcDbEntity
  8
DETAIL
100
AcDbLine
 10
-296.9241773962785
 20
-27.03862660945129
 30
0.0
 11
-309.9427753934324
 21
-27.03862660945129
 31
0.0
  0
LINE
  5
99277
330
99250
100
AcDbEntity
  8
DETAIL
100
AcDbLine
 10
-327.968526466384
 20
-27.03862660945129
 30
0.0
 11
-340.9871244635088
 21
-27.03862660945129
 31
0.0
  0
LINE
  5
99278
330
99250
100
AcDbEntity
  8
DETAIL
100
AcDbLine
 10
382.0000000000018
 20
-22.99999999999409
 30
0.0
 11
350.0000000000018
 21
-22.99999999999409
 31
0.0
  0
LINE
  5
99279
330
99250
100
AcDbEntity
  8
DETAIL
100
AcDbLine
 10
-324.964234620873
 20
-17.52503576538538
 30
0.0
 11
-312.9470672389143
 21
-17.52503576538538
 31
0.0
  0
LINE
  5
9927A
330
99250
100
AcDbEntity
  8
DETAIL
100
AcDbLine
 10
318.9556509299127
 20
-17.52503576538538
 30
0.0
 11
330.9728183118841
 21
-17.52503576538538
 31
0.0
  0
LINE
  5
9927B
330
99250
100
AcDbEntity
  8
DETAIL
100
AcDbLine
 10
350.0000000000018
 20
-14.99999999999409
 30
0.0
 11
299.9284692417806
 21
-14.99999999999409
 31
0.0
  0
LINE
  5
9927C
330
99250
100
AcDbEntity
  8
DETAIL
100
AcDbLine
 10
-293.9198855507984
 20
-14.99999999999409
 30
0.0
 11
-343.9914163090198
 21
-14.99999999999409
 31
0.0
  0
LINE
  5
9927D
330
99250
100
AcDbEntity
  8
DETAIL
100
AcDbLine
 10
197.0815450643767
 20
-12.01716738198183
 30
0.0
 11
350.0000000000018
 21
-12.01716738197433
 31
0.0
  0
LINE
  5
9927E
330
99250
100
AcDbEntity
  8
DETAIL
100
AcDbLine
 10
350.0000000000018
 20
0.0000000000059117
 30
0.0
 11
-349.9999999999982
 21
0.0000000000059117
 31
0.0
  0
LINE
  5
9927F
330
99250
100
AcDbEntity
  8
DETAIL
100
AcDbLine
 10
-293.9198855507984
 20
-72.10300429185259
 30
0.0
 11
-293.9198855507984
 21
-24.03433476395435
 31
0.0
  0
LINE
  5
99280
330
99250
100
AcDbEntity
  8
DETAIL
100
AcDbLine
 10
-293.9198855507984
 20
-15.02145922747854
 30
0.0
 11
-293.9198855507984
 21
-24.03433476395435
 31
0.0
  0
LINE
  5
99281
330
99250
100
AcDbEntity
  8
DETAIL
100
AcDbLine
 10
-307.9856938483426
 20
-60.0933060445734
 30
0.0
 11
-307.9856938483426
 21
-65.09298998570421
 31
0.0
  0
LINE
  5
99282
330
99250
100
AcDbEntity
  8
DETAIL
100
AcDbLine
 10
-312.9470672389143
 20
-15.02145922747854
 30
0.0
 11
-312.9470672389143
 21
-24.03433476395435
 31
0.0
  0
LINE
  5
99283
330
99250
100
AcDbEntity
  8
DETAIL
100
AcDbLine
 10
-324.964234620873
 20
-15.02145922747854
 30
0.0
 11
-324.964234620873
 21
-24.03433476395435
 31
0.0
  0
LINE
  5
99284
330
99250
100
AcDbEntity
  8
DETAIL
100
AcDbLine
 10
-328.014306151641
 20
-65.09298998570421
 30
0.0
 11
-328.014306151641
 21
-60.0933060445734
 31
0.0
  0
LINE
  5
99285
330
99250
100
AcDbEntity
  8
DETAIL
100
AcDbLine
 10
-343.9914163090198
 20
-72.10300429185259
 30
0.0
 11
-343.9914163090198
 21
-24.03433476395435
 31
0.0
  0
LINE
  5
99286
330
99250
100
AcDbEntity
  8
DETAIL
100
AcDbLine
 10
-343.9914163090198
 20
-15.02145922747854
 30
0.0
 11
-343.9914163090198
 21
-24.03433476395435
 31
0.0
  0
LINE
  5
99287
330
99250
100
AcDbEntity
  8
DETAIL
100
AcDbLine
 10
-349.9999999999982
 20
-247.9971387696628
 30
0.0
 11
-349.9999999999982
 21
-236.781115879822
 31
0.0
  0
LINE
  5
99288
330
99250
100
AcDbEntity
  8
DETAIL
100
AcDbLine
 10
-349.9999999999982
 20
-234.1344778254754
 30
0.0
 11
-349.9999999999982
 21
-0.0000000000095497
 31
0.0
  0
LINE
  5
99289
330
99250
100
AcDbEntity
  8
DETAIL
100
AcDbLine
 10
-349.9999999999982
 20
-122.9756795422136
 30
0.0
 11
-349.9999999999982
 21
-12.01716738198183
 31
0.0
  0
ARC
  5
9928A
330
99250
100
AcDbEntity
  8
DETAIL
100
AcDbCircle
 10
346.9957081545199
 20
-72.10300429185259
 30
0.0
 40
3.0042918454936
100
AcDbArc
 50
270.0
 51
0.0
  0
ARC
  5
9928B
330
99250
100
AcDbEntity
  8
DETAIL
100
AcDbCircle
 10
302.9327610872915
 20
-72.10300429185259
 30
0.0
 40
3.004291845493495
100
AcDbArc
 50
180.0
 51
270.0
  0
CIRCLE
  5
9928C
330
99250
100
AcDbEntity
  8
DETAIL
100
AcDbCircle
 10
324.9642346208911
 20
-55.07868383405548
 30
0.0
 40
3.505007153075836
  0
ARC
  5
9928D
330
99250
100
AcDbEntity
  8
DETAIL
100
AcDbCircle
 10
346.9957081545199
 20
-24.03433476395435
 30
0.0
 40
3.0042918454936
100
AcDbArc
 50
270.0
 51
0.0
  0
ARC
  5
9928E
330
99250
100
AcDbEntity
  8
DETAIL
100
AcDbCircle
 10
333.977110157366
 20
-24.03433476395435
 30
0.0
 40
3.0042918454936
100
AcDbArc
 50
180.0
 51
270.0
  0
ARC
  5
9928F
330
99250
100
AcDbEntity
  8
DETAIL
100
AcDbCircle
 10
315.9513590844017
 20
-24.03433476395435
 30
0.0
 40
3.0042918454936
100
AcDbArc
 50
270.0
 51
0.0
  0
ARC
  5
99290
330
99250
100
AcDbEntity
  8
DETAIL
100
AcDbCircle
 10
302.9327610872915
 20
-24.03433476395435
 30
0.0
 40
3.0042918454936
100
AcDbArc
 50
180.0
 51
270.0
  0
ARC
  5
99291
330
99250
100
AcDbEntity
  8
DETAIL
100
AcDbCircle
 10
197.0815450643767
 20
-9.012875536488763
 30
0.0
 40
3.0042918454936
100
AcDbArc
 50
180.0
 51
270.0
  0
ARC
  5
99292
330
99250
100
AcDbEntity
  8
DETAIL
100
AcDbCircle
 10
-296.9241773962785
 20
-72.10300429185259
 30
0.0
 40
3.0042918454936
100
AcDbArc
 50
270.0
 51
0.0
  0
ARC
  5
99293
330
99250
100
AcDbEntity
  8
DETAIL
100
AcDbCircle
 10
-340.9871244635088
 20
-72.10300429185259
 30
0.0
 40
3.004291845493495
100
AcDbArc
 50
180.0
 51
270.0
  0
CIRCLE
  5
99294
330
99250
100
AcDbEntity
  8
DETAIL
100
AcDbCircle
 10
-317.9999999999982
 20
-55.07868383405548
 30
0.0
 40
3.505007153075836
  0
ARC
  5
99295
330
99250
100
AcDbEntity
  8
DETAIL
100
AcDbCircle
 10
-296.9241773962785
 20
-24.03433476395435
 30
0.0
 40
3.0042918454936
100
AcDbArc
 50
270.0
 51
0.0
  0
ARC
  5
99296
330
99250
100
AcDbEntity
  8
DETAIL
100
AcDbCircle
 10
-309.9427753934324
 20
-24.03433476395435
 30
0.0
 40
3.0042918454936
100
AcDbArc
 50
180.0
 51
270.0
  0
ARC
  5
99297
330
99250
100
AcDbEntity
  8
DETAIL
100
AcDbCircle
 10
-327.968526466384
 20
-24.03433476395435
 30
0.0
 40
3.0042918454936
100
AcDbArc
 50
270.0
 51
0.0
  0
ARC
  5
99298
330
99250
100
AcDbEntity
  8
DETAIL
100
AcDbCircle
 10
-340.9871244635088
 20
-24.03433476395435
 30
0.0
 40
3.0042918454936
100
AcDbArc
 50
180.0
 51
270.0
  0
LINE
  5
99299
330
99250
100
AcDbEntity
  8
NOTE
100
AcDbLine
 10
371.9999999999909
 20
-59.36348759543398
 30
0.0
 11
371.9999999999909
 21
-66.63651240455418
 31
0.0
  0
LINE
  5
9929A
330
99250
100
AcDbEntity
  8
NOTE
100
AcDbLine
 10
375.6365124045497
 20
-62.9999999999941
 30
0.0
 11
368.3634875954285
 21
-62.9999999999941
 31
0.0
  0
LINE
  5
9929B
330
99250
100
AcDbEntity
  8
NOTE
100
AcDbLine
 10
371.9999999999909
 20
-159.363487595434
 30
0.0
 11
371.9999999999909
 21
-166.6365124045542
 31
0.0
  0
LINE
  5
9929C
330
99250
100
AcDbEntity
  8
NOTE
100
AcDbLine
 10
375.6365124045497
 20
-162.9999999999941
 30
0.0
 11
368.3634875954285
 21
-162.9999999999941
 31
0.0
  0
CIRCLE
  5
9929D
330
99250
100
AcDbEntity
  8
DETAIL
100
AcDbCircle
 10
371.9999999999909
 20
-162.9999999999941
 30
0.0
 40
1.45
  0
CIRCLE
  5
9929E
330
99250
100
AcDbEntity
  8
DETAIL
100
AcDbCircle
 10
371.9999999999909
 20
-62.9999999999941
 30
0.0
 40
1.45
  0
LINE
  5
9929F
330
99250
100
AcDbEntity
  8
DETAIL
100
AcDbLine
 10
-349.9999999999982
 20
-249.9999999999941
 30
0.0
 11
-349.9999999999982
 21
0.0000000000059117
 31
0.0
  0
LINE
  5
992A0
330
99250
100
AcDbEntity
  8
DETAIL
100
AcDbLine
 10
-349.9999999999982
 20
0.0000000000059117
 30
0.0
 11
350.0000000000018
 21
0.0000000000059117
 31
0.0
  0
LINE
  5
992A1
330
99250
100
AcDbEntity
  8
DETAIL
100
AcDbLine
 10
350.0000000000018
 20
0.0000000000059117
 30
0.0
 11
350.0000000000018
 21
-249.9999999999941
 31
0.0
  0
LINE
  5
992A2
330
99250
100
AcDbEntity
  8
DETAIL
100
AcDbLine
 10
350.0000000000018
 20
-249.9999999999941
 30
0.0
 11
-349.9999999999982
 21
-249.9999999999941
 31
0.0
  0
LINE
  5
992A3
330
99250
100
AcDbEntity
  8
NOTE
100
AcDbLine
 10
214.0000000000018
 20
-111.1337280880009
 30
0.0
 11
214.0000000000018
 21
-132.8662719119872
 31
0.0
  0
LINE
  5
992A4
330
99250
100
AcDbEntity
  8
NOTE
100
AcDbLine
 10
224.8662719119948
 20
-121.9999999999941
 30
0.0
 11
203.1337280880089
 21
-121.9999999999941
 31
0.0
  0
LINE
  5
992A5
330
99250
100
AcDbEntity
  8
NOTE
100
AcDbLine
 10
147.0000000000018
 20
-144.1337280880009
 30
0.0
 11
147.0000000000018
 21
-165.8662719119872
 31
0.0
  0
LINE
  5
992A6
330
99250
100
AcDbEntity
  8
NOTE
100
AcDbLine
 10
157.8662719119948
 20
-154.9999999999941
 30
0.0
 11
136.1337280880088
 21
-154.9999999999941
 31
0.0
  0
LINE
  5
992A7
330
99250
100
AcDbEntity
  8
NOTE
100
AcDbLine
 10
371.9999999999909
 20
-19.36348759543398
 30
0.0
 11
371.9999999999909
 21
-26.6365124045542
 31
0.0
  0
LINE
  5
992A8
330
99250
100
AcDbEntity
  8
NOTE
100
AcDbLine
 10
375.6365124045497
 20
-22.99999999999409
 30
0.0
 11
368.3634875954285
 21
-22.99999999999409
 31
0.0
  0
LINE
  5
992A9
330
99250
100
AcDbEntity
  8
NOTE
100
AcDbLine
 10
371.9999999999909
 20
-197.363487595434
 30
0.0
 11
371.9999999999909
 21
-204.6365124045542
 31
0.0
  0
LINE
  5
992AA
330
99250
100
AcDbEntity
  8
NOTE
100
AcDbLine
 10
375.6365124045497
 20
-200.9999999999941
 30
0.0
 11
368.3634875954285
 21
-200.9999999999941
 31
0.0
  0
LINE
  5
992AB
330
99250
100
AcDbEntity
  8
NOTE
100
AcDbLine
 10
325.0000000000018
 20
-4.133728088000906
 30
0.0
 11
325.0000000000018
 21
-25.86627191198727
 31
0.0
  0
LINE
  5
992AC
330
99250
100
AcDbEntity
  8
NOTE
100
AcDbLine
 10
335.8662719119948
 20
-14.99999999999409
 30
0.0
 11
314.1337280880089
 21
-14.99999999999409
 31
0.0
  0
LINE
  5
992AD
330
99250
100
AcDbEntity
  8
NOTE
100
AcDbLine
 10
-317.9999999999982
 20
-4.133728088000906
 30
0.0
 11
-317.9999999999982
 21
-25.86627191198727
 31
0.0
  0
LINE
  5
992AE
330
99250
100
AcDbEntity
  8
NOTE
100
AcDbLine
 10
-307.1337280880052
 20
-14.99999999999409
 30
0.0
 11
-328.8662719119912
 21
-14.99999999999409
 31
0.0
  0
CIRCLE
  5
992AF
330
99250
100
AcDbEntity
  8
FIX
100
AcDbCircle
 10
325.0000000000018
 20
-14.99999999999409
 30
0.0
 40
9.947006128806801
  0
CIRCLE
  5
992B0
330
99250
100
AcDbEntity
  8
FIX
100
AcDbCircle
 10
-317.9999999999982
 20
-14.99999999999409
 30
0.0
 40
9.947006128806801
  0
LINE
  5
992B1
330
99250
100
AcDbEntity
  8
OUTLINE
100
AcDbLine
 10
382.0000000000018
 20
-22.99999999999409
 30
0.0
 11
350.0000000000018
 21
-22.99999999999409
 31
0.0
  0
LINE
  5
992B2
330
99250
100
AcDbEntity
  8
OUTLINE
100
AcDbLine
 10
381.9999999999908
 20
-22.99999999999409
 30
0.0
 11
382.0000000000018
 21
-200.9999999999941
 31
0.0
  0
LINE
  5
992B3
330
99250
100
AcDbEntity
  8
OUTLINE
100
AcDbLine
 10
382.0000000000018
 20
-200.9999999999941
 30
0.0
 11
350.0000000000018
 21
-200.9999999999941
 31
0.0
  0
LINE
  5
992B4
330
99250
100
AcDbEntity
  8
OUTLINE
100
AcDbLine
 10
350.0000000000018
 20
0.0000000000059117
 30
0.0
 11
-349.9999999999982
 21
-0.0000000000095497
 31
0.0
  0
LINE
  5
992B5
330
99250
100
AcDbEntity
  8
OUTLINE
100
AcDbLine
 10
-349.9999999999982
 20
-0.0000000000095497
 30
0.0
 11
-349.9999999999982
 21
-249.9999999999941
 31
0.0
  0
LINE
  5
992B6
330
99250
100
AcDbEntity
  8
OUTLINE
100
AcDbLine
 10
-349.9999999999982
 20
-249.9999999999941
 30
0.0
 11
350.0000000000018
 21
-249.9999999999941
 31
0.0
  0
LINE
  5
992B7
330
99250
100
AcDbEntity
  8
OUTLINE
100
AcDbLine
 10
350.0000000000018
 20
-249.9999999999941
 30
0.0
 11
350.0000000000018
 21
0.0000000000059117
 31
0.0
  0
LINE
  5
992B8
330
99250
100
AcDbEntity
  8
SIZE
100
AcDbLine
 10
382.0000000000018
 20
-7.999999999994088
 30
0.0
 11
382.0000000000018
 21
63.59264465957858
 31
0.0
  0
LINE
  5
992B9
330
99250
100
AcDbEntity
  8
SIZE
100
AcDbLine
 10
371.9999999999909
 20
-44.36348759543398
 30
0.0
 11
371.9999999999909
 21
63.59264465957858
 31
0.0
  0
LINE
  5
992BA
330
99250
100
AcDbEntity
  8
SIZE
100
AcDbLine
 10
371.9999999999909
 20
58.59264465957858
 30
0.0
 11
351.9999999999908
 21
58.59264465957858
 31
0.0
  0
LINE
  5
992BB
330
99250
100
AcDbEntity
  8
SIZE
100
AcDbLine
 10
382.0000000000018
 20
58.59264465957858
 30
0.0
 11
436.2857142857156
 21
58.59264465957858
 31
0.0
  0
LINE
  5
992BC
330
99250
100
AcDbEntity
  8
SIZE
100
AcDbLine
 10
371.9999999999909
 20
58.59264465957858
 30
0.0
 11
382.0000000000018
 21
58.59264465957858
 31
0.0
  0
CIRCLE
  5
992BD
330
99250
100
AcDbEntity
  8
SIZE
100
AcDbCircle
 10
371.9999999999909
 20
58.59264465957858
 30
0.0
 40
5.0
  0
CIRCLE
  5
992BE
330
99250
100
AcDbEntity
  8
SIZE
100
AcDbCircle
 10
382.0000000000018
 20
58.59264465957858
 30
0.0
 40
5.0
  0
TEXT
  5
992BF
330
99250
100
AcDbEntity
  8
SIZE
100
AcDbText
 10
403.4648668981438
 20
73.59264465957858
 30
0.0
 40
30.0
  1
10
 41
0.9
100
AcDbText
  0
LINE
  5
992C0
330
99250
100
AcDbEntity
  8
SIZE
100
AcDbLine
 10
381.9999999999908
 20
-7.999999999994088
 30
0.0
 11
381.9999999999908
 21
183.7609916711171
 31
0.0
  0
LINE
  5
992C1
330
99250
100
AcDbEntity
  8
SIZE
100
AcDbLine
 10
325.0000000000018
 20
10.86627191199909
 30
0.0
 11
325.0000000000018
 21
183.7609916711171
 31
0.0
  0
LINE
  5
992C2
330
99250
100
AcDbEntity
  8
SIZE
100
AcDbLine
 10
325.0000000000018
 20
178.7609916711171
 30
0.0
 11
381.9999999999908
 21
178.7609916711171
 31
0.0
  0
LINE
  5
992C3
330
99250
100
AcDbEntity
  8
SIZE
100
AcDbLine
 10
381.9999999999908
 20
178.7609916711171
 30
0.0
 11
475.7142857142771
 21
178.7609916711171
 31
0.0
  0
CIRCLE
  5
992C4
330
99250
100
AcDbEntity
  8
SIZE
100
AcDbCircle
 10
325.0000000000018
 20
178.7609916711171
 30
0.0
 40
5.0
  0
CIRCLE
  5
992C5
330
99250
100
AcDbEntity
  8
SIZE
100
AcDbCircle
 10
381.9999999999908
 20
178.7609916711171
 30
0.0
 40
5.0
  0
TEXT
  5
992C6
330
99250
100
AcDbEntity
  8
SIZE
100
AcDbText
 10
416.9999999999912
 20
193.7609916711171
 30
0.0
 40
30.0
  1
57
 41
0.9
100
AcDbText
  0
LINE
  5
992C7
330
99250
100
AcDbEntity
  8
SIZE
100
AcDbLine
 10
325.0000000000018
 20
10.86627191199909
 30
0.0
 11
325.0000000000018
 21
183.7609916711171
 31
0.0
  0
LINE
  5
992C8
330
99250
100
AcDbEntity
  8
SIZE
100
AcDbLine
 10
-317.9999999999982
 20
10.86627191199909
 30
0.0
 11
-317.9999999999982
 21
183.7609916711171
 31
0.0
  0
LINE
  5
992C9
330
99250
100
AcDbEntity
  8
SIZE
100
AcDbLine
 10
325.0000000000018
 20
178.7609916711171
 30
0.0
 11
-317.9999999999982
 21
178.7609916711171
 31
0.0
  0
CIRCLE
  5
992CA
330
99250
100
AcDbEntity
  8
SIZE
100
AcDbCircle
 10
325.0000000000018
 20
178.7609916711171
 30
0.0
 40
5.0
  0
CIRCLE
  5
992CB
330
99250
100
AcDbEntity
  8
SIZE
100
AcDbCircle
 10
-317.9999999999982
 20
178.7609916711171
 30
0.0
 40
5.0
  0
TEXT
  5
992CC
330
99250
100
AcDbEntity
  8
SIZE
100
AcDbText
 10
-265.9857142857122
 20
196.61813452826
 30
0.0
 40
30.0
  1
643(Suspension bolt pitch)
 41
0.9
100
AcDbText
  0
LINE
  5
992CD
330
99250
100
AcDbEntity
  8
SIZE
100
AcDbLine
 10
382.0000000000018
 20
-7.999999999994088
 30
0.0
 11
382.0000000000018
 21
278.9522955905211
 31
0.0
  0
LINE
  5
992CE
330
99250
100
AcDbEntity
  8
SIZE
100
AcDbLine
 10
350.0000000000018
 20
20.00000000000591
 30
0.0
 11
350.0000000000018
 21
278.9522955905211
 31
0.0
  0
LINE
  5
992CF
330
99250
100
AcDbEntity
  8
SIZE
100
AcDbLine
 10
350.0000000000018
 20
273.9522955905211
 30
0.0
 11
382.0000000000018
 21
273.9522955905211
 31
0.0
  0
LINE
  5
992D0
330
99250
100
AcDbEntity
  8
SIZE
100
AcDbLine
 10
382.0000000000018
 20
273.9522955905211
 30
0.0
 11
475.714285714288
 21
273.9522955905211
 31
0.0
  0
CIRCLE
  5
992D1
330
99250
100
AcDbEntity
  8
SIZE
100
AcDbCircle
 10
350.0000000000018
 20
273.9522955905211
 30
0.0
 40
5.0
  0
CIRCLE
  5
992D2
330
99250
100
AcDbEntity
  8
SIZE
100
AcDbCircle
 10
382.0000000000018
 20
273.9522955905211
 30
0.0
 40
5.0
  0
TEXT
  5
992D3
330
99250
100
AcDbEntity
  8
SIZE
100
AcDbText
 10
417.0000000000023
 20
288.9522955905211
 30
0.0
 40
30.0
  1
32
 41
0.9
100
AcDbText
  0
LINE
  5
992D4
330
99250
100
AcDbEntity
  8
SIZE
100
AcDbLine
 10
350.0000000000018
 20
20.00000000000591
 30
0.0
 11
350.0000000000018
 21
278.9522955905211
 31
0.0
  0
LINE
  5
992D5
330
99250
100
AcDbEntity
  8
SIZE
100
AcDbLine
 10
-349.9999999999982
 20
14.99999999999045
 30
0.0
 11
-349.9999999999982
 21
278.9522955905211
 31
0.0
  0
LINE
  5
992D6
330
99250
100
AcDbEntity
  8
SIZE
100
AcDbLine
 10
350.0000000000018
 20
273.9522955905211
 30
0.0
 11
-349.9999999999982
 21
273.9522955905211
 31
0.0
  0
CIRCLE
  5
992D7
330
99250
100
AcDbEntity
  8
SIZE
100
AcDbCircle
 10
350.0000000000018
 20
273.9522955905211
 30
0.0
 40
5.0
  0
CIRCLE
  5
992D8
330
99250
100
AcDbEntity
  8
SIZE
100
AcDbCircle
 10
-349.9999999999982
 20
273.9522955905211
 30
0.0
 40
5.0
  0
TEXT
  5
992D9
330
99250
100
AcDbEntity
  8
SIZE
100
AcDbText
 10
-34.71428571428396
 20
288.9522955905211
 30
0.0
 40
30.0
  1
700
 41
0.9
100
AcDbText
  0
LINE
  5
992DA
330
99250
100
AcDbEntity
  8
SIZE
100
AcDbLine
 10
381.9999999999908
 20
-7.999999999994088
 30
0.0
 11
381.9999999999908
 21
377.6597002103861
 31
0.0
  0
LINE
  5
992DB
330
99250
100
AcDbEntity
  8
SIZE
100
AcDbLine
 10
-349.9999999999982
 20
11.19456366236591
 30
0.0
 11
-349.9999999999982
 21
377.6597002103861
 31
0.0
  0
LINE
  5
992DC
330
99250
100
AcDbEntity
  8
SIZE
100
AcDbLine
 10
381.9999999999908
 20
372.6597002103861
 30
0.0
 11
-349.9999999999982
 21
372.6597002103861
 31
0.0
  0
CIRCLE
  5
992DD
330
99250
100
AcDbEntity
  8
SIZE
100
AcDbCircle
 10
381.9999999999908
 20
372.6597002103861
 30
0.0
 40
5.0
  0
CIRCLE
  5
992DE
330
99250
100
AcDbEntity
  8
SIZE
100
AcDbCircle
 10
-349.9999999999982
 20
372.6597002103861
 30
0.0
 40
5.0
  0
TEXT
  5
992DF
330
99250
100
AcDbEntity
  8
SIZE
100
AcDbText
 10
-18.71428571428942
 20
387.6597002103861
 30
0.0
 40
30.0
  1
732
 41
0.9
100
AcDbText
  0
LINE
  5
992E0
330
99250
100
AcDbEntity
  8
NOTE
100
AcDbLine
 10
-317.9999999999982
 20
-14.99999999999409
 30
0.0
 11
-340.0886666512342
 21
11.3522385303745
 31
0.0
  0
LINE
  5
992E1
330
99250
100
AcDbEntity
  8
NOTE
100
AcDbLine
 10
-317.9999999999982
 20
-14.99999999999409
 30
0.0
 11
-323.9532266970873
 21
18.86604142622082
 31
0.0
  0
LINE
  5
992E2
330
99250
100
AcDbEntity
  8
NOTE
100
AcDbLine
 10
-398.0665045668648
 20
153.7546129431555
 30
0.0
 11
-317.9999999999982
 21
-14.99999999999409
 31
0.0
  0
LINE
  5
992E3
330
99250
100
AcDbEntity
  8
NOTE
100
AcDbLine
 10
692.3460825807977
 20
149.0041951115122
 30
0.0
 11
564.7905433691065
 21
149.0041951115122
 31
0.0
  0
TEXT
  5
992E4
330
99250
100
AcDbEntity
  8
NOTE
100
AcDbText
 10
504.5127492474638
 20
156.4116128284593
 30
0.0
 40
30.0
  1
2X2-%%c2.9
 50
359.9999974955248
 41
0.7
  7
STANDARD1
100
AcDbText
  0
LINE
  5
992E5
330
99250
100
AcDbEntity
  8
NOTE
100
AcDbLine
 10
692.3460825807977
 20
149.0041951115122
 30
0.0
 11
493.0523796859359
 21
149.0041951115122
 31
0.0
  0
LINE
  5
992E6
330
99250
100
AcDbEntity
  8
NOTE
100
AcDbLine
 10
371.9999999999909
 20
-62.9999999999941
 30
0.0
 11
380.9796492276309
 21
-29.80789898575631
 31
0.0
  0
LINE
  5
992E7
330
99250
100
AcDbEntity
  8
NOTE
100
AcDbLine
 10
371.9999999999909
 20
-62.9999999999941
 30
0.0
 11
396.3726552086973
 21
-38.74462228562925
 31
0.0
  0
LINE
  5
992E8
330
99250
100
AcDbEntity
  8
NOTE
100
AcDbLine
 10
493.0523796859359
 20
149.0041951115122
 30
0.0
 11
371.9999999999909
 21
-62.9999999999941
 31
0.0
  0
LINE
  5
992E9
330
99250
100
AcDbEntity
  8
SIZE
100
AcDbLine
 10
350.0000000000018
 20
-264.9999999999941
 30
0.0
 11
350.0000000000018
 21
-556.0793416083631
 31
0.0
  0
LINE
  5
992EA
330
99250
100
AcDbEntity
  8
SIZE
100
AcDbLine
 10
214.0000000000018
 20
-147.8662719119872
 30
0.0
 11
214.0000000000018
 21
-556.0793416083631
 31
0.0
  0
LINE
  5
992EB
330
99250
100
AcDbEntity
  8
SIZE
100
AcDbLine
 10
350.0000000000018
 20
-551.0793416083632
 30
0.0
 11
214.0000000000018
 21
-551.0793416083632
 31
0.0
  0
CIRCLE
  5
992EC
330
99250
100
AcDbEntity
  8
SIZE
100
AcDbCircle
 10
350.0000000000018
 20
-551.0793416083632
 30
0.0
 40
5.0
  0
CIRCLE
  5
992ED
330
99250
100
AcDbEntity
  8
SIZE
100
AcDbCircle
 10
214.0000000000018
 20
-551.0793416083632
 30
0.0
 40
5.0
  0
TEXT
  5
992EE
330
99250
100
AcDbEntity
  8
SIZE
100
AcDbText
 10
250.5000000000018
 20
-536.0793416083631
 30
0.0
 40
30.0
  1
136
 41
0.9
100
AcDbText
  0
LINE
  5
992EF
330
99250
100
AcDbEntity
  8
SIZE
100
AcDbLine
 10
214.0000000000018
 20
-147.8662719119872
 30
0.0
 11
214.0000000000018
 21
-556.0793416083631
 31
0.0
  0
LINE
  5
992F0
330
99250
100
AcDbEntity
  8
SIZE
100
AcDbLine
 10
147.0000000000018
 20
-180.8662719119872
 30
0.0
 11
147.0000000000018
 21
-556.0793416083631
 31
0.0
  0
LINE
  5
992F1
330
99250
100
AcDbEntity
  8
SIZE
100
AcDbLine
 10
214.0000000000018
 20
-551.0793416083632
 30
0.0
 11
147.0000000000018
 21
-551.0793416083632
 31
0.0
  0
TEXT
  5
992F2
330
99250
100
AcDbEntity
  8
SIZE
100
AcDbText
 10
158.6428571428591
 20
-536.0793416083631
 30
0.0
 40
30.0
  1
67
 41
0.9
100
AcDbText
  0
CIRCLE
  5
992F3
330
99250
100
AcDbEntity
  8
SIZE
100
AcDbCircle
 10
214.0000000000018
 20
-551.0793416083632
 30
0.0
 40
5.0
  0
CIRCLE
  5
992F4
330
99250
100
AcDbEntity
  8
SIZE
100
AcDbCircle
 10
147.0000000000018
 20
-551.0793416083632
 30
0.0
 40
5.0
  0
LINE
  5
992F5
330
99250
100
AcDbEntity
  8
SIZE
100
AcDbLine
 10
-365.0
 20
0.0000000000058904
 30
0.0
 11
-565.0973899762592
 21
0.000000000005862
 31
0.0
  0
LINE
  5
992F6
330
99250
100
AcDbEntity
  8
SIZE
100
AcDbLine
 10
188.1337280880079
 20
-121.9999999999941
 30
0.0
 11
-565.0973899762592
 21
-121.9999999999942
 31
0.0
  0
LINE
  5
992F7
330
99250
100
AcDbEntity
  8
SIZE
100
AcDbLine
 10
-560.0973899762593
 20
0.000000000005862
 30
0.0
 11
-560.0973899762593
 21
-121.9999999999942
 31
0.0
  0
CIRCLE
  5
992F8
330
99250
100
AcDbEntity
  8
SIZE
100
AcDbCircle
 10
-560.0973899762593
 20
0.000000000005862
 30
0.0
 40
5.0
  0
CIRCLE
  5
992F9
330
99250
100
AcDbEntity
  8
SIZE
100
AcDbCircle
 10
-560.0973899762593
 20
-121.9999999999942
 30
0.0
 40
5.0
  0
TEXT
  5
992FA
330
99250
100
AcDbEntity
  8
SIZE
100
AcDbText
 10
-575.0973899762583
 20
-93.14285714285132
 30
0.0
 40
30.0
  1
122
 50
90.0
 41
0.9
100
AcDbText
  0
LINE
  5
992FB
330
99250
100
AcDbEntity
  8
SIZE
100
AcDbLine
 10
188.1337280880079
 20
-121.9999999999941
 30
0.0
 11
-565.0973899762735
 21
-121.9999999999942
 31
0.0
  0
LINE
  5
992FC
330
99250
100
AcDbEntity
  8
SIZE
100
AcDbLine
 10
121.1337280880079
 20
-154.9999999999942
 30
0.0
 11
-565.0973899762735
 21
-154.9999999999943
 31
0.0
  0
LINE
  5
992FD
330
99250
100
AcDbEntity
  8
SIZE
100
AcDbLine
 10
-560.0973899762733
 20
-121.9999999999942
 30
0.0
 11
-560.0973899762733
 21
-154.9999999999943
 31
0.0
  0
LINE
  5
992FE
330
99250
100
AcDbEntity
  8
SIZE
100
AcDbLine
 10
-560.0973899762733
 20
-154.9999999999943
 30
0.0
 11
-560.0973899762733
 21
-342.8263867339258
 31
0.0
  0
CIRCLE
  5
992FF
330
99250
100
AcDbEntity
  8
SIZE
100
AcDbCircle
 10
-560.0973899762733
 20
-121.9999999999942
 30
0.0
 40
5.0
  0
CIRCLE
  5
99300
330
99250
100
AcDbEntity
  8
SIZE
100
AcDbCircle
 10
-560.0973899762733
 20
-154.9999999999943
 30
0.0
 40
5.0
  0
TEXT
  5
99301
330
99250
100
AcDbEntity
  8
SIZE
100
AcDbText
 10
-575.0973899762725
 20
-327.8263867339247
 30
0.0
 40
30.0
  1
33
 50
90.0
 41
0.9
100
AcDbText
  0
LINE
  5
99302
330
99250
100
AcDbEntity
  8
ARRANGE
100
AcDbLine
 10
-21.26587376331372
 20
-21.04700008889039
 30
0.0
 11
21.26587376331736
 21
21.04700008888585
 31
0.0
  0
LINE
  5
99303
330
99250
100
AcDbEntity
  8
ARRANGE
100
AcDbLine
 10
-21.23459940696193
 20
21.07855278914167
 30
0.0
 11
21.23459940696557
 21
-21.07855278914531
 31
0.0
  0
TEXT
  5
99304
330
99250
100
AcDbEntity
  8
SIZE
100
AcDbText
 10
619.7066762147556
 20
-168.1230673228224
 30
0.0
 40
30.0
  1
(Duct)
 50
90.0
 41
0.9
100
AcDbText
  0
LINE
  5
99305
330
99250
100
AcDbEntity
  8
SIZE
100
AcDbLine
 10
-365.0
 20
-0.000000000009571
 30
0.0
 11
-430.3565702247786
 21
-0.0000000000095781
 31
0.0
  0
LINE
  5
99306
330
99250
100
AcDbEntity
  8
SIZE
100
AcDbLine
 10
-342.9470061288066
 20
-14.99999999999412
 30
0.0
 11
-430.3565702247786
 21
-14.99999999999413
 31
0.0
  0
LINE
  5
99307
330
99250
100
AcDbEntity
  8
SIZE
100
AcDbLine
 10
-425.3565702247787
 20
-14.99999999999413
 30
0.0
 11
-425.3565702247787
 21
-34.99999999999413
 31
0.0
  0
LINE
  5
99308
330
99250
100
AcDbEntity
  8
SIZE
100
AcDbLine
 10
-425.3565702247787
 20
-0.0000000000095781
 30
0.0
 11
-425.3565702247787
 21
108.5714285714199
 31
0.0
  0
LINE
  5
99309
330
99250
100
AcDbEntity
  8
SIZE
100
AcDbLine
 10
-425.3565702247787
 20
-14.99999999999413
 30
0.0
 11
-425.3565702247787
 21
-0.0000000000095781
 31
0.0
  0
CIRCLE
  5
9930A
330
99250
100
AcDbEntity
  8
SIZE
100
AcDbCircle
 10
-425.3565702247787
 20
-14.99999999999413
 30
0.0
 40
5.0
  0
CIRCLE
  5
9930B
330
99250
100
AcDbEntity
  8
SIZE
100
AcDbCircle
 10
-425.3565702247787
 20
-0.0000000000095781
 30
0.0
 40
5.0
  0
TEXT
  5
9930C
330
99250
100
AcDbEntity
  8
SIZE
100
AcDbText
 10
-440.3565702247779
 20
54.99999999999221
 30
0.0
 40
30.0
  1
15
 50
90.0
 41
0.9
100
AcDbText
  0
LINE
  5
9930D
330
99250
100
AcDbEntity
  8
NOTE
100
AcDbLine
 10
-379.1450921450287
 20
-96.58566227049414
 30
0.0
 11
-407.1868543751897
 21
-76.70171093560906
 31
0.0
  0
LINE
  5
9930E
330
99250
100
AcDbEntity
  8
NOTE
100
AcDbLine
 10
-407.1868543751897
 20
-88.90776018598968
 30
0.0
 11
-407.1868543751897
 21
-76.70171093560906
 31
0.0
  0
LINE
  5
9930F
330
99250
100
AcDbEntity
  8
NOTE
100
AcDbLine
 10
-430.2205606287007
 20
-88.90776018598968
 30
0.0
 11
-407.1868543751897
 21
-88.90776018598968
 31
0.0
  0
LINE
  5
99310
330
99250
100
AcDbEntity
  8
NOTE
100
AcDbLine
 10
-430.2205606287007
 20
-104.2635643550018
 30
0.0
 11
-430.2205606287007
 21
-88.90776018598968
 31
0.0
  0
LINE
  5
99311
330
99250
100
AcDbEntity
  8
NOTE
100
AcDbLine
 10
-430.2205606287007
 20
-104.2635643550018
 30
0.0
 11
-407.1868543751897
 21
-104.2635643550018
 31
0.0
  0
LINE
  5
99312
330
99250
100
AcDbEntity
  8
NOTE
100
AcDbLine
 10
-379.1450921450287
 20
-96.58566227049414
 30
0.0
 11
-407.1868543751897
 21
-116.4696136053794
 31
0.0
  0
LINE
  5
99313
330
99250
100
AcDbEntity
  8
NOTE
100
AcDbLine
 10
-407.1868543751897
 20
-104.2635643550018
 30
0.0
 11
-407.1868543751897
 21
-116.4696136053794
 31
0.0
  0
TEXT
  5
99314
330
99250
100
AcDbEntity
  8
NOTE
100
AcDbText
 10
-502.1505464931506
 20
-176.7205885685928
 30
0.0
 40
23.69722882067107
  1
Air inlet
 50
359.9999974955184
 41
0.6
  7
STANDARD1
100
AcDbText
  0
LINE
  5
99315
330
99250
100
AcDbEntity
  8
NOTE
100
AcDbLine
 10
485.2276113631979
 20
-96.58566227049414
 30
0.0
 11
457.1858491330366
 21
-76.70171093560885
 31
0.0
  0
LINE
  5
99316
330
99250
100
AcDbEntity
  8
NOTE
100
AcDbLine
 10
457.1858491330366
 20
-88.90776018598947
 30
0.0
 11
457.1858491330366
 21
-76.70171093560885
 31
0.0
  0
LINE
  5
99317
330
99250
100
AcDbEntity
  8
NOTE
100
AcDbLine
 10
434.1521428795259
 20
-88.90776018598947
 30
0.0
 11
457.1858491330366
 21
-88.90776018598947
 31
0.0
  0
LINE
  5
99318
330
99250
100
AcDbEntity
  8
NOTE
100
AcDbLine
 10
434.1521428795259
 20
-104.2635643550015
 30
0.0
 11
434.1521428795259
 21
-88.90776018598947
 31
0.0
  0
LINE
  5
99319
330
99250
100
AcDbEntity
  8
NOTE
100
AcDbLine
 10
434.1521428795259
 20
-104.2635643550015
 30
0.0
 11
457.1858491330366
 21
-104.2635643550015
 31
0.0
  0
LINE
  5
9931A
330
99250
100
AcDbEntity
  8
NOTE
100
AcDbLine
 10
485.2276113631979
 20
-96.58566227049414
 30
0.0
 11
457.1858491330366
 21
-116.4696136053794
 31
0.0
  0
LINE
  5
9931B
330
99250
100
AcDbEntity
  8
NOTE
100
AcDbLine
 10
457.1858491330366
 20
-104.2635643550015
 30
0.0
 11
457.1858491330366
 21
-116.4696136053794
 31
0.0
  0
TEXT
  5
9931C
330
99250
100
AcDbEntity
  8
NOTE
100
AcDbText
 10
388.5273505553832
 20
-155.212801555044
 30
0.0
 40
23.69722882067107
  1
 outlet
 50
359.9999974955184
 41
0.6
  7
STANDARD1
100
AcDbText
  0
TEXT
  5
9931D
330
99250
100
AcDbEntity
  8
NOTE
100
AcDbText
 10
-746.2418726080795
 20
250.9154456445383
 30
0.0
 40
30.0
  1
Suspension bolt hole
 50
359.9999974955248
 41
0.6
  7
STANDARD1
100
AcDbText
  0
LINE
  5
9931E
330
99250
100
AcDbEntity
  8
NOTE
100
AcDbLine
 10
-398.0665045668648
 20
153.7546129431555
 30
0.0
 11
-753.5074268669577
 21
153.7546449903072
 31
0.0
  0
TEXT
  5
9931F
330
99250
100
AcDbEntity
  8
NOTE
100
AcDbText
 10
-755.2002466013508
 20
202.4914028163368
 30
0.0
 40
30.0
  1
 4-14X30 Slot
 50
359.9999974955248
 41
0.6
  7
STANDARD1
100
AcDbText
  0
TEXT
  5
99320
330
99250
100
AcDbEntity
  8
NOTE
100
AcDbText
 10
-745.2094486139067
 20
163.6577830188323
 30
0.0
 40
30.0
  1
(Use M10 screw)
 50
359.9999974955248
 41
0.6
  7
STANDARD1
100
AcDbText
  0
LINE
  5
99321
330
99250
100
AcDbEntity
  8
SIZE
100
AcDbLine
 10
396.99999999999
 20
-22.9999999999941
 30
0.0
 11
550.6035421003921
 21
-22.99999999999409
 31
0.0
  0
LINE
  5
99322
330
99250
100
AcDbEntity
  8
SIZE
100
AcDbLine
 10
390.6365124045487
 20
-62.99999999999414
 30
0.0
 11
550.6035421003921
 21
-62.9999999999941
 31
0.0
  0
LINE
  5
99323
330
99250
100
AcDbEntity
  8
SIZE
100
AcDbLine
 10
545.6035421003921
 20
-62.9999999999941
 30
0.0
 11
545.6035421003921
 21
-22.99999999999409
 31
0.0
  0
LINE
  5
99324
330
99250
100
AcDbEntity
  8
SIZE
100
AcDbLine
 10
545.6035421003921
 20
-22.99999999999409
 30
0.0
 11
545.6035421003921
 21
70.71428571429284
 31
0.0
  0
CIRCLE
  5
99325
330
99250
100
AcDbEntity
  8
SIZE
100
AcDbCircle
 10
545.6035421003921
 20
-62.9999999999941
 30
0.0
 40
5.0
  0
CIRCLE
  5
99326
330
99250
100
AcDbEntity
  8
SIZE
100
AcDbCircle
 10
545.6035421003921
 20
-22.99999999999409
 30
0.0
 40
5.0
  0
TEXT
  5
99327
330
99250
100
AcDbEntity
  8
SIZE
100
AcDbText
 10
530.6035421003925
 20
12.00000000000777
 30
0.0
 40
30.0
  1
40
 50
90.0
 41
0.9
100
AcDbText
  0
LINE
  5
99328
330
99250
100
AcDbEntity
  8
SIZE
100
AcDbLine
 10
390.6365124045487
 20
-62.99999999999414
 30
0.0
 11
550.6035421003907
 21
-62.9999999999941
 31
0.0
  0
LINE
  5
99329
330
99250
100
AcDbEntity
  8
SIZE
100
AcDbLine
 10
390.6365124045487
 20
-162.9999999999941
 30
0.0
 11
550.6035421003907
 21
-162.9999999999941
 31
0.0
  0
LINE
  5
9932A
330
99250
100
AcDbEntity
  8
SIZE
100
AcDbLine
 10
545.6035421003908
 20
-62.9999999999941
 30
0.0
 11
545.6035421003908
 21
-162.9999999999941
 31
0.0
  0
CIRCLE
  5
9932B
330
99250
100
AcDbEntity
  8
SIZE
100
AcDbCircle
 10
545.6035421003908
 20
-62.9999999999941
 30
0.0
 40
5.0
  0
CIRCLE
  5
9932C
330
99250
100
AcDbEntity
  8
SIZE
100
AcDbCircle
 10
545.6035421003908
 20
-162.9999999999941
 30
0.0
 40
5.0
  0
TEXT
  5
9932D
330
99250
100
AcDbEntity
  8
SIZE
100
AcDbText
 10
530.6035421003911
 20
-145.1428571428506
 30
0.0
 40
30.0
  1
100
 50
90.0
 41
0.9
100
AcDbText
  0
TEXT
  5
9932E
330
99250
100
AcDbEntity
  8
NOTE
100
AcDbText
 10
398.7285061907078
 20
-126.2192495777924
 30
0.0
 40
23.69722882067107
  1
Air
 50
359.9999974955184
 41
0.6
  7
STANDARD1
100
AcDbText
  0
LINE
  5
9932F
330
99250
100
AcDbEntity
  8
SIZE
100
AcDbLine
 10
365.0000000000009
 20
0.0000000000058975
 30
0.0
 11
682.6478616420222
 21
0.0000000000059472
 31
0.0
  0
LINE
  5
99330
330
99250
100
AcDbEntity
  8
SIZE
100
AcDbLine
 10
396.99999999999
 20
-22.9999999999941
 30
0.0
 11
682.6478616420222
 21
-22.99999999999406
 31
0.0
  0
LINE
  5
99331
330
99250
100
AcDbEntity
  8
SIZE
100
AcDbLine
 10
677.6478616420222
 20
-22.99999999999406
 30
0.0
 11
677.6478616420222
 21
-42.99999999999406
 31
0.0
  0
LINE
  5
99332
330
99250
100
AcDbEntity
  8
SIZE
100
AcDbLine
 10
677.6478616420222
 20
0.0000000000059472
 30
0.0
 11
677.6478616420222
 21
113.7142857142929
 31
0.0
  0
LINE
  5
99333
330
99250
100
AcDbEntity
  8
SIZE
100
AcDbLine
 10
677.6478616420222
 20
-22.99999999999406
 30
0.0
 11
677.6478616420222
 21
0.0000000000059472
 31
0.0
  0
CIRCLE
  5
99334
330
99250
100
AcDbEntity
  8
SIZE
100
AcDbCircle
 10
677.6478616420222
 20
-22.99999999999406
 30
0.0
 40
5.0
  0
CIRCLE
  5
99335
330
99250
100
AcDbEntity
  8
SIZE
100
AcDbCircle
 10
677.6478616420222
 20
0.0000000000059472
 30
0.0
 40
5.0
  0
TEXT
  5
99336
330
99250
100
AcDbEntity
  8
SIZE
100
AcDbText
 10
662.6478616420228
 20
55.00000000000778
 30
0.0
 40
30.0
  1
23
 50
90.0
 41
0.9
100
AcDbText
  0
LINE
  5
99337
330
99250
100
AcDbEntity
  8
SIZE
100
AcDbLine
 10
396.99999999999
 20
-22.9999999999941
 30
0.0
 11
682.6478616420208
 21
-22.99999999999406
 31
0.0
  0
LINE
  5
99338
330
99250
100
AcDbEntity
  8
SIZE
100
AcDbLine
 10
397.0000000000009
 20
-200.9999999999942
 30
0.0
 11
682.6478616420208
 21
-200.9999999999942
 31
0.0
  0
LINE
  5
99339
330
99250
100
AcDbEntity
  8
SIZE
100
AcDbLine
 10
677.6478616420209
 20
-22.99999999999406
 30
0.0
 11
677.6478616420209
 21
-200.9999999999942
 31
0.0
  0
CIRCLE
  5
9933A
330
99250
100
AcDbEntity
  8
SIZE
100
AcDbCircle
 10
677.6478616420209
 20
-22.99999999999406
 30
0.0
 40
5.0
  0
CIRCLE
  5
9933B
330
99250
100
AcDbEntity
  8
SIZE
100
AcDbCircle
 10
677.6478616420209
 20
-200.9999999999942
 30
0.0
 40
5.0
  0
TEXT
  5
9933C
330
99250
100
AcDbEntity
  8
SIZE
100
AcDbText
 10
662.6478616420212
 20
-144.1428571428506
 30
0.0
 40
30.0
  1
178
 50
90.0
 41
0.9
100
AcDbText
  0
LINE
  5
9933D
330
99250
100
AcDbEntity
  8
DETAIL
100
AcDbLine
 10
-194.0772532188948
 20
-9.012875536488763
 30
0.0
 11
-194.0772532188948
 21
-0.0000000000090949
 31
0.0
  0
LINE
  5
9933E
330
99250
100
AcDbEntity
  8
DETAIL
100
AcDbLine
 10
-197.0815450643767
 20
-12.01716738198183
 30
0.0
 11
-350.0000000000018
 21
-12.01716738197433
 31
0.0
  0
ARC
  5
9933F
330
99250
100
AcDbEntity
  8
DETAIL
100
AcDbCircle
 10
-197.0815450643767
 20
-9.012875536488763
 30
0.0
 40
3.0042918454936
100
AcDbArc
 50
270.0
 51
0.0
  0
LINE
  5
99340
330
99250
100
AcDbEntity
  8
DETAIL
100
AcDbLine
 10
-349.9999999999982
 20
-249.1988555078624
 30
0.0
 11
-350.8011444921194
 21
-249.1988555078624
 31
0.0
  0
LINE
  5
99341
330
99250
100
AcDbEntity
  8
DETAIL
100
AcDbLine
 10
-353.0042918455091
 20
-246.7954220314668
 30
0.0
 11
-351.0014306151788
 21
-246.7954220314668
 31
0.0
  0
LINE
  5
99342
330
99250
100
AcDbEntity
  8
DETAIL
100
AcDbLine
 10
-356.5092989985751
 20
-240.2861230328981
 30
0.0
 11
-353.0042918455091
 21
-240.2861230328981
 31
0.0
  0
LINE
  5
99343
330
99250
100
AcDbEntity
  8
DETAIL
100
AcDbLine
 10
-349.9999999999982
 20
-228.0000000000096
 30
0.0
 11
-353.0042918455091
 21
-228.0000000000096
 31
0.0
  0
LINE
  5
99344
330
99250
100
AcDbEntity
  8
DETAIL
100
AcDbLine
 10
-356.5092989985751
 20
-10.31473533620328
 30
0.0
 11
-353.0042918455091
 21
-10.31473533620328
 31
0.0
  0
LINE
  5
99345
330
99250
100
AcDbEntity
  8
DETAIL
100
AcDbLine
 10
-357.0100143061426
 20
-4.30615164521714
 30
0.0
 11
-355.6080114449179
 21
-4.30615164521714
 31
0.0
  0
LINE
  5
99346
330
99250
100
AcDbEntity
  8
DETAIL
100
AcDbLine
 10
-353.0042918455091
 20
-3.805436337634091
 30
0.0
 11
-349.9999999999982
 21
-3.805436337634091
 31
0.0
  0
LINE
  5
99347
330
99250
100
AcDbEntity
  8
DETAIL
100
AcDbLine
 10
-355.6080114449179
 20
-4.30615164521714
 30
0.0
 11
-354.927997735871
 21
-6.572864008634495
 31
0.0
  0
LINE
  5
99348
330
99250
100
AcDbEntity
  8
DETAIL
100
AcDbLine
 10
-343.9914163090179
 20
-72.10300429185281
 30
0.0
 11
-343.9914163090179
 21
-24.03433476395458
 31
0.0
  0
LINE
  5
99349
330
99250
100
AcDbEntity
  8
DETAIL
100
AcDbLine
 10
-343.9914163090179
 20
-15.02145922747877
 30
0.0
 11
-343.9914163090179
 21
-24.03433476395458
 31
0.0
  0
LINE
  5
9934A
330
99250
100
AcDbEntity
  8
DETAIL
100
AcDbLine
 10
-349.9999999999982
 20
-247.9971387696628
 30
0.0
 11
-349.9999999999982
 21
-236.7811158798222
 31
0.0
  0
LINE
  5
9934B
330
99250
100
AcDbEntity
  8
DETAIL
100
AcDbLine
 10
-349.9999999999982
 20
-234.1344778254752
 30
0.0
 11
-349.9999999999982
 21
-0.0000000000095497
 31
0.0
  0
LINE
  5
9934C
330
99250
100
AcDbEntity
  8
DETAIL
100
AcDbLine
 10
-349.9999999999982
 20
-122.9756795422136
 30
0.0
 11
-349.9999999999982
 21
-12.01716738198183
 31
0.0
  0
LINE
  5
9934D
330
99250
100
AcDbEntity
  8
DETAIL
100
AcDbLine
 10
-351.0014306151788
 20
-247.9971387696628
 30
0.0
 11
-351.0014306151788
 21
-228.0000000000096
 31
0.0
  0
LINE
  5
9934E
330
99250
100
AcDbEntity
  8
DETAIL
100
AcDbLine
 10
-351.0014306151788
 20
-247.9971387696628
 30
0.0
 11
-351.0014306151788
 21
-248.9985693848284
 31
0.0
  0
LINE
  5
9934F
330
99250
100
AcDbEntity
  8
DETAIL
100
AcDbLine
 10
-353.0042918455091
 20
-3.805436337634091
 30
0.0
 11
-353.0042918455091
 21
-18.00000000000955
 31
0.0
  0
LINE
  5
99350
330
99250
100
AcDbEntity
  8
DETAIL
100
AcDbLine
 10
-353.0042918455091
 20
-228.0000000000096
 30
0.0
 11
-353.0042918455091
 21
-246.7954220314668
 31
0.0
  0
LINE
  5
99351
330
99250
100
AcDbEntity
  8
DETAIL
100
AcDbLine
 10
-354.8142038431597
 20
-9.831494740796642
 30
0.0
 11
-354.927997735871
 21
-6.572864008634495
 31
0.0
  0
ARC
  5
99352
330
99250
100
AcDbEntity
  8
DETAIL
100
AcDbCircle
 10
-356.5092989985751
 20
-239.7854077253151
 30
0.0
 40
0.5007153075822283
100
AcDbArc
 50
180.0
 51
270.0
  0
ARC
  5
99353
330
99250
100
AcDbEntity
  8
DETAIL
100
AcDbCircle
 10
-350.8011444921194
 20
-248.9985693848284
 30
0.0
 40
0.2002861230327059
100
AcDbArc
 50
180.0
 51
270.0
  0
ARC
  5
99354
330
99250
100
AcDbEntity
  8
DETAIL
100
AcDbCircle
 10
-356.5092989985751
 20
-10.81545064378588
 30
0.0
 40
0.500715307582258
100
AcDbArc
 50
90.0
 51
180.0
  0
ARC
  5
99355
330
99250
100
AcDbEntity
  8
DETAIL
100
AcDbCircle
 10
-354.3137935578343
 20
-9.814020028620687
 30
0.0
 40
0.5007153075822283
100
AcDbArc
 50
182.0000000000043
 51
270.0
  0
LINE
  5
99356
330
99250
100
AcDbEntity
  8
DETAIL
100
AcDbLine
 10
-357.0100143061571
 20
-239.7854077253151
 30
0.0
 11
-357.0100143061571
 21
-4.30615164521714
 31
0.0
  0
LINE
  5
99357
330
99250
100
AcDbEntity
  8
DETAIL
100
AcDbLine
 10
-349.9999999999982
 20
-249.9999999999941
 30
0.0
 11
-349.9999999999982
 21
0.0000000000059117
 31
0.0
  0
LINE
  5
99358
330
99250
100
AcDbEntity
  8
OUTLINE
100
AcDbLine
 10
-349.9999999999982
 20
-0.0000000000095497
 30
0.0
 11
-349.9999999999982
 21
-249.9999999999941
 31
0.0
  0
LINE
  5
99359
330
99250
100
AcDbEntity
  8
DETAIL
100
AcDbLine
 10
-353.0042918455091
 20
-18.00000000000955
 30
0.0
 11
-349.9999999999982
 21
-18.00000000000955
 31
0.0
  0
LINE
  5
9935A
330
99250
100
AcDbEntity
  8
SIZE
100
AcDbLine
 10
-365.0
 20
-0.000000000009571
 30
0.0
 11
-804.0981188317363
 21
-0.000000000009635
 31
0.0
  0
LINE
  5
9935B
330
99250
100
AcDbEntity
  8
SIZE
100
AcDbLine
 10
-368.004291845511
 20
-18.00000000000958
 30
0.0
 11
-804.0981188317363
 21
-18.00000000000965
 31
0.0
  0
LINE
  5
9935C
330
99250
100
AcDbEntity
  8
SIZE
100
AcDbLine
 10
-799.0981188317364
 20
-18.00000000000965
 30
0.0
 11
-799.0981188317364
 21
-38.00000000000965
 31
0.0
  0
LINE
  5
9935D
330
99250
100
AcDbEntity
  8
SIZE
100
AcDbLine
 10
-799.0981188317364
 20
-0.000000000009635
 30
0.0
 11
-799.0981188317364
 21
108.5714285714202
 31
0.0
  0
LINE
  5
9935E
330
99250
100
AcDbEntity
  8
SIZE
100
AcDbLine
 10
-799.0981188317364
 20
-18.00000000000965
 30
0.0
 11
-799.0981188317364
 21
-0.000000000009635
 31
0.0
  0
CIRCLE
  5
9935F
330
99250
100
AcDbEntity
  8
SIZE
100
AcDbCircle
 10
-799.0981188317364
 20
-18.00000000000965
 30
0.0
 40
5.0
  0
CIRCLE
  5
99360
330
99250
100
AcDbEntity
  8
SIZE
100
AcDbCircle
 10
-799.0981188317364
 20
-0.000000000009635
 30
0.0
 40
5.0
  0
TEXT
  5
99361
330
99250
100
AcDbEntity
  8
SIZE
100
AcDbText
 10
-814.0981188317354
 20
54.99999999999268
 30
0.0
 40
30.0
  1
18
 50
90.0
 41
0.9
100
AcDbText
  0
LINE
  5
99362
330
99250
100
AcDbEntity
  8
NOTE
100
AcDbLine
 10
-349.9999999999982
 20
-7.363487595449669
 30
0.0
 11
-349.9999999999982
 21
-14.63651240456988
 31
0.0
  0
LINE
  5
99363
330
99250
100
AcDbEntity
  8
NOTE
100
AcDbLine
 10
-353.6365124045588
 20
-11.00000000000977
 30
0.0
 11
-346.3634875954376
 21
-11.00000000000977
 31
0.0
  0
LINE
  5
99364
330
99250
100
AcDbEntity
  8
NOTE
100
AcDbLine
 10
-349.9999999999982
 20
-119.3634875954494
 30
0.0
 11
-349.9999999999982
 21
-126.6365124045696
 31
0.0
  0
LINE
  5
99365
330
99250
100
AcDbEntity
  8
NOTE
100
AcDbLine
 10
-353.6365124045588
 20
-123.0000000000095
 30
0.0
 11
-346.3634875954376
 21
-123.0000000000095
 31
0.0
  0
LINE
  5
99366
330
99250
100
AcDbEntity
  8
NOTE
100
AcDbLine
 10
-349.9999999999982
 20
-231.3634875954495
 30
0.0
 11
-349.9999999999982
 21
-238.6365124045696
 31
0.0
  0
LINE
  5
99367
330
99250
100
AcDbEntity
  8
NOTE
100
AcDbLine
 10
-353.6365124045588
 20
-235.0000000000096
 30
0.0
 11
-346.3634875954376
 21
-235.0000000000096
 31
0.0
  0
LINE
  5
99368
330
99250
100
AcDbEntity
  8
SIZE
100
AcDbLine
 10
-365.0
 20
0.0000000000058904
 30
0.0
 11
-941.742264742068
 21
0.000000000005798
 31
0.0
  0
LINE
  5
99369
330
99250
100
AcDbEntity
  8
SIZE
100
AcDbLine
 10
-368.6365124045606
 20
-11.00000000000981
 30
0.0
 11
-941.742264742068
 21
-11.0000000000099
 31
0.0
  0
LINE
  5
9936A
330
99250
100
AcDbEntity
  8
SIZE
100
AcDbLine
 10
-936.742264742068
 20
-11.0000000000099
 30
0.0
 11
-936.742264742068
 21
-31.00000000000991
 31
0.0
  0
LINE
  5
9936B
330
99250
100
AcDbEntity
  8
SIZE
100
AcDbLine
 10
-936.742264742068
 20
0.000000000005798
 30
0.0
 11
-936.742264742068
 21
97.0000000000067
 31
0.0
  0
LINE
  5
9936C
330
99250
100
AcDbEntity
  8
SIZE
100
AcDbLine
 10
-936.742264742068
 20
-11.0000000000099
 30
0.0
 11
-936.742264742068
 21
0.000000000005798
 31
0.0
  0
CIRCLE
  5
9936D
330
99250
100
AcDbEntity
  8
SIZE
100
AcDbCircle
 10
-936.742264742068
 20
-11.0000000000099
 30
0.0
 40
5.0
  0
CIRCLE
  5
9936E
330
99250
100
AcDbEntity
  8
SIZE
100
AcDbCircle
 10
-936.742264742068
 20
0.000000000005798
 30
0.0
 40
5.0
  0
TEXT
  5
9936F
330
99250
100
AcDbEntity
  8
SIZE
100
AcDbText
 10
-951.7422647420673
 20
55.00000000000774
 30
0.0
 40
30.0
  1
11
 50
90.0
 41
0.9
100
AcDbText
  0
LINE
  5
99370
330
99250
100
AcDbEntity
  8
SIZE
100
AcDbLine
 10
-368.6365124045606
 20
-11.00000000000981
 30
0.0
 11
-941.742264742079
 21
-11.0000000000099
 31
0.0
  0
LINE
  5
99371
330
99250
100
AcDbEntity
  8
SIZE
100
AcDbLine
 10
-368.6365124045606
 20
-123.0000000000096
 30
0.0
 11
-941.742264742079
 21
-123.0000000000097
 31
0.0
  0
LINE
  5
99372
330
99250
100
AcDbEntity
  8
SIZE
100
AcDbLine
 10
-936.742264742079
 20
-11.0000000000099
 30
0.0
 11
-936.742264742079
 21
-123.0000000000097
 31
0.0
  0
CIRCLE
  5
99373
330
99250
100
AcDbEntity
  8
SIZE
100
AcDbCircle
 10
-936.742264742079
 20
-11.0000000000099
 30
0.0
 40
5.0
  0
CIRCLE
  5
99374
330
99250
100
AcDbEntity
  8
SIZE
100
AcDbCircle
 10
-936.742264742079
 20
-123.0000000000097
 30
0.0
 40
5.0
  0
TEXT
  5
99375
330
99250
100
AcDbEntity
  8
SIZE
100
AcDbText
 10
-951.7422647420779
 20
-96.57142857143732
 30
0.0
 40
30.0
  1
112
 50
90.0
 41
0.9
100
AcDbText
  0
LINE
  5
99376
330
99250
100
AcDbEntity
  8
SIZE
100
AcDbLine
 10
-368.6365124045606
 20
-123.0000000000096
 30
0.0
 11
-941.742264742079
 21
-123.0000000000097
 31
0.0
  0
LINE
  5
99377
330
99250
100
AcDbEntity
  8
SIZE
100
AcDbLine
 10
-368.6365124045606
 20
-235.0000000000097
 30
0.0
 11
-941.742264742079
 21
-235.0000000000098
 31
0.0
  0
LINE
  5
99378
330
99250
100
AcDbEntity
  8
SIZE
100
AcDbLine
 10
-936.742264742079
 20
-123.0000000000097
 30
0.0
 11
-936.742264742079
 21
-235.0000000000098
 31
0.0
  0
CIRCLE
  5
99379
330
99250
100
AcDbEntity
  8
SIZE
100
AcDbCircle
 10
-936.742264742079
 20
-123.0000000000097
 30
0.0
 40
5.0
  0
CIRCLE
  5
9937A
330
99250
100
AcDbEntity
  8
SIZE
100
AcDbCircle
 10
-936.742264742079
 20
-235.0000000000098
 30
0.0
 40
5.0
  0
TEXT
  5
9937B
330
99250
100
AcDbEntity
  8
SIZE
100
AcDbText
 10
-951.7422647420779
 20
-208.5714285714372
 30
0.0
 40
30.0
  1
112
 50
90.0
 41
0.9
100
AcDbText
  0
LINE
  5
9937C
330
99250
100
AcDbEntity
  8
SIZE
100
AcDbLine
 10
-368.004291845511
 20
-18.00000000000958
 30
0.0
 11
-804.0981188317363
 21
-18.00000000000965
 31
0.0
  0
LINE
  5
9937D
330
99250
100
AcDbEntity
  8
SIZE
100
AcDbLine
 10
-368.004291845511
 20
-228.0000000000097
 30
0.0
 11
-804.0981188317363
 21
-228.0000000000098
 31
0.0
  0
LINE
  5
9937E
330
99250
100
AcDbEntity
  8
SIZE
100
AcDbLine
 10
-799.0981188317364
 20
-18.00000000000965
 30
0.0
 11
-799.0981188317364
 21
-228.0000000000098
 31
0.0
  0
CIRCLE
  5
9937F
330
99250
100
AcDbEntity
  8
SIZE
100
AcDbCircle
 10
-799.0981188317364
 20
-18.00000000000965
 30
0.0
 40
5.0
  0
CIRCLE
  5
99380
330
99250
100
AcDbEntity
  8
SIZE
100
AcDbCircle
 10
-799.0981188317364
 20
-228.0000000000098
 30
0.0
 40
5.0
  0
TEXT
  5
99381
330
99250
100
AcDbEntity
  8
SIZE
100
AcDbText
 10
-814.0981188317354
 20
-207.0198865194837
 30
0.0
 40
30.0
  1
210
 50
90.0
 41
0.9
100
AcDbText
  0
LINE
  5
99382
330
99250
100
AcDbEntity
  8
SIZE
100
AcDbLine
 10
-350.0
 20
-274.99999999998
 30
0.0
 11
-350.0
 21
-714.2881926910834
 31
0.0
  0
LINE
  5
99383
330
99250
100
AcDbEntity
  8
SIZE
100
AcDbLine
 10
-649.9999999999962
 20
-384.99999999998
 30
0.0
 11
-649.9999999999962
 21
-714.2881926910834
 31
0.0
  0
LINE
  5
99384
330
99250
100
AcDbEntity
  8
SIZE
100
AcDbLine
 10
-350.0
 20
-709.2881926910834
 30
0.0
 11
-649.9999999999962
 21
-709.2881926910834
 31
0.0
  0
CIRCLE
  5
99385
330
99250
100
AcDbEntity
  8
SIZE
100
AcDbCircle
 10
-350.0
 20
-709.2881926910834
 30
0.0
 40
5.0
  0
CIRCLE
  5
99386
330
99250
100
AcDbEntity
  8
SIZE
100
AcDbCircle
 10
-649.9999999999962
 20
-709.2881926910834
 30
0.0
 40
5.0
  0
TEXT
  5
99387
330
99250
100
AcDbEntity
  8
SIZE
100
AcDbText
 10
-611.2142857142839
 20
-694.2881926910834
 30
0.0
 40
30.0
  1
Min.300mm
 41
0.9
100
AcDbText
  0
LINE
  5
99388
330
99250
100
AcDbEntity
  8
OUTLINE
100
AcDbLine
 10
270.9901031676909
 20
-269.9999999999977
 30
0.0
 11
270.9901031676909
 21
-309.9999999999976
 31
0.0
  0
LINE
  5
99389
330
99250
100
AcDbEntity
  8
OUTLINE
100
AcDbLine
 10
270.9901031676909
 20
-309.9999999999976
 30
0.0
 11
310.9901031676909
 21
-309.9999999999976
 31
0.0
  0
LINE
  5
9938A
330
99250
100
AcDbEntity
  8
OUTLINE
100
AcDbLine
 10
310.9901031676909
 20
-309.9999999999976
 30
0.0
 11
310.9901031676909
 21
-269.9999999999977
 31
0.0
  0
LINE
  5
9938B
330
99250
100
AcDbEntity
  8
OUTLINE
100
AcDbLine
 10
310.9901031676909
 20
-269.9999999999977
 30
0.0
 11
270.9901031676909
 21
-269.9999999999977
 31
0.0
  0
LINE
  5
9938C
330
99250
100
AcDbEntity
  8
OUTLINE
100
AcDbLine
 10
310.9901031676909
 20
-309.9999999999976
 30
0.0
 11
270.9901031676909
 21
-269.9999999999977
 31
0.0
  0
LINE
  5
9938D
330
99250
100
AcDbEntity
  8
OUTLINE
100
AcDbLine
 10
270.9901031676909
 20
-309.9999999999976
 30
0.0
 11
310.9901031676909
 21
-269.9999999999977
 31
0.0
  0
LINE
  5
9938E
330
99250
100
AcDbEntity
  8
OUTLINE
100
AcDbLine
 10
-341.9034574471752
 20
-269.9999999999977
 30
0.0
 11
-341.9034574471752
 21
-309.9999999999976
 31
0.0
  0
LINE
  5
9938F
330
99250
100
AcDbEntity
  8
OUTLINE
100
AcDbLine
 10
-341.9034574471752
 20
-309.9999999999976
 30
0.0
 11
-301.9034574471752
 21
-309.9999999999976
 31
0.0
  0
LINE
  5
99390
330
99250
100
AcDbEntity
  8
OUTLINE
100
AcDbLine
 10
-301.9034574471752
 20
-309.9999999999976
 30
0.0
 11
-301.9034574471752
 21
-269.9999999999977
 31
0.0
  0
LINE
  5
99391
330
99250
100
AcDbEntity
  8
OUTLINE
100
AcDbLine
 10
-301.9034574471752
 20
-269.9999999999977
 30
0.0
 11
-341.9034574471752
 21
-269.9999999999977
 31
0.0
  0
LINE
  5
99392
330
99250
100
AcDbEntity
  8
OUTLINE
100
AcDbLine
 10
-301.9034574471752
 20
-309.9999999999976
 30
0.0
 11
-341.9034574471752
 21
-269.9999999999977
 31
0.0
  0
LINE
  5
99393
330
99250
100
AcDbEntity
  8
OUTLINE
100
AcDbLine
 10
-341.9034574471752
 20
-309.9999999999976
 30
0.0
 11
-301.9034574471752
 21
-269.9999999999977
 31
0.0
  0
TEXT
  5
99394
330
99250
100
AcDbEntity
  8
NOTE
100
AcDbText
 10
-1045.333126016993
 20
-466.0521428028238
 30
0.0
 40
35.0
  1
Ceiling surface
 50
359.999999316757
 41
0.7
  7
STANDARD1
100
AcDbText
  0
LINE
  5
99395
330
99250
100
AcDbEntity
  8
NOTE
100
AcDbLine
 10
-372.2659116932637
 20
-329.7755509018236
 30
0.0
 11
-341.9034574471752
 21
-309.9999999999976
 31
0.0
  0
LINE
  5
99396
330
99250
100
AcDbEntity
  8
NOTE
100
AcDbLine
 10
-341.9034574471752
 20
-309.9999999999976
 30
0.0
 11
-358.310338841181
 21
-342.3073565034251
 31
0.0
  0
LINE
  5
99397
330
99250
100
AcDbEntity
  8
NOTE
100
AcDbLine
 10
-341.9034574471752
 20
-309.9999999999976
 30
0.0
 11
-365.2881252672223
 21
-336.0414537026243
 31
0.0
  0
LINE
  5
99398
330
99250
100
AcDbEntity
  8
NOTE
100
AcDbLine
 10
-365.2881252672223
 20
-336.0414537026243
 30
0.0
 11
-700.6058469296676
 21
-709.4553927647361
 31
0.0
1001
ACAD
1000
DSTYLE
1002
{
1070
    41
1040
35.0
1070
   271
1070
     0
1070
   341
1005
4C0C3
1002
}
  0
LINE
  5
99399
330
99250
100
AcDbEntity
  8
NOTE
100
AcDbLine
 10
-700.6058469296676
 20
-709.4553927647361
 30
0.0
 11
-988.7159060813699
 21
-709.4553927647361
 31
0.0
1001
ACAD
1000
DSTYLE
1002
{
1070
    41
1040
35.0
1070
   271
1070
     0
1070
   341
1005
4C0C3
1002
}
  0
TEXT
  5
9939A
330
99250
100
AcDbEntity
  8
NOTE
100
AcDbText
 10
-984.5238555144232
 20
-692.9116853124233
 30
0.0
 40
35.0
  1
Ceiling beam
 50
359.999999316757
 41
0.7
  7
STANDARD1
100
AcDbText
  0
LINE
  5
9939B
330
99250
100
AcDbEntity
  8
NOTE
100
AcDbLine
 10
29.31000285783193
 20
-420.9243156485
 30
0.0
 11
48.19485771528889
 21
-389.99999999998
 31
0.0
  0
LINE
  5
9939C
330
99250
100
AcDbEntity
  8
NOTE
100
AcDbLine
 10
48.19485771528889
 20
-389.99999999998
 30
0.0
 11
47.30225132187934
 21
-426.2236703709261
 31
0.0
  0
LINE
  5
9939D
330
99250
100
AcDbEntity
  8
NOTE
100
AcDbLine
 10
48.19485771528889
 20
-389.99999999998
 30
0.0
 11
38.30612708985564
 21
-423.5739930097131
 31
0.0
  0
LINE
  5
9939E
330
99250
100
AcDbEntity
  8
NOTE
100
AcDbLine
 10
29.31000285783193
 20
-420.9243156485
 30
0.0
 11
48.19485771528889
 21
-389.99999999998
 31
0.0
  0
LINE
  5
9939F
330
99250
100
AcDbEntity
  8
NOTE
100
AcDbLine
 10
48.19485771528889
 20
-389.99999999998
 30
0.0
 11
47.30225132187934
 21
-426.2236703709261
 31
0.0
  0
LINE
  5
993A0
330
99250
100
AcDbEntity
  8
NOTE
100
AcDbLine
 10
48.19485771528889
 20
-389.99999999998
 30
0.0
 11
38.30612708985564
 21
-423.5739930097131
 31
0.0
  0
LINE
  5
993A1
330
99250
100
AcDbEntity
  8
NOTE
100
AcDbLine
 10
29.31000285783193
 20
-420.9243156485
 30
0.0
 11
48.19485771528889
 21
-389.99999999998
 31
0.0
  0
LINE
  5
993A2
330
99250
100
AcDbEntity
  8
NOTE
100
AcDbLine
 10
48.19485771528889
 20
-389.99999999998
 30
0.0
 11
47.30225132187934
 21
-426.2236703709261
 31
0.0
  0
LINE
  5
993A3
330
99250
100
AcDbEntity
  8
NOTE
100
AcDbLine
 10
48.19485771528889
 20
-389.99999999998
 30
0.0
 11
38.30612708985564
 21
-423.5739930097131
 31
0.0
  0
LINE
  5
993A4
330
99250
100
AcDbEntity
  8
NOTE
100
AcDbLine
 10
-639.0437421532022
 20
-412.8591679402426
 30
0.0
 11
-610.9295200868635
 21
-389.99999999998
 31
0.0
  0
LINE
  5
993A5
330
99250
100
AcDbEntity
  8
NOTE
100
AcDbLine
 10
-610.9295200868635
 20
-389.99999999998
 30
0.0
 11
-623.8475667873972
 21
-423.8537311201882
 31
0.0
  0
LINE
  5
993A6
330
99250
100
AcDbEntity
  8
NOTE
100
AcDbLine
 10
-610.9295200868635
 20
-389.99999999998
 30
0.0
 11
-631.4456544702998
 21
-418.3564495302155
 31
0.0
  0
LINE
  5
993A7
330
99250
100
AcDbEntity
  8
NOTE
100
AcDbLine
 10
-631.4456544702998
 20
-418.3564495302155
 30
0.0
 11
-679.7737449786644
 21
-485.1532950655779
 31
0.0
1001
ACAD
1000
DSTYLE
1002
{
1070
   341
1005
4C0C3
1070
    41
1040
35.0
1070
   271
1070
     0
1002
}
  0
LINE
  5
993A8
330
99250
100
AcDbEntity
  8
NOTE
100
AcDbLine
 10
-679.7737449786644
 20
-485.1532950655779
 30
0.0
 11
-1052.805744101454
 21
-485.1532950655779
 31
0.0
1001
ACAD
1000
DSTYLE
1002
{
1070
   341
1005
4C0C3
1070
    41
1040
35.0
1070
   271
1070
     0
1002
}
  0
LINE
  5
993A9
330
99250
100
AcDbEntity
  8
NOTE
100
AcDbLine
 10
38.30612708985564
 20
-423.5739930097131
 30
0.0
 11
-35.7149623682617
 21
-674.8887101532844
 31
0.0
1001
ACAD
1000
DSTYLE
1002
{
1070
   341
1005
4C0C3
1070
    41
1040
35.0
1070
   271
1070
     0
1002
}
  0
LINE
  5
993AA
330
99250
100
AcDbEntity
  8
NOTE
100
AcDbLine
 10
-35.7149623682617
 20
-674.8887101532844
 30
0.0
 11
-342.3294617253613
 21
-674.8887101532844
 31
0.0
1001
ACAD
1000
DSTYLE
1002
{
1070
   341
1005
4C0C3
1070
    41
1040
35.0
1070
   271
1070
     0
1002
}
  0
LINE
  5
993AB
330
99250
100
AcDbEntity
  8
NOTE
100
AcDbLine
 10
38.30612708985564
 20
-423.5739930097131
 30
0.0
 11
-35.7149623682617
 21
-674.8887101532844
 31
0.0
1001
ACAD
1000
DSTYLE
1002
{
1070
   341
1005
4C0C3
1070
    41
1040
35.0
1070
   271
1070
     0
1002
}
  0
LINE
  5
993AC
330
99250
100
AcDbEntity
  8
NOTE
100
AcDbLine
 10
-35.7149623682617
 20
-674.8887101532844
 30
0.0
 11
-342.3294617253613
 21
-674.8887101532844
 31
0.0
1001
ACAD
1000
DSTYLE
1002
{
1070
   341
1005
4C0C3
1070
    41
1040
35.0
1070
   271
1070
     0
1002
}
  0
LINE
  5
993AD
330
99250
100
AcDbEntity
  8
NOTE
100
AcDbLine
 10
38.30612708985564
 20
-423.5739930097131
 30
0.0
 11
-35.7149623682617
 21
-674.8887101532844
 31
0.0
1001
ACAD
1000
DSTYLE
1002
{
1070
   341
1005
4C0C3
1070
    41
1040
35.0
1070
   271
1070
     0
1002
}
  0
LINE
  5
993AE
330
99250
100
AcDbEntity
  8
NOTE
100
AcDbLine
 10
-35.7149623682617
 20
-674.8887101532844
 30
0.0
 11
-342.3294617253613
 21
-674.8887101532844
 31
0.0
1001
ACAD
1000
DSTYLE
1002
{
1070
   341
1005
4C0C3
1070
    41
1040
35.0
1070
   271
1070
     0
1002
}
  0
TEXT
  5
993AF
330
99250
100
AcDbEntity
  8
NOTE
100
AcDbText
 10
-339.2041355009196
 20
-654.9922468802212
 30
0.0
 40
35.0
  1
Access door 4
 50
359.999999316757
 41
0.7
  7
STANDARD1
100
AcDbText
  0
LINE
  5
993B0
330
99250
100
AcDbEntity
  8
SIZE
100
AcDbLine
 10
350.0000000000018
 20
-264.9999999999941
 30
0.0
 11
350.0000000000018
 21
-556.0793416083631
 31
0.0
  0
LINE
  5
993B1
330
99250
100
AcDbEntity
  8
SIZE
100
AcDbLine
 10
400.0000000000036
 20
-374.9999999999941
 30
0.0
 11
400.0000000000036
 21
-556.0793416083631
 31
0.0
  0
LINE
  5
993B2
330
99250
100
AcDbEntity
  8
SIZE
100
AcDbLine
 10
350.0000000000018
 20
-551.0793416083632
 30
0.0
 11
400.0000000000036
 21
-551.0793416083632
 31
0.0
  0
LINE
  5
993B3
330
99250
100
AcDbEntity
  8
SIZE
100
AcDbLine
 10
400.0000000000036
 20
-551.0793416083632
 30
0.0
 11
493.7142857142894
 21
-551.0793416083632
 31
0.0
  0
CIRCLE
  5
993B4
330
99250
100
AcDbEntity
  8
SIZE
100
AcDbCircle
 10
350.0000000000018
 20
-551.0793416083632
 30
0.0
 40
5.0
  0
CIRCLE
  5
993B5
330
99250
100
AcDbEntity
  8
SIZE
100
AcDbCircle
 10
400.0000000000036
 20
-551.0793416083632
 30
0.0
 40
5.0
  0
TEXT
  5
993B6
330
99250
100
AcDbEntity
  8
SIZE
100
AcDbText
 10
435.0000000000036
 20
-536.0793416083631
 30
0.0
 40
30.0
  1
50
 41
0.9
100
AcDbText
  0
LINE
  5
993B7
330
99250
100
AcDbEntity
  8
SIZE
100
AcDbLine
 10
-365.0
 20
-0.000000000009571
 30
0.0
 11
-1082.655216120126
 21
-0.0000000000096847
 31
0.0
  0
LINE
  5
993B8
330
99250
100
AcDbEntity
  8
SIZE
100
AcDbLine
 10
-365.0
 20
-249.9999999999942
 30
0.0
 11
-1082.655216120126
 21
-249.9999999999943
 31
0.0
  0
LINE
  5
993B9
330
99250
100
AcDbEntity
  8
SIZE
100
AcDbLine
 10
-1077.655216120126
 20
-0.0000000000096847
 30
0.0
 11
-1077.655216120126
 21
-249.9999999999943
 31
0.0
  0
CIRCLE
  5
993BA
330
99250
100
AcDbEntity
  8
SIZE
100
AcDbCircle
 10
-1077.655216120126
 20
-0.0000000000096847
 30
0.0
 40
5.0
  0
CIRCLE
  5
993BB
330
99250
100
AcDbEntity
  8
SIZE
100
AcDbCircle
 10
-1077.655216120126
 20
-249.9999999999943
 30
0.0
 40
5.0
  0
TEXT
  5
993BC
330
99250
100
AcDbEntity
  8
SIZE
100
AcDbText
 10
-1092.655216120125
 20
-159.7142857142866
 30
0.0
 40
30.0
  1
250
 50
90.0
 41
0.9
100
AcDbText
  0
LINE
  5
993BD
330
99250
100
AcDbEntity
  8
SIZE
100
AcDbLine
 10
-356.9034574471771
 20
-269.9999999999976
 30
0.0
 11
-1082.65521612011
 21
-269.9999999999977
 31
0.0
  0
LINE
  5
993BE
330
99250
100
AcDbEntity
  8
SIZE
100
AcDbLine
 10
-365.0
 20
-249.9999999999942
 30
0.0
 11
-1082.65521612011
 21
-249.9999999999943
 31
0.0
  0
LINE
  5
993BF
330
99250
100
AcDbEntity
  8
SIZE
100
AcDbLine
 10
-1077.65521612011
 20
-249.9999999999943
 30
0.0
 11
-1077.65521612011
 21
-229.9999999999943
 31
0.0
  0
LINE
  5
993C0
330
99250
100
AcDbEntity
  8
SIZE
100
AcDbLine
 10
-1077.65521612011
 20
-269.9999999999977
 30
0.0
 11
-1077.65521612011
 21
-536.7142857142846
 31
0.0
  0
LINE
  5
993C1
330
99250
100
AcDbEntity
  8
SIZE
100
AcDbLine
 10
-1077.65521612011
 20
-249.9999999999943
 30
0.0
 11
-1077.65521612011
 21
-269.9999999999977
 31
0.0
  0
CIRCLE
  5
993C2
330
99250
100
AcDbEntity
  8
SIZE
100
AcDbCircle
 10
-1077.65521612011
 20
-249.9999999999943
 30
0.0
 40
5.0
  0
CIRCLE
  5
993C3
330
99250
100
AcDbEntity
  8
SIZE
100
AcDbCircle
 10
-1077.65521612011
 20
-269.9999999999977
 30
0.0
 40
5.0
  0
TEXT
  5
993C4
330
99250
100
AcDbEntity
  8
SIZE
100
AcDbText
 10
-1092.655216120109
 20
-521.7142857142833
 30
0.0
 40
30.0
  1
Min.20mm
 50
90.0
 41
0.9
100
AcDbText
  0
LINE
  5
993C5
330
99250
100
AcDbEntity
  8
SIZE
100
AcDbLine
 10
400.0000000000036
 20
-404.9999999999799
 30
0.0
 11
400.0000000000036
 21
-781.8510369401104
 31
0.0
  0
LINE
  5
993C6
330
99250
100
AcDbEntity
  8
SIZE
100
AcDbLine
 10
-376.9999999999964
 20
-404.9999999999799
 30
0.0
 11
-376.9999999999964
 21
-781.8510369401104
 31
0.0
  0
LINE
  5
993C7
330
99250
100
AcDbEntity
  8
SIZE
100
AcDbLine
 10
400.0000000000036
 20
-776.8510369401103
 30
0.0
 11
-376.9999999999964
 21
-776.8510369401103
 31
0.0
  0
TEXT
  5
993C8
330
99250
100
AcDbEntity
  8
SIZE
100
AcDbText
 10
-23.21428571428214
 20
-761.8510369401104
 30
0.0
 40
30.0
  1
777
 41
0.9
100
AcDbText
  0
CIRCLE
  5
993C9
330
99250
100
AcDbEntity
  8
SIZE
100
AcDbCircle
 10
400.0000000000036
 20
-776.8510369401103
 30
0.0
 40
5.0
  0
CIRCLE
  5
993CA
330
99250
100
AcDbEntity
  8
SIZE
100
AcDbCircle
 10
-376.9999999999964
 20
-776.8510369401103
 30
0.0
 40
5.0
  0
LINE
  5
993CB
330
99250
100
AcDbEntity
  8
SERVICESPACE
100
AcDbLine
 10
-649.9999999999962
 20
-389.9999999999802
 30
0.0
 11
400.0000000000036
 21
-389.9999999999802
 31
0.0
  0
LINE
  5
993CC
330
99250
100
AcDbEntity
  8
SERVICESPACE
100
AcDbLine
 10
400.0000000000036
 20
-369.9999999999802
 30
0.0
 11
-649.9999999999962
 21
-369.9999999999802
 31
0.0
  0
LINE
  5
993CD
330
99250
100
AcDbEntity
  8
SERVICESPACE
100
AcDbLine
 10
-649.9999999999962
 20
-369.9999999999802
 30
0.0
 11
-649.9999999999962
 21
-389.9999999999802
 31
0.0
  0
LINE
  5
993CE
330
99250
100
AcDbEntity
  8
SERVICESPACE
100
AcDbLine
 10
400.0000000000036
 20
-369.9999999999802
 30
0.0
 11
400.0000000000036
 21
-389.9999999999802
 31
0.0
  0
LINE
  5
993CF
330
99250
100
AcDbEntity
  8
SERVICESPACE
100
AcDbLine
 10
-376.9999999999964
 20
-369.9999999999802
 30
0.0
 11
-376.9999999999964
 21
-389.9999999999802
 31
0.0
  0
LINE
  5
993D0
330
99250
100
AcDbEntity
  8
SERVICESPACE
100
AcDbLine
 10
400.0000000000036
 20
-389.9999999999802
 30
0.0
 11
-376.9999999999964
 21
-369.9999999999802
 31
0.0
  0
LINE
  5
993D1
330
99250
100
AcDbEntity
  8
SERVICESPACE
100
AcDbLine
 10
-376.9999999999964
 20
-389.9999999999802
 30
0.0
 11
400.0000000000036
 21
-369.9999999999802
 31
0.0
  0
LINE
  5
993D2
330
99250
100
AcDbEntity
  8
NOTE
100
AcDbLine
 10
233.5743038814817
 20
-146.1135588235061
 30
0.0
 11
214.0000000000018
 21
-121.9999999999941
 31
0.0
  0
LINE
  5
993D3
330
99250
100
AcDbEntity
  8
NOTE
100
AcDbLine
 10
214.0000000000018
 20
-121.9999999999941
 30
0.0
 11
243.0086237841792
 21
-133.0958027076647
 31
0.0
  0
LINE
  5
993D4
330
99250
100
AcDbEntity
  8
NOTE
100
AcDbLine
 10
214.0000000000018
 20
-121.9999999999941
 30
0.0
 11
238.2914638328302
 21
-139.6046807655854
 31
0.0
  0
LINE
  5
993D5
330
99250
100
AcDbEntity
  8
NOTE
100
AcDbLine
 10
238.2914638328302
 20
-139.6046807655854
 30
0.0
 11
489.0007893057805
 21
-321.3005089907749
 31
0.0
1001
ACAD
1000
DSTYLE
1002
{
1070
    41
1040
30.0
1070
   147
1040
15.0
1070
    77
1070
     0
1070
    90
1070
     1
1070
   345
1005
12
1070
   346
1005
12
1070
   347
1005
12
1002
}
  0
LINE
  5
993D6
330
99250
100
AcDbEntity
  8
NOTE
100
AcDbLine
 10
489.0007893057805
 20
-321.3005089907749
 30
0.0
 11
1060.584306268723
 21
-321.3005089907749
 31
0.0
1001
ACAD
1000
DSTYLE
1002
{
1070
    41
1040
30.0
1070
   147
1040
15.0
1070
    77
1070
     0
1070
    90
1070
     1
1070
   345
1005
12
1070
   346
1005
12
1070
   347
1005
12
1002
}
  0
LINE
  5
993D7
330
99250
100
AcDbEntity
  8
NOTE
100
AcDbLine
 10
166.7538630915947
 20
-178.9666848883573
 30
0.0
 11
147.0000000000018
 21
-154.9999999999941
 31
0.0
  0
LINE
  5
993D8
330
99250
100
AcDbEntity
  8
NOTE
100
AcDbLine
 10
147.0000000000018
 20
-154.9999999999941
 30
0.0
 11
176.0906896550304
 21
-165.8788265439878
 31
0.0
  0
LINE
  5
993D9
330
99250
100
AcDbEntity
  8
NOTE
100
AcDbLine
 10
147.0000000000018
 20
-154.9999999999941
 30
0.0
 11
171.4222763733123
 21
-172.4227557161724
 31
0.0
  0
LINE
  5
993DA
330
99250
100
AcDbEntity
  8
NOTE
100
AcDbLine
 10
171.4222763733123
 20
-172.4227557161724
 30
0.0
 11
536.1400870922766
 21
-432.611004524959
 31
0.0
1001
ACAD
1000
DSTYLE
1002
{
1070
    41
1040
30.0
1070
   147
1040
15.0
1070
    77
1070
     0
1070
    90
1070
     1
1070
   345
1005
12
1070
   346
1005
12
1070
   347
1005
12
1002
}
  0
LINE
  5
993DB
330
99250
100
AcDbEntity
  8
NOTE
100
AcDbLine
 10
536.1400870922766
 20
-432.611004524959
 30
0.0
 11
1084.738286921183
 21
-432.611004524959
 31
0.0
1001
ACAD
1000
DSTYLE
1002
{
1070
    41
1040
30.0
1070
   147
1040
15.0
1070
    77
1070
     0
1070
    90
1070
     1
1070
   345
1005
12
1070
   346
1005
12
1070
   347
1005
12
1002
}
  0
TEXT
  5
993DC
330
99250
100
AcDbEntity
  8
NOTE
100
AcDbText
 10
490.390349591165
 20
-303.6240856608565
 30
0.0
 40
30.0
  1
Brazing connection (liquid) %%C9.52
 41
0.6
  7
STANDARD1
100
AcDbText
  0
TEXT
  5
993DD
330
99250
100
AcDbEntity
  8
NOTE
100
AcDbText
 10
491.526207411232
 20
-252.5345484438221
 30
0.0
 40
30.0
  1
Refrigerant piping
 41
0.6
  7
STANDARD1
100
AcDbText
  0
TEXT
  5
993DE
330
99250
100
AcDbEntity
  8
NOTE
100
AcDbText
 10
547.6460733977328
 20
-371.6955656090095
 30
0.0
 40
30.0
  1
Refrigerant piping
 41
0.6
  7
STANDARD1
100
AcDbText
  0
TEXT
  5
993DF
330
99250
100
AcDbEntity
  8
NOTE
100
AcDbText
 10
546.5102155776584
 20
-415.7702561252555
 30
0.0
 40
30.0
  1
Brazing connection (gas) %%C15.88
 41
0.6
  7
STANDARD1
100
AcDbText
  0
ENDBLK
  5
993E3
330
99250
100
AcDbEntity
  8
0
100
AcDbBlockEnd
  0
ENDSEC
  0
SECTION
  2
ENTITIES
  0
TEXT
  5
993E6
330
18
100
AcDbEntity
  8
ETC
100
AcDbText
 10
-979.1296184143194
 20
536.3616567700588
 30
0.0
 40
60.0
  1
PEFY-MS63VMA-A_5
 50
0.0000029998804485
 41
0.8
100
AcDbText
  0
LINE
  5
993E7
330
18
100
AcDbEntity
  8
BASIS
100
AcDbLine
 10
0.0
 20
29.41240878974759
 30
0.0
 11
0.0
 21
-282.6696284795139
 31
0.0
  0
CIRCLE
  5
993E8
330
18
100
AcDbEntity
  8
ARRANGE
100
AcDbCircle
 10
0.0
 20
0.0
 30
0.0
 40
19.125
  0
LINE
  5
993E9
330
18
100
AcDbEntity
  8
DETAIL
100
AcDbLine
 10
242.9981402002923
 20
-239.985693848349
 30
0.0
 11
350.0000000000018
 21
-239.985693848349
 31
0.0
  0
LINE
  5
993EA
330
18
100
AcDbEntity
  8
DETAIL
100
AcDbLine
 10
340.9871244635124
 20
-65.09298998570421
 30
0.0
 11
340.9871244635124
 21
-43.56223175966556
 31
0.0
  0
LINE
  5
993EB
330
18
100
AcDbEntity
  8
DETAIL
100
AcDbLine
 10
308.9413447782554
 20
-43.56223175966556
 30
0.0
 11
308.9413447782554
 21
-65.09298998570421
 31
0.0
  0
LINE
  5
993EC
330
18
100
AcDbEntity
  8
DETAIL
100
AcDbLine
 10
333.977110157366
 20
-36.55221745351355
 30
0.0
 11
315.9513590844017
 21
-36.55221745351355
 31
0.0
  0
LINE
  5
993ED
330
18
100
AcDbEntity
  8
DETAIL
100
AcDbLine
 10
-308.9871244635233
 20
-36.55221745351355
 30
0.0
 11
-327.0128755364749
 21
-36.55221745351355
 31
0.0
  0
LINE
  5
993EE
330
18
100
AcDbEntity
  8
DETAIL
100
AcDbLine
 10
-301.9771101573624
 20
-65.09298998570421
 30
0.0
 11
-301.9771101573624
 21
-43.56223175966556
 31
0.0
  0
LINE
  5
993EF
330
18
100
AcDbEntity
  8
DETAIL
100
AcDbLine
 10
-334.022889842634
 20
-43.56223175966556
 30
0.0
 11
-334.022889842634
 21
-65.09298998570421
 31
0.0
  0
ARC
  5
993F0
330
18
100
AcDbEntity
  8
DETAIL
100
AcDbCircle
 10
337.9828326180286
 20
-65.09298998570421
 30
0.0
 40
3.0042918454936
100
AcDbArc
 50
180.0
 51
0.0
  0
ARC
  5
993F1
330
18
100
AcDbEntity
  8
DETAIL
100
AcDbCircle
 10
311.9456366237664
 20
-65.09298998570421
 30
0.0
 40
3.0042918454936
100
AcDbArc
 50
180.0
 51
0.0
  0
ARC
  5
993F2
330
18
100
AcDbEntity
  8
DETAIL
100
AcDbCircle
 10
333.977110157366
 20
-43.56223175966556
 30
0.0
 40
7.010014306151662
100
AcDbArc
 50
0.0
 51
90.0
  0
ARC
  5
993F3
330
18
100
AcDbEntity
  8
DETAIL
100
AcDbCircle
 10
315.9513590844017
 20
-43.56223175966556
 30
0.0
 40
7.010014306151662
100
AcDbArc
 50
90.0
 51
180.0
  0
ARC
  5
993F4
330
18
100
AcDbEntity
  8
DETAIL
100
AcDbCircle
 10
-304.9814020028607
 20
-65.09298998570421
 30
0.0
 40
3.004291845493576
100
AcDbArc
 50
180.0
 51
0.0
  0
ARC
  5
993F5
330
18
100
AcDbEntity
  8
DETAIL
100
AcDbCircle
 10
-331.0185979971229
 20
-65.09298998570421
 30
0.0
 40
3.0042918454936
100
AcDbArc
 50
180.0
 51
0.0
  0
ARC
  5
993F6
330
18
100
AcDbEntity
  8
DETAIL
100
AcDbCircle
 10
-308.9871244635233
 20
-43.56223175966556
 30
0.0
 40
7.010014306151662
100
AcDbArc
 50
0.0
 51
90.0
  0
ARC
  5
993F7
330
18
100
AcDbEntity
  8
DETAIL
100
AcDbCircle
 10
-327.0128755364749
 20
-43.56223175966556
 30
0.0
 40
7.010014306151714
100
AcDbArc
 50
90.0
 51
180.0
  0
LINE
  5
993F8
330
18
100
AcDbEntity
  8
DETAIL
100
AcDbLine
 10
381.9999999999908
 20
-22.99999999999409
 30
0.0
 11
381.9999999999908
 21
-200.9999999999941
 31
0.0
  0
LINE
  5
993F9
330
18
100
AcDbEntity
  8
DETAIL
100
AcDbLine
 10
350.0000000000018
 20
-72.10300429185259
 30
0.0
 11
350.0000000000018
 21
-24.03433476395435
 31
0.0
  0
LINE
  5
993FA
330
18
100
AcDbEntity
  8
DETAIL
100
AcDbLine
 10
350.0000000000018
 20
0.0000000000059117
 30
0.0
 11
350.0000000000018
 21
-24.03433476395435
 31
0.0
  0
LINE
  5
993FB
330
18
100
AcDbEntity
  8
DETAIL
100
AcDbLine
 10
334.9785407725485
 20
-60.0933060445734
 30
0.0
 11
334.9785407725485
 21
-65.09298998570421
 31
0.0
  0
LINE
  5
993FC
330
18
100
AcDbEntity
  8
DETAIL
100
AcDbLine
 10
330.9728183118841
 20
-15.02145922747854
 30
0.0
 11
330.9728183118841
 21
-24.03433476395435
 31
0.0
  0
LINE
  5
993FD
330
18
100
AcDbEntity
  8
DETAIL
100
AcDbLine
 10
318.9556509299127
 20
-15.02145922747854
 30
0.0
 11
318.9556509299127
 21
-24.03433476395435
 31
0.0
  0
LINE
  5
993FE
330
18
100
AcDbEntity
  8
DETAIL
100
AcDbLine
 10
314.9499284692483
 20
-65.09298998570421
 30
0.0
 11
314.9499284692483
 21
-60.0933060445734
 31
0.0
  0
LINE
  5
993FF
330
18
100
AcDbEntity
  8
DETAIL
100
AcDbLine
 10
299.9284692417806
 20
-72.10300429185259
 30
0.0
 11
299.9284692417806
 21
-24.03433476395435
 31
0.0
  0
LINE
  5
99400
330
18
100
AcDbEntity
  8
DETAIL
100
AcDbLine
 10
299.9284692417806
 20
-15.02145922747854
 30
0.0
 11
299.9284692417806
 21
-24.03433476395435
 31
0.0
  0
LINE
  5
99401
330
18
100
AcDbEntity
  8
DETAIL
100
AcDbLine
 10
194.0772532188948
 20
-9.012875536488763
 30
0.0
 11
194.0772532188948
 21
-0.0000000000090949
 31
0.0
  0
LINE
  5
99402
330
18
100
AcDbEntity
  8
DETAIL
100
AcDbLine
 10
-73.27330530052496
 20
-249.9999999999941
 30
0.0
 11
350.0000000000018
 21
-249.9999999999941
 31
0.0
  0
LINE
  5
99403
330
18
100
AcDbEntity
  8
DETAIL
100
AcDbLine
 10
242.9981402002923
 20
-239.985693848349
 30
0.0
 11
-349.9999999999982
 21
-239.985693848349
 31
0.0
  0
LINE
  5
99404
330
18
100
AcDbEntity
  8
DETAIL
100
AcDbLine
 10
382.0000000000018
 20
-200.9999999999941
 30
0.0
 11
350.0000000000018
 21
-200.9999999999941
 31
0.0
  0
LINE
  5
99405
330
18
100
AcDbEntity
  8
DETAIL
100
AcDbLine
 10
346.9957081545199
 20
-75.10729613734929
 30
0.0
 11
302.9327610872915
 21
-75.10729613734929
 31
0.0
  0
LINE
  5
99406
330
18
100
AcDbEntity
  8
DETAIL
100
AcDbLine
 10
-296.9241773962785
 20
-75.10729613734929
 30
0.0
 11
-340.9871244635088
 21
-75.10729613734929
 31
0.0
  0
LINE
  5
99407
330
18
100
AcDbEntity
  8
DETAIL
100
AcDbLine
 10
-328.014306151641
 20
-60.08583690987984
 30
0.0
 11
-307.9856938483426
 21
-60.08583690987984
 31
0.0
  0
LINE
  5
99408
330
18
100
AcDbEntity
  8
DETAIL
100
AcDbLine
 10
314.9499284692483
 20
-60.08583690987984
 30
0.0
 11
334.9785407725485
 21
-60.08583690987984
 31
0.0
  0
LINE
  5
99409
330
18
100
AcDbEntity
  8
DETAIL
100
AcDbLine
 10
346.9957081545199
 20
-27.03862660945129
 30
0.0
 11
333.977110157366
 21
-27.03862660945129
 31
0.0
  0
LINE
  5
9940A
330
18
100
AcDbEntity
  8
DETAIL
100
AcDbLine
 10
315.9513590844017
 20
-27.03862660945129
 30
0.0
 11
302.9327610872915
 21
-27.03862660945129
 31
0.0
  0
LINE
  5
9940B
330
18
100
AcDbEntity
  8
DETAIL
100
AcDbLine
 10
-296.9241773962785
 20
-27.03862660945129
 30
0.0
 11
-309.9427753934324
 21
-27.03862660945129
 31
0.0
  0
LINE
  5
9940C
330
18
100
AcDbEntity
  8
DETAIL
100
AcDbLine
 10
-327.968526466384
 20
-27.03862660945129
 30
0.0
 11
-340.9871244635088
 21
-27.03862660945129
 31
0.0
  0
LINE
  5
9940D
330
18
100
AcDbEntity
  8
DETAIL
100
AcDbLine
 10
382.0000000000018
 20
-22.99999999999409
 30
0.0
 11
350.0000000000018
 21
-22.99999999999409
 31
0.0
  0
LINE
  5
9940E
330
18
100
AcDbEntity
  8
DETAIL
100
AcDbLine
 10
-324.964234620873
 20
-17.52503576538538
 30
0.0
 11
-312.9470672389143
 21
-17.52503576538538
 31
0.0
  0
LINE
  5
9940F
330
18
100
AcDbEntity
  8
DETAIL
100
AcDbLine
 10
318.9556509299127
 20
-17.52503576538538
 30
0.0
 11
330.9728183118841
 21
-17.52503576538538
 31
0.0
  0
LINE
  5
99410
330
18
100
AcDbEntity
  8
DETAIL
100
AcDbLine
 10
350.0000000000018
 20
-14.99999999999409
 30
0.0
 11
299.9284692417806
 21
-14.99999999999409
 31
0.0
  0
LINE
  5
99411
330
18
100
AcDbEntity
  8
DETAIL
100
AcDbLine
 10
-293.9198855507984
 20
-14.99999999999409
 30
0.0
 11
-343.9914163090198
 21
-14.99999999999409
 31
0.0
  0
LINE
  5
99412
330
18
100
AcDbEntity
  8
DETAIL
100
AcDbLine
 10
197.0815450643767
 20
-12.01716738198183
 30
0.0
 11
350.0000000000018
 21
-12.01716738197433
 31
0.0
  0
LINE
  5
99413
330
18
100
AcDbEntity
  8
DETAIL
100
AcDbLine
 10
350.0000000000018
 20
0.0000000000059117
 30
0.0
 11
-349.9999999999982
 21
0.0000000000059117
 31
0.0
  0
LINE
  5
99414
330
18
100
AcDbEntity
  8
DETAIL
100
AcDbLine
 10
-293.9198855507984
 20
-72.10300429185259
 30
0.0
 11
-293.9198855507984
 21
-24.03433476395435
 31
0.0
  0
LINE
  5
99415
330
18
100
AcDbEntity
  8
DETAIL
100
AcDbLine
 10
-293.9198855507984
 20
-15.02145922747854
 30
0.0
 11
-293.9198855507984
 21
-24.03433476395435
 31
0.0
  0
LINE
  5
99416
330
18
100
AcDbEntity
  8
DETAIL
100
AcDbLine
 10
-307.9856938483426
 20
-60.0933060445734
 30
0.0
 11
-307.9856938483426
 21
-65.09298998570421
 31
0.0
  0
LINE
  5
99417
330
18
100
AcDbEntity
  8
DETAIL
100
AcDbLine
 10
-312.9470672389143
 20
-15.02145922747854
 30
0.0
 11
-312.9470672389143
 21
-24.03433476395435
 31
0.0
  0
LINE
  5
99418
330
18
100
AcDbEntity
  8
DETAIL
100
AcDbLine
 10
-324.964234620873
 20
-15.02145922747854
 30
0.0
 11
-324.964234620873
 21
-24.03433476395435
 31
0.0
  0
LINE
  5
99419
330
18
100
AcDbEntity
  8
DETAIL
100
AcDbLine
 10
-328.014306151641
 20
-65.09298998570421
 30
0.0
 11
-328.014306151641
 21
-60.0933060445734
 31
0.0
  0
LINE
  5
9941A
330
18
100
AcDbEntity
  8
DETAIL
100
AcDbLine
 10
-343.9914163090198
 20
-72.10300429185259
 30
0.0
 11
-343.9914163090198
 21
-24.03433476395435
 31
0.0
  0
LINE
  5
9941B
330
18
100
AcDbEntity
  8
DETAIL
100
AcDbLine
 10
-343.9914163090198
 20
-15.02145922747854
 30
0.0
 11
-343.9914163090198
 21
-24.03433476395435
 31
0.0
  0
LINE
  5
9941C
330
18
100
AcDbEntity
  8
DETAIL
100
AcDbLine
 10
-349.9999999999982
 20
-247.9971387696628
 30
0.0
 11
-349.9999999999982
 21
-236.781115879822
 31
0.0
  0
LINE
  5
9941D
330
18
100
AcDbEntity
  8
DETAIL
100
AcDbLine
 10
-349.9999999999982
 20
-234.1344778254754
 30
0.0
 11
-349.9999999999982
 21
-0.0000000000095497
 31
0.0
  0
LINE
  5
9941E
330
18
100
AcDbEntity
  8
DETAIL
100
AcDbLine
 10
-349.9999999999982
 20
-122.9756795422136
 30
0.0
 11
-349.9999999999982
 21
-12.01716738198183
 31
0.0
  0
ARC
  5
9941F
330
18
100
AcDbEntity
  8
DETAIL
100
AcDbCircle
 10
346.9957081545199
 20
-72.10300429185259
 30
0.0
 40
3.0042918454936
100
AcDbArc
 50
270.0
 51
0.0
  0
ARC
  5
99420
330
18
100
AcDbEntity
  8
DETAIL
100
AcDbCircle
 10
302.9327610872915
 20
-72.10300429185259
 30
0.0
 40
3.004291845493495
100
AcDbArc
 50
180.0
 51
270.0
  0
CIRCLE
  5
99421
330
18
100
AcDbEntity
  8
DETAIL
100
AcDbCircle
 10
324.9642346208911
 20
-55.07868383405548
 30
0.0
 40
3.505007153075836
  0
ARC
  5
99422
330
18
100
AcDbEntity
  8
DETAIL
100
AcDbCircle
 10
346.9957081545199
 20
-24.03433476395435
 30
0.0
 40
3.0042918454936
100
AcDbArc
 50
270.0
 51
0.0
  0
ARC
  5
99423
330
18
100
AcDbEntity
  8
DETAIL
100
AcDbCircle
 10
333.977110157366
 20
-24.03433476395435
 30
0.0
 40
3.0042918454936
100
AcDbArc
 50
180.0
 51
270.0
  0
ARC
  5
99424
330
18
100
AcDbEntity
  8
DETAIL
100
AcDbCircle
 10
315.9513590844017
 20
-24.03433476395435
 30
0.0
 40
3.0042918454936
100
AcDbArc
 50
270.0
 51
0.0
  0
ARC
  5
99425
330
18
100
AcDbEntity
  8
DETAIL
100
AcDbCircle
 10
302.9327610872915
 20
-24.03433476395435
 30
0.0
 40
3.0042918454936
100
AcDbArc
 50
180.0
 51
270.0
  0
ARC
  5
99426
330
18
100
AcDbEntity
  8
DETAIL
100
AcDbCircle
 10
197.0815450643767
 20
-9.012875536488763
 30
0.0
 40
3.0042918454936
100
AcDbArc
 50
180.0
 51
270.0
  0
ARC
  5
99427
330
18
100
AcDbEntity
  8
DETAIL
100
AcDbCircle
 10
-296.9241773962785
 20
-72.10300429185259
 30
0.0
 40
3.0042918454936
100
AcDbArc
 50
270.0
 51
0.0
  0
ARC
  5
99428
330
18
100
AcDbEntity
  8
DETAIL
100
AcDbCircle
 10
-340.9871244635088
 20
-72.10300429185259
 30
0.0
 40
3.004291845493495
100
AcDbArc
 50
180.0
 51
270.0
  0
CIRCLE
  5
99429
330
18
100
AcDbEntity
  8
DETAIL
100
AcDbCircle
 10
-317.9999999999982
 20
-55.07868383405548
 30
0.0
 40
3.505007153075836
  0
ARC
  5
9942A
330
18
100
AcDbEntity
  8
DETAIL
100
AcDbCircle
 10
-296.9241773962785
 20
-24.03433476395435
 30
0.0
 40
3.0042918454936
100
AcDbArc
 50
270.0
 51
0.0
  0
ARC
  5
9942B
330
18
100
AcDbEntity
  8
DETAIL
100
AcDbCircle
 10
-309.9427753934324
 20
-24.03433476395435
 30
0.0
 40
3.0042918454936
100
AcDbArc
 50
180.0
 51
270.0
  0
ARC
  5
9942C
330
18
100
AcDbEntity
  8
DETAIL
100
AcDbCircle
 10
-327.968526466384
 20
-24.03433476395435
 30
0.0
 40
3.0042918454936
100
AcDbArc
 50
270.0
 51
0.0
  0
ARC
  5
9942D
330
18
100
AcDbEntity
  8
DETAIL
100
AcDbCircle
 10
-340.9871244635088
 20
-24.03433476395435
 30
0.0
 40
3.0042918454936
100
AcDbArc
 50
180.0
 51
270.0
  0
LINE
  5
9942E
330
18
100
AcDbEntity
  8
NOTE
100
AcDbLine
 10
371.9999999999909
 20
-59.36348759543398
 30
0.0
 11
371.9999999999909
 21
-66.63651240455418
 31
0.0
  0
LINE
  5
9942F
330
18
100
AcDbEntity
  8
NOTE
100
AcDbLine
 10
375.6365124045497
 20
-62.9999999999941
 30
0.0
 11
368.3634875954285
 21
-62.9999999999941
 31
0.0
  0
LINE
  5
99430
330
18
100
AcDbEntity
  8
NOTE
100
AcDbLine
 10
371.9999999999909
 20
-159.363487595434
 30
0.0
 11
371.9999999999909
 21
-166.6365124045542
 31
0.0
  0
LINE
  5
99431
330
18
100
AcDbEntity
  8
NOTE
100
AcDbLine
 10
375.6365124045497
 20
-162.9999999999941
 30
0.0
 11
368.3634875954285
 21
-162.9999999999941
 31
0.0
  0
CIRCLE
  5
99432
330
18
100
AcDbEntity
  8
DETAIL
100
AcDbCircle
 10
371.9999999999909
 20
-162.9999999999941
 30
0.0
 40
1.45
  0
CIRCLE
  5
99433
330
18
100
AcDbEntity
  8
DETAIL
100
AcDbCircle
 10
371.9999999999909
 20
-62.9999999999941
 30
0.0
 40
1.45
  0
LINE
  5
99434
330
18
100
AcDbEntity
  8
DETAIL
100
AcDbLine
 10
-349.9999999999982
 20
-249.9999999999941
 30
0.0
 11
-349.9999999999982
 21
0.0000000000059117
 31
0.0
  0
LINE
  5
99435
330
18
100
AcDbEntity
  8
DETAIL
100
AcDbLine
 10
-349.9999999999982
 20
0.0000000000059117
 30
0.0
 11
350.0000000000018
 21
0.0000000000059117
 31
0.0
  0
LINE
  5
99436
330
18
100
AcDbEntity
  8
DETAIL
100
AcDbLine
 10
350.0000000000018
 20
0.0000000000059117
 30
0.0
 11
350.0000000000018
 21
-249.9999999999941
 31
0.0
  0
LINE
  5
99437
330
18
100
AcDbEntity
  8
DETAIL
100
AcDbLine
 10
350.0000000000018
 20
-249.9999999999941
 30
0.0
 11
-349.9999999999982
 21
-249.9999999999941
 31
0.0
  0
LINE
  5
99438
330
18
100
AcDbEntity
  8
NOTE
100
AcDbLine
 10
214.0000000000018
 20
-111.1337280880009
 30
0.0
 11
214.0000000000018
 21
-132.8662719119872
 31
0.0
  0
LINE
  5
99439
330
18
100
AcDbEntity
  8
NOTE
100
AcDbLine
 10
224.8662719119948
 20
-121.9999999999941
 30
0.0
 11
203.1337280880089
 21
-121.9999999999941
 31
0.0
  0
LINE
  5
9943A
330
18
100
AcDbEntity
  8
NOTE
100
AcDbLine
 10
147.0000000000018
 20
-144.1337280880009
 30
0.0
 11
147.0000000000018
 21
-165.8662719119872
 31
0.0
  0
LINE
  5
9943B
330
18
100
AcDbEntity
  8
NOTE
100
AcDbLine
 10
157.8662719119948
 20
-154.9999999999941
 30
0.0
 11
136.1337280880088
 21
-154.9999999999941
 31
0.0
  0
LINE
  5
9943C
330
18
100
AcDbEntity
  8
NOTE
100
AcDbLine
 10
371.9999999999909
 20
-19.36348759543398
 30
0.0
 11
371.9999999999909
 21
-26.6365124045542
 31
0.0
  0
LINE
  5
9943D
330
18
100
AcDbEntity
  8
NOTE
100
AcDbLine
 10
375.6365124045497
 20
-22.99999999999409
 30
0.0
 11
368.3634875954285
 21
-22.99999999999409
 31
0.0
  0
LINE
  5
9943E
330
18
100
AcDbEntity
  8
NOTE
100
AcDbLine
 10
371.9999999999909
 20
-197.363487595434
 30
0.0
 11
371.9999999999909
 21
-204.6365124045542
 31
0.0
  0
LINE
  5
9943F
330
18
100
AcDbEntity
  8
NOTE
100
AcDbLine
 10
375.6365124045497
 20
-200.9999999999941
 30
0.0
 11
368.3634875954285
 21
-200.9999999999941
 31
0.0
  0
LINE
  5
99440
330
18
100
AcDbEntity
  8
NOTE
100
AcDbLine
 10
325.0000000000018
 20
-4.133728088000906
 30
0.0
 11
325.0000000000018
 21
-25.86627191198727
 31
0.0
  0
LINE
  5
99441
330
18
100
AcDbEntity
  8
NOTE
100
AcDbLine
 10
335.8662719119948
 20
-14.99999999999409
 30
0.0
 11
314.1337280880089
 21
-14.99999999999409
 31
0.0
  0
LINE
  5
99442
330
18
100
AcDbEntity
  8
NOTE
100
AcDbLine
 10
-317.9999999999982
 20
-4.133728088000906
 30
0.0
 11
-317.9999999999982
 21
-25.86627191198727
 31
0.0
  0
LINE
  5
99443
330
18
100
AcDbEntity
  8
NOTE
100
AcDbLine
 10
-307.1337280880052
 20
-14.99999999999409
 30
0.0
 11
-328.8662719119912
 21
-14.99999999999409
 31
0.0
  0
CIRCLE
  5
99444
330
18
100
AcDbEntity
  8
FIX
100
AcDbCircle
 10
325.0000000000018
 20
-14.99999999999409
 30
0.0
 40
9.947006128806801
  0
CIRCLE
  5
99445
330
18
100
AcDbEntity
  8
FIX
100
AcDbCircle
 10
-317.9999999999982
 20
-14.99999999999409
 30
0.0
 40
9.947006128806801
  0
LINE
  5
99446
330
18
100
AcDbEntity
  8
OUTLINE
100
AcDbLine
 10
382.0000000000018
 20
-22.99999999999409
 30
0.0
 11
350.0000000000018
 21
-22.99999999999409
 31
0.0
  0
LINE
  5
99447
330
18
100
AcDbEntity
  8
OUTLINE
100
AcDbLine
 10
381.9999999999908
 20
-22.99999999999409
 30
0.0
 11
382.0000000000018
 21
-200.9999999999941
 31
0.0
  0
LINE
  5
99448
330
18
100
AcDbEntity
  8
OUTLINE
100
AcDbLine
 10
382.0000000000018
 20
-200.9999999999941
 30
0.0
 11
350.0000000000018
 21
-200.9999999999941
 31
0.0
  0
LINE
  5
99449
330
18
100
AcDbEntity
  8
OUTLINE
100
AcDbLine
 10
350.0000000000018
 20
0.0000000000059117
 30
0.0
 11
-349.9999999999982
 21
-0.0000000000095497
 31
0.0
  0
LINE
  5
9944A
330
18
100
AcDbEntity
  8
OUTLINE
100
AcDbLine
 10
-349.9999999999982
 20
-0.0000000000095497
 30
0.0
 11
-349.9999999999982
 21
-249.9999999999941
 31
0.0
  0
LINE
  5
9944B
330
18
100
AcDbEntity
  8
OUTLINE
100
AcDbLine
 10
-349.9999999999982
 20
-249.9999999999941
 30
0.0
 11
350.0000000000018
 21
-249.9999999999941
 31
0.0
  0
LINE
  5
9944C
330
18
100
AcDbEntity
  8
OUTLINE
100
AcDbLine
 10
350.0000000000018
 20
-249.9999999999941
 30
0.0
 11
350.0000000000018
 21
0.0000000000059117
 31
0.0
  0
LINE
  5
9944D
330
18
100
AcDbEntity
  8
SIZE
100
AcDbLine
 10
382.0000000000018
 20
-7.999999999994088
 30
0.0
 11
382.0000000000018
 21
63.59264465957858
 31
0.0
  0
LINE
  5
9944E
330
18
100
AcDbEntity
  8
SIZE
100
AcDbLine
 10
371.9999999999909
 20
-44.36348759543398
 30
0.0
 11
371.9999999999909
 21
63.59264465957858
 31
0.0
  0
LINE
  5
9944F
330
18
100
AcDbEntity
  8
SIZE
100
AcDbLine
 10
371.9999999999909
 20
58.59264465957858
 30
0.0
 11
351.9999999999908
 21
58.59264465957858
 31
0.0
  0
LINE
  5
99450
330
18
100
AcDbEntity
  8
SIZE
100
AcDbLine
 10
382.0000000000018
 20
58.59264465957858
 30
0.0
 11
436.2857142857156
 21
58.59264465957858
 31
0.0
  0
LINE
  5
99451
330
18
100
AcDbEntity
  8
SIZE
100
AcDbLine
 10
371.9999999999909
 20
58.59264465957858
 30
0.0
 11
382.0000000000018
 21
58.59264465957858
 31
0.0
  0
CIRCLE
  5
99452
330
18
100
AcDbEntity
  8
SIZE
100
AcDbCircle
 10
371.9999999999909
 20
58.59264465957858
 30
0.0
 40
5.0
  0
CIRCLE
  5
99453
330
18
100
AcDbEntity
  8
SIZE
100
AcDbCircle
 10
382.0000000000018
 20
58.59264465957858
 30
0.0
 40
5.0
  0
TEXT
  5
99454
330
18
100
AcDbEntity
  8
SIZE
100
AcDbText
 10
403.4648668981438
 20
73.59264465957858
 30
0.0
 40
30.0
  1
10
 41
0.9
100
AcDbText
  0
LINE
  5
99455
330
18
100
AcDbEntity
  8
SIZE
100
AcDbLine
 10
381.9999999999908
 20
-7.999999999994088
 30
0.0
 11
381.9999999999908
 21
183.7609916711171
 31
0.0
  0
LINE
  5
99456
330
18
100
AcDbEntity
  8
SIZE
100
AcDbLine
 10
325.0000000000018
 20
10.86627191199909
 30
0.0
 11
325.0000000000018
 21
183.7609916711171
 31
0.0
  0
LINE
  5
99457
330
18
100
AcDbEntity
  8
SIZE
100
AcDbLine
 10
325.0000000000018
 20
178.7609916711171
 30
0.0
 11
381.9999999999908
 21
178.7609916711171
 31
0.0
  0
LINE
  5
99458
330
18
100
AcDbEntity
  8
SIZE
100
AcDbLine
 10
381.9999999999908
 20
178.7609916711171
 30
0.0
 11
475.7142857142771
 21
178.7609916711171
 31
0.0
  0
CIRCLE
  5
99459
330
18
100
AcDbEntity
  8
SIZE
100
AcDbCircle
 10
325.0000000000018
 20
178.7609916711171
 30
0.0
 40
5.0
  0
CIRCLE
  5
9945A
330
18
100
AcDbEntity
  8
SIZE
100
AcDbCircle
 10
381.9999999999908
 20
178.7609916711171
 30
0.0
 40
5.0
  0
TEXT
  5
9945B
330
18
100
AcDbEntity
  8
SIZE
100
AcDbText
 10
416.9999999999912
 20
193.7609916711171
 30
0.0
 40
30.0
  1
57
 41
0.9
100
AcDbText
  0
LINE
  5
9945C
330
18
100
AcDbEntity
  8
SIZE
100
AcDbLine
 10
325.0000000000018
 20
10.86627191199909
 30
0.0
 11
325.0000000000018
 21
183.7609916711171
 31
0.0
  0
LINE
  5
9945D
330
18
100
AcDbEntity
  8
SIZE
100
AcDbLine
 10
-317.9999999999982
 20
10.86627191199909
 30
0.0
 11
-317.9999999999982
 21
183.7609916711171
 31
0.0
  0
LINE
  5
9945E
330
18
100
AcDbEntity
  8
SIZE
100
AcDbLine
 10
325.0000000000018
 20
178.7609916711171
 30
0.0
 11
-317.9999999999982
 21
178.7609916711171
 31
0.0
  0
CIRCLE
  5
9945F
330
18
100
AcDbEntity
  8
SIZE
100
AcDbCircle
 10
325.0000000000018
 20
178.7609916711171
 30
0.0
 40
5.0
  0
CIRCLE
  5
99460
330
18
100
AcDbEntity
  8
SIZE
100
AcDbCircle
 10
-317.9999999999982
 20
178.7609916711171
 30
0.0
 40
5.0
  0
TEXT
  5
99461
330
18
100
AcDbEntity
  8
SIZE
100
AcDbText
 10
-265.9857142857122
 20
196.61813452826
 30
0.0
 40
30.0
  1
643(Suspension bolt pitch)
 41
0.9
100
AcDbText
  0
LINE
  5
99462
330
18
100
AcDbEntity
  8
SIZE
100
AcDbLine
 10
382.0000000000018
 20
-7.999999999994088
 30
0.0
 11
382.0000000000018
 21
278.9522955905211
 31
0.0
  0
LINE
  5
99463
330
18
100
AcDbEntity
  8
SIZE
100
AcDbLine
 10
350.0000000000018
 20
20.00000000000591
 30
0.0
 11
350.0000000000018
 21
278.9522955905211
 31
0.0
  0
LINE
  5
99464
330
18
100
AcDbEntity
  8
SIZE
100
AcDbLine
 10
350.0000000000018
 20
273.9522955905211
 30
0.0
 11
382.0000000000018
 21
273.9522955905211
 31
0.0
  0
LINE
  5
99465
330
18
100
AcDbEntity
  8
SIZE
100
AcDbLine
 10
382.0000000000018
 20
273.9522955905211
 30
0.0
 11
475.714285714288
 21
273.9522955905211
 31
0.0
  0
CIRCLE
  5
99466
330
18
100
AcDbEntity
  8
SIZE
100
AcDbCircle
 10
350.0000000000018
 20
273.9522955905211
 30
0.0
 40
5.0
  0
CIRCLE
  5
99467
330
18
100
AcDbEntity
  8
SIZE
100
AcDbCircle
 10
382.0000000000018
 20
273.9522955905211
 30
0.0
 40
5.0
  0
TEXT
  5
99468
330
18
100
AcDbEntity
  8
SIZE
100
AcDbText
 10
417.0000000000023
 20
288.9522955905211
 30
0.0
 40
30.0
  1
32
 41
0.9
100
AcDbText
  0
LINE
  5
99469
330
18
100
AcDbEntity
  8
SIZE
100
AcDbLine
 10
350.0000000000018
 20
20.00000000000591
 30
0.0
 11
350.0000000000018
 21
278.9522955905211
 31
0.0
  0
LINE
  5
9946A
330
18
100
AcDbEntity
  8
SIZE
100
AcDbLine
 10
-349.9999999999982
 20
14.99999999999045
 30
0.0
 11
-349.9999999999982
 21
278.9522955905211
 31
0.0
  0
LINE
  5
9946B
330
18
100
AcDbEntity
  8
SIZE
100
AcDbLine
 10
350.0000000000018
 20
273.9522955905211
 30
0.0
 11
-349.9999999999982
 21
273.9522955905211
 31
0.0
  0
CIRCLE
  5
9946C
330
18
100
AcDbEntity
  8
SIZE
100
AcDbCircle
 10
350.0000000000018
 20
273.9522955905211
 30
0.0
 40
5.0
  0
CIRCLE
  5
9946D
330
18
100
AcDbEntity
  8
SIZE
100
AcDbCircle
 10
-349.9999999999982
 20
273.9522955905211
 30
0.0
 40
5.0
  0
TEXT
  5
9946E
330
18
100
AcDbEntity
  8
SIZE
100
AcDbText
 10
-34.71428571428396
 20
288.9522955905211
 30
0.0
 40
30.0
  1
700
 41
0.9
100
AcDbText
  0
LINE
  5
9946F
330
18
100
AcDbEntity
  8
SIZE
100
AcDbLine
 10
381.9999999999908
 20
-7.999999999994088
 30
0.0
 11
381.9999999999908
 21
377.6597002103861
 31
0.0
  0
LINE
  5
99470
330
18
100
AcDbEntity
  8
SIZE
100
AcDbLine
 10
-349.9999999999982
 20
11.19456366236591
 30
0.0
 11
-349.9999999999982
 21
377.6597002103861
 31
0.0
  0
LINE
  5
99471
330
18
100
AcDbEntity
  8
SIZE
100
AcDbLine
 10
381.9999999999908
 20
372.6597002103861
 30
0.0
 11
-349.9999999999982
 21
372.6597002103861
 31
0.0
  0
CIRCLE
  5
99472
330
18
100
AcDbEntity
  8
SIZE
100
AcDbCircle
 10
381.9999999999908
 20
372.6597002103861
 30
0.0
 40
5.0
  0
CIRCLE
  5
99473
330
18
100
AcDbEntity
  8
SIZE
100
AcDbCircle
 10
-349.9999999999982
 20
372.6597002103861
 30
0.0
 40
5.0
  0
TEXT
  5
99474
330
18
100
AcDbEntity
  8
SIZE
100
AcDbText
 10
-18.71428571428942
 20
387.6597002103861
 30
0.0
 40
30.0
  1
732
 41
0.9
100
AcDbText
  0
LINE
  5
99475
330
18
100
AcDbEntity
  8
NOTE
100
AcDbLine
 10
-317.9999999999982
 20
-14.99999999999409
 30
0.0
 11
-340.0886666512342
 21
11.3522385303745
 31
0.0
  0
LINE
  5
99476
330
18
100
AcDbEntity
  8
NOTE
100
AcDbLine
 10
-317.9999999999982
 20
-14.99999999999409
 30
0.0
 11
-323.9532266970873
 21
18.86604142622082
 31
0.0
  0
LINE
  5
99477
330
18
100
AcDbEntity
  8
NOTE
100
AcDbLine
 10
-398.0665045668648
 20
153.7546129431555
 30
0.0
 11
-317.9999999999982
 21
-14.99999999999409
 31
0.0
  0
LINE
  5
99478
330
18
100
AcDbEntity
  8
NOTE
100
AcDbLine
 10
692.3460825807977
 20
149.0041951115122
 30
0.0
 11
564.7905433691065
 21
149.0041951115122
 31
0.0
  0
TEXT
  5
99479
330
18
100
AcDbEntity
  8
NOTE
100
AcDbText
 10
504.5127492474638
 20
156.4116128284593
 30
0.0
 40
30.0
  1
2X2-%%c2.9
 50
359.9999974955248
 41
0.7
  7
STANDARD1
100
AcDbText
  0
LINE
  5
9947A
330
18
100
AcDbEntity
  8
NOTE
100
AcDbLine
 10
692.3460825807977
 20
149.0041951115122
 30
0.0
 11
493.0523796859359
 21
149.0041951115122
 31
0.0
  0
LINE
  5
9947B
330
18
100
AcDbEntity
  8
NOTE
100
AcDbLine
 10
371.9999999999909
 20
-62.9999999999941
 30
0.0
 11
380.9796492276309
 21
-29.80789898575631
 31
0.0
  0
LINE
  5
9947C
330
18
100
AcDbEntity
  8
NOTE
100
AcDbLine
 10
371.9999999999909
 20
-62.9999999999941
 30
0.0
 11
396.3726552086973
 21
-38.74462228562925
 31
0.0
  0
LINE
  5
9947D
330
18
100
AcDbEntity
  8
NOTE
100
AcDbLine
 10
493.0523796859359
 20
149.0041951115122
 30
0.0
 11
371.9999999999909
 21
-62.9999999999941
 31
0.0
  0
LINE
  5
9947E
330
18
100
AcDbEntity
  8
SIZE
100
AcDbLine
 10
350.0000000000018
 20
-264.9999999999941
 30
0.0
 11
350.0000000000018
 21
-556.0793416083631
 31
0.0
  0
LINE
  5
9947F
330
18
100
AcDbEntity
  8
SIZE
100
AcDbLine
 10
214.0000000000018
 20
-147.8662719119872
 30
0.0
 11
214.0000000000018
 21
-556.0793416083631
 31
0.0
  0
LINE
  5
99480
330
18
100
AcDbEntity
  8
SIZE
100
AcDbLine
 10
350.0000000000018
 20
-551.0793416083632
 30
0.0
 11
214.0000000000018
 21
-551.0793416083632
 31
0.0
  0
CIRCLE
  5
99481
330
18
100
AcDbEntity
  8
SIZE
100
AcDbCircle
 10
350.0000000000018
 20
-551.0793416083632
 30
0.0
 40
5.0
  0
CIRCLE
  5
99482
330
18
100
AcDbEntity
  8
SIZE
100
AcDbCircle
 10
214.0000000000018
 20
-551.0793416083632
 30
0.0
 40
5.0
  0
TEXT
  5
99483
330
18
100
AcDbEntity
  8
SIZE
100
AcDbText
 10
250.5000000000018
 20
-536.0793416083631
 30
0.0
 40
30.0
  1
136
 41
0.9
100
AcDbText
  0
LINE
  5
99484
330
18
100
AcDbEntity
  8
SIZE
100
AcDbLine
 10
214.0000000000018
 20
-147.8662719119872
 30
0.0
 11
214.0000000000018
 21
-556.0793416083631
 31
0.0
  0
LINE
  5
99485
330
18
100
AcDbEntity
  8
SIZE
100
AcDbLine
 10
147.0000000000018
 20
-180.8662719119872
 30
0.0
 11
147.0000000000018
 21
-556.0793416083631
 31
0.0
  0
LINE
  5
99486
330
18
100
AcDbEntity
  8
SIZE
100
AcDbLine
 10
214.0000000000018
 20
-551.0793416083632
 30
0.0
 11
147.0000000000018
 21
-551.0793416083632
 31
0.0
  0
TEXT
  5
99487
330
18
100
AcDbEntity
  8
SIZE
100
AcDbText
 10
158.6428571428591
 20
-536.0793416083631
 30
0.0
 40
30.0
  1
67
 41
0.9
100
AcDbText
  0
CIRCLE
  5
99488
330
18
100
AcDbEntity
  8
SIZE
100
AcDbCircle
 10
214.0000000000018
 20
-551.0793416083632
 30
0.0
 40
5.0
  0
CIRCLE
  5
99489
330
18
100
AcDbEntity
  8
SIZE
100
AcDbCircle
 10
147.0000000000018
 20
-551.0793416083632
 30
0.0
 40
5.0
  0
LINE
  5
9948A
330
18
100
AcDbEntity
  8
SIZE
100
AcDbLine
 10
-365.0
 20
0.0000000000058904
 30
0.0
 11
-565.0973899762592
 21
0.000000000005862
 31
0.0
  0
LINE
  5
9948B
330
18
100
AcDbEntity
  8
SIZE
100
AcDbLine
 10
188.1337280880079
 20
-121.9999999999941
 30
0.0
 11
-565.0973899762592
 21
-121.9999999999942
 31
0.0
  0
LINE
  5
9948C
330
18
100
AcDbEntity
  8
SIZE
100
AcDbLine
 10
-560.0973899762593
 20
0.000000000005862
 30
0.0
 11
-560.0973899762593
 21
-121.9999999999942
 31
0.0
  0
CIRCLE
  5
9948D
330
18
100
AcDbEntity
  8
SIZE
100
AcDbCircle
 10
-560.0973899762593
 20
0.000000000005862
 30
0.0
 40
5.0
  0
CIRCLE
  5
9948E
330
18
100
AcDbEntity
  8
SIZE
100
AcDbCircle
 10
-560.0973899762593
 20
-121.9999999999942
 30
0.0
 40
5.0
  0
TEXT
  5
9948F
330
18
100
AcDbEntity
  8
SIZE
100
AcDbText
 10
-575.0973899762583
 20
-93.14285714285132
 30
0.0
 40
30.0
  1
122
 50
90.0
 41
0.9
100
AcDbText
  0
LINE
  5
99490
330
18
100
AcDbEntity
  8
SIZE
100
AcDbLine
 10
188.1337280880079
 20
-121.9999999999941
 30
0.0
 11
-565.0973899762735
 21
-121.9999999999942
 31
0.0
  0
LINE
  5
99491
330
18
100
AcDbEntity
  8
SIZE
100
AcDbLine
 10
121.1337280880079
 20
-154.9999999999942
 30
0.0
 11
-565.0973899762735
 21
-154.9999999999943
 31
0.0
  0
LINE
  5
99492
330
18
100
AcDbEntity
  8
SIZE
100
AcDbLine
 10
-560.0973899762733
 20
-121.9999999999942
 30
0.0
 11
-560.0973899762733
 21
-154.9999999999943
 31
0.0
  0
LINE
  5
99493
330
18
100
AcDbEntity
  8
SIZE
100
AcDbLine
 10
-560.0973899762733
 20
-154.9999999999943
 30
0.0
 11
-560.0973899762733
 21
-342.8263867339258
 31
0.0
  0
CIRCLE
  5
99494
330
18
100
AcDbEntity
  8
SIZE
100
AcDbCircle
 10
-560.0973899762733
 20
-121.9999999999942
 30
0.0
 40
5.0
  0
CIRCLE
  5
99495
330
18
100
AcDbEntity
  8
SIZE
100
AcDbCircle
 10
-560.0973899762733
 20
-154.9999999999943
 30
0.0
 40
5.0
  0
TEXT
  5
99496
330
18
100
AcDbEntity
  8
SIZE
100
AcDbText
 10
-575.0973899762725
 20
-327.8263867339247
 30
0.0
 40
30.0
  1
33
 50
90.0
 41
0.9
100
AcDbText
  0
LINE
  5
99497
330
18
100
AcDbEntity
  8
ARRANGE
100
AcDbLine
 10
-21.26587376331372
 20
-21.04700008889039
 30
0.0
 11
21.26587376331736
 21
21.04700008888585
 31
0.0
  0
LINE
  5
99498
330
18
100
AcDbEntity
  8
ARRANGE
100
AcDbLine
 10
-21.23459940696193
 20
21.07855278914167
 30
0.0
 11
21.23459940696557
 21
-21.07855278914531
 31
0.0
  0
TEXT
  5
99499
330
18
100
AcDbEntity
  8
SIZE
100
AcDbText
 10
619.7066762147556
 20
-168.1230673228224
 30
0.0
 40
30.0
  1
(Duct)
 50
90.0
 41
0.9
100
AcDbText
  0
LINE
  5
9949A
330
18
100
AcDbEntity
  8
SIZE
100
AcDbLine
 10
-365.0
 20
-0.000000000009571
 30
0.0
 11
-430.3565702247786
 21
-0.0000000000095781
 31
0.0
  0
LINE
  5
9949B
330
18
100
AcDbEntity
  8
SIZE
100
AcDbLine
 10
-342.9470061288066
 20
-14.99999999999412
 30
0.0
 11
-430.3565702247786
 21
-14.99999999999413
 31
0.0
  0
LINE
  5
9949C
330
18
100
AcDbEntity
  8
SIZE
100
AcDbLine
 10
-425.3565702247787
 20
-14.99999999999413
 30
0.0
 11
-425.3565702247787
 21
-34.99999999999413
 31
0.0
  0
LINE
  5
9949D
330
18
100
AcDbEntity
  8
SIZE
100
AcDbLine
 10
-425.3565702247787
 20
-0.0000000000095781
 30
0.0
 11
-425.3565702247787
 21
108.5714285714199
 31
0.0
  0
LINE
  5
9949E
330
18
100
AcDbEntity
  8
SIZE
100
AcDbLine
 10
-425.3565702247787
 20
-14.99999999999413
 30
0.0
 11
-425.3565702247787
 21
-0.0000000000095781
 31
0.0
  0
CIRCLE
  5
9949F
330
18
100
AcDbEntity
  8
SIZE
100
AcDbCircle
 10
-425.3565702247787
 20
-14.99999999999413
 30
0.0
 40
5.0
  0
CIRCLE
  5
994A0
330
18
100
AcDbEntity
  8
SIZE
100
AcDbCircle
 10
-425.3565702247787
 20
-0.0000000000095781
 30
0.0
 40
5.0
  0
TEXT
  5
994A1
330
18
100
AcDbEntity
  8
SIZE
100
AcDbText
 10
-440.3565702247779
 20
54.99999999999221
 30
0.0
 40
30.0
  1
15
 50
90.0
 41
0.9
100
AcDbText
  0
LINE
  5
994A2
330
18
100
AcDbEntity
  8
NOTE
100
AcDbLine
 10
-379.1450921450287
 20
-96.58566227049414
 30
0.0
 11
-407.1868543751897
 21
-76.70171093560906
 31
0.0
  0
LINE
  5
994A3
330
18
100
AcDbEntity
  8
NOTE
100
AcDbLine
 10
-407.1868543751897
 20
-88.90776018598968
 30
0.0
 11
-407.1868543751897
 21
-76.70171093560906
 31
0.0
  0
LINE
  5
994A4
330
18
100
AcDbEntity
  8
NOTE
100
AcDbLine
 10
-430.2205606287007
 20
-88.90776018598968
 30
0.0
 11
-407.1868543751897
 21
-88.90776018598968
 31
0.0
  0
LINE
  5
994A5
330
18
100
AcDbEntity
  8
NOTE
100
AcDbLine
 10
-430.2205606287007
 20
-104.2635643550018
 30
0.0
 11
-430.2205606287007
 21
-88.90776018598968
 31
0.0
  0
LINE
  5
994A6
330
18
100
AcDbEntity
  8
NOTE
100
AcDbLine
 10
-430.2205606287007
 20
-104.2635643550018
 30
0.0
 11
-407.1868543751897
 21
-104.2635643550018
 31
0.0
  0
LINE
  5
994A7
330
18
100
AcDbEntity
  8
NOTE
100
AcDbLine
 10
-379.1450921450287
 20
-96.58566227049414
 30
0.0
 11
-407.1868543751897
 21
-116.4696136053794
 31
0.0
  0
LINE
  5
994A8
330
18
100
AcDbEntity
  8
NOTE
100
AcDbLine
 10
-407.1868543751897
 20
-104.2635643550018
 30
0.0
 11
-407.1868543751897
 21
-116.4696136053794
 31
0.0
  0
TEXT
  5
994A9
330
18
100
AcDbEntity
  8
NOTE
100
AcDbText
 10
-502.1505464931506
 20
-176.7205885685928
 30
0.0
 40
23.69722882067107
  1
Air inlet
 50
359.9999974955184
 41
0.6
  7
STANDARD1
100
AcDbText
  0
LINE
  5
994AA
330
18
100
AcDbEntity
  8
NOTE
100
AcDbLine
 10
485.2276113631979
 20
-96.58566227049414
 30
0.0
 11
457.1858491330366
 21
-76.70171093560885
 31
0.0
  0
LINE
  5
994AB
330
18
100
AcDbEntity
  8
NOTE
100
AcDbLine
 10
457.1858491330366
 20
-88.90776018598947
 30
0.0
 11
457.1858491330366
 21
-76.70171093560885
 31
0.0
  0
LINE
  5
994AC
330
18
100
AcDbEntity
  8
NOTE
100
AcDbLine
 10
434.1521428795259
 20
-88.90776018598947
 30
0.0
 11
457.1858491330366
 21
-88.90776018598947
 31
0.0
  0
LINE
  5
994AD
330
18
100
AcDbEntity
  8
NOTE
100
AcDbLine
 10
434.1521428795259
 20
-104.2635643550015
 30
0.0
 11
434.1521428795259
 21
-88.90776018598947
 31
0.0
  0
LINE
  5
994AE
330
18
100
AcDbEntity
  8
NOTE
100
AcDbLine
 10
434.1521428795259
 20
-104.2635643550015
 30
0.0
 11
457.1858491330366
 21
-104.2635643550015
 31
0.0
  0
LINE
  5
994AF
330
18
100
AcDbEntity
  8
NOTE
100
AcDbLine
 10
485.2276113631979
 20
-96.58566227049414
 30
0.0
 11
457.1858491330366
 21
-116.4696136053794
 31
0.0
  0
LINE
  5
994B0
330
18
100
AcDbEntity
  8
NOTE
100
AcDbLine
 10
457.1858491330366
 20
-104.2635643550015
 30
0.0
 11
457.1858491330366
 21
-116.4696136053794
 31
0.0
  0
TEXT
  5
994B1
330
18
100
AcDbEntity
  8
NOTE
100
AcDbText
 10
388.5273505553832
 20
-155.212801555044
 30
0.0
 40
23.69722882067107
  1
 outlet
 50
359.9999974955184
 41
0.6
  7
STANDARD1
100
AcDbText
  0
TEXT
  5
994B2
330
18
100
AcDbEntity
  8
NOTE
100
AcDbText
 10
-746.2418726080795
 20
250.9154456445383
 30
0.0
 40
30.0
  1
Suspension bolt hole
 50
359.9999974955248
 41
0.6
  7
STANDARD1
100
AcDbText
  0
LINE
  5
994B3
330
18
100
AcDbEntity
  8
NOTE
100
AcDbLine
 10
-398.0665045668648
 20
153.7546129431555
 30
0.0
 11
-753.5074268669577
 21
153.7546449903072
 31
0.0
  0
TEXT
  5
994B4
330
18
100
AcDbEntity
  8
NOTE
100
AcDbText
 10
-755.2002466013508
 20
202.4914028163368
 30
0.0
 40
30.0
  1
 4-14X30 Slot
 50
359.9999974955248
 41
0.6
  7
STANDARD1
100
AcDbText
  0
TEXT
  5
994B5
330
18
100
AcDbEntity
  8
NOTE
100
AcDbText
 10
-745.2094486139067
 20
163.6577830188323
 30
0.0
 40
30.0
  1
(Use M10 screw)
 50
359.9999974955248
 41
0.6
  7
STANDARD1
100
AcDbText
  0
LINE
  5
994B6
330
18
100
AcDbEntity
  8
SIZE
100
AcDbLine
 10
396.99999999999
 20
-22.9999999999941
 30
0.0
 11
550.6035421003921
 21
-22.99999999999409
 31
0.0
  0
LINE
  5
994B7
330
18
100
AcDbEntity
  8
SIZE
100
AcDbLine
 10
390.6365124045487
 20
-62.99999999999414
 30
0.0
 11
550.6035421003921
 21
-62.9999999999941
 31
0.0
  0
LINE
  5
994B8
330
18
100
AcDbEntity
  8
SIZE
100
AcDbLine
 10
545.6035421003921
 20
-62.9999999999941
 30
0.0
 11
545.6035421003921
 21
-22.99999999999409
 31
0.0
  0
LINE
  5
994B9
330
18
100
AcDbEntity
  8
SIZE
100
AcDbLine
 10
545.6035421003921
 20
-22.99999999999409
 30
0.0
 11
545.6035421003921
 21
70.71428571429284
 31
0.0
  0
CIRCLE
  5
994BA
330
18
100
AcDbEntity
  8
SIZE
100
AcDbCircle
 10
545.6035421003921
 20
-62.9999999999941
 30
0.0
 40
5.0
  0
CIRCLE
  5
994BB
330
18
100
AcDbEntity
  8
SIZE
100
AcDbCircle
 10
545.6035421003921
 20
-22.99999999999409
 30
0.0
 40
5.0
  0
TEXT
  5
994BC
330
18
100
AcDbEntity
  8
SIZE
100
AcDbText
 10
530.6035421003925
 20
12.00000000000777
 30
0.0
 40
30.0
  1
40
 50
90.0
 41
0.9
100
AcDbText
  0
LINE
  5
994BD
330
18
100
AcDbEntity
  8
SIZE
100
AcDbLine
 10
390.6365124045487
 20
-62.99999999999414
 30
0.0
 11
550.6035421003907
 21
-62.9999999999941
 31
0.0
  0
LINE
  5
994BE
330
18
100
AcDbEntity
  8
SIZE
100
AcDbLine
 10
390.6365124045487
 20
-162.9999999999941
 30
0.0
 11
550.6035421003907
 21
-162.9999999999941
 31
0.0
  0
LINE
  5
994BF
330
18
100
AcDbEntity
  8
SIZE
100
AcDbLine
 10
545.6035421003908
 20
-62.9999999999941
 30
0.0
 11
545.6035421003908
 21
-162.9999999999941
 31
0.0
  0
CIRCLE
  5
994C0
330
18
100
AcDbEntity
  8
SIZE
100
AcDbCircle
 10
545.6035421003908
 20
-62.9999999999941
 30
0.0
 40
5.0
  0
CIRCLE
  5
994C1
330
18
100
AcDbEntity
  8
SIZE
100
AcDbCircle
 10
545.6035421003908
 20
-162.9999999999941
 30
0.0
 40
5.0
  0
TEXT
  5
994C2
330
18
100
AcDbEntity
  8
SIZE
100
AcDbText
 10
530.6035421003911
 20
-145.1428571428506
 30
0.0
 40
30.0
  1
100
 50
90.0
 41
0.9
100
AcDbText
  0
TEXT
  5
994C3
330
18
100
AcDbEntity
  8
NOTE
100
AcDbText
 10
398.7285061907078
 20
-126.2192495777924
 30
0.0
 40
23.69722882067107
  1
Air
 50
359.9999974955184
 41
0.6
  7
STANDARD1
100
AcDbText
  0
LINE
  5
994C4
330
18
100
AcDbEntity
  8
SIZE
100
AcDbLine
 10
365.0000000000009
 20
0.0000000000058975
 30
0.0
 11
682.6478616420222
 21
0.0000000000059472
 31
0.0
  0
LINE
  5
994C5
330
18
100
AcDbEntity
  8
SIZE
100
AcDbLine
 10
396.99999999999
 20
-22.9999999999941
 30
0.0
 11
682.6478616420222
 21
-22.99999999999406
 31
0.0
  0
LINE
  5
994C6
330
18
100
AcDbEntity
  8
SIZE
100
AcDbLine
 10
677.6478616420222
 20
-22.99999999999406
 30
0.0
 11
677.6478616420222
 21
-42.99999999999406
 31
0.0
  0
LINE
  5
994C7
330
18
100
AcDbEntity
  8
SIZE
100
AcDbLine
 10
677.6478616420222
 20
0.0000000000059472
 30
0.0
 11
677.6478616420222
 21
113.7142857142929
 31
0.0
  0
LINE
  5
994C8
330
18
100
AcDbEntity
  8
SIZE
100
AcDbLine
 10
677.6478616420222
 20
-22.99999999999406
 30
0.0
 11
677.6478616420222
 21
0.0000000000059472
 31
0.0
  0
CIRCLE
  5
994C9
330
18
100
AcDbEntity
  8
SIZE
100
AcDbCircle
 10
677.6478616420222
 20
-22.99999999999406
 30
0.0
 40
5.0
  0
CIRCLE
  5
994CA
330
18
100
AcDbEntity
  8
SIZE
100
AcDbCircle
 10
677.6478616420222
 20
0.0000000000059472
 30
0.0
 40
5.0
  0
TEXT
  5
994CB
330
18
100
AcDbEntity
  8
SIZE
100
AcDbText
 10
662.6478616420228
 20
55.00000000000778
 30
0.0
 40
30.0
  1
23
 50
90.0
 41
0.9
100
AcDbText
  0
LINE
  5
994CC
330
18
100
AcDbEntity
  8
SIZE
100
AcDbLine
 10
396.99999999999
 20
-22.9999999999941
 30
0.0
 11
682.6478616420208
 21
-22.99999999999406
 31
0.0
  0
LINE
  5
994CD
330
18
100
AcDbEntity
  8
SIZE
100
AcDbLine
 10
397.0000000000009
 20
-200.9999999999942
 30
0.0
 11
682.6478616420208
 21
-200.9999999999942
 31
0.0
  0
LINE
  5
994CE
330
18
100
AcDbEntity
  8
SIZE
100
AcDbLine
 10
677.6478616420209
 20
-22.99999999999406
 30
0.0
 11
677.6478616420209
 21
-200.9999999999942
 31
0.0
  0
CIRCLE
  5
994CF
330
18
100
AcDbEntity
  8
SIZE
100
AcDbCircle
 10
677.6478616420209
 20
-22.99999999999406
 30
0.0
 40
5.0
  0
CIRCLE
  5
994D0
330
18
100
AcDbEntity
  8
SIZE
100
AcDbCircle
 10
677.6478616420209
 20
-200.9999999999942
 30
0.0
 40
5.0
  0
TEXT
  5
994D1
330
18
100
AcDbEntity
  8
SIZE
100
AcDbText
 10
662.6478616420212
 20
-144.1428571428506
 30
0.0
 40
30.0
  1
178
 50
90.0
 41
0.9
100
AcDbText
  0
LINE
  5
994D2
330
18
100
AcDbEntity
  8
DETAIL
100
AcDbLine
 10
-194.0772532188948
 20
-9.012875536488763
 30
0.0
 11
-194.0772532188948
 21
-0.0000000000090949
 31
0.0
  0
LINE
  5
994D3
330
18
100
AcDbEntity
  8
DETAIL
100
AcDbLine
 10
-197.0815450643767
 20
-12.01716738198183
 30
0.0
 11
-350.0000000000018
 21
-12.01716738197433
 31
0.0
  0
ARC
  5
994D4
330
18
100
AcDbEntity
  8
DETAIL
100
AcDbCircle
 10
-197.0815450643767
 20
-9.012875536488763
 30
0.0
 40
3.0042918454936
100
AcDbArc
 50
270.0
 51
0.0
  0
LINE
  5
994D5
330
18
100
AcDbEntity
  8
DETAIL
100
AcDbLine
 10
-349.9999999999982
 20
-249.1988555078624
 30
0.0
 11
-350.8011444921194
 21
-249.1988555078624
 31
0.0
  0
LINE
  5
994D6
330
18
100
AcDbEntity
  8
DETAIL
100
AcDbLine
 10
-353.0042918455091
 20
-246.7954220314668
 30
0.0
 11
-351.0014306151788
 21
-246.7954220314668
 31
0.0
  0
LINE
  5
994D7
330
18
100
AcDbEntity
  8
DETAIL
100
AcDbLine
 10
-356.5092989985751
 20
-240.2861230328981
 30
0.0
 11
-353.0042918455091
 21
-240.2861230328981
 31
0.0
  0
LINE
  5
994D8
330
18
100
AcDbEntity
  8
DETAIL
100
AcDbLine
 10
-349.9999999999982
 20
-228.0000000000096
 30
0.0
 11
-353.0042918455091
 21
-228.0000000000096
 31
0.0
  0
LINE
  5
994D9
330
18
100
AcDbEntity
  8
DETAIL
100
AcDbLine
 10
-356.5092989985751
 20
-10.31473533620328
 30
0.0
 11
-353.0042918455091
 21
-10.31473533620328
 31
0.0
  0
LINE
  5
994DA
330
18
100
AcDbEntity
  8
DETAIL
100
AcDbLine
 10
-357.0100143061426
 20
-4.30615164521714
 30
0.0
 11
-355.6080114449179
 21
-4.30615164521714
 31
0.0
  0
LINE
  5
994DB
330
18
100
AcDbEntity
  8
DETAIL
100
AcDbLine
 10
-353.0042918455091
 20
-3.805436337634091
 30
0.0
 11
-349.9999999999982
 21
-3.805436337634091
 31
0.0
  0
LINE
  5
994DC
330
18
100
AcDbEntity
  8
DETAIL
100
AcDbLine
 10
-355.6080114449179
 20
-4.30615164521714
 30
0.0
 11
-354.927997735871
 21
-6.572864008634495
 31
0.0
  0
LINE
  5
994DD
330
18
100
AcDbEntity
  8
DETAIL
100
AcDbLine
 10
-343.9914163090179
 20
-72.10300429185281
 30
0.0
 11
-343.9914163090179
 21
-24.03433476395458
 31
0.0
  0
LINE
  5
994DE
330
18
100
AcDbEntity
  8
DETAIL
100
AcDbLine
 10
-343.9914163090179
 20
-15.02145922747877
 30
0.0
 11
-343.9914163090179
 21
-24.03433476395458
 31
0.0
  0
LINE
  5
994DF
330
18
100
AcDbEntity
  8
DETAIL
100
AcDbLine
 10
-349.9999999999982
 20
-247.9971387696628
 30
0.0
 11
-349.9999999999982
 21
-236.7811158798222
 31
0.0
  0
LINE
  5
994E0
330
18
100
AcDbEntity
  8
DETAIL
100
AcDbLine
 10
-349.9999999999982
 20
-234.1344778254752
 30
0.0
 11
-349.9999999999982
 21
-0.0000000000095497
 31
0.0
  0
LINE
  5
994E1
330
18
100
AcDbEntity
  8
DETAIL
100
AcDbLine
 10
-349.9999999999982
 20
-122.9756795422136
 30
0.0
 11
-349.9999999999982
 21
-12.01716738198183
 31
0.0
  0
LINE
  5
994E2
330
18
100
AcDbEntity
  8
DETAIL
100
AcDbLine
 10
-351.0014306151788
 20
-247.9971387696628
 30
0.0
 11
-351.0014306151788
 21
-228.0000000000096
 31
0.0
  0
LINE
  5
994E3
330
18
100
AcDbEntity
  8
DETAIL
100
AcDbLine
 10
-351.0014306151788
 20
-247.9971387696628
 30
0.0
 11
-351.0014306151788
 21
-248.9985693848284
 31
0.0
  0
LINE
  5
994E4
330
18
100
AcDbEntity
  8
DETAIL
100
AcDbLine
 10
-353.0042918455091
 20
-3.805436337634091
 30
0.0
 11
-353.0042918455091
 21
-18.00000000000955
 31
0.0
  0
LINE
  5
994E5
330
18
100
AcDbEntity
  8
DETAIL
100
AcDbLine
 10
-353.0042918455091
 20
-228.0000000000096
 30
0.0
 11
-353.0042918455091
 21
-246.7954220314668
 31
0.0
  0
LINE
  5
994E6
330
18
100
AcDbEntity
  8
DETAIL
100
AcDbLine
 10
-354.8142038431597
 20
-9.831494740796642
 30
0.0
 11
-354.927997735871
 21
-6.572864008634495
 31
0.0
  0
ARC
  5
994E7
330
18
100
AcDbEntity
  8
DETAIL
100
AcDbCircle
 10
-356.5092989985751
 20
-239.7854077253151
 30
0.0
 40
0.5007153075822283
100
AcDbArc
 50
180.0
 51
270.0
  0
ARC
  5
994E8
330
18
100
AcDbEntity
  8
DETAIL
100
AcDbCircle
 10
-350.8011444921194
 20
-248.9985693848284
 30
0.0
 40
0.2002861230327059
100
AcDbArc
 50
180.0
 51
270.0
  0
ARC
  5
994E9
330
18
100
AcDbEntity
  8
DETAIL
100
AcDbCircle
 10
-356.5092989985751
 20
-10.81545064378588
 30
0.0
 40
0.500715307582258
100
AcDbArc
 50
90.0
 51
180.0
  0
ARC
  5
994EA
330
18
100
AcDbEntity
  8
DETAIL
100
AcDbCircle
 10
-354.3137935578343
 20
-9.814020028620687
 30
0.0
 40
0.5007153075822283
100
AcDbArc
 50
182.0000000000043
 51
270.0
  0
LINE
  5
994EB
330
18
100
AcDbEntity
  8
DETAIL
100
AcDbLine
 10
-357.0100143061571
 20
-239.7854077253151
 30
0.0
 11
-357.0100143061571
 21
-4.30615164521714
 31
0.0
  0
LINE
  5
994EC
330
18
100
AcDbEntity
  8
DETAIL
100
AcDbLine
 10
-349.9999999999982
 20
-249.9999999999941
 30
0.0
 11
-349.9999999999982
 21
0.0000000000059117
 31
0.0
  0
LINE
  5
994ED
330
18
100
AcDbEntity
  8
OUTLINE
100
AcDbLine
 10
-349.9999999999982
 20
-0.0000000000095497
 30
0.0
 11
-349.9999999999982
 21
-249.9999999999941
 31
0.0
  0
LINE
  5
994EE
330
18
100
AcDbEntity
  8
DETAIL
100
AcDbLine
 10
-353.0042918455091
 20
-18.00000000000955
 30
0.0
 11
-349.9999999999982
 21
-18.00000000000955
 31
0.0
  0
LINE
  5
994EF
330
18
100
AcDbEntity
  8
SIZE
100
AcDbLine
 10
-365.0
 20
-0.000000000009571
 30
0.0
 11
-804.0981188317363
 21
-0.000000000009635
 31
0.0
  0
LINE
  5
994F0
330
18
100
AcDbEntity
  8
SIZE
100
AcDbLine
 10
-368.004291845511
 20
-18.00000000000958
 30
0.0
 11
-804.0981188317363
 21
-18.00000000000965
 31
0.0
  0
LINE
  5
994F1
330
18
100
AcDbEntity
  8
SIZE
100
AcDbLine
 10
-799.0981188317364
 20
-18.00000000000965
 30
0.0
 11
-799.0981188317364
 21
-38.00000000000965
 31
0.0
  0
LINE
  5
994F2
330
18
100
AcDbEntity
  8
SIZE
100
AcDbLine
 10
-799.0981188317364
 20
-0.000000000009635
 30
0.0
 11
-799.0981188317364
 21
108.5714285714202
 31
0.0
  0
LINE
  5
994F3
330
18
100
AcDbEntity
  8
SIZE
100
AcDbLine
 10
-799.0981188317364
 20
-18.00000000000965
 30
0.0
 11
-799.0981188317364
 21
-0.000000000009635
 31
0.0
  0
CIRCLE
  5
994F4
330
18
100
AcDbEntity
  8
SIZE
100
AcDbCircle
 10
-799.0981188317364
 20
-18.00000000000965
 30
0.0
 40
5.0
  0
CIRCLE
  5
994F5
330
18
100
AcDbEntity
  8
SIZE
100
AcDbCircle
 10
-799.0981188317364
 20
-0.000000000009635
 30
0.0
 40
5.0
  0
TEXT
  5
994F6
330
18
100
AcDbEntity
  8
SIZE
100
AcDbText
 10
-814.0981188317354
 20
54.99999999999268
 30
0.0
 40
30.0
  1
18
 50
90.0
 41
0.9
100
AcDbText
  0
LINE
  5
994F7
330
18
100
AcDbEntity
  8
NOTE
100
AcDbLine
 10
-349.9999999999982
 20
-7.363487595449669
 30
0.0
 11
-349.9999999999982
 21
-14.63651240456988
 31
0.0
  0
LINE
  5
994F8
330
18
100
AcDbEntity
  8
NOTE
100
AcDbLine
 10
-353.6365124045588
 20
-11.00000000000977
 30
0.0
 11
-346.3634875954376
 21
-11.00000000000977
 31
0.0
  0
LINE
  5
994F9
330
18
100
AcDbEntity
  8
NOTE
100
AcDbLine
 10
-349.9999999999982
 20
-119.3634875954494
 30
0.0
 11
-349.9999999999982
 21
-126.6365124045696
 31
0.0
  0
LINE
  5
994FA
330
18
100
AcDbEntity
  8
NOTE
100
AcDbLine
 10
-353.6365124045588
 20
-123.0000000000095
 30
0.0
 11
-346.3634875954376
 21
-123.0000000000095
 31
0.0
  0
LINE
  5
994FB
330
18
100
AcDbEntity
  8
NOTE
100
AcDbLine
 10
-349.9999999999982
 20
-231.3634875954495
 30
0.0
 11
-349.9999999999982
 21
-238.6365124045696
 31
0.0
  0
LINE
  5
994FC
330
18
100
AcDbEntity
  8
NOTE
100
AcDbLine
 10
-353.6365124045588
 20
-235.0000000000096
 30
0.0
 11
-346.3634875954376
 21
-235.0000000000096
 31
0.0
  0
LINE
  5
994FD
330
18
100
AcDbEntity
  8
SIZE
100
AcDbLine
 10
-365.0
 20
0.0000000000058904
 30
0.0
 11
-941.742264742068
 21
0.000000000005798
 31
0.0
  0
LINE
  5
994FE
330
18
100
AcDbEntity
  8
SIZE
100
AcDbLine
 10
-368.6365124045606
 20
-11.00000000000981
 30
0.0
 11
-941.742264742068
 21
-11.0000000000099
 31
0.0
  0
LINE
  5
994FF
330
18
100
AcDbEntity
  8
SIZE
100
AcDbLine
 10
-936.742264742068
 20
-11.0000000000099
 30
0.0
 11
-936.742264742068
 21
-31.00000000000991
 31
0.0
  0
LINE
  5
99500
330
18
100
AcDbEntity
  8
SIZE
100
AcDbLine
 10
-936.742264742068
 20
0.000000000005798
 30
0.0
 11
-936.742264742068
 21
97.0000000000067
 31
0.0
  0
LINE
  5
99501
330
18
100
AcDbEntity
  8
SIZE
100
AcDbLine
 10
-936.742264742068
 20
-11.0000000000099
 30
0.0
 11
-936.742264742068
 21
0.000000000005798
 31
0.0
  0
CIRCLE
  5
99502
330
18
100
AcDbEntity
  8
SIZE
100
AcDbCircle
 10
-936.742264742068
 20
-11.0000000000099
 30
0.0
 40
5.0
  0
CIRCLE
  5
99503
330
18
100
AcDbEntity
  8
SIZE
100
AcDbCircle
 10
-936.742264742068
 20
0.000000000005798
 30
0.0
 40
5.0
  0
TEXT
  5
99504
330
18
100
AcDbEntity
  8
SIZE
100
AcDbText
 10
-951.7422647420673
 20
55.00000000000774
 30
0.0
 40
30.0
  1
11
 50
90.0
 41
0.9
100
AcDbText
  0
LINE
  5
99505
330
18
100
AcDbEntity
  8
SIZE
100
AcDbLine
 10
-368.6365124045606
 20
-11.00000000000981
 30
0.0
 11
-941.742264742079
 21
-11.0000000000099
 31
0.0
  0
LINE
  5
99506
330
18
100
AcDbEntity
  8
SIZE
100
AcDbLine
 10
-368.6365124045606
 20
-123.0000000000096
 30
0.0
 11
-941.742264742079
 21
-123.0000000000097
 31
0.0
  0
LINE
  5
99507
330
18
100
AcDbEntity
  8
SIZE
100
AcDbLine
 10
-936.742264742079
 20
-11.0000000000099
 30
0.0
 11
-936.742264742079
 21
-123.0000000000097
 31
0.0
  0
CIRCLE
  5
99508
330
18
100
AcDbEntity
  8
SIZE
100
AcDbCircle
 10
-936.742264742079
 20
-11.0000000000099
 30
0.0
 40
5.0
  0
CIRCLE
  5
99509
330
18
100
AcDbEntity
  8
SIZE
100
AcDbCircle
 10
-936.742264742079
 20
-123.0000000000097
 30
0.0
 40
5.0
  0
TEXT
  5
9950A
330
18
100
AcDbEntity
  8
SIZE
100
AcDbText
 10
-951.7422647420779
 20
-96.57142857143732
 30
0.0
 40
30.0
  1
112
 50
90.0
 41
0.9
100
AcDbText
  0
LINE
  5
9950B
330
18
100
AcDbEntity
  8
SIZE
100
AcDbLine
 10
-368.6365124045606
 20
-123.0000000000096
 30
0.0
 11
-941.742264742079
 21
-123.0000000000097
 31
0.0
  0
LINE
  5
9950C
330
18
100
AcDbEntity
  8
SIZE
100
AcDbLine
 10
-368.6365124045606
 20
-235.0000000000097
 30
0.0
 11
-941.742264742079
 21
-235.0000000000098
 31
0.0
  0
LINE
  5
9950D
330
18
100
AcDbEntity
  8
SIZE
100
AcDbLine
 10
-936.742264742079
 20
-123.0000000000097
 30
0.0
 11
-936.742264742079
 21
-235.0000000000098
 31
0.0
  0
CIRCLE
  5
9950E
330
18
100
AcDbEntity
  8
SIZE
100
AcDbCircle
 10
-936.742264742079
 20
-123.0000000000097
 30
0.0
 40
5.0
  0
CIRCLE
  5
9950F
330
18
100
AcDbEntity
  8
SIZE
100
AcDbCircle
 10
-936.742264742079
 20
-235.0000000000098
 30
0.0
 40
5.0
  0
TEXT
  5
99510
330
18
100
AcDbEntity
  8
SIZE
100
AcDbText
 10
-951.7422647420779
 20
-208.5714285714372
 30
0.0
 40
30.0
  1
112
 50
90.0
 41
0.9
100
AcDbText
  0
LINE
  5
99511
330
18
100
AcDbEntity
  8
SIZE
100
AcDbLine
 10
-368.004291845511
 20
-18.00000000000958
 30
0.0
 11
-804.0981188317363
 21
-18.00000000000965
 31
0.0
  0
LINE
  5
99512
330
18
100
AcDbEntity
  8
SIZE
100
AcDbLine
 10
-368.004291845511
 20
-228.0000000000097
 30
0.0
 11
-804.0981188317363
 21
-228.0000000000098
 31
0.0
  0
LINE
  5
99513
330
18
100
AcDbEntity
  8
SIZE
100
AcDbLine
 10
-799.0981188317364
 20
-18.00000000000965
 30
0.0
 11
-799.0981188317364
 21
-228.0000000000098
 31
0.0
  0
CIRCLE
  5
99514
330
18
100
AcDbEntity
  8
SIZE
100
AcDbCircle
 10
-799.0981188317364
 20
-18.00000000000965
 30
0.0
 40
5.0
  0
CIRCLE
  5
99515
330
18
100
AcDbEntity
  8
SIZE
100
AcDbCircle
 10
-799.0981188317364
 20
-228.0000000000098
 30
0.0
 40
5.0
  0
TEXT
  5
99516
330
18
100
AcDbEntity
  8
SIZE
100
AcDbText
 10
-814.0981188317354
 20
-207.0198865194837
 30
0.0
 40
30.0
  1
210
 50
90.0
 41
0.9
100
AcDbText
  0
LINE
  5
99517
330
18
100
AcDbEntity
  8
SIZE
100
AcDbLine
 10
-350.0
 20
-274.99999999998
 30
0.0
 11
-350.0
 21
-714.2881926910834
 31
0.0
  0
LINE
  5
99518
330
18
100
AcDbEntity
  8
SIZE
100
AcDbLine
 10
-649.9999999999962
 20
-384.99999999998
 30
0.0
 11
-649.9999999999962
 21
-714.2881926910834
 31
0.0
  0
LINE
  5
99519
330
18
100
AcDbEntity
  8
SIZE
100
AcDbLine
 10
-350.0
 20
-709.2881926910834
 30
0.0
 11
-649.9999999999962
 21
-709.2881926910834
 31
0.0
  0
CIRCLE
  5
9951A
330
18
100
AcDbEntity
  8
SIZE
100
AcDbCircle
 10
-350.0
 20
-709.2881926910834
 30
0.0
 40
5.0
  0
CIRCLE
  5
9951B
330
18
100
AcDbEntity
  8
SIZE
100
AcDbCircle
 10
-649.9999999999962
 20
-709.2881926910834
 30
0.0
 40
5.0
  0
TEXT
  5
9951C
330
18
100
AcDbEntity
  8
SIZE
100
AcDbText
 10
-611.2142857142839
 20
-694.2881926910834
 30
0.0
 40
30.0
  1
Min.300mm
 41
0.9
100
AcDbText
  0
LINE
  5
9951D
330
18
100
AcDbEntity
  8
OUTLINE
100
AcDbLine
 10
270.9901031676909
 20
-269.9999999999977
 30
0.0
 11
270.9901031676909
 21
-309.9999999999976
 31
0.0
  0
LINE
  5
9951E
330
18
100
AcDbEntity
  8
OUTLINE
100
AcDbLine
 10
270.9901031676909
 20
-309.9999999999976
 30
0.0
 11
310.9901031676909
 21
-309.9999999999976
 31
0.0
  0
LINE
  5
9951F
330
18
100
AcDbEntity
  8
OUTLINE
100
AcDbLine
 10
310.9901031676909
 20
-309.9999999999976
 30
0.0
 11
310.9901031676909
 21
-269.9999999999977
 31
0.0
  0
LINE
  5
99520
330
18
100
AcDbEntity
  8
OUTLINE
100
AcDbLine
 10
310.9901031676909
 20
-269.9999999999977
 30
0.0
 11
270.9901031676909
 21
-269.9999999999977
 31
0.0
  0
LINE
  5
99521
330
18
100
AcDbEntity
  8
OUTLINE
100
AcDbLine
 10
310.9901031676909
 20
-309.9999999999976
 30
0.0
 11
270.9901031676909
 21
-269.9999999999977
 31
0.0
  0
LINE
  5
99522
330
18
100
AcDbEntity
  8
OUTLINE
100
AcDbLine
 10
270.9901031676909
 20
-309.9999999999976
 30
0.0
 11
310.9901031676909
 21
-269.9999999999977
 31
0.0
  0
LINE
  5
99523
330
18
100
AcDbEntity
  8
OUTLINE
100
AcDbLine
 10
-341.9034574471752
 20
-269.9999999999977
 30
0.0
 11
-341.9034574471752
 21
-309.9999999999976
 31
0.0
  0
LINE
  5
99524
330
18
100
AcDbEntity
  8
OUTLINE
100
AcDbLine
 10
-341.9034574471752
 20
-309.9999999999976
 30
0.0
 11
-301.9034574471752
 21
-309.9999999999976
 31
0.0
  0
LINE
  5
99525
330
18
100
AcDbEntity
  8
OUTLINE
100
AcDbLine
 10
-301.9034574471752
 20
-309.9999999999976
 30
0.0
 11
-301.9034574471752
 21
-269.9999999999977
 31
0.0
  0
LINE
  5
99526
330
18
100
AcDbEntity
  8
OUTLINE
100
AcDbLine
 10
-301.9034574471752
 20
-269.9999999999977
 30
0.0
 11
-341.9034574471752
 21
-269.9999999999977
 31
0.0
  0
LINE
  5
99527
330
18
100
AcDbEntity
  8
OUTLINE
100
AcDbLine
 10
-301.9034574471752
 20
-309.9999999999976
 30
0.0
 11
-341.9034574471752
 21
-269.9999999999977
 31
0.0
  0
LINE
  5
99528
330
18
100
AcDbEntity
  8
OUTLINE
100
AcDbLine
 10
-341.9034574471752
 20
-309.9999999999976
 30
0.0
 11
-301.9034574471752
 21
-269.9999999999977
 31
0.0
  0
TEXT
  5
99529
330
18
100
AcDbEntity
  8
NOTE
100
AcDbText
 10
-1045.333126016993
 20
-466.0521428028238
 30
0.0
 40
35.0
  1
Ceiling surface
 50
359.999999316757
 41
0.7
  7
STANDARD1
100
AcDbText
  0
LINE
  5
9952A
330
18
100
AcDbEntity
  8
NOTE
100
AcDbLine
 10
-372.2659116932637
 20
-329.7755509018236
 30
0.0
 11
-341.9034574471752
 21
-309.9999999999976
 31
0.0
  0
LINE
  5
9952B
330
18
100
AcDbEntity
  8
NOTE
100
AcDbLine
 10
-341.9034574471752
 20
-309.9999999999976
 30
0.0
 11
-358.310338841181
 21
-342.3073565034251
 31
0.0
  0
LINE
  5
9952C
330
18
100
AcDbEntity
  8
NOTE
100
AcDbLine
 10
-341.9034574471752
 20
-309.9999999999976
 30
0.0
 11
-365.2881252672223
 21
-336.0414537026243
 31
0.0
  0
LINE
  5
9952D
330
18
100
AcDbEntity
  8
NOTE
100
AcDbLine
 10
-365.2881252672223
 20
-336.0414537026243
 30
0.0
 11
-700.6058469296676
 21
-709.4553927647361
 31
0.0
1001
ACAD
1000
DSTYLE
1002
{
1070
    41
1040
35.0
1070
   271
1070
     0
1070
   341
1005
4C0C3
1002
}
  0
LINE
  5
9952E
330
18
100
AcDbEntity
  8
NOTE
100
AcDbLine
 10
-700.6058469296676
 20
-709.4553927647361
 30
0.0
 11
-988.7159060813699
 21
-709.4553927647361
 31
0.0
1001
ACAD
1000
DSTYLE
1002
{
1070
    41
1040
35.0
1070
   271
1070
     0
1070
   341
1005
4C0C3
1002
}
  0
TEXT
  5
9952F
330
18
100
AcDbEntity
  8
NOTE
100
AcDbText
 10
-984.5238555144232
 20
-692.9116853124233
 30
0.0
 40
35.0
  1
Ceiling beam
 50
359.999999316757
 41
0.7
  7
STANDARD1
100
AcDbText
  0
LINE
  5
99530
330
18
100
AcDbEntity
  8
NOTE
100
AcDbLine
 10
29.31000285783193
 20
-420.9243156485
 30
0.0
 11
48.19485771528889
 21
-389.99999999998
 31
0.0
  0
LINE
  5
99531
330
18
100
AcDbEntity
  8
NOTE
100
AcDbLine
 10
48.19485771528889
 20
-389.99999999998
 30
0.0
 11
47.30225132187934
 21
-426.2236703709261
 31
0.0
  0
LINE
  5
99532
330
18
100
AcDbEntity
  8
NOTE
100
AcDbLine
 10
48.19485771528889
 20
-389.99999999998
 30
0.0
 11
38.30612708985564
 21
-423.5739930097131
 31
0.0
  0
LINE
  5
99533
330
18
100
AcDbEntity
  8
NOTE
100
AcDbLine
 10
29.31000285783193
 20
-420.9243156485
 30
0.0
 11
48.19485771528889
 21
-389.99999999998
 31
0.0
  0
LINE
  5
99534
330
18
100
AcDbEntity
  8
NOTE
100
AcDbLine
 10
48.19485771528889
 20
-389.99999999998
 30
0.0
 11
47.30225132187934
 21
-426.2236703709261
 31
0.0
  0
LINE
  5
99535
330
18
100
AcDbEntity
  8
NOTE
100
AcDbLine
 10
48.19485771528889
 20
-389.99999999998
 30
0.0
 11
38.30612708985564
 21
-423.5739930097131
 31
0.0
  0
LINE
  5
99536
330
18
100
AcDbEntity
  8
NOTE
100
AcDbLine
 10
29.31000285783193
 20
-420.9243156485
 30
0.0
 11
48.19485771528889
 21
-389.99999999998
 31
0.0
  0
LINE
  5
99537
330
18
100
AcDbEntity
  8
NOTE
100
AcDbLine
 10
48.19485771528889
 20
-389.99999999998
 30
0.0
 11
47.30225132187934
 21
-426.2236703709261
 31
0.0
  0
LINE
  5
99538
330
18
100
AcDbEntity
  8
NOTE
100
AcDbLine
 10
48.19485771528889
 20
-389.99999999998
 30
0.0
 11
38.30612708985564
 21
-423.5739930097131
 31
0.0
  0
LINE
  5
99539
330
18
100
AcDbEntity
  8
NOTE
100
AcDbLine
 10
-639.0437421532022
 20
-412.8591679402426
 30
0.0
 11
-610.9295200868635
 21
-389.99999999998
 31
0.0
  0
LINE
  5
9953A
330
18
100
AcDbEntity
  8
NOTE
100
AcDbLine
 10
-610.9295200868635
 20
-389.99999999998
 30
0.0
 11
-623.8475667873972
 21
-423.8537311201882
 31
0.0
  0
LINE
  5
9953B
330
18
100
AcDbEntity
  8
NOTE
100
AcDbLine
 10
-610.9295200868635
 20
-389.99999999998
 30
0.0
 11
-631.4456544702998
 21
-418.3564495302155
 31
0.0
  0
LINE
  5
9953C
330
18
100
AcDbEntity
  8
NOTE
100
AcDbLine
 10
-631.4456544702998
 20
-418.3564495302155
 30
0.0
 11
-679.7737449786644
 21
-485.1532950655779
 31
0.0
1001
ACAD
1000
DSTYLE
1002
{
1070
   341
1005
4C0C3
1070
    41
1040
35.0
1070
   271
1070
     0
1002
}
  0
LINE
  5
9953D
330
18
100
AcDbEntity
  8
NOTE
100
AcDbLine
 10
-679.7737449786644
 20
-485.1532950655779
 30
0.0
 11
-1052.805744101454
 21
-485.1532950655779
 31
0.0
1001
ACAD
1000
DSTYLE
1002
{
1070
   341
1005
4C0C3
1070
    41
1040
35.0
1070
   271
1070
     0
1002
}
  0
LINE
  5
9953E
330
18
100
AcDbEntity
  8
NOTE
100
AcDbLine
 10
38.30612708985564
 20
-423.5739930097131
 30
0.0
 11
-35.7149623682617
 21
-674.8887101532844
 31
0.0
1001
ACAD
1000
DSTYLE
1002
{
1070
   341
1005
4C0C3
1070
    41
1040
35.0
1070
   271
1070
     0
1002
}
  0
LINE
  5
9953F
330
18
100
AcDbEntity
  8
NOTE
100
AcDbLine
 10
-35.7149623682617
 20
-674.8887101532844
 30
0.0
 11
-342.3294617253613
 21
-674.8887101532844
 31
0.0
1001
ACAD
1000
DSTYLE
1002
{
1070
   341
1005
4C0C3
1070
    41
1040
35.0
1070
   271
1070
     0
1002
}
  0
LINE
  5
99540
330
18
100
AcDbEntity
  8
NOTE
100
AcDbLine
 10
38.30612708985564
 20
-423.5739930097131
 30
0.0
 11
-35.7149623682617
 21
-674.8887101532844
 31
0.0
1001
ACAD
1000
DSTYLE
1002
{
1070
   341
1005
4C0C3
1070
    41
1040
35.0
1070
   271
1070
     0
1002
}
  0
LINE
  5
99541
330
18
100
AcDbEntity
  8
NOTE
100
AcDbLine
 10
-35.7149623682617
 20
-674.8887101532844
 30
0.0
 11
-342.3294617253613
 21
-674.8887101532844
 31
0.0
1001
ACAD
1000
DSTYLE
1002
{
1070
   341
1005
4C0C3
1070
    41
1040
35.0
1070
   271
1070
     0
1002
}
  0
LINE
  5
99542
330
18
100
AcDbEntity
  8
NOTE
100
AcDbLine
 10
38.30612708985564
 20
-423.5739930097131
 30
0.0
 11
-35.7149623682617
 21
-674.8887101532844
 31
0.0
1001
ACAD
1000
DSTYLE
1002
{
1070
   341
1005
4C0C3
1070
    41
1040
35.0
1070
   271
1070
     0
1002
}
  0
LINE
  5
99543
330
18
100
AcDbEntity
  8
NOTE
100
AcDbLine
 10
-35.7149623682617
 20
-674.8887101532844
 30
0.0
 11
-342.3294617253613
 21
-674.8887101532844
 31
0.0
1001
ACAD
1000
DSTYLE
1002
{
1070
   341
1005
4C0C3
1070
    41
1040
35.0
1070
   271
1070
     0
1002
}
  0
TEXT
  5
99544
330
18
100
AcDbEntity
  8
NOTE
100
AcDbText
 10
-339.2041355009196
 20
-654.9922468802212
 30
0.0
 40
35.0
  1
Access door 4
 50
359.999999316757
 41
0.7
  7
STANDARD1
100
AcDbText
  0
LINE
  5
99545
330
18
100
AcDbEntity
  8
SIZE
100
AcDbLine
 10
350.0000000000018
 20
-264.9999999999941
 30
0.0
 11
350.0000000000018
 21
-556.0793416083631
 31
0.0
  0
LINE
  5
99546
330
18
100
AcDbEntity
  8
SIZE
100
AcDbLine
 10
400.0000000000036
 20
-374.9999999999941
 30
0.0
 11
400.0000000000036
 21
-556.0793416083631
 31
0.0
  0
LINE
  5
99547
330
18
100
AcDbEntity
  8
SIZE
100
AcDbLine
 10
350.0000000000018
 20
-551.0793416083632
 30
0.0
 11
400.0000000000036
 21
-551.0793416083632
 31
0.0
  0
LINE
  5
99548
330
18
100
AcDbEntity
  8
SIZE
100
AcDbLine
 10
400.0000000000036
 20
-551.0793416083632
 30
0.0
 11
493.7142857142894
 21
-551.0793416083632
 31
0.0
  0
CIRCLE
  5
99549
330
18
100
AcDbEntity
  8
SIZE
100
AcDbCircle
 10
350.0000000000018
 20
-551.0793416083632
 30
0.0
 40
5.0
  0
CIRCLE
  5
9954A
330
18
100
AcDbEntity
  8
SIZE
100
AcDbCircle
 10
400.0000000000036
 20
-551.0793416083632
 30
0.0
 40
5.0
  0
TEXT
  5
9954B
330
18
100
AcDbEntity
  8
SIZE
100
AcDbText
 10
435.0000000000036
 20
-536.0793416083631
 30
0.0
 40
30.0
  1
50
 41
0.9
100
AcDbText
  0
LINE
  5
9954C
330
18
100
AcDbEntity
  8
SIZE
100
AcDbLine
 10
-365.0
 20
-0.000000000009571
 30
0.0
 11
-1082.655216120126
 21
-0.0000000000096847
 31
0.0
  0
LINE
  5
9954D
330
18
100
AcDbEntity
  8
SIZE
100
AcDbLine
 10
-365.0
 20
-249.9999999999942
 30
0.0
 11
-1082.655216120126
 21
-249.9999999999943
 31
0.0
  0
LINE
  5
9954E
330
18
100
AcDbEntity
  8
SIZE
100
AcDbLine
 10
-1077.655216120126
 20
-0.0000000000096847
 30
0.0
 11
-1077.655216120126
 21
-249.9999999999943
 31
0.0
  0
CIRCLE
  5
9954F
330
18
100
AcDbEntity
  8
SIZE
100
AcDbCircle
 10
-1077.655216120126
 20
-0.0000000000096847
 30
0.0
 40
5.0
  0
CIRCLE
  5
99550
330
18
100
AcDbEntity
  8
SIZE
100
AcDbCircle
 10
-1077.655216120126
 20
-249.9999999999943
 30
0.0
 40
5.0
  0
TEXT
  5
99551
330
18
100
AcDbEntity
  8
SIZE
100
AcDbText
 10
-1092.655216120125
 20
-159.7142857142866
 30
0.0
 40
30.0
  1
250
 50
90.0
 41
0.9
100
AcDbText
  0
LINE
  5
99552
330
18
100
AcDbEntity
  8
SIZE
100
AcDbLine
 10
-356.9034574471771
 20
-269.9999999999976
 30
0.0
 11
-1082.65521612011
 21
-269.9999999999977
 31
0.0
  0
LINE
  5
99553
330
18
100
AcDbEntity
  8
SIZE
100
AcDbLine
 10
-365.0
 20
-249.9999999999942
 30
0.0
 11
-1082.65521612011
 21
-249.9999999999943
 31
0.0
  0
LINE
  5
99554
330
18
100
AcDbEntity
  8
SIZE
100
AcDbLine
 10
-1077.65521612011
 20
-249.9999999999943
 30
0.0
 11
-1077.65521612011
 21
-229.9999999999943
 31
0.0
  0
LINE
  5
99555
330
18
100
AcDbEntity
  8
SIZE
100
AcDbLine
 10
-1077.65521612011
 20
-269.9999999999977
 30
0.0
 11
-1077.65521612011
 21
-536.7142857142846
 31
0.0
  0
LINE
  5
99556
330
18
100
AcDbEntity
  8
SIZE
100
AcDbLine
 10
-1077.65521612011
 20
-249.9999999999943
 30
0.0
 11
-1077.65521612011
 21
-269.9999999999977
 31
0.0
  0
CIRCLE
  5
99557
330
18
100
AcDbEntity
  8
SIZE
100
AcDbCircle
 10
-1077.65521612011
 20
-249.9999999999943
 30
0.0
 40
5.0
  0
CIRCLE
  5
99558
330
18
100
AcDbEntity
  8
SIZE
100
AcDbCircle
 10
-1077.65521612011
 20
-269.9999999999977
 30
0.0
 40
5.0
  0
TEXT
  5
99559
330
18
100
AcDbEntity
  8
SIZE
100
AcDbText
 10
-1092.655216120109
 20
-521.7142857142833
 30
0.0
 40
30.0
  1
Min.20mm
 50
90.0
 41
0.9
100
AcDbText
  0
LINE
  5
9955A
330
18
100
AcDbEntity
  8
SIZE
100
AcDbLine
 10
400.0000000000036
 20
-404.9999999999799
 30
0.0
 11
400.0000000000036
 21
-781.8510369401104
 31
0.0
  0
LINE
  5
9955B
330
18
100
AcDbEntity
  8
SIZE
100
AcDbLine
 10
-376.9999999999964
 20
-404.9999999999799
 30
0.0
 11
-376.9999999999964
 21
-781.8510369401104
 31
0.0
  0
LINE
  5
9955C
330
18
100
AcDbEntity
  8
SIZE
100
AcDbLine
 10
400.0000000000036
 20
-776.8510369401103
 30
0.0
 11
-376.9999999999964
 21
-776.8510369401103
 31
0.0
  0
TEXT
  5
9955D
330
18
100
AcDbEntity
  8
SIZE
100
AcDbText
 10
-23.21428571428214
 20
-761.8510369401104
 30
0.0
 40
30.0
  1
777
 41
0.9
100
AcDbText
  0
CIRCLE
  5
9955E
330
18
100
AcDbEntity
  8
SIZE
100
AcDbCircle
 10
400.0000000000036
 20
-776.8510369401103
 30
0.0
 40
5.0
  0
CIRCLE
  5
9955F
330
18
100
AcDbEntity
  8
SIZE
100
AcDbCircle
 10
-376.9999999999964
 20
-776.8510369401103
 30
0.0
 40
5.0
  0
LINE
  5
99560
330
18
100
AcDbEntity
  8
SERVICESPACE
100
AcDbLine
 10
-649.9999999999962
 20
-389.9999999999802
 30
0.0
 11
400.0000000000036
 21
-389.9999999999802
 31
0.0
  0
LINE
  5
99561
330
18
100
AcDbEntity
  8
SERVICESPACE
100
AcDbLine
 10
400.0000000000036
 20
-369.9999999999802
 30
0.0
 11
-649.9999999999962
 21
-369.9999999999802
 31
0.0
  0
LINE
  5
99562
330
18
100
AcDbEntity
  8
SERVICESPACE
100
AcDbLine
 10
-649.9999999999962
 20
-369.9999999999802
 30
0.0
 11
-649.9999999999962
 21
-389.9999999999802
 31
0.0
  0
LINE
  5
99563
330
18
100
AcDbEntity
  8
SERVICESPACE
100
AcDbLine
 10
400.0000000000036
 20
-369.9999999999802
 30
0.0
 11
400.0000000000036
 21
-389.9999999999802
 31
0.0
  0
LINE
  5
99564
330
18
100
AcDbEntity
  8
SERVICESPACE
100
AcDbLine
 10
-376.9999999999964
 20
-369.9999999999802
 30
0.0
 11
-376.9999999999964
 21
-389.9999999999802
 31
0.0
  0
LINE
  5
99565
330
18
100
AcDbEntity
  8
SERVICESPACE
100
AcDbLine
 10
400.0000000000036
 20
-389.9999999999802
 30
0.0
 11
-376.9999999999964
 21
-369.9999999999802
 31
0.0
  0
LINE
  5
99566
330
18
100
AcDbEntity
  8
SERVICESPACE
100
AcDbLine
 10
-376.9999999999964
 20
-389.9999999999802
 30
0.0
 11
400.0000000000036
 21
-369.9999999999802
 31
0.0
  0
LINE
  5
99567
330
18
100
AcDbEntity
  8
NOTE
100
AcDbLine
 10
233.5743038814817
 20
-146.1135588235061
 30
0.0
 11
214.0000000000018
 21
-121.9999999999941
 31
0.0
  0
LINE
  5
99568
330
18
100
AcDbEntity
  8
NOTE
100
AcDbLine
 10
214.0000000000018
 20
-121.9999999999941
 30
0.0
 11
243.0086237841792
 21
-133.0958027076647
 31
0.0
  0
LINE
  5
99569
330
18
100
AcDbEntity
  8
NOTE
100
AcDbLine
 10
214.0000000000018
 20
-121.9999999999941
 30
0.0
 11
238.2914638328302
 21
-139.6046807655854
 31
0.0
  0
LINE
  5
9956A
330
18
100
AcDbEntity
  8
NOTE
100
AcDbLine
 10
238.2914638328302
 20
-139.6046807655854
 30
0.0
 11
489.0007893057805
 21
-321.3005089907749
 31
0.0
1001
ACAD
1000
DSTYLE
1002
{
1070
    41
1040
30.0
1070
   147
1040
15.0
1070
    77
1070
     0
1070
    90
1070
     1
1070
   345
1005
12
1070
   346
1005
12
1070
   347
1005
12
1002
}
  0
LINE
  5
9956B
330
18
100
AcDbEntity
  8
NOTE
100
AcDbLine
 10
489.0007893057805
 20
-321.3005089907749
 30
0.0
 11
1060.584306268723
 21
-321.3005089907749
 31
0.0
1001
ACAD
1000
DSTYLE
1002
{
1070
    41
1040
30.0
1070
   147
1040
15.0
1070
    77
1070
     0
1070
    90
1070
     1
1070
   345
1005
12
1070
   346
1005
12
1070
   347
1005
12
1002
}
  0
LINE
  5
9956C
330
18
100
AcDbEntity
  8
NOTE
100
AcDbLine
 10
166.7538630915947
 20
-178.9666848883573
 30
0.0
 11
147.0000000000018
 21
-154.9999999999941
 31
0.0
  0
LINE
  5
9956D
330
18
100
AcDbEntity
  8
NOTE
100
AcDbLine
 10
147.0000000000018
 20
-154.9999999999941
 30
0.0
 11
176.0906896550304
 21
-165.8788265439878
 31
0.0
  0
LINE
  5
9956E
330
18
100
AcDbEntity
  8
NOTE
100
AcDbLine
 10
147.0000000000018
 20
-154.9999999999941
 30
0.0
 11
171.4222763733123
 21
-172.4227557161724
 31
0.0
  0
LINE
  5
9956F
330
18
100
AcDbEntity
  8
NOTE
100
AcDbLine
 10
171.4222763733123
 20
-172.4227557161724
 30
0.0
 11
536.1400870922766
 21
-432.611004524959
 31
0.0
1001
ACAD
1000
DSTYLE
1002
{
1070
    41
1040
30.0
1070
   147
1040
15.0
1070
    77
1070
     0
1070
    90
1070
     1
1070
   345
1005
12
1070
   346
1005
12
1070
   347
1005
12
1002
}
  0
LINE
  5
99570
330
18
100
AcDbEntity
  8
NOTE
100
AcDbLine
 10
536.1400870922766
 20
-432.611004524959
 30
0.0
 11
1084.738286921183
 21
-432.611004524959
 31
0.0
1001
ACAD
1000
DSTYLE
1002
{
1070
    41
1040
30.0
1070
   147
1040
15.0
1070
    77
1070
     0
1070
    90
1070
     1
1070
   345
1005
12
1070
   346
1005
12
1070
   347
1005
12
1002
}
  0
TEXT
  5
99571
330
18
100
AcDbEntity
  8
NOTE
100
AcDbText
 10
490.390349591165
 20
-303.6240856608565
 30
0.0
 40
30.0
  1
Brazing connection (liquid) %%C9.52
 41
0.6
  7
STANDARD1
100
AcDbText
  0
TEXT
  5
99572
330
18
100
AcDbEntity
  8
NOTE
100
AcDbText
 10
491.526207411232
 20
-252.5345484438221
 30
0.0
 40
30.0
  1
Refrigerant piping
 41
0.6
  7
STANDARD1
100
AcDbText
  0
TEXT
  5
99573
330
18
100
AcDbEntity
  8
NOTE
100
AcDbText
 10
547.6460733977328
 20
-371.6955656090095
 30
0.0
 40
30.0
  1
Refrigerant piping
 41
0.6
  7
STANDARD1
100
AcDbText
  0
TEXT
  5
99574
330
18
100
AcDbEntity
  8
NOTE
100
AcDbText
 10
546.5102155776584
 20
-415.7702561252555
 30
0.0
 40
30.0
  1
Brazing connection (gas) %%C15.88
 41
0.6
  7
STANDARD1
100
AcDbText
  0
ENDSEC
  0
SECTION
  2
OBJECTS
  0
DICTIONARY
  5
C
330
0
100
AcDbDictionary
281
     1
  3
ACAD_2007HEADERVARS_RT
350
995C9
  3
ACAD_CIP_PREVIOUS_PRODUCT_INFO
350
70D0E
  3
ACAD_COLOR
350
513F9
  3
ACAD_DETAILVIEWSTYLE
350
99248
  3
ACAD_GROUP
350
D
  3
ACAD_LAYOUT
350
21F1
  3
ACAD_MATERIAL
350
513CF
  3
ACAD_MLEADERSTYLE
350
5141E
  3
ACAD_MLINESTYLE
350
1B
  3
ACAD_PLOTSETTINGS
350
21F2
  3
ACAD_PLOTSTYLENAME
350
21EF
  3
ACAD_SCALELIST
350
513FC
  3
ACAD_SECTIONVIEWSTYLE
350
99246
  3
ACAD_TABLESTYLE
350
513FA
  3
ACAD_VISUALSTYLE
350
513E8
  3
AcadDim
350
956CE
  3
ACDB_RECOMPOSE_DATA
350
995C7
  3
AcDbVariableDictionary
350
28B1
  3
DWGPROPS
350
995C8
  0
DICTIONARY
  5
70D15
330
8
100
AcDbDictionary
280
     1
281
     1
  0
DICTIONARY
  5
5148D
330
2
100
AcDbDictionary
280
     1
281
     1
  3
ACAD_LAYERFILTERS
360
6ADDC
  3
ACAD_LAYERSTATES
360
6B6C9
  3
ACLYDICTIONARY
360
6ADDB
  0
DICTIONARY
  5
5144C
330
E
100
AcDbDictionary
280
     1
281
     1
  3
ADSK_XREC_LAYER_RECONCILED
360
5144D
  0
DICTIONARY
  5
5144E
330
25
100
AcDbDictionary
280
     1
281
     1
  3
ADSK_XREC_LAYER_RECONCILED
360
5144F
  0
DICTIONARY
  5
51450
330
26
100
AcDbDictionary
280
     1
281
     1
  3
ADSK_XREC_LAYER_RECONCILED
360
51451
  0
DICTIONARY
  5
51452
330
27
100
AcDbDictionary
280
     1
281
     1
  3
ADSK_XREC_LAYER_RECONCILED
360
51453
  0
DICTIONARY
  5
51454
330
28
100
AcDbDictionary
280
     1
281
     1
  3
ADSK_XREC_LAYER_RECONCILED
360
51455
  0
DICTIONARY
  5
51456
330
29
100
AcDbDictionary
280
     1
281
     1
  3
ADSK_XREC_LAYER_RECONCILED
360
51457
  0
DICTIONARY
  5
51458
330
2B
100
AcDbDictionary
280
     1
281
     1
  3
ADSK_XREC_LAYER_RECONCILED
360
51459
  0
DICTIONARY
  5
5145A
330
2C
100
AcDbDictionary
280
     1
281
     1
  3
ADSK_XREC_LAYER_RECONCILED
360
5145B
  0
DICTIONARY
  5
5145C
330
2D
100
AcDbDictionary
280
     1
281
     1
  3
ADSK_XREC_LAYER_RECONCILED
360
5145D
  0
DICTIONARY
  5
85434
330
85433
100
AcDbDictionary
280
     1
281
     1
  0
DICTIONARY
  5
85436
330
85435
100
AcDbDictionary
280
     1
281
     1
  0
DICTIONARY
  5
28B3
330
18
100
AcDbDictionary
280
     1
281
     1
  3
ACAD_LAYOUTSELFREF
360
2DF14
  3
ACAD_SORTENTS
360
28B4
  0
DICTIONARY
  5
29B6
330
15
100
AcDbDictionary
280
     1
281
     1
  3
ACAD_LAYOUTSELFREF
360
2DF13
  0
DICTIONARY
  5
990CA
330
4C0C3
100
AcDbDictionary
280
     1
281
     1
  0
DICTIONARY
  5
993E0
330
99250
100
AcDbDictionary
280
     1
281
     1
  3
ACAD_SORTENTS
360
993E1
  0
DICTIONARY
  5
995C9
102
{ACAD_REACTORS
330
C
102
}
330
C
100
AcDbDictionary
281
     1
  3
DIMARCSYM
350
995CA
  3
DIMLTEX1
350
995CC
  3
DIMLTEX2
350
995CD
  3
DIMLTYPE
350
995CB
  0
XRECORD
  5
70D0E
102
{ACAD_REACTORS
330
C
102
}
330
C
100
AcDbXrecord
280
     1
300
ACDLT
300
2018
300
86831ACDLT_2018_0F
  0
DICTIONARY
  5
513F9
102
{ACAD_REACTORS
330
C
102
}
330
C
100
AcDbDictionary
281
     1
  0
DICTIONARY
  5
99248
102
{ACAD_REACTORS
330
C
102
}
330
C
100
AcDbDictionary
281
     1
  3
Imperial24
350
99249
  0
DICTIONARY
  5
D
102
{ACAD_REACTORS
330
C
102
}
330
C
100
AcDbDictionary
281
     1
  0
DICTIONARY
  5
21F1
102
{ACAD_REACTORS
330
C
102
}
330
C
100
AcDbDictionary
281
     1
  3
Model
350
21F3
  3
ﾚｲｱｳﾄ1
350
21F4
  0
DICTIONARY
  5
513CF
102
{ACAD_REACTORS
330
C
102
}
330
C
100
AcDbDictionary
281
     1
  3
ByBlock
350
513D8
  3
ByLayer
350
513D0
  3
Global
350
513E0
  0
DICTIONARY
  5
5141E
102
{ACAD_REACTORS
330
C
102
}
330
C
100
AcDbDictionary
281
     1
  3
Standard
350
5141F
  0
DICTIONARY
  5
1B
102
{ACAD_REACTORS
330
C
102
}
330
C
100
AcDbDictionary
281
     1
  3
STANDARD
350
1C
  0
DICTIONARY
  5
21F2
102
{ACAD_REACTORS
330
C
102
}
330
C
100
AcDbDictionary
281
     1
  0
ACDBDICTIONARYWDFLT
  5
21EF
102
{ACAD_REACTORS
330
C
102
}
330
C
100
AcDbDictionary
281
     1
  3
Normal
350
21F0
100
AcDbDictionaryWithDefault
340
21F0
  0
DICTIONARY
  5
513FC
102
{ACAD_REACTORS
330
C
102
}
330
C
100
AcDbDictionary
281
     1
  3
A0
350
513FD
  3
A1
350
513FE
  3
A2
350
513FF
  3
A3
350
51400
  3
A4
350
51401
  3
A5
350
51402
  3
A6
350
51403
  3
A7
350
51404
  3
A8
350
51405
  3
A9
350
51406
  3
B0
350
51407
  3
B1
350
51408
  3
B2
350
51409
  3
B3
350
5140A
  3
B4
350
5140B
  3
B5
350
5140C
  3
B6
350
5140D
  3
B7
350
5140E
  3
B8
350
5140F
  3
B9
350
51410
  3
C0
350
51411
  3
C1
350
51412
  3
C2
350
51413
  3
C3
350
51414
  3
C4
350
51415
  3
C5
350
51416
  3
C6
350
51417
  3
C7
350
51418
  3
C8
350
51419
  3
C9
350
5141A
  3
D0
350
5141B
  3
D1
350
5141C
  3
D2
350
5141D
  0
DICTIONARY
  5
99246
102
{ACAD_REACTORS
330
C
102
}
330
C
100
AcDbDictionary
281
     1
  3
Imperial24
350
99247
  0
DICTIONARY
  5
513FA
102
{ACAD_REACTORS
330
C
102
}
330
C
100
AcDbDictionary
281
     1
  3
Standard
350
513FB
  0
DICTIONARY
  5
513E8
102
{ACAD_REACTORS
330
C
102
}
330
C
100
AcDbDictionary
281
     1
  3
2dWireframe
350
513EE
  3
3D Hidden
350
513F0
  3
3dWireframe
350
513EF
  3
Basic
350
513ED
  3
Brighten
350
513F4
  3
ColorChange
350
513F8
  3
Conceptual
350
513F1
  3
Dim
350
513F3
  3
EdgeColorOff
350
70D09
  3
Facepattern
350
513F7
  3
Flat
350
513E9
  3
FlatWithEdges
350
513EA
  3
Gouraud
350
513EB
  3
GouraudWithEdges
350
513EC
  3
Hidden
350
70D01
  3
JitterOff
350
70D07
  3
Linepattern
350
513F6
  3
OverhangOff
350
70D08
  3
Realistic
350
513F2
  3
Shaded
350
70D06
  3
Shaded with edges
350
70D05
  3
Shades of Gray
350
70D02
  3
Sketchy
350
70D03
  3
Thicken
350
513F5
  3
Wireframe
350
70D00
  3
X-Ray
350
70D04
  0
XRECORD
  5
956CE
102
{ACAD_REACTORS
330
C
102
}
330
C
100
AcDbXrecord
280
     1
 90
   990106
  3

 60
     0
 61
     0
 62
     1
 63
     3
 64
     0
 65
     0
 66
     0
 67
     3
 68
     1
 69
     0
 70
     0
 71
     0
 72
     0
 40
0.0
170
     0
  0
XRECORD
  5
995C7
102
{ACAD_REACTORS
330
C
102
}
330
C
100
AcDbXrecord
280
     1
 90
        1
330
513FB
  0
DICTIONARY
  5
28B1
102
{ACAD_REACTORS
330
C
102
}
330
C
100
AcDbDictionary
281
     1
  3
CANNOSCALE
350
51480
  3
CMLEADERSTYLE
350
5147E
  3
CTABLESTYLE
350
5147D
  3
CVIEWDETAILSTYLE
350
99575
  3
CVIEWSECTIONSTYLE
350
99576
  3
DIMASSOC
350
5135B
  3
INDEXCTL
350
70D55
  3
LIGHTINGUNITS
350
51481
  3
MSLTSCALE
350
5147F
  3
SOLIDHIST
350
70D57
  3
SORTENTS
350
28B2
  3
XCLIPFRAME
350
995C5
  0
XRECORD
  5
995C8
102
{ACAD_REACTORS
330
C
102
}
330
C
100
AcDbXrecord
280
     1
  1
DWGPROPS COOKIE
  2

  3

  4

  6

  7

  8
NU55418
  9

300
=
301
=
302
=
303
=
304
=
305
=
306
=
307
=
308
=
309
=
 40
1.643201400462962
 41
2455902.607164352
 42
2460202.638483796
  1

 90
        0
  0
DICTIONARY
  5
6ADDC
102
{ACAD_REACTORS
330
5148D
102
}
330
5148D
100
AcDbDictionary
281
     1
  0
DICTIONARY
  5
6B6C9
102
{ACAD_REACTORS
330
5148D
102
}
330
5148D
100
AcDbDictionary
281
     1
  0
DICTIONARY
  5
6ADDB
102
{ACAD_REACTORS
330
5148D
102
}
330
5148D
100
AcDbDictionary
281
     1
1001
ACAD
1000
<All
  0
XRECORD
  5
5144D
102
{ACAD_REACTORS
330
5144C
102
}
330
5144C
100
AcDbXrecord
280
     1
290
     1
  0
XRECORD
  5
5144F
102
{ACAD_REACTORS
330
5144E
102
}
330
5144E
100
AcDbXrecord
280
     1
290
     1
  0
XRECORD
  5
51451
102
{ACAD_REACTORS
330
51450
102
}
330
51450
100
AcDbXrecord
280
     1
290
     1
  0
XRECORD
  5
51453
102
{ACAD_REACTORS
330
51452
102
}
330
51452
100
AcDbXrecord
280
     1
290
     1
  0
XRECORD
  5
51455
102
{ACAD_REACTORS
330
51454
102
}
330
51454
100
AcDbXrecord
280
     1
290
     1
  0
XRECORD
  5
51457
102
{ACAD_REACTORS
330
51456
102
}
330
51456
100
AcDbXrecord
280
     1
290
     1
  0
XRECORD
  5
51459
102
{ACAD_REACTORS
330
51458
102
}
330
51458
100
AcDbXrecord
280
     1
290
     1
  0
XRECORD
  5
5145B
102
{ACAD_REACTORS
330
5145A
102
}
330
5145A
100
AcDbXrecord
280
     1
290
     1
  0
XRECORD
  5
5145D
102
{ACAD_REACTORS
330
5145C
102
}
330
5145C
100
AcDbXrecord
280
     1
290
     1
  0
XRECORD
  5
2DF14
102
{ACAD_REACTORS
330
28B3
102
}
330
28B3
100
AcDbXrecord
280
     1
340
18
  0
SORTENTSTABLE
  5
28B4
102
{ACAD_REACTORS
330
28B3
102
}
330
28B3
100
AcDbSortentsTable
330
18
331
99434
  5
99434
331
99430
  5
99430
331
9946F
  5
9946F
331
9942C
  5
9942C
331
99428
  5
99428
331
9946B
  5
9946B
331
99526
  5
99526
331
994AD
  5
994AD
331
994A9
  5
994A9
331
99522
  5
99522
331
994E4
  5
994E4
331
994A5
  5
994A5
331
9951E
  5
9951E
331
994E0
  5
994E0
331
994A1
  5
994A1
331
9955D
  5
9955D
331
9951A
  5
9951A
331
99559
  5
99559
331
993F6
  5
993F6
331
993F2
  5
993F2
331
99467
  5
99467
331
99424
  5
99424
331
99463
  5
99463
331
99420
  5
99420
331
9945F
  5
9945F
331
9941C
  5
9941C
331
99418
  5
99418
331
9945B
  5
9945B
331
994DC
  5
994DC
331
99516
  5
99516
331
9949D
  5
9949D
331
993E6
  5
993E6
331
99499
  5
99499
331
99555
  5
99555
331
99512
  5
99512
331
994D8
  5
994D8
331
994D4
  5
994D4
331
99495
  5
99495
331
99551
  5
99551
331
9950E
  5
9950E
331
994D0
  5
994D0
331
99491
  5
99491
331
9954D
  5
9954D
331
9950A
  5
9950A
331
993EE
  5
993EE
331
99549
  5
99549
331
993EA
  5
993EA
331
99454
  5
99454
331
99415
  5
99415
331
99450
  5
99450
331
99411
  5
99411
331
9940D
  5
9940D
331
9944C
  5
9944C
331
99448
  5
99448
331
99409
  5
99409
331
9948E
  5
9948E
331
9948A
  5
9948A
331
99546
  5
99546
331
99507
  5
99507
331
994CD
  5
994CD
331
994C9
  5
994C9
331
99542
  5
99542
331
99486
  5
99486
331
99503
  5
99503
331
994C5
  5
994C5
331
9953E
  5
9953E
331
99482
  5
99482
331
994FF
  5
994FF
331
994C1
  5
994C1
331
994FB
  5
994FB
331
9953A
  5
9953A
331
99573
  5
99573
331
99444
  5
99444
331
99405
  5
99405
331
99440
  5
99440
331
99401
  5
99401
331
993FD
  5
993FD
331
9943C
  5
9943C
331
993F9
  5
993F9
331
99438
  5
99438
331
9947E
  5
9947E
331
9947A
  5
9947A
331
99536
  5
99536
331
994F7
  5
994F7
331
994BD
  5
994BD
331
994B9
  5
994B9
331
99532
  5
99532
331
99476
  5
99476
331
994F3
  5
994F3
331
994B5
  5
994B5
331
9952E
  5
9952E
331
99472
  5
99472
331
994EF
  5
994EF
331
994B1
  5
994B1
331
994EB
  5
994EB
331
9952A
  5
9952A
331
9956F
  5
9956F
331
9956B
  5
9956B
331
99567
  5
99567
331
99563
  5
99563
331
99435
  5
99435
331
99431
  5
99431
331
9946C
  5
9946C
331
9942D
  5
9942D
331
99429
  5
99429
331
99468
  5
99468
331
994AE
  5
994AE
331
994AA
  5
994AA
331
99527
  5
99527
331
994A6
  5
994A6
331
99523
  5
99523
331
994E5
  5
994E5
331
9955E
  5
9955E
331
994A2
  5
994A2
331
9951F
  5
9951F
331
994E1
  5
994E1
331
9955A
  5
9955A
331
9951B
  5
9951B
331
993F7
  5
993F7
331
993F3
  5
993F3
331
99464
  5
99464
331
99425
  5
99425
331
99460
  5
99460
331
99421
  5
99421
331
9945C
  5
9945C
331
9941D
  5
9941D
331
99419
  5
99419
331
99458
  5
99458
331
9949E
  5
9949E
331
994DD
  5
994DD
331
99517
  5
99517
331
99556
  5
99556
331
9949A
  5
9949A
331
99496
  5
99496
331
993E7
  5
993E7
331
99552
  5
99552
331
99513
  5
99513
331
994D9
  5
994D9
331
994D5
  5
994D5
331
9954E
  5
9954E
331
99492
  5
99492
331
9950F
  5
9950F
331
994D1
  5
994D1
331
9954A
  5
9954A
331
9950B
  5
9950B
331
993EF
  5
993EF
331
993EB
  5
993EB
331
99416
  5
99416
331
99455
  5
99455
331
99412
  5
99412
331
99451
  5
99451
331
9940E
  5
9940E
331
9940A
  5
9940A
331
9944D
  5
9944D
331
99449
  5
99449
331
994CE
  5
994CE
331
9948F
  5
9948F
331
9948B
  5
9948B
331
99547
  5
99547
331
99504
  5
99504
331
994CA
  5
994CA
331
994C6
  5
994C6
331
99487
  5
99487
331
99543
  5
99543
331
99500
  5
99500
331
994C2
  5
994C2
331
99483
  5
99483
331
9953F
  5
9953F
331
994FC
  5
994FC
331
994F8
  5
994F8
331
9953B
  5
9953B
331
99574
  5
99574
331
99570
  5
99570
331
99406
  5
99406
331
99445
  5
99445
331
99402
  5
99402
331
99441
  5
99441
331
993FE
  5
993FE
331
993FA
  5
993FA
331
9943D
  5
9943D
331
99439
  5
99439
331
994BE
  5
994BE
331
9947F
  5
9947F
331
9947B
  5
9947B
331
99537
  5
99537
331
994F4
  5
994F4
331
994BA
  5
994BA
331
994B6
  5
994B6
331
99477
  5
99477
331
99533
  5
99533
331
994F0
  5
994F0
331
994B2
  5
994B2
331
99473
  5
99473
331
9952F
  5
9952F
331
994EC
  5
994EC
331
994E8
  5
994E8
331
9952B
  5
9952B
331
9956C
  5
9956C
331
99568
  5
99568
331
99564
  5
99564
331
99560
  5
99560
331
99436
  5
99436
331
99432
  5
99432
331
9942E
  5
9942E
331
9942A
  5
9942A
331
9946D
  5
9946D
331
99469
  5
99469
331
994AF
  5
994AF
331
994AB
  5
994AB
331
99524
  5
99524
331
994E6
  5
994E6
331
994A7
  5
994A7
331
99520
  5
99520
331
994E2
  5
994E2
331
994A3
  5
994A3
331
9955F
  5
9955F
331
9951C
  5
9951C
331
99518
  5
99518
331
9955B
  5
9955B
331
993F4
  5
993F4
331
993F0
  5
993F0
331
99426
  5
99426
331
99465
  5
99465
331
99422
  5
99422
331
99461
  5
99461
331
9941E
  5
9941E
331
9945D
  5
9945D
331
9941A
  5
9941A
331
99459
  5
99459
331
994DE
  5
994DE
331
9949F
  5
9949F
331
9949B
  5
9949B
331
99514
  5
99514
331
994DA
  5
994DA
331
99557
  5
99557
331
99497
  5
99497
331
99553
  5
99553
331
99510
  5
99510
331
994D6
  5
994D6
331
994D2
  5
994D2
331
99493
  5
99493
331
9954F
  5
9954F
331
9950C
  5
9950C
331
9954B
  5
9954B
331
99508
  5
99508
331
993EC
  5
993EC
331
993E8
  5
993E8
331
99456
  5
99456
331
99417
  5
99417
331
99452
  5
99452
331
99413
  5
99413
331
9944E
  5
9944E
331
9940F
  5
9940F
331
9940B
  5
9940B
331
9944A
  5
9944A
331
9948C
  5
9948C
331
994CF
  5
994CF
331
99488
  5
99488
331
99544
  5
99544
331
99505
  5
99505
331
994CB
  5
994CB
331
994C7
  5
994C7
331
99540
  5
99540
331
99484
  5
99484
331
99501
  5
99501
331
994C3
  5
994C3
331
9953C
  5
9953C
331
99480
  5
99480
331
994FD
  5
994FD
331
994F9
  5
994F9
331
99538
  5
99538
331
99571
  5
99571
331
99446
  5
99446
331
99407
  5
99407
331
99442
  5
99442
331
99403
  5
99403
331
9943E
  5
9943E
331
993FF
  5
993FF
331
993FB
  5
993FB
331
9943A
  5
9943A
331
994BF
  5
994BF
331
9947C
  5
9947C
331
99478
  5
99478
331
99534
  5
99534
331
994F5
  5
994F5
331
994BB
  5
994BB
331
994B7
  5
994B7
331
99530
  5
99530
331
99474
  5
99474
331
994F1
  5
994F1
331
994B3
  5
994B3
331
9952C
  5
9952C
331
99470
  5
99470
331
994ED
  5
994ED
331
994E9
  5
994E9
331
99528
  5
99528
331
9956D
  5
9956D
331
99569
  5
99569
331
99565
  5
99565
331
99561
  5
99561
331
99437
  5
99437
331
99433
  5
99433
331
9946E
  5
9946E
331
9942F
  5
9942F
331
9942B
  5
9942B
331
9946A
  5
9946A
331
994AC
  5
994AC
331
994A8
  5
994A8
331
99525
  5
99525
331
994E7
  5
994E7
331
994A4
  5
994A4
331
99521
  5
99521
331
994E3
  5
994E3
331
9955C
  5
9955C
331
994A0
  5
994A0
331
9951D
  5
9951D
331
99519
  5
99519
331
99558
  5
99558
331
993F5
  5
993F5
331
993F1
  5
993F1
331
99466
  5
99466
331
99427
  5
99427
331
99462
  5
99462
331
99423
  5
99423
331
9945E
  5
9945E
331
9941F
  5
9941F
331
9941B
  5
9941B
331
9945A
  5
9945A
331
994DF
  5
994DF
331
9949C
  5
9949C
331
99498
  5
99498
331
99554
  5
99554
331
99515
  5
99515
331
994DB
  5
994DB
331
994D7
  5
994D7
331
99550
  5
99550
331
99494
  5
99494
331
99511
  5
99511
331
994D3
  5
994D3
331
9954C
  5
9954C
331
99490
  5
99490
331
9950D
  5
9950D
331
99509
  5
99509
331
99548
  5
99548
331
993ED
  5
993ED
331
993E9
  5
993E9
331
99457
  5
99457
331
99414
  5
99414
331
99453
  5
99453
331
99410
  5
99410
331
9940C
  5
9940C
331
9944F
  5
9944F
331
99408
  5
99408
331
9944B
  5
9944B
331
9948D
  5
9948D
331
99506
  5
99506
331
994CC
  5
994CC
331
994C8
  5
994C8
331
99489
  5
99489
331
99545
  5
99545
331
99502
  5
99502
331
994C4
  5
994C4
331
99485
  5
99485
331
99541
  5
99541
331
994FE
  5
994FE
331
994C0
  5
994C0
331
994FA
  5
994FA
331
9953D
  5
9953D
331
99481
  5
99481
331
99539
  5
99539
331
99572
  5
99572
331
99447
  5
99447
331
99404
  5
99404
331
99443
  5
99443
331
99400
  5
99400
331
9943F
  5
9943F
331
993FC
  5
993FC
331
993F8
  5
993F8
331
9943B
  5
9943B
331
9947D
  5
9947D
331
994F6
  5
994F6
331
994BC
  5
994BC
331
99479
  5
99479
331
99535
  5
99535
331
994F2
  5
994F2
331
994B8
  5
994B8
331
994B4
  5
994B4
331
99475
  5
99475
331
99531
  5
99531
331
994EE
  5
994EE
331
994B0
  5
994B0
331
99471
  5
99471
331
9952D
  5
9952D
331
994EA
  5
994EA
331
99529
  5
99529
331
9956E
  5
9956E
331
9956A
  5
9956A
331
99566
  5
99566
331
99562
  5
99562
  0
XRECORD
  5
2DF13
102
{ACAD_REACTORS
330
29B6
102
}
330
29B6
100
AcDbXrecord
280
     1
340
15
  0
SORTENTSTABLE
  5
993E1
102
{ACAD_REACTORS
330
993E0
102
}
330
993E0
100
AcDbSortentsTable
330
99250
  0
XRECORD
  5
995CA
102
{ACAD_REACTORS
330
995C9
102
}
330
995C9
100
AcDbXrecord
280
     1
 70
     1
  0
XRECORD
  5
995CC
102
{ACAD_REACTORS
330
995C9
102
}
330
995C9
100
AcDbXrecord
280
     1
340
12
  0
XRECORD
  5
995CD
102
{ACAD_REACTORS
330
995C9
102
}
330
995C9
100
AcDbXrecord
280
     1
340
12
  0
XRECORD
  5
995CB
102
{ACAD_REACTORS
330
995C9
102
}
330
995C9
100
AcDbXrecord
280
     1
340
12
  0
ACDBDETAILVIEWSTYLE
  5
99249
102
{ACAD_XDICTIONARY
360
99609
102
}
102
{ACAD_REACTORS
330
99248
102
}
330
99248
100
AcDbModelDocViewStyle
 70
     0
  3
Imperial24
290
     0
100
AcDbDetailViewStyle
 70
     0
 71
     0
 90
        3
 71
     1
340
F
 40
0.24
340
0
 40
0.24
300

 40
0.36
280
     3
 71
     2
340
14
 90
       25
 71
     3
340
F
 40
0.24
 90
        1
 40
0.75
 90
        1
300
%<\AcVar ViewType \f "%tc1">% %<\AcVar ViewDetailId>%\PSCALE %<\AcVar ViewScale \f "%sn">%
 71
     4
340
14
 90
       25
340
14
 90
       25
280
     0
  0
LAYOUT
  5
21F3
102
{ACAD_XDICTIONARY
360
995CE
102
}
102
{ACAD_REACTORS
330
21F1
102
}
330
21F1
100
AcDbPlotSettings
  1

  2
EPSON LP-8900
  4
A3
  6
ALL
 40
5.873749732971191
 41
5.873747825622557
 42
5.873748779296875
 43
5.873748779296875
 44
297.0106506347656
 45
419.9466552734373
 46
0.0
 47
0.0
 48
0.0
 49
0.0
140
0.0
141
0.0
142
1.0
143
23.97224744678097
 70
 28336
 72
     1
 73
     0
 74
     1
  7
monochrome.ctb
 75
     0
147
0.0417149039621766
148
1727.082272710941
149
4319.051803274116
100
AcDbLayout
  1
Model
 70
     1
 71
     0
 10
0.0
 20
0.0
 11
12.0
 21
9.0
 12
0.0
 22
0.0
 32
0.0
 14
0.0
 24
0.0
 34
0.0
 15
0.0
 25
0.0
 35
0.0
146
0.0
 13
0.0
 23
0.0
 33
0.0
 16
1.0
 26
0.0
 36
0.0
 17
0.0
 27
1.0
 37
0.0
 76
     0
330
18
331
513CD
  0
LAYOUT
  5
21F4
102
{ACAD_XDICTIONARY
360
995D0
102
}
102
{ACAD_REACTORS
330
21F1
102
}
330
21F1
100
AcDbPlotSettings
  1

  2
DocuCentre 505
  4

  6

 40
0.0
 41
0.0
 42
0.0
 43
0.0
 44
0.0
 45
0.0
 46
0.0
 47
0.0
 48
0.0
 49
0.0
140
0.0
141
0.0
142
1.0
143
1.0
 70
   688
 72
     0
 73
     0
 74
     5
  7
monochrome.ctb
 75
    16
147
1.0
148
0.0
149
0.0
100
AcDbLayout
  1
ﾚｲｱｳﾄ1
 70
     1
 71
     1
 10
0.0
 20
0.0
 11
12.0
 21
9.0
 12
0.0
 22
0.0
 32
0.0
 14
1.000000000000000E+20
 24
1.000000000000000E+20
 34
1.000000000000000E+20
 15
-1.000000000000000E+20
 25
-1.000000000000000E+20
 35
-1.000000000000000E+20
146
0.0
 13
0.0
 23
0.0
 33
0.0
 16
1.0
 26
0.0
 36
0.0
 17
0.0
 27
1.0
 37
0.0
 76
     0
330
15
  0
MATERIAL
  5
513D8
102
{ACAD_XDICTIONARY
360
513D9
102
}
102
{ACAD_REACTORS
330
513CF
102
}
330
513CF
100
AcDbMaterial
  1
ByBlock
 72
     0
 43
0.0208333333333333
 43
0.0
 43
0.0
 43
0.0
 43
0.0
 43
0.0208333333333333
 43
0.0
 43
0.0
 43
0.0
 43
0.0
 43
1.0
 43
0.0
 43
0.0
 43
0.0
 43
0.0
 43
1.0
 77
     0
 47
0.0208333333333333
 47
0.0
 47
0.0
 47
0.0
 47
0.0
 47
0.0208333333333333
 47
0.0
 47
0.0
 47
0.0
 47
0.0
 47
1.0
 47
0.0
 47
0.0
 47
0.0
 47
0.0
 47
1.0
171
     0
 49
0.0208333333333333
 49
0.0
 49
0.0
 49
0.0
 49
0.0
 49
0.0208333333333333
 49
0.0
 49
0.0
 49
0.0
 49
0.0
 49
1.0
 49
0.0
 49
0.0
 49
0.0
 49
0.0
 49
1.0
175
     0
142
0.0208333333333333
142
0.0
142
0.0
142
0.0
142
0.0
142
0.0208333333333333
142
0.0
142
0.0
142
0.0
142
0.0
142
1.0
142
0.0
142
0.0
142
0.0
142
0.0
142
1.0
179
     0
144
0.0208333333333333
144
0.0
144
0.0
144
0.0
144
0.0
144
0.0208333333333333
144
0.0
144
0.0
144
0.0
144
0.0
144
1.0
144
0.0
144
0.0
144
0.0
144
0.0
144
1.0
147
0.0208333333333333
147
0.0
147
0.0
147
0.0
147
0.0
147
0.0208333333333333
147
0.0
147
0.0
147
0.0
147
0.0
147
1.0
147
0.0
147
0.0
147
0.0
147
0.0
147
1.0
  0
MATERIAL
  5
513D0
102
{ACAD_XDICTIONARY
360
513D1
102
}
102
{ACAD_REACTORS
330
513CF
102
}
330
513CF
100
AcDbMaterial
  1
ByLayer
 72
     0
 43
0.0208333333333333
 43
0.0
 43
0.0
 43
0.0
 43
0.0
 43
0.0208333333333333
 43
0.0
 43
0.0
 43
0.0
 43
0.0
 43
1.0
 43
0.0
 43
0.0
 43
0.0
 43
0.0
 43
1.0
 77
     0
 47
0.0208333333333333
 47
0.0
 47
0.0
 47
0.0
 47
0.0
 47
0.0208333333333333
 47
0.0
 47
0.0
 47
0.0
 47
0.0
 47
1.0
 47
0.0
 47
0.0
 47
0.0
 47
0.0
 47
1.0
171
     0
 49
0.0208333333333333
 49
0.0
 49
0.0
 49
0.0
 49
0.0
 49
0.0208333333333333
 49
0.0
 49
0.0
 49
0.0
 49
0.0
 49
1.0
 49
0.0
 49
0.0
 49
0.0
 49
0.0
 49
1.0
175
     0
142
0.0208333333333333
142
0.0
142
0.0
142
0.0
142
0.0
142
0.0208333333333333
142
0.0
142
0.0
142
0.0
142
0.0
142
1.0
142
0.0
142
0.0
142
0.0
142
0.0
142
1.0
179
     0
144
0.0208333333333333
144
0.0
144
0.0
144
0.0
144
0.0
144
0.0208333333333333
144
0.0
144
0.0
144
0.0
144
0.0
144
1.0
144
0.0
144
0.0
144
0.0
144
0.0
144
1.0
147
0.0208333333333333
147
0.0
147
0.0
147
0.0
147
0.0
147
0.0208333333333333
147
0.0
147
0.0
147
0.0
147
0.0
147
1.0
147
0.0
147
0.0
147
0.0
147
0.0
147
1.0
  0
MATERIAL
  5
513E0
102
{ACAD_XDICTIONARY
360
513E1
102
}
102
{ACAD_REACTORS
330
513CF
102
}
330
513CF
100
AcDbMaterial
  1
Global
 72
     0
 43
0.0208333333333333
 43
0.0
 43
0.0
 43
0.0
 43
0.0
 43
0.0208333333333333
 43
0.0
 43
0.0
 43
0.0
 43
0.0
 43
1.0
 43
0.0
 43
0.0
 43
0.0
 43
0.0
 43
1.0
 77
     0
 47
0.0208333333333333
 47
0.0
 47
0.0
 47
0.0
 47
0.0
 47
0.0208333333333333
 47
0.0
 47
0.0
 47
0.0
 47
0.0
 47
1.0
 47
0.0
 47
0.0
 47
0.0
 47
0.0
 47
1.0
171
     0
 49
0.0208333333333333
 49
0.0
 49
0.0
 49
0.0
 49
0.0
 49
0.0208333333333333
 49
0.0
 49
0.0
 49
0.0
 49
0.0
 49
1.0
 49
0.0
 49
0.0
 49
0.0
 49
0.0
 49
1.0
175
     0
142
0.0208333333333333
142
0.0
142
0.0
142
0.0
142
0.0
142
0.0208333333333333
142
0.0
142
0.0
142
0.0
142
0.0
142
1.0
142
0.0
142
0.0
142
0.0
142
0.0
142
1.0
179
     0
144
0.0208333333333333
144
0.0
144
0.0
144
0.0
144
0.0
144
0.0208333333333333
144
0.0
144
0.0
144
0.0
144
0.0
144
1.0
144
0.0
144
0.0
144
0.0
144
0.0
144
1.0
147
0.0208333333333333
147
0.0
147
0.0
147
0.0
147
0.0
147
0.0208333333333333
147
0.0
147
0.0
147
0.0
147
0.0
147
1.0
147
0.0
147
0.0
147
0.0
147
0.0
147
1.0
  0
MLEADERSTYLE
  5
5141F
102
{ACAD_REACTORS
330
5141E
102
}
330
5141E
100
AcDbMLeaderStyle
170
     2
171
     1
172
     0
 90
        2
 40
0.0
 41
0.0
173
     1
 91
-1056964608
340
12
 92
       -2
290
     1
 42
0.09
291
     1
 43
0.36
  3
Standard
 44
0.18
300

342
F
174
     1
178
     6
175
     1
176
     0
 93
-1056964608
 45
0.18
292
     0
297
     0
 46
0.18
 94
-1056964608
 47
1.0
 49
1.0
140
1.0
293
     1
141
0.0
294
     1
177
     0
142
1.0
295
     0
296
     0
143
0.125
1001
ACAD_MLEADERVER
1070
     2
  0
MLINESTYLE
  5
1C
102
{ACAD_REACTORS
330
1B
102
}
330
1B
100
AcDbMlineStyle
  2
STANDARD
 70
     0
  3

 62
   256
 51
90.0
 52
90.0
 71
     2
 49
0.5
 62
   256
  6
BYLAYER
 49
-0.5
 62
   256
  6
BYLAYER
  0
ACDBPLACEHOLDER
  5
21F0
102
{ACAD_REACTORS
330
21EF
102
}
330
21EF
  0
SCALE
  5
513FD
102
{ACAD_REACTORS
330
513FC
102
}
330
513FC
100
AcDbScale
 70
     0
300
1:1
140
1.0
141
1.0
290
     1
  0
SCALE
  5
513FE
102
{ACAD_REACTORS
330
513FC
102
}
330
513FC
100
AcDbScale
 70
     0
300
1:2
140
1.0
141
2.0
290
     0
  0
SCALE
  5
513FF
102
{ACAD_REACTORS
330
513FC
102
}
330
513FC
100
AcDbScale
 70
     0
300
1:4
140
1.0
141
4.0
290
     0
  0
SCALE
  5
51400
102
{ACAD_REACTORS
330
513FC
102
}
330
513FC
100
AcDbScale
 70
     0
300
1:5
140
1.0
141
5.0
290
     0
  0
SCALE
  5
51401
102
{ACAD_REACTORS
330
513FC
102
}
330
513FC
100
AcDbScale
 70
     0
300
1:8
140
1.0
141
8.0
290
     0
  0
SCALE
  5
51402
102
{ACAD_REACTORS
330
513FC
102
}
330
513FC
100
AcDbScale
 70
     0
300
1:10
140
1.0
141
10.0
290
     0
  0
SCALE
  5
51403
102
{ACAD_REACTORS
330
513FC
102
}
330
513FC
100
AcDbScale
 70
     0
300
1:16
140
1.0
141
16.0
290
     0
  0
SCALE
  5
51404
102
{ACAD_REACTORS
330
513FC
102
}
330
513FC
100
AcDbScale
 70
     0
300
1:20
140
1.0
141
20.0
290
     0
  0
SCALE
  5
51405
102
{ACAD_REACTORS
330
513FC
102
}
330
513FC
100
AcDbScale
 70
     0
300
1:30
140
1.0
141
30.0
290
     0
  0
SCALE
  5
51406
102
{ACAD_REACTORS
330
513FC
102
}
330
513FC
100
AcDbScale
 70
     0
300
1:40
140
1.0
141
40.0
290
     0
  0
SCALE
  5
51407
102
{ACAD_REACTORS
330
513FC
102
}
330
513FC
100
AcDbScale
 70
     0
300
1:50
140
1.0
141
50.0
290
     0
  0
SCALE
  5
51408
102
{ACAD_REACTORS
330
513FC
102
}
330
513FC
100
AcDbScale
 70
     0
300
1:100
140
1.0
141
100.0
290
     0
  0
SCALE
  5
51409
102
{ACAD_REACTORS
330
513FC
102
}
330
513FC
100
AcDbScale
 70
     0
300
2:1
140
2.0
141
1.0
290
     0
  0
SCALE
  5
5140A
102
{ACAD_REACTORS
330
513FC
102
}
330
513FC
100
AcDbScale
 70
     0
300
4:1
140
4.0
141
1.0
290
     0
  0
SCALE
  5
5140B
102
{ACAD_REACTORS
330
513FC
102
}
330
513FC
100
AcDbScale
 70
     0
300
8:1
140
8.0
141
1.0
290
     0
  0
SCALE
  5
5140C
102
{ACAD_REACTORS
330
513FC
102
}
330
513FC
100
AcDbScale
 70
     0
300
10:1
140
10.0
141
1.0
290
     0
  0
SCALE
  5
5140D
102
{ACAD_REACTORS
330
513FC
102
}
330
513FC
100
AcDbScale
 70
     0
300
100:1
140
100.0
141
1.0
290
     0
  0
SCALE
  5
5140E
102
{ACAD_REACTORS
330
513FC
102
}
330
513FC
100
AcDbScale
 70
     0
300
1/128" = 1'-0"
140
0.0078125
141
12.0
290
     0
  0
SCALE
  5
5140F
102
{ACAD_REACTORS
330
513FC
102
}
330
513FC
100
AcDbScale
 70
     0
300
1/64" = 1'-0"
140
0.015625
141
12.0
290
     0
  0
SCALE
  5
51410
102
{ACAD_REACTORS
330
513FC
102
}
330
513FC
100
AcDbScale
 70
     0
300
1/32" = 1'-0"
140
0.03125
141
12.0
290
     0
  0
SCALE
  5
51411
102
{ACAD_REACTORS
330
513FC
102
}
330
513FC
100
AcDbScale
 70
     0
300
1/16" = 1'-0"
140
0.0625
141
12.0
290
     0
  0
SCALE
  5
51412
102
{ACAD_REACTORS
330
513FC
102
}
330
513FC
100
AcDbScale
 70
     0
300
3/32" = 1'-0"
140
0.09375
141
12.0
290
     0
  0
SCALE
  5
51413
102
{ACAD_REACTORS
330
513FC
102
}
330
513FC
100
AcDbScale
 70
     0
300
1/8" = 1'-0"
140
0.125
141
12.0
290
     0
  0
SCALE
  5
51414
102
{ACAD_REACTORS
330
513FC
102
}
330
513FC
100
AcDbScale
 70
     0
300
3/16" = 1'-0"
140
0.1875
141
12.0
290
     0
  0
SCALE
  5
51415
102
{ACAD_REACTORS
330
513FC
102
}
330
513FC
100
AcDbScale
 70
     0
300
1/4" = 1'-0"
140
0.25
141
12.0
290
     0
  0
SCALE
  5
51416
102
{ACAD_REACTORS
330
513FC
102
}
330
513FC
100
AcDbScale
 70
     0
300
3/8" = 1'-0"
140
0.375
141
12.0
290
     0
  0
SCALE
  5
51417
102
{ACAD_REACTORS
330
513FC
102
}
330
513FC
100
AcDbScale
 70
     0
300
1/2" = 1'-0"
140
0.5
141
12.0
290
     0
  0
SCALE
  5
51418
102
{ACAD_REACTORS
330
513FC
102
}
330
513FC
100
AcDbScale
 70
     0
300
3/4" = 1'-0"
140
0.75
141
12.0
290
     0
  0
SCALE
  5
51419
102
{ACAD_REACTORS
330
513FC
102
}
330
513FC
100
AcDbScale
 70
     0
300
1" = 1'-0"
140
1.0
141
12.0
290
     0
  0
SCALE
  5
5141A
102
{ACAD_REACTORS
330
513FC
102
}
330
513FC
100
AcDbScale
 70
     0
300
1-1/2" = 1'-0"
140
1.5
141
12.0
290
     0
  0
SCALE
  5
5141B
102
{ACAD_REACTORS
330
513FC
102
}
330
513FC
100
AcDbScale
 70
     0
300
3" = 1'-0"
140
3.0
141
12.0
290
     0
  0
SCALE
  5
5141C
102
{ACAD_REACTORS
330
513FC
102
}
330
513FC
100
AcDbScale
 70
     0
300
6" = 1'-0"
140
6.0
141
12.0
290
     0
  0
SCALE
  5
5141D
102
{ACAD_REACTORS
330
513FC
102
}
330
513FC
100
AcDbScale
 70
     0
300
1'-0" = 1'-0"
140
12.0
141
12.0
290
     0
  0
ACDBSECTIONVIEWSTYLE
  5
99247
102
{ACAD_XDICTIONARY
360
99607
102
}
102
{ACAD_REACTORS
330
99246
102
}
330
99246
100
AcDbModelDocViewStyle
 70
     0
  3
Imperial24
290
     0
100
AcDbSectionViewStyle
 70
     0
 71
     0
 90
       78
 71
     1
340
F
 40
0.24
340
0
340
0
 40
0.24
300
I, O, Q, S, X, Z
 40
0.48
 90
        3
 40
0.18
 90
        1
 71
     2
340
14
 90
       25
340
14
 90
       50
 40
0.24
 40
0.0
 40
0.24
 71
     3
340
F
 40
0.24
 90
        1
 40
0.75
 90
        1
300
%<\AcVar ViewType \f "%tc1">% %<\AcVar ViewSectionStartId>%-%<\AcVar ViewSectionEndId>%\PSCALE %<\AcVar ViewScale \f "%sn">%
 71
     4
300
ANSI31
 40
1.0
 90
        0
290
     0
290
     0
 90
        6
 40
0.0
 40
1.570796326794896
 40
0.2617993877991494
 40
1.308996938995747
 40
-0.2617993877991494
 40
1.832595714594045
  0
TABLESTYLE
  5
513FB
102
{ACAD_XDICTIONARY
360
5147A
102
}
102
{ACAD_REACTORS
330
513FA
102
}
330
513FA
100
AcDbTableStyle
  3
Standard
 70
     0
 71
     0
 40
0.06
 41
0.06
280
     0
281
     0
  7
STANDARD
140
0.18
170
     2
 62
     0
 63
     7
283
     0
274
    -2
284
     1
 64
     0
275
    -2
285
     1
 65
     0
276
    -2
286
     1
 66
     0
277
    -2
287
     1
 67
     0
278
    -2
288
     1
 68
     0
279
    -2
289
     1
 69
     0
  7
STANDARD
140
0.25
170
     5
 62
     0
 63
     7
283
     0
274
    -2
284
     1
 64
     0
275
    -2
285
     1
 65
     0
276
    -2
286
     1
 66
     0
277
    -2
287
     1
 67
     0
278
    -2
288
     1
 68
     0
279
    -2
289
     1
 69
     0
  7
STANDARD
140
0.18
170
     5
 62
     0
 63
     7
283
     0
274
    -2
284
     1
 64
     0
275
    -2
285
     1
 65
     0
276
    -2
286
     1
 66
     0
277
    -2
287
     1
 67
     0
278
    -2
288
     1
 68
     0
279
    -2
289
     1
 69
     0
  0
VISUALSTYLE
  5
513EE
102
{ACAD_XDICTIONARY
360
995DC
102
}
102
{ACAD_REACTORS
330
513E8
102
}
330
513E8
100
AcDbVisualStyle
  2

 70
     4
 71
     0
 72
     2
 73
     0
 90
        0
 40
-0.6
 41
-30.0
 62
     5
 63
     7
 74
     1
 91
        4
 64
     7
 65
   257
 75
     1
175
     1
 42
1.0
 92
        0
 66
   257
 43
1.0
 76
     1
 77
     6
 78
     2
 67
     7
 79
     5
170
     0
171
     0
290
     0
174
     0
 93
        1
 44
0.0
173
     0
291
     0
 45
0.0
1001
ACAD
1000
AcDbSavedByObjectVersion
1070
     0
  0
VISUALSTYLE
  5
513F0
102
{ACAD_XDICTIONARY
360
995E0
102
}
102
{ACAD_REACTORS
330
513E8
102
}
330
513E8
100
AcDbVisualStyle
  2

 70
     6
 71
     1
 72
     2
 73
     2
 90
        0
 40
-0.6
 41
-30.0
 62
     5
 63
     7
 74
     2
 91
        2
 64
     7
 65
   257
 75
     2
175
     1
 42
40.0
 92
        0
 66
   257
 43
1.0
 76
     1
 77
     6
 78
     2
 67
     7
 79
     3
170
     0
171
     0
290
     0
174
     0
 93
        1
 44
0.0
173
     0
291
     0
 45
0.0
1001
ACAD
1000
AcDbSavedByObjectVersion
1070
     0
  0
VISUALSTYLE
  5
513EF
102
{ACAD_XDICTIONARY
360
995DE
102
}
102
{ACAD_REACTORS
330
513E8
102
}
330
513E8
100
AcDbVisualStyle
  2

 70
     5
 71
     0
 72
     2
 73
     0
 90
        0
 40
-0.6
 41
-30.0
 62
     5
 63
     7
 74
     1
 91
        4
 64
     7
 65
   257
 75
     1
175
     1
 42
1.0
 92
        0
 66
   257
 43
1.0
 76
     1
 77
     6
 78
     2
 67
     7
 79
     5
170
     0
171
     0
290
     0
174
     0
 93
        1
 44
0.0
173
     0
291
     0
 45
0.0
1001
ACAD
1000
AcDbSavedByObjectVersion
1070
     0
  0
VISUALSTYLE
  5
513ED
102
{ACAD_XDICTIONARY
360
995DA
102
}
102
{ACAD_REACTORS
330
513E8
102
}
330
513E8
100
AcDbVisualStyle
  2

 70
     7
 71
     1
 72
     0
 73
     1
 90
        0
 40
-0.6
 41
-30.0
 62
     5
 63
     7
 74
     0
 91
        4
 64
     7
 65
   257
 75
     1
175
     1
 42
1.0
 92
        8
 66
     7
 43
1.0
 76
     1
 77
     6
 78
     2
 67
     7
 79
     5
170
     0
171
     0
290
     0
174
     0
 93
        1
 44
0.0
173
     0
291
     1
 45
0.0
1001
ACAD
1000
AcDbSavedByObjectVersion
1070
     0
  0
VISUALSTYLE
  5
513F4
102
{ACAD_XDICTIONARY
360
995E8
102
}
102
{ACAD_REACTORS
330
513E8
102
}
330
513E8
100
AcDbVisualStyle
  2

 70
    12
 71
     2
 72
     2
 73
     0
 90
        0
 40
-0.6
 41
-30.0
 62
     5
 63
     7
 74
     1
 91
        4
 64
     7
 65
   257
 75
     1
175
     1
 42
1.0
 92
        8
 66
     7
 43
1.0
 76
     1
 77
     6
 78
     2
 67
     7
 79
     5
170
     0
171
     0
290
     0
174
     0
 93
        1
 44
50.0
173
     0
291
     1
 45
0.0
1001
ACAD
1000
AcDbSavedByObjectVersion
1070
     0
  0
VISUALSTYLE
  5
513F8
102
{ACAD_XDICTIONARY
360
995F0
102
}
102
{ACAD_REACTORS
330
513E8
102
}
330
513E8
100
AcDbVisualStyle
  2

 70
    16
 71
     2
 72
     2
 73
     3
 90
        0
 40
-0.6
 41
-30.0
 62
     5
 63
     8
 74
     1
 91
        4
 64
     7
 65
   257
 75
     1
175
     1
 42
1.0
 92
        8
 66
     8
 43
1.0
 76
     1
 77
     6
 78
     2
 67
     7
 79
     5
170
     0
171
     0
290
     0
174
     0
 93
        1
 44
0.0
173
     0
291
     1
 45
0.0
1001
ACAD
1000
AcDbSavedByObjectVersion
1070
     0
  0
VISUALSTYLE
  5
513F1
102
{ACAD_XDICTIONARY
360
995E2
102
}
102
{ACAD_REACTORS
330
513E8
102
}
330
513E8
100
AcDbVisualStyle
  2

 70
     9
 71
     3
 72
     2
 73
     0
 90
        0
 40
-0.6
 41
-30.0
 62
     5
 63
     7
 74
     2
 91
        2
 64
     7
 65
   257
 75
     1
175
     1
 42
40.0
 92
        8
 66
     7
 43
1.0
 76
     1
 77
     6
 78
     2
 67
     7
 79
     3
170
     0
171
     0
290
     0
174
     0
 93
        1
 44
0.0
173
     0
291
     0
 45
0.0
1001
ACAD
1000
AcDbSavedByObjectVersion
1070
     0
  0
VISUALSTYLE
  5
513F3
102
{ACAD_XDICTIONARY
360
995E6
102
}
102
{ACAD_REACTORS
330
513E8
102
}
330
513E8
100
AcDbVisualStyle
  2

 70
    11
 71
     2
 72
     2
 73
     0
 90
        0
 40
-0.6
 41
-30.0
 62
     5
 63
     7
 74
     1
 91
        4
 64
     7
 65
   257
 75
     1
175
     1
 42
1.0
 92
        8
 66
     7
 43
1.0
 76
     1
 77
     6
 78
     2
 67
     7
 79
     5
170
     0
171
     0
290
     0
174
     0
 93
        1
 44
-50.0
173
     0
291
     1
 45
0.0
1001
ACAD
1000
AcDbSavedByObjectVersion
1070
     0
  0
VISUALSTYLE
  5
70D09
102
{ACAD_XDICTIONARY
360
99605
102
}
102
{ACAD_REACTORS
330
513E8
102
}
330
513E8
100
AcDbVisualStyle
  2

 70
    22
 71
     2
 72
     2
 73
     0
 90
        0
 40
-0.6
 41
-30.0
 62
     5
 63
     7
 74
     1
 91
        4
 64
     7
 65
   257
 75
     1
175
     1
 42
1.0
 92
        8
 66
     7
 43
1.0
 76
     1
 77
     6
 78
     2
 67
     7
 79
     5
170
     0
171
     0
290
     0
174
     0
 93
        1
 44
0.0
173
     0
291
     1
 45
0.0
1001
ACAD
1000
AcDbSavedByObjectVersion
1070
     0
  0
VISUALSTYLE
  5
513F7
102
{ACAD_XDICTIONARY
360
995EE
102
}
102
{ACAD_REACTORS
330
513E8
102
}
330
513E8
100
AcDbVisualStyle
  2

 70
    15
 71
     2
 72
     2
 73
     0
 90
        0
 40
-0.6
 41
-30.0
 62
     5
 63
     7
 74
     1
 91
        4
 64
     7
 65
   257
 75
     1
175
     1
 42
1.0
 92
        8
 66
     7
 43
1.0
 76
     1
 77
     6
 78
     2
 67
     7
 79
     5
170
     0
171
     0
290
     0
174
     0
 93
        1
 44
0.0
173
     0
291
     1
 45
0.0
1001
ACAD
1000
AcDbSavedByObjectVersion
1070
     0
  0
VISUALSTYLE
  5
513E9
102
{ACAD_XDICTIONARY
360
995D2
102
}
102
{ACAD_REACTORS
330
513E8
102
}
330
513E8
100
AcDbVisualStyle
  2

 70
     0
 71
     2
 72
     1
 73
     1
 90
        2
 40
-0.6
 41
30.0
 62
     5
 63
     7
 74
     0
 91
        4
 64
     7
 65
   257
 75
     1
175
     1
 42
1.0
 92
        8
 66
     7
 43
1.0
 76
     1
 77
     6
 78
     2
 67
     7
 79
     5
170
     0
171
     0
290
     0
174
     0
 93
       13
 44
0.0
173
     0
291
     1
 45
0.0
1001
ACAD
1000
AcDbSavedByObjectVersion
1070
     0
  0
VISUALSTYLE
  5
513EA
102
{ACAD_XDICTIONARY
360
995D4
102
}
102
{ACAD_REACTORS
330
513E8
102
}
330
513E8
100
AcDbVisualStyle
  2

 70
     1
 71
     2
 72
     1
 73
     1
 90
        2
 40
-0.6
 41
30.0
 62
     5
 63
     7
 74
     1
 91
        4
 64
     7
 65
   257
 75
     1
175
     1
 42
1.0
 92
        0
 66
   257
 43
1.0
 76
     1
 77
     6
 78
     2
 67
     7
 79
     5
170
     0
171
     0
290
     0
174
     0
 93
       13
 44
0.0
173
     0
291
     1
 45
0.0
1001
ACAD
1000
AcDbSavedByObjectVersion
1070
     0
  0
VISUALSTYLE
  5
513EB
102
{ACAD_XDICTIONARY
360
995D6
102
}
102
{ACAD_REACTORS
330
513E8
102
}
330
513E8
100
AcDbVisualStyle
  2

 70
     2
 71
     2
 72
     2
 73
     1
 90
        2
 40
-0.6
 41
30.0
 62
     5
 63
     7
 74
     0
 91
        4
 64
     7
 65
   257
 75
     1
175
     1
 42
1.0
 92
        0
 66
     7
 43
1.0
 76
     1
 77
     6
 78
     2
 67
     7
 79
     5
170
     0
171
     0
290
     0
174
     0
 93
       13
 44
0.0
173
     0
291
     1
 45
0.0
1001
ACAD
1000
AcDbSavedByObjectVersion
1070
     0
  0
VISUALSTYLE
  5
513EC
102
{ACAD_XDICTIONARY
360
995D8
102
}
102
{ACAD_REACTORS
330
513E8
102
}
330
513E8
100
AcDbVisualStyle
  2

 70
     3
 71
     2
 72
     2
 73
     1
 90
        2
 40
-0.6
 41
30.0
 62
     5
 63
     7
 74
     1
 91
        4
 64
     7
 65
   257
 75
     1
175
     1
 42
1.0
 92
        0
 66
   257
 43
1.0
 76
     1
 77
     6
 78
     2
 67
     7
 79
     5
170
     0
171
     0
290
     0
174
     0
 93
       13
 44
0.0
173
     0
291
     1
 45
0.0
1001
ACAD
1000
AcDbSavedByObjectVersion
1070
     0
  0
VISUALSTYLE
  5
70D01
102
{ACAD_XDICTIONARY
360
995F5
102
}
102
{ACAD_REACTORS
330
513E8
102
}
330
513E8
100
AcDbVisualStyle
  2

 70
     6
 71
     1
 72
     2
 73
     2
 90
        0
 40
-0.6
 41
-30.0
 62
     5
 63
     7
 74
     2
 91
        2
 64
     7
 65
   257
 75
     2
175
     1
 42
40.0
 92
        0
 66
   257
 43
1.0
 76
     1
 77
     6
 78
     2
 67
     7
 79
     3
170
     0
171
     0
290
     0
174
     0
 93
        1
 44
0.0
173
     0
291
     0
 45
0.0
1001
ACAD
1000
AcDbSavedByObjectVersion
1070
     0
  0
VISUALSTYLE
  5
70D07
102
{ACAD_XDICTIONARY
360
99601
102
}
102
{ACAD_REACTORS
330
513E8
102
}
330
513E8
100
AcDbVisualStyle
  2

 70
    20
 71
     2
 72
     2
 73
     0
 90
        0
 40
-0.6
 41
-30.0
 62
     5
 63
     7
 74
     1
 91
        4
 64
     7
 65
   257
 75
     1
175
     1
 42
1.0
 92
       10
 66
     7
 43
1.0
 76
     1
 77
     6
 78
     2
 67
     7
 79
     5
170
     0
171
     0
290
     0
174
     0
 93
        1
 44
0.0
173
     0
291
     1
 45
0.0
1001
ACAD
1000
AcDbSavedByObjectVersion
1070
     0
  0
VISUALSTYLE
  5
513F6
102
{ACAD_XDICTIONARY
360
995EC
102
}
102
{ACAD_REACTORS
330
513E8
102
}
330
513E8
100
AcDbVisualStyle
  2

 70
    14
 71
     2
 72
     2
 73
     0
 90
        0
 40
-0.6
 41
-30.0
 62
     5
 63
     7
 74
     1
 91
        4
 64
     7
 65
   257
 75
     7
175
     7
 42
1.0
 92
        8
 66
     7
 43
1.0
 76
     1
 77
     6
 78
     2
 67
     7
 79
     5
170
     0
171
     0
290
     0
174
     0
 93
        1
 44
0.0
173
     0
291
     1
 45
0.0
1001
ACAD
1000
AcDbSavedByObjectVersion
1070
     0
  0
VISUALSTYLE
  5
70D08
102
{ACAD_XDICTIONARY
360
99603
102
}
102
{ACAD_REACTORS
330
513E8
102
}
330
513E8
100
AcDbVisualStyle
  2

 70
    21
 71
     2
 72
     2
 73
     0
 90
        0
 40
-0.6
 41
-30.0
 62
     5
 63
     7
 74
     1
 91
        4
 64
     7
 65
   257
 75
     1
175
     1
 42
1.0
 92
        9
 66
     7
 43
1.0
 76
     1
 77
     6
 78
     2
 67
     7
 79
     5
170
     0
171
     0
290
     0
174
     0
 93
        1
 44
0.0
173
     0
291
     1
 45
0.0
1001
ACAD
1000
AcDbSavedByObjectVersion
1070
     0
  0
VISUALSTYLE
  5
513F2
102
{ACAD_XDICTIONARY
360
995E4
102
}
102
{ACAD_REACTORS
330
513E8
102
}
330
513E8
100
AcDbVisualStyle
  2

 70
     8
 71
     2
 72
     2
 73
     0
 90
        0
 40
-0.6
 41
-30.0
 62
     5
 63
     7
 74
     1
 91
        0
 64
     7
 65
   257
 75
     1
175
     1
 42
1.0
 92
        8
 66
     8
 43
1.0
 76
     1
 77
     6
 78
     2
 67
     7
 79
     5
170
     0
171
     0
290
     0
174
     0
 93
       13
 44
0.0
173
     0
291
     0
 45
0.0
1001
ACAD
1000
AcDbSavedByObjectVersion
1070
     0
  0
VISUALSTYLE
  5
70D06
102
{ACAD_XDICTIONARY
360
995FF
102
}
102
{ACAD_REACTORS
330
513E8
102
}
330
513E8
100
AcDbVisualStyle
  2

 70
    27
 71
     2
 72
     2
 73
     1
 90
        2
 40
-0.6
 41
30.0
 62
     5
 63
     7
 74
     0
 91
        4
 64
     7
 65
   257
 75
     1
175
     1
 42
1.0
 92
        8
 66
   257
 43
1.0
 76
     1
 77
     6
 78
     2
 67
     8
 79
     3
170
     0
171
     0
290
     0
174
     0
 93
        5
 44
0.0
173
     0
291
     0
 45
0.0
1001
ACAD
1000
AcDbSavedByObjectVersion
1070
     0
  0
VISUALSTYLE
  5
70D05
102
{ACAD_XDICTIONARY
360
995FD
102
}
102
{ACAD_REACTORS
330
513E8
102
}
330
513E8
100
AcDbVisualStyle
  2

 70
    26
 71
     2
 72
     2
 73
     1
 90
        2
 40
-0.6
 41
30.0
 62
     5
 63
     7
 74
     1
 91
        2
 64
     7
 65
   257
 75
     2
175
     1
 42
1.0
 92
        8
 66
   257
 43
1.0
 76
     1
 77
     6
 78
     2
 67
     7
 79
     3
170
     0
171
     0
290
     0
174
     0
 93
        5
 44
0.0
173
     0
291
     0
 45
0.0
1001
ACAD
1000
AcDbSavedByObjectVersion
1070
     0
  0
VISUALSTYLE
  5
70D02
102
{ACAD_XDICTIONARY
360
995F7
102
}
102
{ACAD_REACTORS
330
513E8
102
}
330
513E8
100
AcDbVisualStyle
  2

 70
    23
 71
     2
 72
     2
 73
     3
 90
        0
 40
-0.6
 41
-30.0
 62
     5
 63
     7
 74
     2
 91
        2
 64
     7
 65
     7
 75
     1
175
     1
 42
40.0
 92
        8
 66
     7
 43
1.0
 76
     1
 77
     6
 78
     2
 67
     7
 79
     3
170
     0
171
     0
290
     0
174
     0
 93
        1
 44
0.0
173
     0
291
     0
 45
0.0
1001
ACAD
1000
AcDbSavedByObjectVersion
1070
     0
  0
VISUALSTYLE
  5
70D03
102
{ACAD_XDICTIONARY
360
995F9
102
}
102
{ACAD_REACTORS
330
513E8
102
}
330
513E8
100
AcDbVisualStyle
  2

 70
    24
 71
     1
 72
     2
 73
     2
 90
        0
 40
-0.6
 41
-30.0
 62
     5
 63
     7
 74
     2
 91
        2
 64
     7
 65
     7
 75
     1
175
     1
 42
40.0
 92
       11
 66
     7
 43
1.0
 76
     1
 77
     6
 78
     2
 67
     7
 79
     6
170
     0
171
     0
290
     0
174
     0
 93
        1
 44
0.0
173
     0
291
     0
 45
0.0
1001
ACAD
1000
AcDbSavedByObjectVersion
1070
     0
  0
VISUALSTYLE
  5
513F5
102
{ACAD_XDICTIONARY
360
995EA
102
}
102
{ACAD_REACTORS
330
513E8
102
}
330
513E8
100
AcDbVisualStyle
  2

 70
    13
 71
     2
 72
     2
 73
     0
 90
        0
 40
-0.6
 41
-30.0
 62
     5
 63
     7
 74
     1
 91
        4
 64
     7
 65
   257
 75
     1
175
     1
 42
1.0
 92
       12
 66
     7
 43
1.0
 76
     1
 77
     6
 78
     2
 67
     7
 79
     5
170
     0
171
     0
290
     0
174
     0
 93
        1
 44
0.0
173
     0
291
     1
 45
0.0
1001
ACAD
1000
AcDbSavedByObjectVersion
1070
     0
  0
VISUALSTYLE
  5
70D00
102
{ACAD_XDICTIONARY
360
995F3
102
}
102
{ACAD_REACTORS
330
513E8
102
}
330
513E8
100
AcDbVisualStyle
  2

 70
     5
 71
     0
 72
     2
 73
     0
 90
        0
 40
-0.6
 41
-30.0
 62
     5
 63
     7
 74
     1
 91
        4
 64
     7
 65
   257
 75
     1
175
     1
 42
1.0
 92
        0
 66
   257
 43
1.0
 76
     1
 77
     6
 78
     2
 67
     7
 79
     3
170
     0
171
     0
290
     0
174
     0
 93
        1
 44
0.0
173
     0
291
     0
 45
0.0
1001
ACAD
1000
AcDbSavedByObjectVersion
1070
     0
  0
VISUALSTYLE
  5
70D04
102
{ACAD_XDICTIONARY
360
995FB
102
}
102
{ACAD_REACTORS
330
513E8
102
}
330
513E8
100
AcDbVisualStyle
  2

 70
    25
 71
     2
 72
     2
 73
     1
 90
        1
 40
0.5
 41
-30.0
 62
     5
 63
     7
 74
     1
 91
        0
 64
     7
 65
   257
 75
     1
175
     1
 42
1.0
 92
        8
 66
     7
 43
1.0
 76
     1
 77
     6
 78
     2
 67
     7
 79
     3
170
     0
171
     0
290
     0
174
     0
 93
       13
 44
0.0
173
     0
291
     0
 45
0.0
1001
ACAD
1000
AcDbSavedByObjectVersion
1070
     0
  0
DICTIONARYVAR
  5
51480
102
{ACAD_REACTORS
330
28B1
102
}
330
28B1
100
DictionaryVariables
280
     0
  1
1:1
  0
DICTIONARYVAR
  5
5147E
102
{ACAD_REACTORS
330
28B1
102
}
330
28B1
100
DictionaryVariables
280
     0
  1
STANDARD
  0
DICTIONARYVAR
  5
5147D
102
{ACAD_REACTORS
330
28B1
102
}
330
28B1
100
DictionaryVariables
280
     0
  1
STANDARD
  0
DICTIONARYVAR
  5
99575
102
{ACAD_REACTORS
330
28B1
102
}
330
28B1
100
DictionaryVariables
280
     0
  1
Imperial24
  0
DICTIONARYVAR
  5
99576
102
{ACAD_REACTORS
330
28B1
102
}
330
28B1
100
DictionaryVariables
280
     0
  1
Imperial24
  0
DICTIONARYVAR
  5
5135B
102
{ACAD_REACTORS
330
28B1
102
}
330
28B1
100
DictionaryVariables
280
     0
  1
1
  0
DICTIONARYVAR
  5
70D55
102
{ACAD_REACTORS
330
28B1
102
}
330
28B1
100
DictionaryVariables
280
     0
  1
0
  0
DICTIONARYVAR
  5
51481
102
{ACAD_REACTORS
330
28B1
102
}
330
28B1
100
DictionaryVariables
280
     0
  1
0
  0
DICTIONARYVAR
  5
5147F
102
{ACAD_REACTORS
330
28B1
102
}
330
28B1
100
DictionaryVariables
280
     0
  1
0
  0
DICTIONARYVAR
  5
70D57
102
{ACAD_REACTORS
330
28B1
102
}
330
28B1
100
DictionaryVariables
280
     0
  1
1
  0
DICTIONARYVAR
  5
28B2
102
{ACAD_REACTORS
330
28B1
102
}
330
28B1
100
DictionaryVariables
280
     0
  1
127
  0
DICTIONARYVAR
  5
995C5
102
{ACAD_REACTORS
330
28B1
102
}
330
28B1
100
DictionaryVariables
280
     0
  1
2
  0
DICTIONARY
  5
99609
330
99249
100
AcDbDictionary
280
     1
281
     1
  3
ACAD_XREC_ROUNDTRIP
360
9960A
  0
DICTIONARY
  5
995CE
330
21F3
100
AcDbDictionary
280
     1
281
     1
  3
ACAD_XREC_ROUNDTRIP
360
995CF
  0
DICTIONARY
  5
995D0
330
21F4
100
AcDbDictionary
280
     1
281
     1
  3
ACAD_XREC_ROUNDTRIP
360
995D1
  0
DICTIONARY
  5
513D9
330
513D8
100
AcDbDictionary
280
     1
281
     1
  3
ACAD_XREC_ROUNDTRIP
360
99580
  3
BUMPTILE
360
513DB
  3
DIFFUSETILE
360
513DA
  3
OPACITYTILE
360
513DE
  3
REFLECTIONTILE
360
513DD
  3
REFRACTIONTILE
360
513DF
  3
SPECULARTILE
360
513DC
  0
DICTIONARY
  5
513D1
330
513D0
100
AcDbDictionary
280
     1
281
     1
  3
ACAD_XREC_ROUNDTRIP
360
9957F
  3
BUMPTILE
360
513D3
  3
DIFFUSETILE
360
513D2
  3
OPACITYTILE
360
513D6
  3
REFLECTIONTILE
360
513D5
  3
REFRACTIONTILE
360
513D7
  3
SPECULARTILE
360
513D4
  0
DICTIONARY
  5
513E1
330
513E0
100
AcDbDictionary
280
     1
281
     1
  3
ACAD_XREC_ROUNDTRIP
360
99581
  3
BUMPTILE
360
513E3
  3
DIFFUSETILE
360
513E2
  3
OPACITYTILE
360
513E6
  3
REFLECTIONTILE
360
513E5
  3
REFRACTIONTILE
360
513E7
  3
SPECULARTILE
360
513E4
  0
DICTIONARY
  5
99607
330
99247
100
AcDbDictionary
280
     1
281
     1
  3
ACAD_XREC_ROUNDTRIP
360
99608
  0
DICTIONARY
  5
5147A
330
513FB
100
AcDbDictionary
280
     1
281
     1
  3
ACAD_ROUNDTRIP_2008_TABLESTYLE_CELLSTYLEMAP
360
995C6
  3
ACAD_XREC_ROUNDTRIP
360
995F2
  0
DICTIONARY
  5
995DC
330
513EE
100
AcDbDictionary
280
     1
281
     1
  3
ACAD_XREC_ROUNDTRIP
360
995DD
  0
DICTIONARY
  5
995E0
330
513F0
100
AcDbDictionary
280
     1
281
     1
  3
ACAD_XREC_ROUNDTRIP
360
995E1
  0
DICTIONARY
  5
995DE
330
513EF
100
AcDbDictionary
280
     1
281
     1
  3
ACAD_XREC_ROUNDTRIP
360
995DF
  0
DICTIONARY
  5
995DA
330
513ED
100
AcDbDictionary
280
     1
281
     1
  3
ACAD_XREC_ROUNDTRIP
360
995DB
  0
DICTIONARY
  5
995E8
330
513F4
100
AcDbDictionary
280
     1
281
     1
  3
ACAD_XREC_ROUNDTRIP
360
995E9
  0
DICTIONARY
  5
995F0
330
513F8
100
AcDbDictionary
280
     1
281
     1
  3
ACAD_XREC_ROUNDTRIP
360
995F1
  0
DICTIONARY
  5
995E2
330
513F1
100
AcDbDictionary
280
     1
281
     1
  3
ACAD_XREC_ROUNDTRIP
360
995E3
  0
DICTIONARY
  5
995E6
330
513F3
100
AcDbDictionary
280
     1
281
     1
  3
ACAD_XREC_ROUNDTRIP
360
995E7
  0
DICTIONARY
  5
99605
330
70D09
100
AcDbDictionary
280
     1
281
     1
  3
ACAD_XREC_ROUNDTRIP
360
99606
  0
DICTIONARY
  5
995EE
330
513F7
100
AcDbDictionary
280
     1
281
     1
  3
ACAD_XREC_ROUNDTRIP
360
995EF
  0
DICTIONARY
  5
995D2
330
513E9
100
AcDbDictionary
280
     1
281
     1
  3
ACAD_XREC_ROUNDTRIP
360
995D3
  0
DICTIONARY
  5
995D4
330
513EA
100
AcDbDictionary
280
     1
281
     1
  3
ACAD_XREC_ROUNDTRIP
360
995D5
  0
DICTIONARY
  5
995D6
330
513EB
100
AcDbDictionary
280
     1
281
     1
  3
ACAD_XREC_ROUNDTRIP
360
995D7
  0
DICTIONARY
  5
995D8
330
513EC
100
AcDbDictionary
280
     1
281
     1
  3
ACAD_XREC_ROUNDTRIP
360
995D9
  0
DICTIONARY
  5
995F5
330
70D01
100
AcDbDictionary
280
     1
281
     1
  3
ACAD_XREC_ROUNDTRIP
360
995F6
  0
DICTIONARY
  5
99601
330
70D07
100
AcDbDictionary
280
     1
281
     1
  3
ACAD_XREC_ROUNDTRIP
360
99602
  0
DICTIONARY
  5
995EC
330
513F6
100
AcDbDictionary
280
     1
281
     1
  3
ACAD_XREC_ROUNDTRIP
360
995ED
  0
DICTIONARY
  5
99603
330
70D08
100
AcDbDictionary
280
     1
281
     1
  3
ACAD_XREC_ROUNDTRIP
360
99604
  0
DICTIONARY
  5
995E4
330
513F2
100
AcDbDictionary
280
     1
281
     1
  3
ACAD_XREC_ROUNDTRIP
360
995E5
  0
DICTIONARY
  5
995FF
330
70D06
100
AcDbDictionary
280
     1
281
     1
  3
ACAD_XREC_ROUNDTRIP
360
99600
  0
DICTIONARY
  5
995FD
330
70D05
100
AcDbDictionary
280
     1
281
     1
  3
ACAD_XREC_ROUNDTRIP
360
995FE
  0
DICTIONARY
  5
995F7
330
70D02
100
AcDbDictionary
280
     1
281
     1
  3
ACAD_XREC_ROUNDTRIP
360
995F8
  0
DICTIONARY
  5
995F9
330
70D03
100
AcDbDictionary
280
     1
281
     1
  3
ACAD_XREC_ROUNDTRIP
360
995FA
  0
DICTIONARY
  5
995EA
330
513F5
100
AcDbDictionary
280
     1
281
     1
  3
ACAD_XREC_ROUNDTRIP
360
995EB
  0
DICTIONARY
  5
995F3
330
70D00
100
AcDbDictionary
280
     1
281
     1
  3
ACAD_XREC_ROUNDTRIP
360
995F4
  0
DICTIONARY
  5
995FB
330
70D04
100
AcDbDictionary
280
     1
281
     1
  3
ACAD_XREC_ROUNDTRIP
360
995FC
  0
XRECORD
  5
9960A
102
{ACAD_REACTORS
330
99609
102
}
330
99609
100
AcDbXrecord
280
     1
102
DISPLAYNAME
  1
Imperial24
102
FLAGS
 90
        0
  0
XRECORD
  5
995CF
102
{ACAD_REACTORS
330
995CE
102
}
330
995CE
100
AcDbXrecord
280
     1
102
SHADEPLOT
 70
     0
102
SHADEPLOTRESLEVEL
 70
     2
102
SHADEPLOTCUSTOMDPI
 70
   300
  0
XRECORD
  5
995D1
102
{ACAD_REACTORS
330
995D0
102
}
330
995D0
100
AcDbXrecord
280
     1
102
SHADEPLOT
 70
     0
102
SHADEPLOTRESLEVEL
 70
     2
102
SHADEPLOTCUSTOMDPI
 70
   300
  0
XRECORD
  5
99580
102
{ACAD_REACTORS
330
513D9
102
}
330
513D9
100
AcDbXrecord
280
     1
102
MATERIAL
148
0.0
149
0.0
149
0.0
 93
        0
 94
      127
282
     0
 72
     0
 77
     0
171
     0
175
     0
179
     0
273
     0
  0
XRECORD
  5
513DB
102
{ACAD_REACTORS
330
513D9
102
}
330
513D9
100
AcDbXrecord
280
     1
270
     1
271
     1
  0
XRECORD
  5
513DA
102
{ACAD_REACTORS
330
513D9
102
}
330
513D9
100
AcDbXrecord
280
     1
270
     1
271
     1
  0
XRECORD
  5
513DE
102
{ACAD_REACTORS
330
513D9
102
}
330
513D9
100
AcDbXrecord
280
     1
270
     1
271
     1
  0
XRECORD
  5
513DD
102
{ACAD_REACTORS
330
513D9
102
}
330
513D9
100
AcDbXrecord
280
     1
270
     1
271
     1
  0
XRECORD
  5
513DF
102
{ACAD_REACTORS
330
513D9
102
}
330
513D9
100
AcDbXrecord
280
     1
270
     1
271
     1
  0
XRECORD
  5
513DC
102
{ACAD_REACTORS
330
513D9
102
}
330
513D9
100
AcDbXrecord
280
     1
270
     1
271
     1
  0
XRECORD
  5
9957F
102
{ACAD_REACTORS
330
513D1
102
}
330
513D1
100
AcDbXrecord
280
     1
102
MATERIAL
148
0.0
149
0.0
149
0.0
 93
        0
 94
      127
282
     0
 72
     0
 77
     0
171
     0
175
     0
179
     0
273
     0
  0
XRECORD
  5
513D3
102
{ACAD_REACTORS
330
513D1
102
}
330
513D1
100
AcDbXrecord
280
     1
270
     1
271
     1
  0
XRECORD
  5
513D2
102
{ACAD_REACTORS
330
513D1
102
}
330
513D1
100
AcDbXrecord
280
     1
270
     1
271
     1
  0
XRECORD
  5
513D6
102
{ACAD_REACTORS
330
513D1
102
}
330
513D1
100
AcDbXrecord
280
     1
270
     1
271
     1
  0
XRECORD
  5
513D5
102
{ACAD_REACTORS
330
513D1
102
}
330
513D1
100
AcDbXrecord
280
     1
270
     1
271
     1
  0
XRECORD
  5
513D7
102
{ACAD_REACTORS
330
513D1
102
}
330
513D1
100
AcDbXrecord
280
     1
270
     1
271
     1
  0
XRECORD
  5
513D4
102
{ACAD_REACTORS
330
513D1
102
}
330
513D1
100
AcDbXrecord
280
     1
270
     1
271
     1
  0
XRECORD
  5
99581
102
{ACAD_REACTORS
330
513E1
102
}
330
513E1
100
AcDbXrecord
280
     1
102
MATERIAL
148
0.0
149
0.0
149
0.0
 93
        0
 94
      127
282
     0
 72
     0
 77
     0
171
     0
175
     0
179
     0
273
     0
  0
XRECORD
  5
513E3
102
{ACAD_REACTORS
330
513E1
102
}
330
513E1
100
AcDbXrecord
280
     1
270
     1
271
     1
  0
XRECORD
  5
513E2
102
{ACAD_REACTORS
330
513E1
102
}
330
513E1
100
AcDbXrecord
280
     1
270
     1
271
     1
  0
XRECORD
  5
513E6
102
{ACAD_REACTORS
330
513E1
102
}
330
513E1
100
AcDbXrecord
280
     1
270
     1
271
     1
  0
XRECORD
  5
513E5
102
{ACAD_REACTORS
330
513E1
102
}
330
513E1
100
AcDbXrecord
280
     1
270
     1
271
     1
  0
XRECORD
  5
513E7
102
{ACAD_REACTORS
330
513E1
102
}
330
513E1
100
AcDbXrecord
280
     1
270
     1
271
     1
  0
XRECORD
  5
513E4
102
{ACAD_REACTORS
330
513E1
102
}
330
513E1
100
AcDbXrecord
280
     1
270
     1
271
     1
  0
XRECORD
  5
99608
102
{ACAD_REACTORS
330
99607
102
}
330
99607
100
AcDbXrecord
280
     1
102
DISPLAYNAME
  1
Imperial24
102
FLAGS
 90
        0
  0
CELLSTYLEMAP
  5
995C6
102
{ACAD_REACTORS
330
5147A
102
}
330
5147A
100
AcDbCellStyleMap
 90
        3
300
CELLSTYLE
  1
TABLEFORMAT_BEGIN
 90
        5
170
     1
 91
        0
 92
    32768
 62
   257
 93
        1
300
CONTENTFORMAT
  1
CONTENTFORMAT_BEGIN
 90
        0
 91
        0
 92
      512
 93
        0
300

 40
0.0
140
1.0
 94
        5
 62
     0
340
F
144
0.25
309
CONTENTFORMAT_END
171
     1
301
MARGIN
  1
CELLMARGIN_BEGIN
 40
0.06
 40
0.06
 40
0.06
 40
0.06
 40
0.18
 40
0.18
309
CELLMARGIN_END
 94
        6
 95
        1
302
GRIDFORMAT
  1
GRIDFORMAT_BEGIN
 90
        0
 91
        1
 62
     0
 92
       -2
340
0
 93
        0
 40
0.045
309
GRIDFORMAT_END
 95
        2
302
GRIDFORMAT
  1
GRIDFORMAT_BEGIN
 90
        0
 91
        1
 62
     0
 92
       -2
340
0
 93
        0
 40
0.045
309
GRIDFORMAT_END
 95
        4
302
GRIDFORMAT
  1
GRIDFORMAT_BEGIN
 90
        0
 91
        1
 62
     0
 92
       -2
340
0
 93
        0
 40
0.045
309
GRIDFORMAT_END
 95
        8
302
GRIDFORMAT
  1
GRIDFORMAT_BEGIN
 90
        0
 91
        1
 62
     0
 92
       -2
340
0
 93
        0
 40
0.045
309
GRIDFORMAT_END
 95
       16
302
GRIDFORMAT
  1
GRIDFORMAT_BEGIN
 90
        0
 91
        1
 62
     0
 92
       -2
340
0
 93
        0
 40
0.045
309
GRIDFORMAT_END
 95
       32
302
GRIDFORMAT
  1
GRIDFORMAT_BEGIN
 90
        0
 91
        1
 62
     0
 92
       -2
340
0
 93
        0
 40
0.045
309
GRIDFORMAT_END
309
TABLEFORMAT_END
  1
CELLSTYLE_BEGIN
 90
        1
 91
        1
300
_TITLE
309
CELLSTYLE_END
300
CELLSTYLE
  1
TABLEFORMAT_BEGIN
 90
        5
170
     1
 91
        0
 92
        0
 62
   257
 93
        1
300
CONTENTFORMAT
  1
CONTENTFORMAT_BEGIN
 90
        0
 91
        0
 92
      512
 93
        0
300

 40
0.0
140
1.0
 94
        5
 62
     0
340
F
144
0.18
309
CONTENTFORMAT_END
171
     1
301
MARGIN
  1
CELLMARGIN_BEGIN
 40
0.06
 40
0.06
 40
0.06
 40
0.06
 40
0.18
 40
0.18
309
CELLMARGIN_END
 94
        6
 95
        1
302
GRIDFORMAT
  1
GRIDFORMAT_BEGIN
 90
        0
 91
        1
 62
     0
 92
       -2
340
0
 93
        0
 40
0.045
309
GRIDFORMAT_END
 95
        2
302
GRIDFORMAT
  1
GRIDFORMAT_BEGIN
 90
        0
 91
        1
 62
     0
 92
       -2
340
0
 93
        0
 40
0.045
309
GRIDFORMAT_END
 95
        4
302
GRIDFORMAT
  1
GRIDFORMAT_BEGIN
 90
        0
 91
        1
 62
     0
 92
       -2
340
0
 93
        0
 40
0.045
309
GRIDFORMAT_END
 95
        8
302
GRIDFORMAT
  1
GRIDFORMAT_BEGIN
 90
        0
 91
        1
 62
     0
 92
       -2
340
0
 93
        0
 40
0.045
309
GRIDFORMAT_END
 95
       16
302
GRIDFORMAT
  1
GRIDFORMAT_BEGIN
 90
        0
 91
        1
 62
     0
 92
       -2
340
0
 93
        0
 40
0.045
309
GRIDFORMAT_END
 95
       32
302
GRIDFORMAT
  1
GRIDFORMAT_BEGIN
 90
        0
 91
        1
 62
     0
 92
       -2
340
0
 93
        0
 40
0.045
309
GRIDFORMAT_END
309
TABLEFORMAT_END
  1
CELLSTYLE_BEGIN
 90
        2
 91
        1
300
_HEADER
309
CELLSTYLE_END
300
CELLSTYLE
  1
TABLEFORMAT_BEGIN
 90
        5
170
     1
 91
        0
 92
        0
 62
   257
 93
        1
300
CONTENTFORMAT
  1
CONTENTFORMAT_BEGIN
 90
        0
 91
        0
 92
      512
 93
        0
300

 40
0.0
140
1.0
 94
        2
 62
     0
340
F
144
0.18
309
CONTENTFORMAT_END
171
     1
301
MARGIN
  1
CELLMARGIN_BEGIN
 40
0.06
 40
0.06
 40
0.06
 40
0.06
 40
0.18
 40
0.18
309
CELLMARGIN_END
 94
        6
 95
        1
302
GRIDFORMAT
  1
GRIDFORMAT_BEGIN
 90
        0
 91
        1
 62
     0
 92
       -2
340
0
 93
        0
 40
0.045
309
GRIDFORMAT_END
 95
        2
302
GRIDFORMAT
  1
GRIDFORMAT_BEGIN
 90
        0
 91
        1
 62
     0
 92
       -2
340
0
 93
        0
 40
0.045
309
GRIDFORMAT_END
 95
        4
302
GRIDFORMAT
  1
GRIDFORMAT_BEGIN
 90
        0
 91
        1
 62
     0
 92
       -2
340
0
 93
        0
 40
0.045
309
GRIDFORMAT_END
 95
        8
302
GRIDFORMAT
  1
GRIDFORMAT_BEGIN
 90
        0
 91
        1
 62
     0
 92
       -2
340
0
 93
        0
 40
0.045
309
GRIDFORMAT_END
 95
       16
302
GRIDFORMAT
  1
GRIDFORMAT_BEGIN
 90
        0
 91
        1
 62
     0
 92
       -2
340
0
 93
        0
 40
0.045
309
GRIDFORMAT_END
 95
       32
302
GRIDFORMAT
  1
GRIDFORMAT_BEGIN
 90
        0
 91
        1
 62
     0
 92
       -2
340
0
 93
        0
 40
0.045
309
GRIDFORMAT_END
309
TABLEFORMAT_END
  1
CELLSTYLE_BEGIN
 90
        3
 91
        2
300
_DATA
309
CELLSTYLE_END
  0
XRECORD
  5
995F2
102
{ACAD_REACTORS
330
5147A
102
}
330
5147A
100
AcDbXrecord
280
     1
102
ACAD_ROUNDTRIP_PRE2007_TABLESTYLE
 90
      512
 91
        0
  1

 92
      512
 93
        0
  2

 94
      512
 95
        0
  3

  0
XRECORD
  5
995DD
102
{ACAD_REACTORS
330
995DC
102
}
330
995DC
100
AcDbXrecord
280
     1
102
RTVSPost2010Prop28
280
     1
102
RTVSPost2010PropOp28
 70
     1
102
RTVSPost2010Prop29
280
     1
102
RTVSPost2010PropOp29
 70
     1
102
RTVSPost2010Prop30
280
     0
102
RTVSPost2010PropOp30
 70
     1
102
RTVSPost2010Prop31
280
     0
102
RTVSPost2010PropOp31
 70
     1
102
RTVSPost2010Prop32
280
     0
102
RTVSPost2010PropOp32
 70
     1
102
RTVSPost2010Prop33
280
     0
102
RTVSPost2010PropOp33
 70
     1
102
RTVSPost2010Prop34
280
     0
102
RTVSPost2010PropOp34
 70
     1
102
RTVSPost2010Prop35
280
     0
102
RTVSPost2010PropOp35
 70
     1
102
RTVSPost2010Prop36
280
     0
102
RTVSPost2010PropOp36
 70
     1
102
RTVSPost2010Prop37
 90
       50
102
RTVSPost2010PropOp37
 70
     1
102
RTVSPost2010Prop38
140
0.0
102
RTVSPost2010PropOp38
 70
     1
102
RTVSPost2010Prop39
140
1.0
102
RTVSPost2010PropOp39
 70
     1
102
RTVSPost2010Prop40
 90
        0
102
RTVSPost2010PropOp40
 70
     1
102
RTVSPost2010Prop41ColorIndex
 90
       18
102
RTVSPost2010Prop41ColorRGB
 90
        0
102
RTVSPost2010PropOp41
 70
     1
102
RTVSPost2010Prop42
 90
       50
102
RTVSPost2010PropOp42
 70
     1
102
RTVSPost2010Prop43
 90
        3
102
RTVSPost2010PropOp43
 70
     1
102
RTVSPost2010Prop44ColorIndex
 90
        5
102
RTVSPost2010Prop44ColorRGB
 90
      255
102
RTVSPost2010PropOp44
 70
     1
102
RTVSPost2010Prop45
280
     0
102
RTVSPost2010PropOp45
 70
     1
102
RTVSPost2010Prop46
 90
       50
102
RTVSPost2010PropOp46
 70
     1
102
RTVSPost2010Prop47
 90
       50
102
RTVSPost2010PropOp47
 70
     1
102
RTVSPost2010Prop48
 90
       50
102
RTVSPost2010PropOp48
 70
     1
102
RTVSPost2010Prop49
280
     0
102
RTVSPost2010PropOp49
 70
     1
102
RTVSPost2010Prop50
 90
       50
102
RTVSPost2010PropOp50
 70
     1
102
RTVSPost2010Prop51ColorIndex
 90
      256
102
RTVSPost2010Prop51ColorRGB
 90
-16777216
102
RTVSPost2010PropOp51
 70
     0
102
RTVSPost2010Prop52
140
1.0
102
RTVSPost2010PropOp52
 70
     0
102
RTVSPost2010Prop53
 90
        2
102
RTVSPost2010PropOp53
 70
     1
102
RTVSPost2010Prop54
  1
strokes_ogs.tif
102
RTVSPost2010PropOp54
 70
     1
102
RTVSPost2010Prop55
280
     0
102
RTVSPost2010PropOp55
 70
     1
102
RTVSPost2010Prop56
140
1.0
102
RTVSPost2010PropOp56
 70
     1
102
RTVSPost2010Prop57
140
1.0
102
RTVSPost2010PropOp57
 70
     1
102
RTVSPropertyOp0
 70
     1
102
RTVSPropertyOp1
 70
     1
102
RTVSPropertyOp2
 70
     1
102
RTVSPropertyOp3
 70
     1
102
RTVSPropertyOp4
 70
     1
102
RTVSPropertyOp5
 70
     1
102
RTVSPropertyOp6
 70
     1
102
RTVSPropertyOp7
 70
     1
102
RTVSPropertyOp8
 70
     1
102
RTVSPropertyOp9
 70
     1
102
RTVSPropertyOp10
 70
     1
102
RTVSPropertyOp11
 70
     1
102
RTVSPropertyOp12
 70
     1
102
RTVSPropertyOp13
 70
     1
102
RTVSPropertyOp14
 70
     1
102
RTVSPropertyOp15
 70
     1
102
RTVSPropertyOp16
 70
     1
102
RTVSPropertyOp17
 70
     1
102
RTVSPropertyOp18
 70
     1
102
RTVSPropertyOp19
 70
     1
102
RTVSPropertyOp20
 70
     1
102
RTVSPropertyOp21
 70
     1
102
RTVSPropertyOp22
 70
     1
102
RTVSPropertyOp23
 70
     1
102
RTVSPropertyOp24
 70
     1
102
RTVSPropertyOp25
 70
     1
102
RTVSPropertyOp26
 70
     1
102
RTVSPropertyOp27
 70
     1
102
RTVSPropertyOp28
 70
     1
102
RTVSPropertyOp29
 70
     1
102
RTVSPropertyOp30
 70
     1
102
RTVSPropertyOp31
 70
     1
102
RTVSPropertyOp32
 70
     1
102
RTVSPropertyOp33
 70
     1
102
RTVSPropertyOp34
 70
     1
102
RTVSPropertyOp35
 70
     1
102
RTVSPropertyOp36
 70
     1
102
RTVSPropertyOp37
 70
     1
102
RTVSPropertyOp38
 70
     1
102
RTVSPropertyOp39
 70
     1
102
RTVSPropertyOp40
 70
     1
102
RTVSPropertyOp41
 70
     1
102
RTVSPropertyOp42
 70
     1
102
RTVSPropertyOp43
 70
     1
102
RTVSPropertyOp44
 70
     1
102
RTVSPropertyOp45
 70
     1
102
RTVSPropertyOp46
 70
     1
102
RTVSPropertyOp47
 70
     1
102
RTVSPropertyOp48
 70
     1
102
RTVSPropertyOp49
 70
     1
102
RTVSPropertyOp50
 70
     1
102
RTVSPropertyOp51
 70
     0
102
RTVSPropertyOp52
 70
     0
102
RTVSPropertyOp53
 70
     1
102
RTVSPropertyOp54
 70
     1
102
RTVSPropertyOp55
 70
     1
102
RTVSPropertyOp56
 70
     1
102
RTVSPropertyOp57
 70
     1
102
RTVSPropertyOp58
 70
     1
102
RTVSPropertyOp59
 70
     1
102
RTVSPropertyOp60
 70
     1
102
RTVSPropertyOp61
 70
     1
102
RTVSPropertyOp62
 70
     1
  0
XRECORD
  5
995E1
102
{ACAD_REACTORS
330
995E0
102
}
330
995E0
100
AcDbXrecord
280
     1
102
RTVSPost2010Prop28
280
     0
102
RTVSPost2010PropOp28
 70
     1
102
RTVSPost2010Prop29
280
     1
102
RTVSPost2010PropOp29
 70
     1
102
RTVSPost2010Prop30
280
     1
102
RTVSPost2010PropOp30
 70
     1
102
RTVSPost2010Prop31
280
     0
102
RTVSPost2010PropOp31
 70
     1
102
RTVSPost2010Prop32
280
     0
102
RTVSPost2010PropOp32
 70
     1
102
RTVSPost2010Prop33
280
     0
102
RTVSPost2010PropOp33
 70
     1
102
RTVSPost2010Prop34
280
     0
102
RTVSPost2010PropOp34
 70
     1
102
RTVSPost2010Prop35
280
     0
102
RTVSPost2010PropOp35
 70
     1
102
RTVSPost2010Prop36
280
     0
102
RTVSPost2010PropOp36
 70
     1
102
RTVSPost2010Prop37
 90
       50
102
RTVSPost2010PropOp37
 70
     1
102
RTVSPost2010Prop38
140
0.0
102
RTVSPost2010PropOp38
 70
     1
102
RTVSPost2010Prop39
140
1.0
102
RTVSPost2010PropOp39
 70
     1
102
RTVSPost2010Prop40
 90
        0
102
RTVSPost2010PropOp40
 70
     1
102
RTVSPost2010Prop41ColorIndex
 90
       18
102
RTVSPost2010Prop41ColorRGB
 90
        0
102
RTVSPost2010PropOp41
 70
     1
102
RTVSPost2010Prop42
 90
       50
102
RTVSPost2010PropOp42
 70
     1
102
RTVSPost2010Prop43
 90
        3
102
RTVSPost2010PropOp43
 70
     1
102
RTVSPost2010Prop44ColorIndex
 90
        5
102
RTVSPost2010Prop44ColorRGB
 90
      255
102
RTVSPost2010PropOp44
 70
     1
102
RTVSPost2010Prop45
280
     0
102
RTVSPost2010PropOp45
 70
     1
102
RTVSPost2010Prop46
 90
       50
102
RTVSPost2010PropOp46
 70
     1
102
RTVSPost2010Prop47
 90
       50
102
RTVSPost2010PropOp47
 70
     1
102
RTVSPost2010Prop48
 90
       50
102
RTVSPost2010PropOp48
 70
     1
102
RTVSPost2010Prop49
280
     0
102
RTVSPost2010PropOp49
 70
     1
102
RTVSPost2010Prop50
 90
       50
102
RTVSPost2010PropOp50
 70
     1
102
RTVSPost2010Prop51ColorIndex
 90
      256
102
RTVSPost2010Prop51ColorRGB
 90
-16777216
102
RTVSPost2010PropOp51
 70
     0
102
RTVSPost2010Prop52
140
1.0
102
RTVSPost2010PropOp52
 70
     0
102
RTVSPost2010Prop53
 90
        2
102
RTVSPost2010PropOp53
 70
     1
102
RTVSPost2010Prop54
  1
strokes_ogs.tif
102
RTVSPost2010PropOp54
 70
     1
102
RTVSPost2010Prop55
280
     0
102
RTVSPost2010PropOp55
 70
     1
102
RTVSPost2010Prop56
140
1.0
102
RTVSPost2010PropOp56
 70
     1
102
RTVSPost2010Prop57
140
1.0
102
RTVSPost2010PropOp57
 70
     1
102
RTVSPropertyOp0
 70
     1
102
RTVSPropertyOp1
 70
     1
102
RTVSPropertyOp2
 70
     1
102
RTVSPropertyOp3
 70
     1
102
RTVSPropertyOp4
 70
     1
102
RTVSPropertyOp5
 70
     1
102
RTVSPropertyOp6
 70
     1
102
RTVSPropertyOp7
 70
     1
102
RTVSPropertyOp8
 70
     1
102
RTVSPropertyOp9
 70
     1
102
RTVSPropertyOp10
 70
     1
102
RTVSPropertyOp11
 70
     1
102
RTVSPropertyOp12
 70
     1
102
RTVSPropertyOp13
 70
     1
102
RTVSPropertyOp14
 70
     1
102
RTVSPropertyOp15
 70
     1
102
RTVSPropertyOp16
 70
     1
102
RTVSPropertyOp17
 70
     1
102
RTVSPropertyOp18
 70
     1
102
RTVSPropertyOp19
 70
     1
102
RTVSPropertyOp20
 70
     1
102
RTVSPropertyOp21
 70
     1
102
RTVSPropertyOp22
 70
     1
102
RTVSPropertyOp23
 70
     1
102
RTVSPropertyOp24
 70
     1
102
RTVSPropertyOp25
 70
     1
102
RTVSPropertyOp26
 70
     1
102
RTVSPropertyOp27
 70
     1
102
RTVSPropertyOp28
 70
     1
102
RTVSPropertyOp29
 70
     1
102
RTVSPropertyOp30
 70
     1
102
RTVSPropertyOp31
 70
     1
102
RTVSPropertyOp32
 70
     1
102
RTVSPropertyOp33
 70
     1
102
RTVSPropertyOp34
 70
     1
102
RTVSPropertyOp35
 70
     1
102
RTVSPropertyOp36
 70
     1
102
RTVSPropertyOp37
 70
     1
102
RTVSPropertyOp38
 70
     1
102
RTVSPropertyOp39
 70
     1
102
RTVSPropertyOp40
 70
     1
102
RTVSPropertyOp41
 70
     1
102
RTVSPropertyOp42
 70
     1
102
RTVSPropertyOp43
 70
     1
102
RTVSPropertyOp44
 70
     1
102
RTVSPropertyOp45
 70
     1
102
RTVSPropertyOp46
 70
     1
102
RTVSPropertyOp47
 70
     1
102
RTVSPropertyOp48
 70
     1
102
RTVSPropertyOp49
 70
     1
102
RTVSPropertyOp50
 70
     1
102
RTVSPropertyOp51
 70
     0
102
RTVSPropertyOp52
 70
     0
102
RTVSPropertyOp53
 70
     1
102
RTVSPropertyOp54
 70
     1
102
RTVSPropertyOp55
 70
     1
102
RTVSPropertyOp56
 70
     1
102
RTVSPropertyOp57
 70
     1
102
RTVSPropertyOp58
 70
     1
102
RTVSPropertyOp59
 70
     1
102
RTVSPropertyOp60
 70
     1
102
RTVSPropertyOp61
 70
     1
102
RTVSPropertyOp62
 70
     1
  0
XRECORD
  5
995DF
102
{ACAD_REACTORS
330
995DE
102
}
330
995DE
100
AcDbXrecord
280
     1
102
RTVSPost2010Prop28
280
     0
102
RTVSPost2010PropOp28
 70
     1
102
RTVSPost2010Prop29
280
     1
102
RTVSPost2010PropOp29
 70
     1
102
RTVSPost2010Prop30
280
     1
102
RTVSPost2010PropOp30
 70
     1
102
RTVSPost2010Prop31
280
     0
102
RTVSPost2010PropOp31
 70
     1
102
RTVSPost2010Prop32
280
     0
102
RTVSPost2010PropOp32
 70
     1
102
RTVSPost2010Prop33
280
     0
102
RTVSPost2010PropOp33
 70
     1
102
RTVSPost2010Prop34
280
     0
102
RTVSPost2010PropOp34
 70
     1
102
RTVSPost2010Prop35
280
     0
102
RTVSPost2010PropOp35
 70
     1
102
RTVSPost2010Prop36
280
     0
102
RTVSPost2010PropOp36
 70
     1
102
RTVSPost2010Prop37
 90
       50
102
RTVSPost2010PropOp37
 70
     1
102
RTVSPost2010Prop38
140
0.0
102
RTVSPost2010PropOp38
 70
     1
102
RTVSPost2010Prop39
140
1.0
102
RTVSPost2010PropOp39
 70
     1
102
RTVSPost2010Prop40
 90
        0
102
RTVSPost2010PropOp40
 70
     1
102
RTVSPost2010Prop41ColorIndex
 90
       18
102
RTVSPost2010Prop41ColorRGB
 90
        0
102
RTVSPost2010PropOp41
 70
     1
102
RTVSPost2010Prop42
 90
       50
102
RTVSPost2010PropOp42
 70
     1
102
RTVSPost2010Prop43
 90
        3
102
RTVSPost2010PropOp43
 70
     1
102
RTVSPost2010Prop44ColorIndex
 90
        5
102
RTVSPost2010Prop44ColorRGB
 90
      255
102
RTVSPost2010PropOp44
 70
     1
102
RTVSPost2010Prop45
280
     0
102
RTVSPost2010PropOp45
 70
     1
102
RTVSPost2010Prop46
 90
       50
102
RTVSPost2010PropOp46
 70
     1
102
RTVSPost2010Prop47
 90
       50
102
RTVSPost2010PropOp47
 70
     1
102
RTVSPost2010Prop48
 90
       50
102
RTVSPost2010PropOp48
 70
     1
102
RTVSPost2010Prop49
280
     0
102
RTVSPost2010PropOp49
 70
     1
102
RTVSPost2010Prop50
 90
       50
102
RTVSPost2010PropOp50
 70
     1
102
RTVSPost2010Prop51ColorIndex
 90
      256
102
RTVSPost2010Prop51ColorRGB
 90
-16777216
102
RTVSPost2010PropOp51
 70
     0
102
RTVSPost2010Prop52
140
1.0
102
RTVSPost2010PropOp52
 70
     0
102
RTVSPost2010Prop53
 90
        2
102
RTVSPost2010PropOp53
 70
     1
102
RTVSPost2010Prop54
  1
strokes_ogs.tif
102
RTVSPost2010PropOp54
 70
     1
102
RTVSPost2010Prop55
280
     0
102
RTVSPost2010PropOp55
 70
     1
102
RTVSPost2010Prop56
140
1.0
102
RTVSPost2010PropOp56
 70
     1
102
RTVSPost2010Prop57
140
1.0
102
RTVSPost2010PropOp57
 70
     1
102
RTVSPropertyOp0
 70
     1
102
RTVSPropertyOp1
 70
     1
102
RTVSPropertyOp2
 70
     1
102
RTVSPropertyOp3
 70
     1
102
RTVSPropertyOp4
 70
     1
102
RTVSPropertyOp5
 70
     1
102
RTVSPropertyOp6
 70
     1
102
RTVSPropertyOp7
 70
     1
102
RTVSPropertyOp8
 70
     1
102
RTVSPropertyOp9
 70
     1
102
RTVSPropertyOp10
 70
     1
102
RTVSPropertyOp11
 70
     1
102
RTVSPropertyOp12
 70
     1
102
RTVSPropertyOp13
 70
     1
102
RTVSPropertyOp14
 70
     1
102
RTVSPropertyOp15
 70
     1
102
RTVSPropertyOp16
 70
     1
102
RTVSPropertyOp17
 70
     1
102
RTVSPropertyOp18
 70
     1
102
RTVSPropertyOp19
 70
     1
102
RTVSPropertyOp20
 70
     1
102
RTVSPropertyOp21
 70
     1
102
RTVSPropertyOp22
 70
     1
102
RTVSPropertyOp23
 70
     1
102
RTVSPropertyOp24
 70
     1
102
RTVSPropertyOp25
 70
     1
102
RTVSPropertyOp26
 70
     1
102
RTVSPropertyOp27
 70
     1
102
RTVSPropertyOp28
 70
     1
102
RTVSPropertyOp29
 70
     1
102
RTVSPropertyOp30
 70
     1
102
RTVSPropertyOp31
 70
     1
102
RTVSPropertyOp32
 70
     1
102
RTVSPropertyOp33
 70
     1
102
RTVSPropertyOp34
 70
     1
102
RTVSPropertyOp35
 70
     1
102
RTVSPropertyOp36
 70
     1
102
RTVSPropertyOp37
 70
     1
102
RTVSPropertyOp38
 70
     1
102
RTVSPropertyOp39
 70
     1
102
RTVSPropertyOp40
 70
     1
102
RTVSPropertyOp41
 70
     1
102
RTVSPropertyOp42
 70
     1
102
RTVSPropertyOp43
 70
     1
102
RTVSPropertyOp44
 70
     1
102
RTVSPropertyOp45
 70
     1
102
RTVSPropertyOp46
 70
     1
102
RTVSPropertyOp47
 70
     1
102
RTVSPropertyOp48
 70
     1
102
RTVSPropertyOp49
 70
     1
102
RTVSPropertyOp50
 70
     1
102
RTVSPropertyOp51
 70
     0
102
RTVSPropertyOp52
 70
     0
102
RTVSPropertyOp53
 70
     1
102
RTVSPropertyOp54
 70
     1
102
RTVSPropertyOp55
 70
     1
102
RTVSPropertyOp56
 70
     1
102
RTVSPropertyOp57
 70
     1
102
RTVSPropertyOp58
 70
     1
102
RTVSPropertyOp59
 70
     1
102
RTVSPropertyOp60
 70
     1
102
RTVSPropertyOp61
 70
     1
102
RTVSPropertyOp62
 70
     1
  0
XRECORD
  5
995DB
102
{ACAD_REACTORS
330
995DA
102
}
330
995DA
100
AcDbXrecord
280
     1
102
RTVSPost2010Prop28
280
     0
102
RTVSPost2010PropOp28
 70
     1
102
RTVSPost2010Prop29
280
     1
102
RTVSPost2010PropOp29
 70
     1
102
RTVSPost2010Prop30
280
     1
102
RTVSPost2010PropOp30
 70
     1
102
RTVSPost2010Prop31
280
     0
102
RTVSPost2010PropOp31
 70
     1
102
RTVSPost2010Prop32
280
     0
102
RTVSPost2010PropOp32
 70
     1
102
RTVSPost2010Prop33
280
     0
102
RTVSPost2010PropOp33
 70
     1
102
RTVSPost2010Prop34
280
     0
102
RTVSPost2010PropOp34
 70
     1
102
RTVSPost2010Prop35
280
     0
102
RTVSPost2010PropOp35
 70
     1
102
RTVSPost2010Prop36
280
     0
102
RTVSPost2010PropOp36
 70
     1
102
RTVSPost2010Prop37
 90
       50
102
RTVSPost2010PropOp37
 70
     1
102
RTVSPost2010Prop38
140
0.0
102
RTVSPost2010PropOp38
 70
     1
102
RTVSPost2010Prop39
140
1.0
102
RTVSPost2010PropOp39
 70
     1
102
RTVSPost2010Prop40
 90
        0
102
RTVSPost2010PropOp40
 70
     1
102
RTVSPost2010Prop41ColorIndex
 90
       18
102
RTVSPost2010Prop41ColorRGB
 90
        0
102
RTVSPost2010PropOp41
 70
     1
102
RTVSPost2010Prop42
 90
       50
102
RTVSPost2010PropOp42
 70
     1
102
RTVSPost2010Prop43
 90
        3
102
RTVSPost2010PropOp43
 70
     1
102
RTVSPost2010Prop44ColorIndex
 90
        5
102
RTVSPost2010Prop44ColorRGB
 90
      255
102
RTVSPost2010PropOp44
 70
     1
102
RTVSPost2010Prop45
280
     0
102
RTVSPost2010PropOp45
 70
     1
102
RTVSPost2010Prop46
 90
       50
102
RTVSPost2010PropOp46
 70
     1
102
RTVSPost2010Prop47
 90
       50
102
RTVSPost2010PropOp47
 70
     1
102
RTVSPost2010Prop48
 90
       50
102
RTVSPost2010PropOp48
 70
     1
102
RTVSPost2010Prop49
280
     0
102
RTVSPost2010PropOp49
 70
     1
102
RTVSPost2010Prop50
 90
       50
102
RTVSPost2010PropOp50
 70
     1
102
RTVSPost2010Prop51ColorIndex
 90
      256
102
RTVSPost2010Prop51ColorRGB
 90
-16777216
102
RTVSPost2010PropOp51
 70
     0
102
RTVSPost2010Prop52
140
1.0
102
RTVSPost2010PropOp52
 70
     0
102
RTVSPost2010Prop53
 90
        2
102
RTVSPost2010PropOp53
 70
     1
102
RTVSPost2010Prop54
  1
strokes_ogs.tif
102
RTVSPost2010PropOp54
 70
     1
102
RTVSPost2010Prop55
280
     0
102
RTVSPost2010PropOp55
 70
     1
102
RTVSPost2010Prop56
140
1.0
102
RTVSPost2010PropOp56
 70
     1
102
RTVSPost2010Prop57
140
1.0
102
RTVSPost2010PropOp57
 70
     1
102
RTVSPropertyOp0
 70
     1
102
RTVSPropertyOp1
 70
     1
102
RTVSPropertyOp2
 70
     1
102
RTVSPropertyOp3
 70
     1
102
RTVSPropertyOp4
 70
     1
102
RTVSPropertyOp5
 70
     1
102
RTVSPropertyOp6
 70
     1
102
RTVSPropertyOp7
 70
     1
102
RTVSPropertyOp8
 70
     1
102
RTVSPropertyOp9
 70
     1
102
RTVSPropertyOp10
 70
     1
102
RTVSPropertyOp11
 70
     1
102
RTVSPropertyOp12
 70
     1
102
RTVSPropertyOp13
 70
     1
102
RTVSPropertyOp14
 70
     1
102
RTVSPropertyOp15
 70
     1
102
RTVSPropertyOp16
 70
     1
102
RTVSPropertyOp17
 70
     1
102
RTVSPropertyOp18
 70
     1
102
RTVSPropertyOp19
 70
     1
102
RTVSPropertyOp20
 70
     1
102
RTVSPropertyOp21
 70
     1
102
RTVSPropertyOp22
 70
     1
102
RTVSPropertyOp23
 70
     1
102
RTVSPropertyOp24
 70
     1
102
RTVSPropertyOp25
 70
     1
102
RTVSPropertyOp26
 70
     1
102
RTVSPropertyOp27
 70
     1
102
RTVSPropertyOp28
 70
     1
102
RTVSPropertyOp29
 70
     1
102
RTVSPropertyOp30
 70
     1
102
RTVSPropertyOp31
 70
     1
102
RTVSPropertyOp32
 70
     1
102
RTVSPropertyOp33
 70
     1
102
RTVSPropertyOp34
 70
     1
102
RTVSPropertyOp35
 70
     1
102
RTVSPropertyOp36
 70
     1
102
RTVSPropertyOp37
 70
     1
102
RTVSPropertyOp38
 70
     1
102
RTVSPropertyOp39
 70
     1
102
RTVSPropertyOp40
 70
     1
102
RTVSPropertyOp41
 70
     1
102
RTVSPropertyOp42
 70
     1
102
RTVSPropertyOp43
 70
     1
102
RTVSPropertyOp44
 70
     1
102
RTVSPropertyOp45
 70
     1
102
RTVSPropertyOp46
 70
     1
102
RTVSPropertyOp47
 70
     1
102
RTVSPropertyOp48
 70
     1
102
RTVSPropertyOp49
 70
     1
102
RTVSPropertyOp50
 70
     1
102
RTVSPropertyOp51
 70
     0
102
RTVSPropertyOp52
 70
     0
102
RTVSPropertyOp53
 70
     1
102
RTVSPropertyOp54
 70
     1
102
RTVSPropertyOp55
 70
     1
102
RTVSPropertyOp56
 70
     1
102
RTVSPropertyOp57
 70
     1
102
RTVSPropertyOp58
 70
     1
102
RTVSPropertyOp59
 70
     1
102
RTVSPropertyOp60
 70
     1
102
RTVSPropertyOp61
 70
     1
102
RTVSPropertyOp62
 70
     1
  0
XRECORD
  5
995E9
102
{ACAD_REACTORS
330
995E8
102
}
330
995E8
100
AcDbXrecord
280
     1
102
RTVSPost2010Prop28
280
     0
102
RTVSPost2010PropOp28
 70
     1
102
RTVSPost2010Prop29
280
     1
102
RTVSPost2010PropOp29
 70
     1
102
RTVSPost2010Prop30
280
     1
102
RTVSPost2010PropOp30
 70
     1
102
RTVSPost2010Prop31
280
     0
102
RTVSPost2010PropOp31
 70
     1
102
RTVSPost2010Prop32
280
     0
102
RTVSPost2010PropOp32
 70
     1
102
RTVSPost2010Prop33
280
     0
102
RTVSPost2010PropOp33
 70
     1
102
RTVSPost2010Prop34
280
     0
102
RTVSPost2010PropOp34
 70
     1
102
RTVSPost2010Prop35
280
     0
102
RTVSPost2010PropOp35
 70
     1
102
RTVSPost2010Prop36
280
     0
102
RTVSPost2010PropOp36
 70
     1
102
RTVSPost2010Prop37
 90
       50
102
RTVSPost2010PropOp37
 70
     1
102
RTVSPost2010Prop38
140
0.0
102
RTVSPost2010PropOp38
 70
     1
102
RTVSPost2010Prop39
140
1.0
102
RTVSPost2010PropOp39
 70
     1
102
RTVSPost2010Prop40
 90
        0
102
RTVSPost2010PropOp40
 70
     1
102
RTVSPost2010Prop41ColorIndex
 90
       18
102
RTVSPost2010Prop41ColorRGB
 90
        0
102
RTVSPost2010PropOp41
 70
     1
102
RTVSPost2010Prop42
 90
       50
102
RTVSPost2010PropOp42
 70
     1
102
RTVSPost2010Prop43
 90
        3
102
RTVSPost2010PropOp43
 70
     1
102
RTVSPost2010Prop44ColorIndex
 90
        5
102
RTVSPost2010Prop44ColorRGB
 90
      255
102
RTVSPost2010PropOp44
 70
     1
102
RTVSPost2010Prop45
280
     0
102
RTVSPost2010PropOp45
 70
     1
102
RTVSPost2010Prop46
 90
       50
102
RTVSPost2010PropOp46
 70
     1
102
RTVSPost2010Prop47
 90
       50
102
RTVSPost2010PropOp47
 70
     1
102
RTVSPost2010Prop48
 90
       50
102
RTVSPost2010PropOp48
 70
     1
102
RTVSPost2010Prop49
280
     0
102
RTVSPost2010PropOp49
 70
     1
102
RTVSPost2010Prop50
 90
       50
102
RTVSPost2010PropOp50
 70
     1
102
RTVSPost2010Prop51ColorIndex
 90
      256
102
RTVSPost2010Prop51ColorRGB
 90
-16777216
102
RTVSPost2010PropOp51
 70
     0
102
RTVSPost2010Prop52
140
1.0
102
RTVSPost2010PropOp52
 70
     0
102
RTVSPost2010Prop53
 90
        2
102
RTVSPost2010PropOp53
 70
     1
102
RTVSPost2010Prop54
  1
strokes_ogs.tif
102
RTVSPost2010PropOp54
 70
     1
102
RTVSPost2010Prop55
280
     0
102
RTVSPost2010PropOp55
 70
     1
102
RTVSPost2010Prop56
140
1.0
102
RTVSPost2010PropOp56
 70
     1
102
RTVSPost2010Prop57
140
1.0
102
RTVSPost2010PropOp57
 70
     1
102
RTVSPropertyOp0
 70
     1
102
RTVSPropertyOp1
 70
     1
102
RTVSPropertyOp2
 70
     1
102
RTVSPropertyOp3
 70
     1
102
RTVSPropertyOp4
 70
     1
102
RTVSPropertyOp5
 70
     1
102
RTVSPropertyOp6
 70
     1
102
RTVSPropertyOp7
 70
     1
102
RTVSPropertyOp8
 70
     1
102
RTVSPropertyOp9
 70
     1
102
RTVSPropertyOp10
 70
     1
102
RTVSPropertyOp11
 70
     1
102
RTVSPropertyOp12
 70
     1
102
RTVSPropertyOp13
 70
     1
102
RTVSPropertyOp14
 70
     1
102
RTVSPropertyOp15
 70
     1
102
RTVSPropertyOp16
 70
     1
102
RTVSPropertyOp17
 70
     1
102
RTVSPropertyOp18
 70
     1
102
RTVSPropertyOp19
 70
     1
102
RTVSPropertyOp20
 70
     1
102
RTVSPropertyOp21
 70
     1
102
RTVSPropertyOp22
 70
     1
102
RTVSPropertyOp23
 70
     1
102
RTVSPropertyOp24
 70
     1
102
RTVSPropertyOp25
 70
     1
102
RTVSPropertyOp26
 70
     1
102
RTVSPropertyOp27
 70
     1
102
RTVSPropertyOp28
 70
     1
102
RTVSPropertyOp29
 70
     1
102
RTVSPropertyOp30
 70
     1
102
RTVSPropertyOp31
 70
     1
102
RTVSPropertyOp32
 70
     1
102
RTVSPropertyOp33
 70
     1
102
RTVSPropertyOp34
 70
     1
102
RTVSPropertyOp35
 70
     1
102
RTVSPropertyOp36
 70
     1
102
RTVSPropertyOp37
 70
     1
102
RTVSPropertyOp38
 70
     1
102
RTVSPropertyOp39
 70
     1
102
RTVSPropertyOp40
 70
     1
102
RTVSPropertyOp41
 70
     1
102
RTVSPropertyOp42
 70
     1
102
RTVSPropertyOp43
 70
     1
102
RTVSPropertyOp44
 70
     1
102
RTVSPropertyOp45
 70
     1
102
RTVSPropertyOp46
 70
     1
102
RTVSPropertyOp47
 70
     1
102
RTVSPropertyOp48
 70
     1
102
RTVSPropertyOp49
 70
     1
102
RTVSPropertyOp50
 70
     1
102
RTVSPropertyOp51
 70
     0
102
RTVSPropertyOp52
 70
     0
102
RTVSPropertyOp53
 70
     1
102
RTVSPropertyOp54
 70
     1
102
RTVSPropertyOp55
 70
     1
102
RTVSPropertyOp56
 70
     1
102
RTVSPropertyOp57
 70
     1
102
RTVSPropertyOp58
 70
     1
102
RTVSPropertyOp59
 70
     1
102
RTVSPropertyOp60
 70
     1
102
RTVSPropertyOp61
 70
     1
102
RTVSPropertyOp62
 70
     1
  0
XRECORD
  5
995F1
102
{ACAD_REACTORS
330
995F0
102
}
330
995F0
100
AcDbXrecord
280
     1
102
RTVSPost2010Prop28
280
     0
102
RTVSPost2010PropOp28
 70
     1
102
RTVSPost2010Prop29
280
     1
102
RTVSPost2010PropOp29
 70
     1
102
RTVSPost2010Prop30
280
     1
102
RTVSPost2010PropOp30
 70
     1
102
RTVSPost2010Prop31
280
     0
102
RTVSPost2010PropOp31
 70
     1
102
RTVSPost2010Prop32
280
     0
102
RTVSPost2010PropOp32
 70
     1
102
RTVSPost2010Prop33
280
     0
102
RTVSPost2010PropOp33
 70
     1
102
RTVSPost2010Prop34
280
     0
102
RTVSPost2010PropOp34
 70
     1
102
RTVSPost2010Prop35
280
     0
102
RTVSPost2010PropOp35
 70
     1
102
RTVSPost2010Prop36
280
     0
102
RTVSPost2010PropOp36
 70
     1
102
RTVSPost2010Prop37
 90
       50
102
RTVSPost2010PropOp37
 70
     1
102
RTVSPost2010Prop38
140
0.0
102
RTVSPost2010PropOp38
 70
     1
102
RTVSPost2010Prop39
140
1.0
102
RTVSPost2010PropOp39
 70
     1
102
RTVSPost2010Prop40
 90
        0
102
RTVSPost2010PropOp40
 70
     1
102
RTVSPost2010Prop41ColorIndex
 90
       18
102
RTVSPost2010Prop41ColorRGB
 90
        0
102
RTVSPost2010PropOp41
 70
     1
102
RTVSPost2010Prop42
 90
       50
102
RTVSPost2010PropOp42
 70
     1
102
RTVSPost2010Prop43
 90
        3
102
RTVSPost2010PropOp43
 70
     1
102
RTVSPost2010Prop44ColorIndex
 90
        5
102
RTVSPost2010Prop44ColorRGB
 90
      255
102
RTVSPost2010PropOp44
 70
     1
102
RTVSPost2010Prop45
280
     0
102
RTVSPost2010PropOp45
 70
     1
102
RTVSPost2010Prop46
 90
       50
102
RTVSPost2010PropOp46
 70
     1
102
RTVSPost2010Prop47
 90
       50
102
RTVSPost2010PropOp47
 70
     1
102
RTVSPost2010Prop48
 90
       50
102
RTVSPost2010PropOp48
 70
     1
102
RTVSPost2010Prop49
280
     0
102
RTVSPost2010PropOp49
 70
     1
102
RTVSPost2010Prop50
 90
       50
102
RTVSPost2010PropOp50
 70
     1
102
RTVSPost2010Prop51ColorIndex
 90
      256
102
RTVSPost2010Prop51ColorRGB
 90
-16777216
102
RTVSPost2010PropOp51
 70
     0
102
RTVSPost2010Prop52
140
1.0
102
RTVSPost2010PropOp52
 70
     0
102
RTVSPost2010Prop53
 90
        2
102
RTVSPost2010PropOp53
 70
     1
102
RTVSPost2010Prop54
  1
strokes_ogs.tif
102
RTVSPost2010PropOp54
 70
     1
102
RTVSPost2010Prop55
280
     0
102
RTVSPost2010PropOp55
 70
     1
102
RTVSPost2010Prop56
140
1.0
102
RTVSPost2010PropOp56
 70
     1
102
RTVSPost2010Prop57
140
1.0
102
RTVSPost2010PropOp57
 70
     1
102
RTVSPropertyOp0
 70
     1
102
RTVSPropertyOp1
 70
     1
102
RTVSPropertyOp2
 70
     1
102
RTVSPropertyOp3
 70
     1
102
RTVSPropertyOp4
 70
     1
102
RTVSPropertyOp5
 70
     1
102
RTVSPropertyOp6
 70
     1
102
RTVSPropertyOp7
 70
     1
102
RTVSPropertyOp8
 70
     1
102
RTVSPropertyOp9
 70
     1
102
RTVSPropertyOp10
 70
     1
102
RTVSPropertyOp11
 70
     1
102
RTVSPropertyOp12
 70
     1
102
RTVSPropertyOp13
 70
     1
102
RTVSPropertyOp14
 70
     1
102
RTVSPropertyOp15
 70
     1
102
RTVSPropertyOp16
 70
     1
102
RTVSPropertyOp17
 70
     1
102
RTVSPropertyOp18
 70
     1
102
RTVSPropertyOp19
 70
     1
102
RTVSPropertyOp20
 70
     1
102
RTVSPropertyOp21
 70
     1
102
RTVSPropertyOp22
 70
     1
102
RTVSPropertyOp23
 70
     1
102
RTVSPropertyOp24
 70
     1
102
RTVSPropertyOp25
 70
     1
102
RTVSPropertyOp26
 70
     1
102
RTVSPropertyOp27
 70
     1
102
RTVSPropertyOp28
 70
     1
102
RTVSPropertyOp29
 70
     1
102
RTVSPropertyOp30
 70
     1
102
RTVSPropertyOp31
 70
     1
102
RTVSPropertyOp32
 70
     1
102
RTVSPropertyOp33
 70
     1
102
RTVSPropertyOp34
 70
     1
102
RTVSPropertyOp35
 70
     1
102
RTVSPropertyOp36
 70
     1
102
RTVSPropertyOp37
 70
     1
102
RTVSPropertyOp38
 70
     1
102
RTVSPropertyOp39
 70
     1
102
RTVSPropertyOp40
 70
     1
102
RTVSPropertyOp41
 70
     1
102
RTVSPropertyOp42
 70
     1
102
RTVSPropertyOp43
 70
     1
102
RTVSPropertyOp44
 70
     1
102
RTVSPropertyOp45
 70
     1
102
RTVSPropertyOp46
 70
     1
102
RTVSPropertyOp47
 70
     1
102
RTVSPropertyOp48
 70
     1
102
RTVSPropertyOp49
 70
     1
102
RTVSPropertyOp50
 70
     1
102
RTVSPropertyOp51
 70
     0
102
RTVSPropertyOp52
 70
     0
102
RTVSPropertyOp53
 70
     1
102
RTVSPropertyOp54
 70
     1
102
RTVSPropertyOp55
 70
     1
102
RTVSPropertyOp56
 70
     1
102
RTVSPropertyOp57
 70
     1
102
RTVSPropertyOp58
 70
     1
102
RTVSPropertyOp59
 70
     1
102
RTVSPropertyOp60
 70
     1
102
RTVSPropertyOp61
 70
     1
102
RTVSPropertyOp62
 70
     1
  0
XRECORD
  5
995E3
102
{ACAD_REACTORS
330
995E2
102
}
330
995E2
100
AcDbXrecord
280
     1
102
RTVSPost2010Prop28
280
     0
102
RTVSPost2010PropOp28
 70
     1
102
RTVSPost2010Prop29
280
     1
102
RTVSPost2010PropOp29
 70
     1
102
RTVSPost2010Prop30
280
     1
102
RTVSPost2010PropOp30
 70
     1
102
RTVSPost2010Prop31
280
     0
102
RTVSPost2010PropOp31
 70
     1
102
RTVSPost2010Prop32
280
     0
102
RTVSPost2010PropOp32
 70
     1
102
RTVSPost2010Prop33
280
     0
102
RTVSPost2010PropOp33
 70
     1
102
RTVSPost2010Prop34
280
     0
102
RTVSPost2010PropOp34
 70
     1
102
RTVSPost2010Prop35
280
     0
102
RTVSPost2010PropOp35
 70
     1
102
RTVSPost2010Prop36
280
     0
102
RTVSPost2010PropOp36
 70
     1
102
RTVSPost2010Prop37
 90
       50
102
RTVSPost2010PropOp37
 70
     1
102
RTVSPost2010Prop38
140
0.0
102
RTVSPost2010PropOp38
 70
     1
102
RTVSPost2010Prop39
140
1.0
102
RTVSPost2010PropOp39
 70
     1
102
RTVSPost2010Prop40
 90
        0
102
RTVSPost2010PropOp40
 70
     1
102
RTVSPost2010Prop41ColorIndex
 90
       18
102
RTVSPost2010Prop41ColorRGB
 90
        0
102
RTVSPost2010PropOp41
 70
     1
102
RTVSPost2010Prop42
 90
       50
102
RTVSPost2010PropOp42
 70
     1
102
RTVSPost2010Prop43
 90
        3
102
RTVSPost2010PropOp43
 70
     1
102
RTVSPost2010Prop44ColorIndex
 90
        5
102
RTVSPost2010Prop44ColorRGB
 90
      255
102
RTVSPost2010PropOp44
 70
     1
102
RTVSPost2010Prop45
280
     0
102
RTVSPost2010PropOp45
 70
     1
102
RTVSPost2010Prop46
 90
       50
102
RTVSPost2010PropOp46
 70
     1
102
RTVSPost2010Prop47
 90
       50
102
RTVSPost2010PropOp47
 70
     1
102
RTVSPost2010Prop48
 90
       50
102
RTVSPost2010PropOp48
 70
     1
102
RTVSPost2010Prop49
280
     0
102
RTVSPost2010PropOp49
 70
     1
102
RTVSPost2010Prop50
 90
       50
102
RTVSPost2010PropOp50
 70
     1
102
RTVSPost2010Prop51ColorIndex
 90
      256
102
RTVSPost2010Prop51ColorRGB
 90
-16777216
102
RTVSPost2010PropOp51
 70
     0
102
RTVSPost2010Prop52
140
1.0
102
RTVSPost2010PropOp52
 70
     0
102
RTVSPost2010Prop53
 90
        2
102
RTVSPost2010PropOp53
 70
     1
102
RTVSPost2010Prop54
  1
strokes_ogs.tif
102
RTVSPost2010PropOp54
 70
     1
102
RTVSPost2010Prop55
280
     0
102
RTVSPost2010PropOp55
 70
     1
102
RTVSPost2010Prop56
140
1.0
102
RTVSPost2010PropOp56
 70
     1
102
RTVSPost2010Prop57
140
1.0
102
RTVSPost2010PropOp57
 70
     1
102
RTVSPropertyOp0
 70
     1
102
RTVSPropertyOp1
 70
     1
102
RTVSPropertyOp2
 70
     1
102
RTVSPropertyOp3
 70
     1
102
RTVSPropertyOp4
 70
     1
102
RTVSPropertyOp5
 70
     1
102
RTVSPropertyOp6
 70
     1
102
RTVSPropertyOp7
 70
     1
102
RTVSPropertyOp8
 70
     1
102
RTVSPropertyOp9
 70
     1
102
RTVSPropertyOp10
 70
     1
102
RTVSPropertyOp11
 70
     1
102
RTVSPropertyOp12
 70
     1
102
RTVSPropertyOp13
 70
     1
102
RTVSPropertyOp14
 70
     1
102
RTVSPropertyOp15
 70
     1
102
RTVSPropertyOp16
 70
     1
102
RTVSPropertyOp17
 70
     1
102
RTVSPropertyOp18
 70
     1
102
RTVSPropertyOp19
 70
     1
102
RTVSPropertyOp20
 70
     1
102
RTVSPropertyOp21
 70
     1
102
RTVSPropertyOp22
 70
     1
102
RTVSPropertyOp23
 70
     1
102
RTVSPropertyOp24
 70
     1
102
RTVSPropertyOp25
 70
     1
102
RTVSPropertyOp26
 70
     1
102
RTVSPropertyOp27
 70
     1
102
RTVSPropertyOp28
 70
     1
102
RTVSPropertyOp29
 70
     1
102
RTVSPropertyOp30
 70
     1
102
RTVSPropertyOp31
 70
     1
102
RTVSPropertyOp32
 70
     1
102
RTVSPropertyOp33
 70
     1
102
RTVSPropertyOp34
 70
     1
102
RTVSPropertyOp35
 70
     1
102
RTVSPropertyOp36
 70
     1
102
RTVSPropertyOp37
 70
     1
102
RTVSPropertyOp38
 70
     1
102
RTVSPropertyOp39
 70
     1
102
RTVSPropertyOp40
 70
     1
102
RTVSPropertyOp41
 70
     1
102
RTVSPropertyOp42
 70
     1
102
RTVSPropertyOp43
 70
     1
102
RTVSPropertyOp44
 70
     1
102
RTVSPropertyOp45
 70
     1
102
RTVSPropertyOp46
 70
     1
102
RTVSPropertyOp47
 70
     1
102
RTVSPropertyOp48
 70
     1
102
RTVSPropertyOp49
 70
     1
102
RTVSPropertyOp50
 70
     1
102
RTVSPropertyOp51
 70
     0
102
RTVSPropertyOp52
 70
     0
102
RTVSPropertyOp53
 70
     1
102
RTVSPropertyOp54
 70
     1
102
RTVSPropertyOp55
 70
     1
102
RTVSPropertyOp56
 70
     1
102
RTVSPropertyOp57
 70
     1
102
RTVSPropertyOp58
 70
     1
102
RTVSPropertyOp59
 70
     1
102
RTVSPropertyOp60
 70
     1
102
RTVSPropertyOp61
 70
     1
102
RTVSPropertyOp62
 70
     1
  0
XRECORD
  5
995E7
102
{ACAD_REACTORS
330
995E6
102
}
330
995E6
100
AcDbXrecord
280
     1
102
RTVSPost2010Prop28
280
     0
102
RTVSPost2010PropOp28
 70
     1
102
RTVSPost2010Prop29
280
     1
102
RTVSPost2010PropOp29
 70
     1
102
RTVSPost2010Prop30
280
     1
102
RTVSPost2010PropOp30
 70
     1
102
RTVSPost2010Prop31
280
     0
102
RTVSPost2010PropOp31
 70
     1
102
RTVSPost2010Prop32
280
     0
102
RTVSPost2010PropOp32
 70
     1
102
RTVSPost2010Prop33
280
     0
102
RTVSPost2010PropOp33
 70
     1
102
RTVSPost2010Prop34
280
     0
102
RTVSPost2010PropOp34
 70
     1
102
RTVSPost2010Prop35
280
     0
102
RTVSPost2010PropOp35
 70
     1
102
RTVSPost2010Prop36
280
     0
102
RTVSPost2010PropOp36
 70
     1
102
RTVSPost2010Prop37
 90
       50
102
RTVSPost2010PropOp37
 70
     1
102
RTVSPost2010Prop38
140
0.0
102
RTVSPost2010PropOp38
 70
     1
102
RTVSPost2010Prop39
140
1.0
102
RTVSPost2010PropOp39
 70
     1
102
RTVSPost2010Prop40
 90
        0
102
RTVSPost2010PropOp40
 70
     1
102
RTVSPost2010Prop41ColorIndex
 90
       18
102
RTVSPost2010Prop41ColorRGB
 90
        0
102
RTVSPost2010PropOp41
 70
     1
102
RTVSPost2010Prop42
 90
       50
102
RTVSPost2010PropOp42
 70
     1
102
RTVSPost2010Prop43
 90
        3
102
RTVSPost2010PropOp43
 70
     1
102
RTVSPost2010Prop44ColorIndex
 90
        5
102
RTVSPost2010Prop44ColorRGB
 90
      255
102
RTVSPost2010PropOp44
 70
     1
102
RTVSPost2010Prop45
280
     0
102
RTVSPost2010PropOp45
 70
     1
102
RTVSPost2010Prop46
 90
       50
102
RTVSPost2010PropOp46
 70
     1
102
RTVSPost2010Prop47
 90
       50
102
RTVSPost2010PropOp47
 70
     1
102
RTVSPost2010Prop48
 90
       50
102
RTVSPost2010PropOp48
 70
     1
102
RTVSPost2010Prop49
280
     0
102
RTVSPost2010PropOp49
 70
     1
102
RTVSPost2010Prop50
 90
       50
102
RTVSPost2010PropOp50
 70
     1
102
RTVSPost2010Prop51ColorIndex
 90
      256
102
RTVSPost2010Prop51ColorRGB
 90
-16777216
102
RTVSPost2010PropOp51
 70
     0
102
RTVSPost2010Prop52
140
1.0
102
RTVSPost2010PropOp52
 70
     0
102
RTVSPost2010Prop53
 90
        2
102
RTVSPost2010PropOp53
 70
     1
102
RTVSPost2010Prop54
  1
strokes_ogs.tif
102
RTVSPost2010PropOp54
 70
     1
102
RTVSPost2010Prop55
280
     0
102
RTVSPost2010PropOp55
 70
     1
102
RTVSPost2010Prop56
140
1.0
102
RTVSPost2010PropOp56
 70
     1
102
RTVSPost2010Prop57
140
1.0
102
RTVSPost2010PropOp57
 70
     1
102
RTVSPropertyOp0
 70
     1
102
RTVSPropertyOp1
 70
     1
102
RTVSPropertyOp2
 70
     1
102
RTVSPropertyOp3
 70
     1
102
RTVSPropertyOp4
 70
     1
102
RTVSPropertyOp5
 70
     1
102
RTVSPropertyOp6
 70
     1
102
RTVSPropertyOp7
 70
     1
102
RTVSPropertyOp8
 70
     1
102
RTVSPropertyOp9
 70
     1
102
RTVSPropertyOp10
 70
     1
102
RTVSPropertyOp11
 70
     1
102
RTVSPropertyOp12
 70
     1
102
RTVSPropertyOp13
 70
     1
102
RTVSPropertyOp14
 70
     1
102
RTVSPropertyOp15
 70
     1
102
RTVSPropertyOp16
 70
     1
102
RTVSPropertyOp17
 70
     1
102
RTVSPropertyOp18
 70
     1
102
RTVSPropertyOp19
 70
     1
102
RTVSPropertyOp20
 70
     1
102
RTVSPropertyOp21
 70
     1
102
RTVSPropertyOp22
 70
     1
102
RTVSPropertyOp23
 70
     1
102
RTVSPropertyOp24
 70
     1
102
RTVSPropertyOp25
 70
     1
102
RTVSPropertyOp26
 70
     1
102
RTVSPropertyOp27
 70
     1
102
RTVSPropertyOp28
 70
     1
102
RTVSPropertyOp29
 70
     1
102
RTVSPropertyOp30
 70
     1
102
RTVSPropertyOp31
 70
     1
102
RTVSPropertyOp32
 70
     1
102
RTVSPropertyOp33
 70
     1
102
RTVSPropertyOp34
 70
     1
102
RTVSPropertyOp35
 70
     1
102
RTVSPropertyOp36
 70
     1
102
RTVSPropertyOp37
 70
     1
102
RTVSPropertyOp38
 70
     1
102
RTVSPropertyOp39
 70
     1
102
RTVSPropertyOp40
 70
     1
102
RTVSPropertyOp41
 70
     1
102
RTVSPropertyOp42
 70
     1
102
RTVSPropertyOp43
 70
     1
102
RTVSPropertyOp44
 70
     1
102
RTVSPropertyOp45
 70
     1
102
RTVSPropertyOp46
 70
     1
102
RTVSPropertyOp47
 70
     1
102
RTVSPropertyOp48
 70
     1
102
RTVSPropertyOp49
 70
     1
102
RTVSPropertyOp50
 70
     1
102
RTVSPropertyOp51
 70
     0
102
RTVSPropertyOp52
 70
     0
102
RTVSPropertyOp53
 70
     1
102
RTVSPropertyOp54
 70
     1
102
RTVSPropertyOp55
 70
     1
102
RTVSPropertyOp56
 70
     1
102
RTVSPropertyOp57
 70
     1
102
RTVSPropertyOp58
 70
     1
102
RTVSPropertyOp59
 70
     1
102
RTVSPropertyOp60
 70
     1
102
RTVSPropertyOp61
 70
     1
102
RTVSPropertyOp62
 70
     1
  0
XRECORD
  5
99606
102
{ACAD_REACTORS
330
99605
102
}
330
99605
100
AcDbXrecord
280
     1
102
RTVSPost2010Prop28
280
     0
102
RTVSPost2010PropOp28
 70
     0
102
RTVSPost2010Prop29
280
     1
102
RTVSPost2010PropOp29
 70
     0
102
RTVSPost2010Prop30
280
     1
102
RTVSPost2010PropOp30
 70
     0
102
RTVSPost2010Prop31
280
     0
102
RTVSPost2010PropOp31
 70
     0
102
RTVSPost2010Prop32
280
     0
102
RTVSPost2010PropOp32
 70
     0
102
RTVSPost2010Prop33
280
     0
102
RTVSPost2010PropOp33
 70
     1
102
RTVSPost2010Prop34
280
     0
102
RTVSPost2010PropOp34
 70
     1
102
RTVSPost2010Prop35
280
     0
102
RTVSPost2010PropOp35
 70
     1
102
RTVSPost2010Prop36
280
     0
102
RTVSPost2010PropOp36
 70
     1
102
RTVSPost2010Prop37
 90
       50
102
RTVSPost2010PropOp37
 70
     1
102
RTVSPost2010Prop38
140
0.0
102
RTVSPost2010PropOp38
 70
     1
102
RTVSPost2010Prop39
140
1.0
102
RTVSPost2010PropOp39
 70
     1
102
RTVSPost2010Prop40
 90
        0
102
RTVSPost2010PropOp40
 70
     1
102
RTVSPost2010Prop41ColorIndex
 90
       18
102
RTVSPost2010Prop41ColorRGB
 90
        0
102
RTVSPost2010PropOp41
 70
     1
102
RTVSPost2010Prop42
 90
       50
102
RTVSPost2010PropOp42
 70
     1
102
RTVSPost2010Prop43
 90
        3
102
RTVSPost2010PropOp43
 70
     1
102
RTVSPost2010Prop44ColorIndex
 90
        5
102
RTVSPost2010Prop44ColorRGB
 90
      255
102
RTVSPost2010PropOp44
 70
     1
102
RTVSPost2010Prop45
280
     0
102
RTVSPost2010PropOp45
 70
     1
102
RTVSPost2010Prop46
 90
       50
102
RTVSPost2010PropOp46
 70
     1
102
RTVSPost2010Prop47
 90
       50
102
RTVSPost2010PropOp47
 70
     1
102
RTVSPost2010Prop48
 90
       50
102
RTVSPost2010PropOp48
 70
     1
102
RTVSPost2010Prop49
280
     0
102
RTVSPost2010PropOp49
 70
     1
102
RTVSPost2010Prop50
 90
       50
102
RTVSPost2010PropOp50
 70
     1
102
RTVSPost2010Prop51ColorIndex
 90
      256
102
RTVSPost2010Prop51ColorRGB
 90
-16777216
102
RTVSPost2010PropOp51
 70
     0
102
RTVSPost2010Prop52
140
1.0
102
RTVSPost2010PropOp52
 70
     0
102
RTVSPost2010Prop53
 90
        2
102
RTVSPost2010PropOp53
 70
     1
102
RTVSPost2010Prop54
  1
strokes_ogs.tif
102
RTVSPost2010PropOp54
 70
     1
102
RTVSPost2010Prop55
280
     0
102
RTVSPost2010PropOp55
 70
     1
102
RTVSPost2010Prop56
140
1.0
102
RTVSPost2010PropOp56
 70
     1
102
RTVSPost2010Prop57
140
1.0
102
RTVSPost2010PropOp57
 70
     1
102
RTVSPropertyOp0
 70
     0
102
RTVSPropertyOp1
 70
     0
102
RTVSPropertyOp2
 70
     0
102
RTVSPropertyOp3
 70
     0
102
RTVSPropertyOp4
 70
     0
102
RTVSPropertyOp5
 70
     0
102
RTVSPropertyOp6
 70
     0
102
RTVSPropertyOp7
 70
     0
102
RTVSPropertyOp8
 70
     0
102
RTVSPropertyOp9
 70
     0
102
RTVSPropertyOp10
 70
     0
102
RTVSPropertyOp11
 70
     0
102
RTVSPropertyOp12
 70
     0
102
RTVSPropertyOp13
 70
     0
102
RTVSPropertyOp14
 70
     2
102
RTVSPropertyOp15
 70
     0
102
RTVSPropertyOp16
 70
     0
102
RTVSPropertyOp17
 70
     0
102
RTVSPropertyOp18
 70
     0
102
RTVSPropertyOp19
 70
     0
102
RTVSPropertyOp20
 70
     0
102
RTVSPropertyOp21
 70
     0
102
RTVSPropertyOp22
 70
     0
102
RTVSPropertyOp23
 70
     0
102
RTVSPropertyOp24
 70
     0
102
RTVSPropertyOp25
 70
     0
102
RTVSPropertyOp26
 70
     0
102
RTVSPropertyOp27
 70
     0
102
RTVSPropertyOp28
 70
     0
102
RTVSPropertyOp29
 70
     0
102
RTVSPropertyOp30
 70
     0
102
RTVSPropertyOp31
 70
     0
102
RTVSPropertyOp32
 70
     0
102
RTVSPropertyOp33
 70
     1
102
RTVSPropertyOp34
 70
     1
102
RTVSPropertyOp35
 70
     1
102
RTVSPropertyOp36
 70
     1
102
RTVSPropertyOp37
 70
     1
102
RTVSPropertyOp38
 70
     1
102
RTVSPropertyOp39
 70
     1
102
RTVSPropertyOp40
 70
     1
102
RTVSPropertyOp41
 70
     1
102
RTVSPropertyOp42
 70
     1
102
RTVSPropertyOp43
 70
     1
102
RTVSPropertyOp44
 70
     1
102
RTVSPropertyOp45
 70
     1
102
RTVSPropertyOp46
 70
     1
102
RTVSPropertyOp47
 70
     1
102
RTVSPropertyOp48
 70
     1
102
RTVSPropertyOp49
 70
     1
102
RTVSPropertyOp50
 70
     1
102
RTVSPropertyOp51
 70
     0
102
RTVSPropertyOp52
 70
     0
102
RTVSPropertyOp53
 70
     1
102
RTVSPropertyOp54
 70
     1
102
RTVSPropertyOp55
 70
     1
102
RTVSPropertyOp56
 70
     1
102
RTVSPropertyOp57
 70
     1
102
RTVSPropertyOp58
 70
     1
102
RTVSPropertyOp59
 70
     1
102
RTVSPropertyOp60
 70
     1
102
RTVSPropertyOp61
 70
     1
102
RTVSPropertyOp62
 70
     1
  0
XRECORD
  5
995EF
102
{ACAD_REACTORS
330
995EE
102
}
330
995EE
100
AcDbXrecord
280
     1
102
RTVSPost2010Prop28
280
     0
102
RTVSPost2010PropOp28
 70
     1
102
RTVSPost2010Prop29
280
     1
102
RTVSPost2010PropOp29
 70
     1
102
RTVSPost2010Prop30
280
     1
102
RTVSPost2010PropOp30
 70
     1
102
RTVSPost2010Prop31
280
     0
102
RTVSPost2010PropOp31
 70
     1
102
RTVSPost2010Prop32
280
     0
102
RTVSPost2010PropOp32
 70
     1
102
RTVSPost2010Prop33
280
     0
102
RTVSPost2010PropOp33
 70
     1
102
RTVSPost2010Prop34
280
     0
102
RTVSPost2010PropOp34
 70
     1
102
RTVSPost2010Prop35
280
     0
102
RTVSPost2010PropOp35
 70
     1
102
RTVSPost2010Prop36
280
     0
102
RTVSPost2010PropOp36
 70
     1
102
RTVSPost2010Prop37
 90
       50
102
RTVSPost2010PropOp37
 70
     1
102
RTVSPost2010Prop38
140
0.0
102
RTVSPost2010PropOp38
 70
     1
102
RTVSPost2010Prop39
140
1.0
102
RTVSPost2010PropOp39
 70
     1
102
RTVSPost2010Prop40
 90
        0
102
RTVSPost2010PropOp40
 70
     1
102
RTVSPost2010Prop41ColorIndex
 90
       18
102
RTVSPost2010Prop41ColorRGB
 90
        0
102
RTVSPost2010PropOp41
 70
     1
102
RTVSPost2010Prop42
 90
       50
102
RTVSPost2010PropOp42
 70
     1
102
RTVSPost2010Prop43
 90
        3
102
RTVSPost2010PropOp43
 70
     1
102
RTVSPost2010Prop44ColorIndex
 90
        5
102
RTVSPost2010Prop44ColorRGB
 90
      255
102
RTVSPost2010PropOp44
 70
     1
102
RTVSPost2010Prop45
280
     0
102
RTVSPost2010PropOp45
 70
     1
102
RTVSPost2010Prop46
 90
       50
102
RTVSPost2010PropOp46
 70
     1
102
RTVSPost2010Prop47
 90
       50
102
RTVSPost2010PropOp47
 70
     1
102
RTVSPost2010Prop48
 90
       50
102
RTVSPost2010PropOp48
 70
     1
102
RTVSPost2010Prop49
280
     0
102
RTVSPost2010PropOp49
 70
     1
102
RTVSPost2010Prop50
 90
       50
102
RTVSPost2010PropOp50
 70
     1
102
RTVSPost2010Prop51ColorIndex
 90
      256
102
RTVSPost2010Prop51ColorRGB
 90
-16777216
102
RTVSPost2010PropOp51
 70
     0
102
RTVSPost2010Prop52
140
1.0
102
RTVSPost2010PropOp52
 70
     0
102
RTVSPost2010Prop53
 90
        2
102
RTVSPost2010PropOp53
 70
     1
102
RTVSPost2010Prop54
  1
strokes_ogs.tif
102
RTVSPost2010PropOp54
 70
     1
102
RTVSPost2010Prop55
280
     0
102
RTVSPost2010PropOp55
 70
     1
102
RTVSPost2010Prop56
140
1.0
102
RTVSPost2010PropOp56
 70
     1
102
RTVSPost2010Prop57
140
1.0
102
RTVSPost2010PropOp57
 70
     1
102
RTVSPropertyOp0
 70
     1
102
RTVSPropertyOp1
 70
     1
102
RTVSPropertyOp2
 70
     1
102
RTVSPropertyOp3
 70
     1
102
RTVSPropertyOp4
 70
     1
102
RTVSPropertyOp5
 70
     1
102
RTVSPropertyOp6
 70
     1
102
RTVSPropertyOp7
 70
     1
102
RTVSPropertyOp8
 70
     1
102
RTVSPropertyOp9
 70
     1
102
RTVSPropertyOp10
 70
     1
102
RTVSPropertyOp11
 70
     1
102
RTVSPropertyOp12
 70
     1
102
RTVSPropertyOp13
 70
     1
102
RTVSPropertyOp14
 70
     1
102
RTVSPropertyOp15
 70
     1
102
RTVSPropertyOp16
 70
     1
102
RTVSPropertyOp17
 70
     1
102
RTVSPropertyOp18
 70
     1
102
RTVSPropertyOp19
 70
     1
102
RTVSPropertyOp20
 70
     1
102
RTVSPropertyOp21
 70
     1
102
RTVSPropertyOp22
 70
     1
102
RTVSPropertyOp23
 70
     1
102
RTVSPropertyOp24
 70
     1
102
RTVSPropertyOp25
 70
     1
102
RTVSPropertyOp26
 70
     1
102
RTVSPropertyOp27
 70
     1
102
RTVSPropertyOp28
 70
     1
102
RTVSPropertyOp29
 70
     1
102
RTVSPropertyOp30
 70
     1
102
RTVSPropertyOp31
 70
     1
102
RTVSPropertyOp32
 70
     1
102
RTVSPropertyOp33
 70
     1
102
RTVSPropertyOp34
 70
     1
102
RTVSPropertyOp35
 70
     1
102
RTVSPropertyOp36
 70
     1
102
RTVSPropertyOp37
 70
     1
102
RTVSPropertyOp38
 70
     1
102
RTVSPropertyOp39
 70
     1
102
RTVSPropertyOp40
 70
     1
102
RTVSPropertyOp41
 70
     1
102
RTVSPropertyOp42
 70
     1
102
RTVSPropertyOp43
 70
     1
102
RTVSPropertyOp44
 70
     1
102
RTVSPropertyOp45
 70
     1
102
RTVSPropertyOp46
 70
     1
102
RTVSPropertyOp47
 70
     1
102
RTVSPropertyOp48
 70
     1
102
RTVSPropertyOp49
 70
     1
102
RTVSPropertyOp50
 70
     1
102
RTVSPropertyOp51
 70
     0
102
RTVSPropertyOp52
 70
     0
102
RTVSPropertyOp53
 70
     1
102
RTVSPropertyOp54
 70
     1
102
RTVSPropertyOp55
 70
     1
102
RTVSPropertyOp56
 70
     1
102
RTVSPropertyOp57
 70
     1
102
RTVSPropertyOp58
 70
     1
102
RTVSPropertyOp59
 70
     1
102
RTVSPropertyOp60
 70
     1
102
RTVSPropertyOp61
 70
     1
102
RTVSPropertyOp62
 70
     1
  0
XRECORD
  5
995D3
102
{ACAD_REACTORS
330
995D2
102
}
330
995D2
100
AcDbXrecord
280
     1
102
RTVSPost2010Prop28
280
     0
102
RTVSPost2010PropOp28
 70
     1
102
RTVSPost2010Prop29
280
     1
102
RTVSPost2010PropOp29
 70
     1
102
RTVSPost2010Prop30
280
     1
102
RTVSPost2010PropOp30
 70
     1
102
RTVSPost2010Prop31
280
     0
102
RTVSPost2010PropOp31
 70
     1
102
RTVSPost2010Prop32
280
     0
102
RTVSPost2010PropOp32
 70
     1
102
RTVSPost2010Prop33
280
     0
102
RTVSPost2010PropOp33
 70
     1
102
RTVSPost2010Prop34
280
     0
102
RTVSPost2010PropOp34
 70
     1
102
RTVSPost2010Prop35
280
     0
102
RTVSPost2010PropOp35
 70
     1
102
RTVSPost2010Prop36
280
     0
102
RTVSPost2010PropOp36
 70
     1
102
RTVSPost2010Prop37
 90
       50
102
RTVSPost2010PropOp37
 70
     1
102
RTVSPost2010Prop38
140
0.0
102
RTVSPost2010PropOp38
 70
     1
102
RTVSPost2010Prop39
140
1.0
102
RTVSPost2010PropOp39
 70
     1
102
RTVSPost2010Prop40
 90
        0
102
RTVSPost2010PropOp40
 70
     1
102
RTVSPost2010Prop41ColorIndex
 90
       18
102
RTVSPost2010Prop41ColorRGB
 90
        0
102
RTVSPost2010PropOp41
 70
     1
102
RTVSPost2010Prop42
 90
       50
102
RTVSPost2010PropOp42
 70
     1
102
RTVSPost2010Prop43
 90
        3
102
RTVSPost2010PropOp43
 70
     1
102
RTVSPost2010Prop44ColorIndex
 90
        5
102
RTVSPost2010Prop44ColorRGB
 90
      255
102
RTVSPost2010PropOp44
 70
     1
102
RTVSPost2010Prop45
280
     0
102
RTVSPost2010PropOp45
 70
     1
102
RTVSPost2010Prop46
 90
       50
102
RTVSPost2010PropOp46
 70
     1
102
RTVSPost2010Prop47
 90
       50
102
RTVSPost2010PropOp47
 70
     1
102
RTVSPost2010Prop48
 90
       50
102
RTVSPost2010PropOp48
 70
     1
102
RTVSPost2010Prop49
280
     0
102
RTVSPost2010PropOp49
 70
     1
102
RTVSPost2010Prop50
 90
       50
102
RTVSPost2010PropOp50
 70
     1
102
RTVSPost2010Prop51ColorIndex
 90
      256
102
RTVSPost2010Prop51ColorRGB
 90
-16777216
102
RTVSPost2010PropOp51
 70
     0
102
RTVSPost2010Prop52
140
1.0
102
RTVSPost2010PropOp52
 70
     0
102
RTVSPost2010Prop53
 90
        2
102
RTVSPost2010PropOp53
 70
     1
102
RTVSPost2010Prop54
  1
strokes_ogs.tif
102
RTVSPost2010PropOp54
 70
     1
102
RTVSPost2010Prop55
280
     0
102
RTVSPost2010PropOp55
 70
     1
102
RTVSPost2010Prop56
140
1.0
102
RTVSPost2010PropOp56
 70
     1
102
RTVSPost2010Prop57
140
1.0
102
RTVSPost2010PropOp57
 70
     1
102
RTVSPropertyOp0
 70
     1
102
RTVSPropertyOp1
 70
     1
102
RTVSPropertyOp2
 70
     1
102
RTVSPropertyOp3
 70
     1
102
RTVSPropertyOp4
 70
     1
102
RTVSPropertyOp5
 70
     1
102
RTVSPropertyOp6
 70
     1
102
RTVSPropertyOp7
 70
     1
102
RTVSPropertyOp8
 70
     1
102
RTVSPropertyOp9
 70
     1
102
RTVSPropertyOp10
 70
     1
102
RTVSPropertyOp11
 70
     1
102
RTVSPropertyOp12
 70
     1
102
RTVSPropertyOp13
 70
     1
102
RTVSPropertyOp14
 70
     1
102
RTVSPropertyOp15
 70
     1
102
RTVSPropertyOp16
 70
     1
102
RTVSPropertyOp17
 70
     1
102
RTVSPropertyOp18
 70
     1
102
RTVSPropertyOp19
 70
     1
102
RTVSPropertyOp20
 70
     1
102
RTVSPropertyOp21
 70
     1
102
RTVSPropertyOp22
 70
     1
102
RTVSPropertyOp23
 70
     1
102
RTVSPropertyOp24
 70
     1
102
RTVSPropertyOp25
 70
     1
102
RTVSPropertyOp26
 70
     1
102
RTVSPropertyOp27
 70
     1
102
RTVSPropertyOp28
 70
     1
102
RTVSPropertyOp29
 70
     1
102
RTVSPropertyOp30
 70
     1
102
RTVSPropertyOp31
 70
     1
102
RTVSPropertyOp32
 70
     1
102
RTVSPropertyOp33
 70
     1
102
RTVSPropertyOp34
 70
     1
102
RTVSPropertyOp35
 70
     1
102
RTVSPropertyOp36
 70
     1
102
RTVSPropertyOp37
 70
     1
102
RTVSPropertyOp38
 70
     1
102
RTVSPropertyOp39
 70
     1
102
RTVSPropertyOp40
 70
     1
102
RTVSPropertyOp41
 70
     1
102
RTVSPropertyOp42
 70
     1
102
RTVSPropertyOp43
 70
     1
102
RTVSPropertyOp44
 70
     1
102
RTVSPropertyOp45
 70
     1
102
RTVSPropertyOp46
 70
     1
102
RTVSPropertyOp47
 70
     1
102
RTVSPropertyOp48
 70
     1
102
RTVSPropertyOp49
 70
     1
102
RTVSPropertyOp50
 70
     1
102
RTVSPropertyOp51
 70
     0
102
RTVSPropertyOp52
 70
     0
102
RTVSPropertyOp53
 70
     1
102
RTVSPropertyOp54
 70
     1
102
RTVSPropertyOp55
 70
     1
102
RTVSPropertyOp56
 70
     1
102
RTVSPropertyOp57
 70
     1
102
RTVSPropertyOp58
 70
     1
102
RTVSPropertyOp59
 70
     1
102
RTVSPropertyOp60
 70
     1
102
RTVSPropertyOp61
 70
     1
102
RTVSPropertyOp62
 70
     1
  0
XRECORD
  5
995D5
102
{ACAD_REACTORS
330
995D4
102
}
330
995D4
100
AcDbXrecord
280
     1
102
RTVSPost2010Prop28
280
     0
102
RTVSPost2010PropOp28
 70
     1
102
RTVSPost2010Prop29
280
     1
102
RTVSPost2010PropOp29
 70
     1
102
RTVSPost2010Prop30
280
     1
102
RTVSPost2010PropOp30
 70
     1
102
RTVSPost2010Prop31
280
     0
102
RTVSPost2010PropOp31
 70
     1
102
RTVSPost2010Prop32
280
     0
102
RTVSPost2010PropOp32
 70
     1
102
RTVSPost2010Prop33
280
     0
102
RTVSPost2010PropOp33
 70
     1
102
RTVSPost2010Prop34
280
     0
102
RTVSPost2010PropOp34
 70
     1
102
RTVSPost2010Prop35
280
     0
102
RTVSPost2010PropOp35
 70
     1
102
RTVSPost2010Prop36
280
     0
102
RTVSPost2010PropOp36
 70
     1
102
RTVSPost2010Prop37
 90
       50
102
RTVSPost2010PropOp37
 70
     1
102
RTVSPost2010Prop38
140
0.0
102
RTVSPost2010PropOp38
 70
     1
102
RTVSPost2010Prop39
140
1.0
102
RTVSPost2010PropOp39
 70
     1
102
RTVSPost2010Prop40
 90
        0
102
RTVSPost2010PropOp40
 70
     1
102
RTVSPost2010Prop41ColorIndex
 90
       18
102
RTVSPost2010Prop41ColorRGB
 90
        0
102
RTVSPost2010PropOp41
 70
     1
102
RTVSPost2010Prop42
 90
       50
102
RTVSPost2010PropOp42
 70
     1
102
RTVSPost2010Prop43
 90
        3
102
RTVSPost2010PropOp43
 70
     1
102
RTVSPost2010Prop44ColorIndex
 90
        5
102
RTVSPost2010Prop44ColorRGB
 90
      255
102
RTVSPost2010PropOp44
 70
     1
102
RTVSPost2010Prop45
280
     0
102
RTVSPost2010PropOp45
 70
     1
102
RTVSPost2010Prop46
 90
       50
102
RTVSPost2010PropOp46
 70
     1
102
RTVSPost2010Prop47
 90
       50
102
RTVSPost2010PropOp47
 70
     1
102
RTVSPost2010Prop48
 90
       50
102
RTVSPost2010PropOp48
 70
     1
102
RTVSPost2010Prop49
280
     0
102
RTVSPost2010PropOp49
 70
     1
102
RTVSPost2010Prop50
 90
       50
102
RTVSPost2010PropOp50
 70
     1
102
RTVSPost2010Prop51ColorIndex
 90
      256
102
RTVSPost2010Prop51ColorRGB
 90
-16777216
102
RTVSPost2010PropOp51
 70
     0
102
RTVSPost2010Prop52
140
1.0
102
RTVSPost2010PropOp52
 70
     0
102
RTVSPost2010Prop53
 90
        2
102
RTVSPost2010PropOp53
 70
     1
102
RTVSPost2010Prop54
  1
strokes_ogs.tif
102
RTVSPost2010PropOp54
 70
     1
102
RTVSPost2010Prop55
280
     0
102
RTVSPost2010PropOp55
 70
     1
102
RTVSPost2010Prop56
140
1.0
102
RTVSPost2010PropOp56
 70
     1
102
RTVSPost2010Prop57
140
1.0
102
RTVSPost2010PropOp57
 70
     1
102
RTVSPropertyOp0
 70
     1
102
RTVSPropertyOp1
 70
     1
102
RTVSPropertyOp2
 70
     1
102
RTVSPropertyOp3
 70
     1
102
RTVSPropertyOp4
 70
     1
102
RTVSPropertyOp5
 70
     1
102
RTVSPropertyOp6
 70
     1
102
RTVSPropertyOp7
 70
     1
102
RTVSPropertyOp8
 70
     1
102
RTVSPropertyOp9
 70
     1
102
RTVSPropertyOp10
 70
     1
102
RTVSPropertyOp11
 70
     1
102
RTVSPropertyOp12
 70
     1
102
RTVSPropertyOp13
 70
     1
102
RTVSPropertyOp14
 70
     1
102
RTVSPropertyOp15
 70
     1
102
RTVSPropertyOp16
 70
     1
102
RTVSPropertyOp17
 70
     1
102
RTVSPropertyOp18
 70
     1
102
RTVSPropertyOp19
 70
     1
102
RTVSPropertyOp20
 70
     1
102
RTVSPropertyOp21
 70
     1
102
RTVSPropertyOp22
 70
     1
102
RTVSPropertyOp23
 70
     1
102
RTVSPropertyOp24
 70
     1
102
RTVSPropertyOp25
 70
     1
102
RTVSPropertyOp26
 70
     1
102
RTVSPropertyOp27
 70
     1
102
RTVSPropertyOp28
 70
     1
102
RTVSPropertyOp29
 70
     1
102
RTVSPropertyOp30
 70
     1
102
RTVSPropertyOp31
 70
     1
102
RTVSPropertyOp32
 70
     1
102
RTVSPropertyOp33
 70
     1
102
RTVSPropertyOp34
 70
     1
102
RTVSPropertyOp35
 70
     1
102
RTVSPropertyOp36
 70
     1
102
RTVSPropertyOp37
 70
     1
102
RTVSPropertyOp38
 70
     1
102
RTVSPropertyOp39
 70
     1
102
RTVSPropertyOp40
 70
     1
102
RTVSPropertyOp41
 70
     1
102
RTVSPropertyOp42
 70
     1
102
RTVSPropertyOp43
 70
     1
102
RTVSPropertyOp44
 70
     1
102
RTVSPropertyOp45
 70
     1
102
RTVSPropertyOp46
 70
     1
102
RTVSPropertyOp47
 70
     1
102
RTVSPropertyOp48
 70
     1
102
RTVSPropertyOp49
 70
     1
102
RTVSPropertyOp50
 70
     1
102
RTVSPropertyOp51
 70
     0
102
RTVSPropertyOp52
 70
     0
102
RTVSPropertyOp53
 70
     1
102
RTVSPropertyOp54
 70
     1
102
RTVSPropertyOp55
 70
     1
102
RTVSPropertyOp56
 70
     1
102
RTVSPropertyOp57
 70
     1
102
RTVSPropertyOp58
 70
     1
102
RTVSPropertyOp59
 70
     1
102
RTVSPropertyOp60
 70
     1
102
RTVSPropertyOp61
 70
     1
102
RTVSPropertyOp62
 70
     1
  0
XRECORD
  5
995D7
102
{ACAD_REACTORS
330
995D6
102
}
330
995D6
100
AcDbXrecord
280
     1
102
RTVSPost2010Prop28
280
     0
102
RTVSPost2010PropOp28
 70
     1
102
RTVSPost2010Prop29
280
     1
102
RTVSPost2010PropOp29
 70
     1
102
RTVSPost2010Prop30
280
     1
102
RTVSPost2010PropOp30
 70
     1
102
RTVSPost2010Prop31
280
     0
102
RTVSPost2010PropOp31
 70
     1
102
RTVSPost2010Prop32
280
     0
102
RTVSPost2010PropOp32
 70
     1
102
RTVSPost2010Prop33
280
     0
102
RTVSPost2010PropOp33
 70
     1
102
RTVSPost2010Prop34
280
     0
102
RTVSPost2010PropOp34
 70
     1
102
RTVSPost2010Prop35
280
     0
102
RTVSPost2010PropOp35
 70
     1
102
RTVSPost2010Prop36
280
     0
102
RTVSPost2010PropOp36
 70
     1
102
RTVSPost2010Prop37
 90
       50
102
RTVSPost2010PropOp37
 70
     1
102
RTVSPost2010Prop38
140
0.0
102
RTVSPost2010PropOp38
 70
     1
102
RTVSPost2010Prop39
140
1.0
102
RTVSPost2010PropOp39
 70
     1
102
RTVSPost2010Prop40
 90
        0
102
RTVSPost2010PropOp40
 70
     1
102
RTVSPost2010Prop41ColorIndex
 90
       18
102
RTVSPost2010Prop41ColorRGB
 90
        0
102
RTVSPost2010PropOp41
 70
     1
102
RTVSPost2010Prop42
 90
       50
102
RTVSPost2010PropOp42
 70
     1
102
RTVSPost2010Prop43
 90
        3
102
RTVSPost2010PropOp43
 70
     1
102
RTVSPost2010Prop44ColorIndex
 90
        5
102
RTVSPost2010Prop44ColorRGB
 90
      255
102
RTVSPost2010PropOp44
 70
     1
102
RTVSPost2010Prop45
280
     0
102
RTVSPost2010PropOp45
 70
     1
102
RTVSPost2010Prop46
 90
       50
102
RTVSPost2010PropOp46
 70
     1
102
RTVSPost2010Prop47
 90
       50
102
RTVSPost2010PropOp47
 70
     1
102
RTVSPost2010Prop48
 90
       50
102
RTVSPost2010PropOp48
 70
     1
102
RTVSPost2010Prop49
280
     0
102
RTVSPost2010PropOp49
 70
     1
102
RTVSPost2010Prop50
 90
       50
102
RTVSPost2010PropOp50
 70
     1
102
RTVSPost2010Prop51ColorIndex
 90
      256
102
RTVSPost2010Prop51ColorRGB
 90
-16777216
102
RTVSPost2010PropOp51
 70
     0
102
RTVSPost2010Prop52
140
1.0
102
RTVSPost2010PropOp52
 70
     0
102
RTVSPost2010Prop53
 90
        2
102
RTVSPost2010PropOp53
 70
     1
102
RTVSPost2010Prop54
  1
strokes_ogs.tif
102
RTVSPost2010PropOp54
 70
     1
102
RTVSPost2010Prop55
280
     0
102
RTVSPost2010PropOp55
 70
     1
102
RTVSPost2010Prop56
140
1.0
102
RTVSPost2010PropOp56
 70
     1
102
RTVSPost2010Prop57
140
1.0
102
RTVSPost2010PropOp57
 70
     1
102
RTVSPropertyOp0
 70
     1
102
RTVSPropertyOp1
 70
     1
102
RTVSPropertyOp2
 70
     1
102
RTVSPropertyOp3
 70
     1
102
RTVSPropertyOp4
 70
     1
102
RTVSPropertyOp5
 70
     1
102
RTVSPropertyOp6
 70
     1
102
RTVSPropertyOp7
 70
     1
102
RTVSPropertyOp8
 70
     1
102
RTVSPropertyOp9
 70
     1
102
RTVSPropertyOp10
 70
     1
102
RTVSPropertyOp11
 70
     1
102
RTVSPropertyOp12
 70
     1
102
RTVSPropertyOp13
 70
     1
102
RTVSPropertyOp14
 70
     1
102
RTVSPropertyOp15
 70
     1
102
RTVSPropertyOp16
 70
     1
102
RTVSPropertyOp17
 70
     1
102
RTVSPropertyOp18
 70
     1
102
RTVSPropertyOp19
 70
     1
102
RTVSPropertyOp20
 70
     1
102
RTVSPropertyOp21
 70
     1
102
RTVSPropertyOp22
 70
     1
102
RTVSPropertyOp23
 70
     1
102
RTVSPropertyOp24
 70
     1
102
RTVSPropertyOp25
 70
     1
102
RTVSPropertyOp26
 70
     1
102
RTVSPropertyOp27
 70
     1
102
RTVSPropertyOp28
 70
     1
102
RTVSPropertyOp29
 70
     1
102
RTVSPropertyOp30
 70
     1
102
RTVSPropertyOp31
 70
     1
102
RTVSPropertyOp32
 70
     1
102
RTVSPropertyOp33
 70
     1
102
RTVSPropertyOp34
 70
     1
102
RTVSPropertyOp35
 70
     1
102
RTVSPropertyOp36
 70
     1
102
RTVSPropertyOp37
 70
     1
102
RTVSPropertyOp38
 70
     1
102
RTVSPropertyOp39
 70
     1
102
RTVSPropertyOp40
 70
     1
102
RTVSPropertyOp41
 70
     1
102
RTVSPropertyOp42
 70
     1
102
RTVSPropertyOp43
 70
     1
102
RTVSPropertyOp44
 70
     1
102
RTVSPropertyOp45
 70
     1
102
RTVSPropertyOp46
 70
     1
102
RTVSPropertyOp47
 70
     1
102
RTVSPropertyOp48
 70
     1
102
RTVSPropertyOp49
 70
     1
102
RTVSPropertyOp50
 70
     1
102
RTVSPropertyOp51
 70
     0
102
RTVSPropertyOp52
 70
     0
102
RTVSPropertyOp53
 70
     1
102
RTVSPropertyOp54
 70
     1
102
RTVSPropertyOp55
 70
     1
102
RTVSPropertyOp56
 70
     1
102
RTVSPropertyOp57
 70
     1
102
RTVSPropertyOp58
 70
     1
102
RTVSPropertyOp59
 70
     1
102
RTVSPropertyOp60
 70
     1
102
RTVSPropertyOp61
 70
     1
102
RTVSPropertyOp62
 70
     1
  0
XRECORD
  5
995D9
102
{ACAD_REACTORS
330
995D8
102
}
330
995D8
100
AcDbXrecord
280
     1
102
RTVSPost2010Prop28
280
     0
102
RTVSPost2010PropOp28
 70
     1
102
RTVSPost2010Prop29
280
     1
102
RTVSPost2010PropOp29
 70
     1
102
RTVSPost2010Prop30
280
     1
102
RTVSPost2010PropOp30
 70
     1
102
RTVSPost2010Prop31
280
     0
102
RTVSPost2010PropOp31
 70
     1
102
RTVSPost2010Prop32
280
     0
102
RTVSPost2010PropOp32
 70
     1
102
RTVSPost2010Prop33
280
     0
102
RTVSPost2010PropOp33
 70
     1
102
RTVSPost2010Prop34
280
     0
102
RTVSPost2010PropOp34
 70
     1
102
RTVSPost2010Prop35
280
     0
102
RTVSPost2010PropOp35
 70
     1
102
RTVSPost2010Prop36
280
     0
102
RTVSPost2010PropOp36
 70
     1
102
RTVSPost2010Prop37
 90
       50
102
RTVSPost2010PropOp37
 70
     1
102
RTVSPost2010Prop38
140
0.0
102
RTVSPost2010PropOp38
 70
     1
102
RTVSPost2010Prop39
140
1.0
102
RTVSPost2010PropOp39
 70
     1
102
RTVSPost2010Prop40
 90
        0
102
RTVSPost2010PropOp40
 70
     1
102
RTVSPost2010Prop41ColorIndex
 90
       18
102
RTVSPost2010Prop41ColorRGB
 90
        0
102
RTVSPost2010PropOp41
 70
     1
102
RTVSPost2010Prop42
 90
       50
102
RTVSPost2010PropOp42
 70
     1
102
RTVSPost2010Prop43
 90
        3
102
RTVSPost2010PropOp43
 70
     1
102
RTVSPost2010Prop44ColorIndex
 90
        5
102
RTVSPost2010Prop44ColorRGB
 90
      255
102
RTVSPost2010PropOp44
 70
     1
102
RTVSPost2010Prop45
280
     0
102
RTVSPost2010PropOp45
 70
     1
102
RTVSPost2010Prop46
 90
       50
102
RTVSPost2010PropOp46
 70
     1
102
RTVSPost2010Prop47
 90
       50
102
RTVSPost2010PropOp47
 70
     1
102
RTVSPost2010Prop48
 90
       50
102
RTVSPost2010PropOp48
 70
     1
102
RTVSPost2010Prop49
280
     0
102
RTVSPost2010PropOp49
 70
     1
102
RTVSPost2010Prop50
 90
       50
102
RTVSPost2010PropOp50
 70
     1
102
RTVSPost2010Prop51ColorIndex
 90
      256
102
RTVSPost2010Prop51ColorRGB
 90
-16777216
102
RTVSPost2010PropOp51
 70
     0
102
RTVSPost2010Prop52
140
1.0
102
RTVSPost2010PropOp52
 70
     0
102
RTVSPost2010Prop53
 90
        2
102
RTVSPost2010PropOp53
 70
     1
102
RTVSPost2010Prop54
  1
strokes_ogs.tif
102
RTVSPost2010PropOp54
 70
     1
102
RTVSPost2010Prop55
280
     0
102
RTVSPost2010PropOp55
 70
     1
102
RTVSPost2010Prop56
140
1.0
102
RTVSPost2010PropOp56
 70
     1
102
RTVSPost2010Prop57
140
1.0
102
RTVSPost2010PropOp57
 70
     1
102
RTVSPropertyOp0
 70
     1
102
RTVSPropertyOp1
 70
     1
102
RTVSPropertyOp2
 70
     1
102
RTVSPropertyOp3
 70
     1
102
RTVSPropertyOp4
 70
     1
102
RTVSPropertyOp5
 70
     1
102
RTVSPropertyOp6
 70
     1
102
RTVSPropertyOp7
 70
     1
102
RTVSPropertyOp8
 70
     1
102
RTVSPropertyOp9
 70
     1
102
RTVSPropertyOp10
 70
     1
102
RTVSPropertyOp11
 70
     1
102
RTVSPropertyOp12
 70
     1
102
RTVSPropertyOp13
 70
     1
102
RTVSPropertyOp14
 70
     1
102
RTVSPropertyOp15
 70
     1
102
RTVSPropertyOp16
 70
     1
102
RTVSPropertyOp17
 70
     1
102
RTVSPropertyOp18
 70
     1
102
RTVSPropertyOp19
 70
     1
102
RTVSPropertyOp20
 70
     1
102
RTVSPropertyOp21
 70
     1
102
RTVSPropertyOp22
 70
     1
102
RTVSPropertyOp23
 70
     1
102
RTVSPropertyOp24
 70
     1
102
RTVSPropertyOp25
 70
     1
102
RTVSPropertyOp26
 70
     1
102
RTVSPropertyOp27
 70
     1
102
RTVSPropertyOp28
 70
     1
102
RTVSPropertyOp29
 70
     1
102
RTVSPropertyOp30
 70
     1
102
RTVSPropertyOp31
 70
     1
102
RTVSPropertyOp32
 70
     1
102
RTVSPropertyOp33
 70
     1
102
RTVSPropertyOp34
 70
     1
102
RTVSPropertyOp35
 70
     1
102
RTVSPropertyOp36
 70
     1
102
RTVSPropertyOp37
 70
     1
102
RTVSPropertyOp38
 70
     1
102
RTVSPropertyOp39
 70
     1
102
RTVSPropertyOp40
 70
     1
102
RTVSPropertyOp41
 70
     1
102
RTVSPropertyOp42
 70
     1
102
RTVSPropertyOp43
 70
     1
102
RTVSPropertyOp44
 70
     1
102
RTVSPropertyOp45
 70
     1
102
RTVSPropertyOp46
 70
     1
102
RTVSPropertyOp47
 70
     1
102
RTVSPropertyOp48
 70
     1
102
RTVSPropertyOp49
 70
     1
102
RTVSPropertyOp50
 70
     1
102
RTVSPropertyOp51
 70
     0
102
RTVSPropertyOp52
 70
     0
102
RTVSPropertyOp53
 70
     1
102
RTVSPropertyOp54
 70
     1
102
RTVSPropertyOp55
 70
     1
102
RTVSPropertyOp56
 70
     1
102
RTVSPropertyOp57
 70
     1
102
RTVSPropertyOp58
 70
     1
102
RTVSPropertyOp59
 70
     1
102
RTVSPropertyOp60
 70
     1
102
RTVSPropertyOp61
 70
     1
102
RTVSPropertyOp62
 70
     1
  0
XRECORD
  5
995F6
102
{ACAD_REACTORS
330
995F5
102
}
330
995F5
100
AcDbXrecord
280
     1
102
RTVSPost2010Prop28
280
     0
102
RTVSPost2010PropOp28
 70
     1
102
RTVSPost2010Prop29
280
     1
102
RTVSPost2010PropOp29
 70
     1
102
RTVSPost2010Prop30
280
     1
102
RTVSPost2010PropOp30
 70
     1
102
RTVSPost2010Prop31
280
     0
102
RTVSPost2010PropOp31
 70
     1
102
RTVSPost2010Prop32
280
     0
102
RTVSPost2010PropOp32
 70
     1
102
RTVSPost2010Prop33
280
     0
102
RTVSPost2010PropOp33
 70
     1
102
RTVSPost2010Prop34
280
     0
102
RTVSPost2010PropOp34
 70
     1
102
RTVSPost2010Prop35
280
     0
102
RTVSPost2010PropOp35
 70
     1
102
RTVSPost2010Prop36
280
     0
102
RTVSPost2010PropOp36
 70
     1
102
RTVSPost2010Prop37
 90
       50
102
RTVSPost2010PropOp37
 70
     1
102
RTVSPost2010Prop38
140
0.0
102
RTVSPost2010PropOp38
 70
     1
102
RTVSPost2010Prop39
140
1.0
102
RTVSPost2010PropOp39
 70
     1
102
RTVSPost2010Prop40
 90
        0
102
RTVSPost2010PropOp40
 70
     1
102
RTVSPost2010Prop41ColorIndex
 90
       18
102
RTVSPost2010Prop41ColorRGB
 90
        0
102
RTVSPost2010PropOp41
 70
     1
102
RTVSPost2010Prop42
 90
       50
102
RTVSPost2010PropOp42
 70
     1
102
RTVSPost2010Prop43
 90
        3
102
RTVSPost2010PropOp43
 70
     1
102
RTVSPost2010Prop44ColorIndex
 90
        5
102
RTVSPost2010Prop44ColorRGB
 90
      255
102
RTVSPost2010PropOp44
 70
     1
102
RTVSPost2010Prop45
280
     0
102
RTVSPost2010PropOp45
 70
     1
102
RTVSPost2010Prop46
 90
       50
102
RTVSPost2010PropOp46
 70
     1
102
RTVSPost2010Prop47
 90
       50
102
RTVSPost2010PropOp47
 70
     1
102
RTVSPost2010Prop48
 90
       50
102
RTVSPost2010PropOp48
 70
     1
102
RTVSPost2010Prop49
280
     0
102
RTVSPost2010PropOp49
 70
     1
102
RTVSPost2010Prop50
 90
       50
102
RTVSPost2010PropOp50
 70
     1
102
RTVSPost2010Prop51ColorIndex
 90
      256
102
RTVSPost2010Prop51ColorRGB
 90
-16777216
102
RTVSPost2010PropOp51
 70
     0
102
RTVSPost2010Prop52
140
1.0
102
RTVSPost2010PropOp52
 70
     0
102
RTVSPost2010Prop53
 90
        2
102
RTVSPost2010PropOp53
 70
     1
102
RTVSPost2010Prop54
  1
strokes_ogs.tif
102
RTVSPost2010PropOp54
 70
     1
102
RTVSPost2010Prop55
280
     0
102
RTVSPost2010PropOp55
 70
     1
102
RTVSPost2010Prop56
140
1.0
102
RTVSPost2010PropOp56
 70
     1
102
RTVSPost2010Prop57
140
1.0
102
RTVSPost2010PropOp57
 70
     1
102
RTVSPropertyOp0
 70
     1
102
RTVSPropertyOp1
 70
     1
102
RTVSPropertyOp2
 70
     1
102
RTVSPropertyOp3
 70
     1
102
RTVSPropertyOp4
 70
     1
102
RTVSPropertyOp5
 70
     1
102
RTVSPropertyOp6
 70
     1
102
RTVSPropertyOp7
 70
     1
102
RTVSPropertyOp8
 70
     1
102
RTVSPropertyOp9
 70
     1
102
RTVSPropertyOp10
 70
     1
102
RTVSPropertyOp11
 70
     1
102
RTVSPropertyOp12
 70
     1
102
RTVSPropertyOp13
 70
     1
102
RTVSPropertyOp14
 70
     1
102
RTVSPropertyOp15
 70
     1
102
RTVSPropertyOp16
 70
     1
102
RTVSPropertyOp17
 70
     1
102
RTVSPropertyOp18
 70
     1
102
RTVSPropertyOp19
 70
     1
102
RTVSPropertyOp20
 70
     1
102
RTVSPropertyOp21
 70
     1
102
RTVSPropertyOp22
 70
     1
102
RTVSPropertyOp23
 70
     1
102
RTVSPropertyOp24
 70
     1
102
RTVSPropertyOp25
 70
     1
102
RTVSPropertyOp26
 70
     1
102
RTVSPropertyOp27
 70
     1
102
RTVSPropertyOp28
 70
     1
102
RTVSPropertyOp29
 70
     1
102
RTVSPropertyOp30
 70
     1
102
RTVSPropertyOp31
 70
     1
102
RTVSPropertyOp32
 70
     1
102
RTVSPropertyOp33
 70
     1
102
RTVSPropertyOp34
 70
     1
102
RTVSPropertyOp35
 70
     1
102
RTVSPropertyOp36
 70
     1
102
RTVSPropertyOp37
 70
     1
102
RTVSPropertyOp38
 70
     1
102
RTVSPropertyOp39
 70
     1
102
RTVSPropertyOp40
 70
     1
102
RTVSPropertyOp41
 70
     1
102
RTVSPropertyOp42
 70
     1
102
RTVSPropertyOp43
 70
     1
102
RTVSPropertyOp44
 70
     1
102
RTVSPropertyOp45
 70
     1
102
RTVSPropertyOp46
 70
     1
102
RTVSPropertyOp47
 70
     1
102
RTVSPropertyOp48
 70
     1
102
RTVSPropertyOp49
 70
     1
102
RTVSPropertyOp50
 70
     1
102
RTVSPropertyOp51
 70
     0
102
RTVSPropertyOp52
 70
     0
102
RTVSPropertyOp53
 70
     1
102
RTVSPropertyOp54
 70
     1
102
RTVSPropertyOp55
 70
     1
102
RTVSPropertyOp56
 70
     1
102
RTVSPropertyOp57
 70
     1
102
RTVSPropertyOp58
 70
     1
102
RTVSPropertyOp59
 70
     1
102
RTVSPropertyOp60
 70
     1
102
RTVSPropertyOp61
 70
     1
102
RTVSPropertyOp62
 70
     1
  0
XRECORD
  5
99602
102
{ACAD_REACTORS
330
99601
102
}
330
99601
100
AcDbXrecord
280
     1
102
RTVSPost2010Prop28
280
     0
102
RTVSPost2010PropOp28
 70
     0
102
RTVSPost2010Prop29
280
     1
102
RTVSPost2010PropOp29
 70
     0
102
RTVSPost2010Prop30
280
     1
102
RTVSPost2010PropOp30
 70
     0
102
RTVSPost2010Prop31
280
     0
102
RTVSPost2010PropOp31
 70
     0
102
RTVSPost2010Prop32
280
     0
102
RTVSPost2010PropOp32
 70
     0
102
RTVSPost2010Prop33
280
     0
102
RTVSPost2010PropOp33
 70
     1
102
RTVSPost2010Prop34
280
     0
102
RTVSPost2010PropOp34
 70
     1
102
RTVSPost2010Prop35
280
     0
102
RTVSPost2010PropOp35
 70
     1
102
RTVSPost2010Prop36
280
     0
102
RTVSPost2010PropOp36
 70
     1
102
RTVSPost2010Prop37
 90
       50
102
RTVSPost2010PropOp37
 70
     1
102
RTVSPost2010Prop38
140
0.0
102
RTVSPost2010PropOp38
 70
     1
102
RTVSPost2010Prop39
140
1.0
102
RTVSPost2010PropOp39
 70
     1
102
RTVSPost2010Prop40
 90
        0
102
RTVSPost2010PropOp40
 70
     1
102
RTVSPost2010Prop41ColorIndex
 90
       18
102
RTVSPost2010Prop41ColorRGB
 90
        0
102
RTVSPost2010PropOp41
 70
     1
102
RTVSPost2010Prop42
 90
       50
102
RTVSPost2010PropOp42
 70
     1
102
RTVSPost2010Prop43
 90
        3
102
RTVSPost2010PropOp43
 70
     1
102
RTVSPost2010Prop44ColorIndex
 90
        5
102
RTVSPost2010Prop44ColorRGB
 90
      255
102
RTVSPost2010PropOp44
 70
     1
102
RTVSPost2010Prop45
280
     0
102
RTVSPost2010PropOp45
 70
     1
102
RTVSPost2010Prop46
 90
       50
102
RTVSPost2010PropOp46
 70
     1
102
RTVSPost2010Prop47
 90
       50
102
RTVSPost2010PropOp47
 70
     1
102
RTVSPost2010Prop48
 90
       50
102
RTVSPost2010PropOp48
 70
     1
102
RTVSPost2010Prop49
280
     0
102
RTVSPost2010PropOp49
 70
     1
102
RTVSPost2010Prop50
 90
       50
102
RTVSPost2010PropOp50
 70
     1
102
RTVSPost2010Prop51ColorIndex
 90
      256
102
RTVSPost2010Prop51ColorRGB
 90
-16777216
102
RTVSPost2010PropOp51
 70
     0
102
RTVSPost2010Prop52
140
1.0
102
RTVSPost2010PropOp52
 70
     0
102
RTVSPost2010Prop53
 90
        2
102
RTVSPost2010PropOp53
 70
     1
102
RTVSPost2010Prop54
  1
strokes_ogs.tif
102
RTVSPost2010PropOp54
 70
     1
102
RTVSPost2010Prop55
280
     0
102
RTVSPost2010PropOp55
 70
     1
102
RTVSPost2010Prop56
140
1.0
102
RTVSPost2010PropOp56
 70
     1
102
RTVSPost2010Prop57
140
1.0
102
RTVSPost2010PropOp57
 70
     1
102
RTVSPropertyOp0
 70
     0
102
RTVSPropertyOp1
 70
     0
102
RTVSPropertyOp2
 70
     0
102
RTVSPropertyOp3
 70
     0
102
RTVSPropertyOp4
 70
     0
102
RTVSPropertyOp5
 70
     0
102
RTVSPropertyOp6
 70
     0
102
RTVSPropertyOp7
 70
     0
102
RTVSPropertyOp8
 70
     0
102
RTVSPropertyOp9
 70
     0
102
RTVSPropertyOp10
 70
     0
102
RTVSPropertyOp11
 70
     0
102
RTVSPropertyOp12
 70
     0
102
RTVSPropertyOp13
 70
     0
102
RTVSPropertyOp14
 70
     2
102
RTVSPropertyOp15
 70
     0
102
RTVSPropertyOp16
 70
     0
102
RTVSPropertyOp17
 70
     0
102
RTVSPropertyOp18
 70
     0
102
RTVSPropertyOp19
 70
     0
102
RTVSPropertyOp20
 70
     0
102
RTVSPropertyOp21
 70
     0
102
RTVSPropertyOp22
 70
     0
102
RTVSPropertyOp23
 70
     0
102
RTVSPropertyOp24
 70
     0
102
RTVSPropertyOp25
 70
     0
102
RTVSPropertyOp26
 70
     0
102
RTVSPropertyOp27
 70
     0
102
RTVSPropertyOp28
 70
     0
102
RTVSPropertyOp29
 70
     0
102
RTVSPropertyOp30
 70
     0
102
RTVSPropertyOp31
 70
     0
102
RTVSPropertyOp32
 70
     0
102
RTVSPropertyOp33
 70
     1
102
RTVSPropertyOp34
 70
     1
102
RTVSPropertyOp35
 70
     1
102
RTVSPropertyOp36
 70
     1
102
RTVSPropertyOp37
 70
     1
102
RTVSPropertyOp38
 70
     1
102
RTVSPropertyOp39
 70
     1
102
RTVSPropertyOp40
 70
     1
102
RTVSPropertyOp41
 70
     1
102
RTVSPropertyOp42
 70
     1
102
RTVSPropertyOp43
 70
     1
102
RTVSPropertyOp44
 70
     1
102
RTVSPropertyOp45
 70
     1
102
RTVSPropertyOp46
 70
     1
102
RTVSPropertyOp47
 70
     1
102
RTVSPropertyOp48
 70
     1
102
RTVSPropertyOp49
 70
     1
102
RTVSPropertyOp50
 70
     1
102
RTVSPropertyOp51
 70
     0
102
RTVSPropertyOp52
 70
     0
102
RTVSPropertyOp53
 70
     1
102
RTVSPropertyOp54
 70
     1
102
RTVSPropertyOp55
 70
     1
102
RTVSPropertyOp56
 70
     1
102
RTVSPropertyOp57
 70
     1
102
RTVSPropertyOp58
 70
     1
102
RTVSPropertyOp59
 70
     1
102
RTVSPropertyOp60
 70
     1
102
RTVSPropertyOp61
 70
     1
102
RTVSPropertyOp62
 70
     1
  0
XRECORD
  5
995ED
102
{ACAD_REACTORS
330
995EC
102
}
330
995EC
100
AcDbXrecord
280
     1
102
RTVSPost2010Prop28
280
     0
102
RTVSPost2010PropOp28
 70
     1
102
RTVSPost2010Prop29
280
     1
102
RTVSPost2010PropOp29
 70
     1
102
RTVSPost2010Prop30
280
     1
102
RTVSPost2010PropOp30
 70
     1
102
RTVSPost2010Prop31
280
     0
102
RTVSPost2010PropOp31
 70
     1
102
RTVSPost2010Prop32
280
     0
102
RTVSPost2010PropOp32
 70
     1
102
RTVSPost2010Prop33
280
     0
102
RTVSPost2010PropOp33
 70
     1
102
RTVSPost2010Prop34
280
     0
102
RTVSPost2010PropOp34
 70
     1
102
RTVSPost2010Prop35
280
     0
102
RTVSPost2010PropOp35
 70
     1
102
RTVSPost2010Prop36
280
     0
102
RTVSPost2010PropOp36
 70
     1
102
RTVSPost2010Prop37
 90
       50
102
RTVSPost2010PropOp37
 70
     1
102
RTVSPost2010Prop38
140
0.0
102
RTVSPost2010PropOp38
 70
     1
102
RTVSPost2010Prop39
140
1.0
102
RTVSPost2010PropOp39
 70
     1
102
RTVSPost2010Prop40
 90
        0
102
RTVSPost2010PropOp40
 70
     1
102
RTVSPost2010Prop41ColorIndex
 90
       18
102
RTVSPost2010Prop41ColorRGB
 90
        0
102
RTVSPost2010PropOp41
 70
     1
102
RTVSPost2010Prop42
 90
       50
102
RTVSPost2010PropOp42
 70
     1
102
RTVSPost2010Prop43
 90
        3
102
RTVSPost2010PropOp43
 70
     1
102
RTVSPost2010Prop44ColorIndex
 90
        5
102
RTVSPost2010Prop44ColorRGB
 90
      255
102
RTVSPost2010PropOp44
 70
     1
102
RTVSPost2010Prop45
280
     0
102
RTVSPost2010PropOp45
 70
     1
102
RTVSPost2010Prop46
 90
       50
102
RTVSPost2010PropOp46
 70
     1
102
RTVSPost2010Prop47
 90
       50
102
RTVSPost2010PropOp47
 70
     1
102
RTVSPost2010Prop48
 90
       50
102
RTVSPost2010PropOp48
 70
     1
102
RTVSPost2010Prop49
280
     0
102
RTVSPost2010PropOp49
 70
     1
102
RTVSPost2010Prop50
 90
       50
102
RTVSPost2010PropOp50
 70
     1
102
RTVSPost2010Prop51ColorIndex
 90
      256
102
RTVSPost2010Prop51ColorRGB
 90
-16777216
102
RTVSPost2010PropOp51
 70
     0
102
RTVSPost2010Prop52
140
1.0
102
RTVSPost2010PropOp52
 70
     0
102
RTVSPost2010Prop53
 90
        2
102
RTVSPost2010PropOp53
 70
     1
102
RTVSPost2010Prop54
  1
strokes_ogs.tif
102
RTVSPost2010PropOp54
 70
     1
102
RTVSPost2010Prop55
280
     0
102
RTVSPost2010PropOp55
 70
     1
102
RTVSPost2010Prop56
140
1.0
102
RTVSPost2010PropOp56
 70
     1
102
RTVSPost2010Prop57
140
1.0
102
RTVSPost2010PropOp57
 70
     1
102
RTVSPropertyOp0
 70
     1
102
RTVSPropertyOp1
 70
     1
102
RTVSPropertyOp2
 70
     1
102
RTVSPropertyOp3
 70
     1
102
RTVSPropertyOp4
 70
     1
102
RTVSPropertyOp5
 70
     1
102
RTVSPropertyOp6
 70
     1
102
RTVSPropertyOp7
 70
     1
102
RTVSPropertyOp8
 70
     1
102
RTVSPropertyOp9
 70
     1
102
RTVSPropertyOp10
 70
     1
102
RTVSPropertyOp11
 70
     1
102
RTVSPropertyOp12
 70
     1
102
RTVSPropertyOp13
 70
     1
102
RTVSPropertyOp14
 70
     1
102
RTVSPropertyOp15
 70
     1
102
RTVSPropertyOp16
 70
     1
102
RTVSPropertyOp17
 70
     1
102
RTVSPropertyOp18
 70
     1
102
RTVSPropertyOp19
 70
     1
102
RTVSPropertyOp20
 70
     1
102
RTVSPropertyOp21
 70
     1
102
RTVSPropertyOp22
 70
     1
102
RTVSPropertyOp23
 70
     1
102
RTVSPropertyOp24
 70
     1
102
RTVSPropertyOp25
 70
     1
102
RTVSPropertyOp26
 70
     1
102
RTVSPropertyOp27
 70
     1
102
RTVSPropertyOp28
 70
     1
102
RTVSPropertyOp29
 70
     1
102
RTVSPropertyOp30
 70
     1
102
RTVSPropertyOp31
 70
     1
102
RTVSPropertyOp32
 70
     1
102
RTVSPropertyOp33
 70
     1
102
RTVSPropertyOp34
 70
     1
102
RTVSPropertyOp35
 70
     1
102
RTVSPropertyOp36
 70
     1
102
RTVSPropertyOp37
 70
     1
102
RTVSPropertyOp38
 70
     1
102
RTVSPropertyOp39
 70
     1
102
RTVSPropertyOp40
 70
     1
102
RTVSPropertyOp41
 70
     1
102
RTVSPropertyOp42
 70
     1
102
RTVSPropertyOp43
 70
     1
102
RTVSPropertyOp44
 70
     1
102
RTVSPropertyOp45
 70
     1
102
RTVSPropertyOp46
 70
     1
102
RTVSPropertyOp47
 70
     1
102
RTVSPropertyOp48
 70
     1
102
RTVSPropertyOp49
 70
     1
102
RTVSPropertyOp50
 70
     1
102
RTVSPropertyOp51
 70
     0
102
RTVSPropertyOp52
 70
     0
102
RTVSPropertyOp53
 70
     1
102
RTVSPropertyOp54
 70
     1
102
RTVSPropertyOp55
 70
     1
102
RTVSPropertyOp56
 70
     1
102
RTVSPropertyOp57
 70
     1
102
RTVSPropertyOp58
 70
     1
102
RTVSPropertyOp59
 70
     1
102
RTVSPropertyOp60
 70
     1
102
RTVSPropertyOp61
 70
     1
102
RTVSPropertyOp62
 70
     1
  0
XRECORD
  5
99604
102
{ACAD_REACTORS
330
99603
102
}
330
99603
100
AcDbXrecord
280
     1
102
RTVSPost2010Prop28
280
     0
102
RTVSPost2010PropOp28
 70
     0
102
RTVSPost2010Prop29
280
     1
102
RTVSPost2010PropOp29
 70
     0
102
RTVSPost2010Prop30
280
     1
102
RTVSPost2010PropOp30
 70
     0
102
RTVSPost2010Prop31
280
     0
102
RTVSPost2010PropOp31
 70
     0
102
RTVSPost2010Prop32
280
     0
102
RTVSPost2010PropOp32
 70
     0
102
RTVSPost2010Prop33
280
     0
102
RTVSPost2010PropOp33
 70
     1
102
RTVSPost2010Prop34
280
     0
102
RTVSPost2010PropOp34
 70
     1
102
RTVSPost2010Prop35
280
     0
102
RTVSPost2010PropOp35
 70
     1
102
RTVSPost2010Prop36
280
     0
102
RTVSPost2010PropOp36
 70
     1
102
RTVSPost2010Prop37
 90
       50
102
RTVSPost2010PropOp37
 70
     1
102
RTVSPost2010Prop38
140
0.0
102
RTVSPost2010PropOp38
 70
     1
102
RTVSPost2010Prop39
140
1.0
102
RTVSPost2010PropOp39
 70
     1
102
RTVSPost2010Prop40
 90
        0
102
RTVSPost2010PropOp40
 70
     1
102
RTVSPost2010Prop41ColorIndex
 90
       18
102
RTVSPost2010Prop41ColorRGB
 90
        0
102
RTVSPost2010PropOp41
 70
     1
102
RTVSPost2010Prop42
 90
       50
102
RTVSPost2010PropOp42
 70
     1
102
RTVSPost2010Prop43
 90
        3
102
RTVSPost2010PropOp43
 70
     1
102
RTVSPost2010Prop44ColorIndex
 90
        5
102
RTVSPost2010Prop44ColorRGB
 90
      255
102
RTVSPost2010PropOp44
 70
     1
102
RTVSPost2010Prop45
280
     0
102
RTVSPost2010PropOp45
 70
     1
102
RTVSPost2010Prop46
 90
       50
102
RTVSPost2010PropOp46
 70
     1
102
RTVSPost2010Prop47
 90
       50
102
RTVSPost2010PropOp47
 70
     1
102
RTVSPost2010Prop48
 90
       50
102
RTVSPost2010PropOp48
 70
     1
102
RTVSPost2010Prop49
280
     0
102
RTVSPost2010PropOp49
 70
     1
102
RTVSPost2010Prop50
 90
       50
102
RTVSPost2010PropOp50
 70
     1
102
RTVSPost2010Prop51ColorIndex
 90
      256
102
RTVSPost2010Prop51ColorRGB
 90
-16777216
102
RTVSPost2010PropOp51
 70
     0
102
RTVSPost2010Prop52
140
1.0
102
RTVSPost2010PropOp52
 70
     0
102
RTVSPost2010Prop53
 90
        2
102
RTVSPost2010PropOp53
 70
     1
102
RTVSPost2010Prop54
  1
strokes_ogs.tif
102
RTVSPost2010PropOp54
 70
     1
102
RTVSPost2010Prop55
280
     0
102
RTVSPost2010PropOp55
 70
     1
102
RTVSPost2010Prop56
140
1.0
102
RTVSPost2010PropOp56
 70
     1
102
RTVSPost2010Prop57
140
1.0
102
RTVSPost2010PropOp57
 70
     1
102
RTVSPropertyOp0
 70
     0
102
RTVSPropertyOp1
 70
     0
102
RTVSPropertyOp2
 70
     0
102
RTVSPropertyOp3
 70
     0
102
RTVSPropertyOp4
 70
     0
102
RTVSPropertyOp5
 70
     0
102
RTVSPropertyOp6
 70
     0
102
RTVSPropertyOp7
 70
     0
102
RTVSPropertyOp8
 70
     0
102
RTVSPropertyOp9
 70
     0
102
RTVSPropertyOp10
 70
     0
102
RTVSPropertyOp11
 70
     0
102
RTVSPropertyOp12
 70
     0
102
RTVSPropertyOp13
 70
     0
102
RTVSPropertyOp14
 70
     2
102
RTVSPropertyOp15
 70
     0
102
RTVSPropertyOp16
 70
     0
102
RTVSPropertyOp17
 70
     0
102
RTVSPropertyOp18
 70
     0
102
RTVSPropertyOp19
 70
     0
102
RTVSPropertyOp20
 70
     0
102
RTVSPropertyOp21
 70
     0
102
RTVSPropertyOp22
 70
     0
102
RTVSPropertyOp23
 70
     0
102
RTVSPropertyOp24
 70
     0
102
RTVSPropertyOp25
 70
     0
102
RTVSPropertyOp26
 70
     0
102
RTVSPropertyOp27
 70
     0
102
RTVSPropertyOp28
 70
     0
102
RTVSPropertyOp29
 70
     0
102
RTVSPropertyOp30
 70
     0
102
RTVSPropertyOp31
 70
     0
102
RTVSPropertyOp32
 70
     0
102
RTVSPropertyOp33
 70
     1
102
RTVSPropertyOp34
 70
     1
102
RTVSPropertyOp35
 70
     1
102
RTVSPropertyOp36
 70
     1
102
RTVSPropertyOp37
 70
     1
102
RTVSPropertyOp38
 70
     1
102
RTVSPropertyOp39
 70
     1
102
RTVSPropertyOp40
 70
     1
102
RTVSPropertyOp41
 70
     1
102
RTVSPropertyOp42
 70
     1
102
RTVSPropertyOp43
 70
     1
102
RTVSPropertyOp44
 70
     1
102
RTVSPropertyOp45
 70
     1
102
RTVSPropertyOp46
 70
     1
102
RTVSPropertyOp47
 70
     1
102
RTVSPropertyOp48
 70
     1
102
RTVSPropertyOp49
 70
     1
102
RTVSPropertyOp50
 70
     1
102
RTVSPropertyOp51
 70
     0
102
RTVSPropertyOp52
 70
     0
102
RTVSPropertyOp53
 70
     1
102
RTVSPropertyOp54
 70
     1
102
RTVSPropertyOp55
 70
     1
102
RTVSPropertyOp56
 70
     1
102
RTVSPropertyOp57
 70
     1
102
RTVSPropertyOp58
 70
     1
102
RTVSPropertyOp59
 70
     1
102
RTVSPropertyOp60
 70
     1
102
RTVSPropertyOp61
 70
     1
102
RTVSPropertyOp62
 70
     1
  0
XRECORD
  5
995E5
102
{ACAD_REACTORS
330
995E4
102
}
330
995E4
100
AcDbXrecord
280
     1
102
RTVSPost2010Prop28
280
     0
102
RTVSPost2010PropOp28
 70
     1
102
RTVSPost2010Prop29
280
     1
102
RTVSPost2010PropOp29
 70
     1
102
RTVSPost2010Prop30
280
     1
102
RTVSPost2010PropOp30
 70
     1
102
RTVSPost2010Prop31
280
     0
102
RTVSPost2010PropOp31
 70
     1
102
RTVSPost2010Prop32
280
     0
102
RTVSPost2010PropOp32
 70
     1
102
RTVSPost2010Prop33
280
     0
102
RTVSPost2010PropOp33
 70
     1
102
RTVSPost2010Prop34
280
     0
102
RTVSPost2010PropOp34
 70
     1
102
RTVSPost2010Prop35
280
     0
102
RTVSPost2010PropOp35
 70
     1
102
RTVSPost2010Prop36
280
     0
102
RTVSPost2010PropOp36
 70
     1
102
RTVSPost2010Prop37
 90
       50
102
RTVSPost2010PropOp37
 70
     1
102
RTVSPost2010Prop38
140
0.0
102
RTVSPost2010PropOp38
 70
     1
102
RTVSPost2010Prop39
140
1.0
102
RTVSPost2010PropOp39
 70
     1
102
RTVSPost2010Prop40
 90
        0
102
RTVSPost2010PropOp40
 70
     1
102
RTVSPost2010Prop41ColorIndex
 90
       18
102
RTVSPost2010Prop41ColorRGB
 90
        0
102
RTVSPost2010PropOp41
 70
     1
102
RTVSPost2010Prop42
 90
       50
102
RTVSPost2010PropOp42
 70
     1
102
RTVSPost2010Prop43
 90
        3
102
RTVSPost2010PropOp43
 70
     1
102
RTVSPost2010Prop44ColorIndex
 90
        5
102
RTVSPost2010Prop44ColorRGB
 90
      255
102
RTVSPost2010PropOp44
 70
     1
102
RTVSPost2010Prop45
280
     0
102
RTVSPost2010PropOp45
 70
     1
102
RTVSPost2010Prop46
 90
       50
102
RTVSPost2010PropOp46
 70
     1
102
RTVSPost2010Prop47
 90
       50
102
RTVSPost2010PropOp47
 70
     1
102
RTVSPost2010Prop48
 90
       50
102
RTVSPost2010PropOp48
 70
     1
102
RTVSPost2010Prop49
280
     0
102
RTVSPost2010PropOp49
 70
     1
102
RTVSPost2010Prop50
 90
       50
102
RTVSPost2010PropOp50
 70
     1
102
RTVSPost2010Prop51ColorIndex
 90
      256
102
RTVSPost2010Prop51ColorRGB
 90
-16777216
102
RTVSPost2010PropOp51
 70
     0
102
RTVSPost2010Prop52
140
1.0
102
RTVSPost2010PropOp52
 70
     0
102
RTVSPost2010Prop53
 90
        2
102
RTVSPost2010PropOp53
 70
     1
102
RTVSPost2010Prop54
  1
strokes_ogs.tif
102
RTVSPost2010PropOp54
 70
     1
102
RTVSPost2010Prop55
280
     0
102
RTVSPost2010PropOp55
 70
     1
102
RTVSPost2010Prop56
140
1.0
102
RTVSPost2010PropOp56
 70
     1
102
RTVSPost2010Prop57
140
1.0
102
RTVSPost2010PropOp57
 70
     1
102
RTVSPropertyOp0
 70
     1
102
RTVSPropertyOp1
 70
     1
102
RTVSPropertyOp2
 70
     1
102
RTVSPropertyOp3
 70
     1
102
RTVSPropertyOp4
 70
     1
102
RTVSPropertyOp5
 70
     1
102
RTVSPropertyOp6
 70
     1
102
RTVSPropertyOp7
 70
     1
102
RTVSPropertyOp8
 70
     1
102
RTVSPropertyOp9
 70
     1
102
RTVSPropertyOp10
 70
     1
102
RTVSPropertyOp11
 70
     1
102
RTVSPropertyOp12
 70
     1
102
RTVSPropertyOp13
 70
     1
102
RTVSPropertyOp14
 70
     1
102
RTVSPropertyOp15
 70
     1
102
RTVSPropertyOp16
 70
     1
102
RTVSPropertyOp17
 70
     1
102
RTVSPropertyOp18
 70
     1
102
RTVSPropertyOp19
 70
     1
102
RTVSPropertyOp20
 70
     1
102
RTVSPropertyOp21
 70
     1
102
RTVSPropertyOp22
 70
     1
102
RTVSPropertyOp23
 70
     1
102
RTVSPropertyOp24
 70
     1
102
RTVSPropertyOp25
 70
     1
102
RTVSPropertyOp26
 70
     1
102
RTVSPropertyOp27
 70
     1
102
RTVSPropertyOp28
 70
     1
102
RTVSPropertyOp29
 70
     1
102
RTVSPropertyOp30
 70
     1
102
RTVSPropertyOp31
 70
     1
102
RTVSPropertyOp32
 70
     1
102
RTVSPropertyOp33
 70
     1
102
RTVSPropertyOp34
 70
     1
102
RTVSPropertyOp35
 70
     1
102
RTVSPropertyOp36
 70
     1
102
RTVSPropertyOp37
 70
     1
102
RTVSPropertyOp38
 70
     1
102
RTVSPropertyOp39
 70
     1
102
RTVSPropertyOp40
 70
     1
102
RTVSPropertyOp41
 70
     1
102
RTVSPropertyOp42
 70
     1
102
RTVSPropertyOp43
 70
     1
102
RTVSPropertyOp44
 70
     1
102
RTVSPropertyOp45
 70
     1
102
RTVSPropertyOp46
 70
     1
102
RTVSPropertyOp47
 70
     1
102
RTVSPropertyOp48
 70
     1
102
RTVSPropertyOp49
 70
     1
102
RTVSPropertyOp50
 70
     1
102
RTVSPropertyOp51
 70
     0
102
RTVSPropertyOp52
 70
     0
102
RTVSPropertyOp53
 70
     1
102
RTVSPropertyOp54
 70
     1
102
RTVSPropertyOp55
 70
     1
102
RTVSPropertyOp56
 70
     1
102
RTVSPropertyOp57
 70
     1
102
RTVSPropertyOp58
 70
     1
102
RTVSPropertyOp59
 70
     1
102
RTVSPropertyOp60
 70
     1
102
RTVSPropertyOp61
 70
     1
102
RTVSPropertyOp62
 70
     1
  0
XRECORD
  5
99600
102
{ACAD_REACTORS
330
995FF
102
}
330
995FF
100
AcDbXrecord
280
     1
102
RTVSPost2010Prop28
280
     0
102
RTVSPost2010PropOp28
 70
     1
102
RTVSPost2010Prop29
280
     1
102
RTVSPost2010PropOp29
 70
     1
102
RTVSPost2010Prop30
280
     1
102
RTVSPost2010PropOp30
 70
     1
102
RTVSPost2010Prop31
280
     0
102
RTVSPost2010PropOp31
 70
     1
102
RTVSPost2010Prop32
280
     0
102
RTVSPost2010PropOp32
 70
     1
102
RTVSPost2010Prop33
280
     0
102
RTVSPost2010PropOp33
 70
     1
102
RTVSPost2010Prop34
280
     0
102
RTVSPost2010PropOp34
 70
     1
102
RTVSPost2010Prop35
280
     0
102
RTVSPost2010PropOp35
 70
     1
102
RTVSPost2010Prop36
280
     0
102
RTVSPost2010PropOp36
 70
     1
102
RTVSPost2010Prop37
 90
       50
102
RTVSPost2010PropOp37
 70
     1
102
RTVSPost2010Prop38
140
0.0
102
RTVSPost2010PropOp38
 70
     1
102
RTVSPost2010Prop39
140
1.0
102
RTVSPost2010PropOp39
 70
     1
102
RTVSPost2010Prop40
 90
        0
102
RTVSPost2010PropOp40
 70
     1
102
RTVSPost2010Prop41ColorIndex
 90
       18
102
RTVSPost2010Prop41ColorRGB
 90
        0
102
RTVSPost2010PropOp41
 70
     1
102
RTVSPost2010Prop42
 90
       50
102
RTVSPost2010PropOp42
 70
     1
102
RTVSPost2010Prop43
 90
        3
102
RTVSPost2010PropOp43
 70
     1
102
RTVSPost2010Prop44ColorIndex
 90
        5
102
RTVSPost2010Prop44ColorRGB
 90
      255
102
RTVSPost2010PropOp44
 70
     1
102
RTVSPost2010Prop45
280
     0
102
RTVSPost2010PropOp45
 70
     1
102
RTVSPost2010Prop46
 90
       50
102
RTVSPost2010PropOp46
 70
     1
102
RTVSPost2010Prop47
 90
       50
102
RTVSPost2010PropOp47
 70
     1
102
RTVSPost2010Prop48
 90
       50
102
RTVSPost2010PropOp48
 70
     1
102
RTVSPost2010Prop49
280
     0
102
RTVSPost2010PropOp49
 70
     1
102
RTVSPost2010Prop50
 90
       50
102
RTVSPost2010PropOp50
 70
     1
102
RTVSPost2010Prop51ColorIndex
 90
      256
102
RTVSPost2010Prop51ColorRGB
 90
-16777216
102
RTVSPost2010PropOp51
 70
     0
102
RTVSPost2010Prop52
140
1.0
102
RTVSPost2010PropOp52
 70
     0
102
RTVSPost2010Prop53
 90
        2
102
RTVSPost2010PropOp53
 70
     1
102
RTVSPost2010Prop54
  1
strokes_ogs.tif
102
RTVSPost2010PropOp54
 70
     1
102
RTVSPost2010Prop55
280
     0
102
RTVSPost2010PropOp55
 70
     1
102
RTVSPost2010Prop56
140
1.0
102
RTVSPost2010PropOp56
 70
     1
102
RTVSPost2010Prop57
140
1.0
102
RTVSPost2010PropOp57
 70
     1
102
RTVSPropertyOp0
 70
     1
102
RTVSPropertyOp1
 70
     1
102
RTVSPropertyOp2
 70
     1
102
RTVSPropertyOp3
 70
     1
102
RTVSPropertyOp4
 70
     1
102
RTVSPropertyOp5
 70
     1
102
RTVSPropertyOp6
 70
     1
102
RTVSPropertyOp7
 70
     1
102
RTVSPropertyOp8
 70
     1
102
RTVSPropertyOp9
 70
     1
102
RTVSPropertyOp10
 70
     1
102
RTVSPropertyOp11
 70
     1
102
RTVSPropertyOp12
 70
     1
102
RTVSPropertyOp13
 70
     1
102
RTVSPropertyOp14
 70
     1
102
RTVSPropertyOp15
 70
     1
102
RTVSPropertyOp16
 70
     1
102
RTVSPropertyOp17
 70
     1
102
RTVSPropertyOp18
 70
     1
102
RTVSPropertyOp19
 70
     1
102
RTVSPropertyOp20
 70
     1
102
RTVSPropertyOp21
 70
     1
102
RTVSPropertyOp22
 70
     1
102
RTVSPropertyOp23
 70
     1
102
RTVSPropertyOp24
 70
     1
102
RTVSPropertyOp25
 70
     1
102
RTVSPropertyOp26
 70
     1
102
RTVSPropertyOp27
 70
     1
102
RTVSPropertyOp28
 70
     1
102
RTVSPropertyOp29
 70
     1
102
RTVSPropertyOp30
 70
     1
102
RTVSPropertyOp31
 70
     1
102
RTVSPropertyOp32
 70
     1
102
RTVSPropertyOp33
 70
     1
102
RTVSPropertyOp34
 70
     1
102
RTVSPropertyOp35
 70
     1
102
RTVSPropertyOp36
 70
     1
102
RTVSPropertyOp37
 70
     1
102
RTVSPropertyOp38
 70
     1
102
RTVSPropertyOp39
 70
     1
102
RTVSPropertyOp40
 70
     1
102
RTVSPropertyOp41
 70
     1
102
RTVSPropertyOp42
 70
     1
102
RTVSPropertyOp43
 70
     1
102
RTVSPropertyOp44
 70
     1
102
RTVSPropertyOp45
 70
     1
102
RTVSPropertyOp46
 70
     1
102
RTVSPropertyOp47
 70
     1
102
RTVSPropertyOp48
 70
     1
102
RTVSPropertyOp49
 70
     1
102
RTVSPropertyOp50
 70
     1
102
RTVSPropertyOp51
 70
     0
102
RTVSPropertyOp52
 70
     0
102
RTVSPropertyOp53
 70
     1
102
RTVSPropertyOp54
 70
     1
102
RTVSPropertyOp55
 70
     1
102
RTVSPropertyOp56
 70
     1
102
RTVSPropertyOp57
 70
     1
102
RTVSPropertyOp58
 70
     1
102
RTVSPropertyOp59
 70
     1
102
RTVSPropertyOp60
 70
     1
102
RTVSPropertyOp61
 70
     1
102
RTVSPropertyOp62
 70
     1
  0
XRECORD
  5
995FE
102
{ACAD_REACTORS
330
995FD
102
}
330
995FD
100
AcDbXrecord
280
     1
102
RTVSPost2010Prop28
280
     0
102
RTVSPost2010PropOp28
 70
     1
102
RTVSPost2010Prop29
280
     1
102
RTVSPost2010PropOp29
 70
     1
102
RTVSPost2010Prop30
280
     1
102
RTVSPost2010PropOp30
 70
     1
102
RTVSPost2010Prop31
280
     0
102
RTVSPost2010PropOp31
 70
     1
102
RTVSPost2010Prop32
280
     0
102
RTVSPost2010PropOp32
 70
     1
102
RTVSPost2010Prop33
280
     0
102
RTVSPost2010PropOp33
 70
     1
102
RTVSPost2010Prop34
280
     0
102
RTVSPost2010PropOp34
 70
     1
102
RTVSPost2010Prop35
280
     0
102
RTVSPost2010PropOp35
 70
     1
102
RTVSPost2010Prop36
280
     0
102
RTVSPost2010PropOp36
 70
     1
102
RTVSPost2010Prop37
 90
       50
102
RTVSPost2010PropOp37
 70
     1
102
RTVSPost2010Prop38
140
0.0
102
RTVSPost2010PropOp38
 70
     1
102
RTVSPost2010Prop39
140
1.0
102
RTVSPost2010PropOp39
 70
     1
102
RTVSPost2010Prop40
 90
        0
102
RTVSPost2010PropOp40
 70
     1
102
RTVSPost2010Prop41ColorIndex
 90
       18
102
RTVSPost2010Prop41ColorRGB
 90
        0
102
RTVSPost2010PropOp41
 70
     1
102
RTVSPost2010Prop42
 90
       50
102
RTVSPost2010PropOp42
 70
     1
102
RTVSPost2010Prop43
 90
        3
102
RTVSPost2010PropOp43
 70
     1
102
RTVSPost2010Prop44ColorIndex
 90
        5
102
RTVSPost2010Prop44ColorRGB
 90
      255
102
RTVSPost2010PropOp44
 70
     1
102
RTVSPost2010Prop45
280
     0
102
RTVSPost2010PropOp45
 70
     1
102
RTVSPost2010Prop46
 90
       50
102
RTVSPost2010PropOp46
 70
     1
102
RTVSPost2010Prop47
 90
       50
102
RTVSPost2010PropOp47
 70
     1
102
RTVSPost2010Prop48
 90
       50
102
RTVSPost2010PropOp48
 70
     1
102
RTVSPost2010Prop49
280
     0
102
RTVSPost2010PropOp49
 70
     1
102
RTVSPost2010Prop50
 90
       50
102
RTVSPost2010PropOp50
 70
     1
102
RTVSPost2010Prop51ColorIndex
 90
      256
102
RTVSPost2010Prop51ColorRGB
 90
-16777216
102
RTVSPost2010PropOp51
 70
     0
102
RTVSPost2010Prop52
140
1.0
102
RTVSPost2010PropOp52
 70
     0
102
RTVSPost2010Prop53
 90
        2
102
RTVSPost2010PropOp53
 70
     1
102
RTVSPost2010Prop54
  1
strokes_ogs.tif
102
RTVSPost2010PropOp54
 70
     1
102
RTVSPost2010Prop55
280
     0
102
RTVSPost2010PropOp55
 70
     1
102
RTVSPost2010Prop56
140
1.0
102
RTVSPost2010PropOp56
 70
     1
102
RTVSPost2010Prop57
140
1.0
102
RTVSPost2010PropOp57
 70
     1
102
RTVSPropertyOp0
 70
     1
102
RTVSPropertyOp1
 70
     1
102
RTVSPropertyOp2
 70
     1
102
RTVSPropertyOp3
 70
     1
102
RTVSPropertyOp4
 70
     1
102
RTVSPropertyOp5
 70
     1
102
RTVSPropertyOp6
 70
     1
102
RTVSPropertyOp7
 70
     1
102
RTVSPropertyOp8
 70
     1
102
RTVSPropertyOp9
 70
     1
102
RTVSPropertyOp10
 70
     1
102
RTVSPropertyOp11
 70
     1
102
RTVSPropertyOp12
 70
     1
102
RTVSPropertyOp13
 70
     1
102
RTVSPropertyOp14
 70
     1
102
RTVSPropertyOp15
 70
     1
102
RTVSPropertyOp16
 70
     1
102
RTVSPropertyOp17
 70
     1
102
RTVSPropertyOp18
 70
     1
102
RTVSPropertyOp19
 70
     1
102
RTVSPropertyOp20
 70
     1
102
RTVSPropertyOp21
 70
     1
102
RTVSPropertyOp22
 70
     1
102
RTVSPropertyOp23
 70
     1
102
RTVSPropertyOp24
 70
     1
102
RTVSPropertyOp25
 70
     1
102
RTVSPropertyOp26
 70
     1
102
RTVSPropertyOp27
 70
     1
102
RTVSPropertyOp28
 70
     1
102
RTVSPropertyOp29
 70
     1
102
RTVSPropertyOp30
 70
     1
102
RTVSPropertyOp31
 70
     1
102
RTVSPropertyOp32
 70
     1
102
RTVSPropertyOp33
 70
     1
102
RTVSPropertyOp34
 70
     1
102
RTVSPropertyOp35
 70
     1
102
RTVSPropertyOp36
 70
     1
102
RTVSPropertyOp37
 70
     1
102
RTVSPropertyOp38
 70
     1
102
RTVSPropertyOp39
 70
     1
102
RTVSPropertyOp40
 70
     1
102
RTVSPropertyOp41
 70
     1
102
RTVSPropertyOp42
 70
     1
102
RTVSPropertyOp43
 70
     1
102
RTVSPropertyOp44
 70
     1
102
RTVSPropertyOp45
 70
     1
102
RTVSPropertyOp46
 70
     1
102
RTVSPropertyOp47
 70
     1
102
RTVSPropertyOp48
 70
     1
102
RTVSPropertyOp49
 70
     1
102
RTVSPropertyOp50
 70
     1
102
RTVSPropertyOp51
 70
     0
102
RTVSPropertyOp52
 70
     0
102
RTVSPropertyOp53
 70
     1
102
RTVSPropertyOp54
 70
     1
102
RTVSPropertyOp55
 70
     1
102
RTVSPropertyOp56
 70
     1
102
RTVSPropertyOp57
 70
     1
102
RTVSPropertyOp58
 70
     1
102
RTVSPropertyOp59
 70
     1
102
RTVSPropertyOp60
 70
     1
102
RTVSPropertyOp61
 70
     1
102
RTVSPropertyOp62
 70
     1
  0
XRECORD
  5
995F8
102
{ACAD_REACTORS
330
995F7
102
}
330
995F7
100
AcDbXrecord
280
     1
102
RTVSPost2010Prop28
280
     0
102
RTVSPost2010PropOp28
 70
     1
102
RTVSPost2010Prop29
280
     1
102
RTVSPost2010PropOp29
 70
     1
102
RTVSPost2010Prop30
280
     1
102
RTVSPost2010PropOp30
 70
     1
102
RTVSPost2010Prop31
280
     0
102
RTVSPost2010PropOp31
 70
     1
102
RTVSPost2010Prop32
280
     0
102
RTVSPost2010PropOp32
 70
     1
102
RTVSPost2010Prop33
280
     0
102
RTVSPost2010PropOp33
 70
     1
102
RTVSPost2010Prop34
280
     0
102
RTVSPost2010PropOp34
 70
     1
102
RTVSPost2010Prop35
280
     0
102
RTVSPost2010PropOp35
 70
     1
102
RTVSPost2010Prop36
280
     0
102
RTVSPost2010PropOp36
 70
     1
102
RTVSPost2010Prop37
 90
       50
102
RTVSPost2010PropOp37
 70
     1
102
RTVSPost2010Prop38
140
0.0
102
RTVSPost2010PropOp38
 70
     1
102
RTVSPost2010Prop39
140
1.0
102
RTVSPost2010PropOp39
 70
     1
102
RTVSPost2010Prop40
 90
        0
102
RTVSPost2010PropOp40
 70
     1
102
RTVSPost2010Prop41ColorIndex
 90
       18
102
RTVSPost2010Prop41ColorRGB
 90
        0
102
RTVSPost2010PropOp41
 70
     1
102
RTVSPost2010Prop42
 90
       50
102
RTVSPost2010PropOp42
 70
     1
102
RTVSPost2010Prop43
 90
        3
102
RTVSPost2010PropOp43
 70
     1
102
RTVSPost2010Prop44ColorIndex
 90
        5
102
RTVSPost2010Prop44ColorRGB
 90
      255
102
RTVSPost2010PropOp44
 70
     1
102
RTVSPost2010Prop45
280
     0
102
RTVSPost2010PropOp45
 70
     1
102
RTVSPost2010Prop46
 90
       50
102
RTVSPost2010PropOp46
 70
     1
102
RTVSPost2010Prop47
 90
       50
102
RTVSPost2010PropOp47
 70
     1
102
RTVSPost2010Prop48
 90
       50
102
RTVSPost2010PropOp48
 70
     1
102
RTVSPost2010Prop49
280
     0
102
RTVSPost2010PropOp49
 70
     1
102
RTVSPost2010Prop50
 90
       50
102
RTVSPost2010PropOp50
 70
     1
102
RTVSPost2010Prop51ColorIndex
 90
      256
102
RTVSPost2010Prop51ColorRGB
 90
-16777216
102
RTVSPost2010PropOp51
 70
     0
102
RTVSPost2010Prop52
140
1.0
102
RTVSPost2010PropOp52
 70
     0
102
RTVSPost2010Prop53
 90
        2
102
RTVSPost2010PropOp53
 70
     1
102
RTVSPost2010Prop54
  1
strokes_ogs.tif
102
RTVSPost2010PropOp54
 70
     1
102
RTVSPost2010Prop55
280
     0
102
RTVSPost2010PropOp55
 70
     1
102
RTVSPost2010Prop56
140
1.0
102
RTVSPost2010PropOp56
 70
     1
102
RTVSPost2010Prop57
140
1.0
102
RTVSPost2010PropOp57
 70
     1
102
RTVSPropertyOp0
 70
     1
102
RTVSPropertyOp1
 70
     1
102
RTVSPropertyOp2
 70
     1
102
RTVSPropertyOp3
 70
     1
102
RTVSPropertyOp4
 70
     1
102
RTVSPropertyOp5
 70
     1
102
RTVSPropertyOp6
 70
     1
102
RTVSPropertyOp7
 70
     1
102
RTVSPropertyOp8
 70
     1
102
RTVSPropertyOp9
 70
     1
102
RTVSPropertyOp10
 70
     1
102
RTVSPropertyOp11
 70
     1
102
RTVSPropertyOp12
 70
     1
102
RTVSPropertyOp13
 70
     1
102
RTVSPropertyOp14
 70
     1
102
RTVSPropertyOp15
 70
     1
102
RTVSPropertyOp16
 70
     1
102
RTVSPropertyOp17
 70
     1
102
RTVSPropertyOp18
 70
     1
102
RTVSPropertyOp19
 70
     1
102
RTVSPropertyOp20
 70
     1
102
RTVSPropertyOp21
 70
     1
102
RTVSPropertyOp22
 70
     1
102
RTVSPropertyOp23
 70
     1
102
RTVSPropertyOp24
 70
     1
102
RTVSPropertyOp25
 70
     1
102
RTVSPropertyOp26
 70
     1
102
RTVSPropertyOp27
 70
     1
102
RTVSPropertyOp28
 70
     1
102
RTVSPropertyOp29
 70
     1
102
RTVSPropertyOp30
 70
     1
102
RTVSPropertyOp31
 70
     1
102
RTVSPropertyOp32
 70
     1
102
RTVSPropertyOp33
 70
     1
102
RTVSPropertyOp34
 70
     1
102
RTVSPropertyOp35
 70
     1
102
RTVSPropertyOp36
 70
     1
102
RTVSPropertyOp37
 70
     1
102
RTVSPropertyOp38
 70
     1
102
RTVSPropertyOp39
 70
     1
102
RTVSPropertyOp40
 70
     1
102
RTVSPropertyOp41
 70
     1
102
RTVSPropertyOp42
 70
     1
102
RTVSPropertyOp43
 70
     1
102
RTVSPropertyOp44
 70
     1
102
RTVSPropertyOp45
 70
     1
102
RTVSPropertyOp46
 70
     1
102
RTVSPropertyOp47
 70
     1
102
RTVSPropertyOp48
 70
     1
102
RTVSPropertyOp49
 70
     1
102
RTVSPropertyOp50
 70
     1
102
RTVSPropertyOp51
 70
     0
102
RTVSPropertyOp52
 70
     0
102
RTVSPropertyOp53
 70
     1
102
RTVSPropertyOp54
 70
     1
102
RTVSPropertyOp55
 70
     1
102
RTVSPropertyOp56
 70
     1
102
RTVSPropertyOp57
 70
     1
102
RTVSPropertyOp58
 70
     1
102
RTVSPropertyOp59
 70
     1
102
RTVSPropertyOp60
 70
     1
102
RTVSPropertyOp61
 70
     1
102
RTVSPropertyOp62
 70
     1
  0
XRECORD
  5
995FA
102
{ACAD_REACTORS
330
995F9
102
}
330
995F9
100
AcDbXrecord
280
     1
102
RTVSPost2010Prop28
280
     0
102
RTVSPost2010PropOp28
 70
     1
102
RTVSPost2010Prop29
280
     1
102
RTVSPost2010PropOp29
 70
     1
102
RTVSPost2010Prop30
280
     1
102
RTVSPost2010PropOp30
 70
     1
102
RTVSPost2010Prop31
280
     0
102
RTVSPost2010PropOp31
 70
     1
102
RTVSPost2010Prop32
280
     0
102
RTVSPost2010PropOp32
 70
     1
102
RTVSPost2010Prop33
280
     0
102
RTVSPost2010PropOp33
 70
     1
102
RTVSPost2010Prop34
280
     0
102
RTVSPost2010PropOp34
 70
     1
102
RTVSPost2010Prop35
280
     0
102
RTVSPost2010PropOp35
 70
     1
102
RTVSPost2010Prop36
280
     0
102
RTVSPost2010PropOp36
 70
     1
102
RTVSPost2010Prop37
 90
       50
102
RTVSPost2010PropOp37
 70
     1
102
RTVSPost2010Prop38
140
0.0
102
RTVSPost2010PropOp38
 70
     1
102
RTVSPost2010Prop39
140
1.0
102
RTVSPost2010PropOp39
 70
     1
102
RTVSPost2010Prop40
 90
        0
102
RTVSPost2010PropOp40
 70
     1
102
RTVSPost2010Prop41ColorIndex
 90
       18
102
RTVSPost2010Prop41ColorRGB
 90
        0
102
RTVSPost2010PropOp41
 70
     1
102
RTVSPost2010Prop42
 90
       50
102
RTVSPost2010PropOp42
 70
     1
102
RTVSPost2010Prop43
 90
        3
102
RTVSPost2010PropOp43
 70
     1
102
RTVSPost2010Prop44ColorIndex
 90
        5
102
RTVSPost2010Prop44ColorRGB
 90
      255
102
RTVSPost2010PropOp44
 70
     1
102
RTVSPost2010Prop45
280
     0
102
RTVSPost2010PropOp45
 70
     1
102
RTVSPost2010Prop46
 90
       50
102
RTVSPost2010PropOp46
 70
     1
102
RTVSPost2010Prop47
 90
       50
102
RTVSPost2010PropOp47
 70
     1
102
RTVSPost2010Prop48
 90
       50
102
RTVSPost2010PropOp48
 70
     1
102
RTVSPost2010Prop49
280
     0
102
RTVSPost2010PropOp49
 70
     1
102
RTVSPost2010Prop50
 90
       50
102
RTVSPost2010PropOp50
 70
     1
102
RTVSPost2010Prop51ColorIndex
 90
      256
102
RTVSPost2010Prop51ColorRGB
 90
-16777216
102
RTVSPost2010PropOp51
 70
     0
102
RTVSPost2010Prop52
140
1.0
102
RTVSPost2010PropOp52
 70
     0
102
RTVSPost2010Prop53
 90
        2
102
RTVSPost2010PropOp53
 70
     1
102
RTVSPost2010Prop54
  1
strokes_ogs.tif
102
RTVSPost2010PropOp54
 70
     1
102
RTVSPost2010Prop55
280
     0
102
RTVSPost2010PropOp55
 70
     1
102
RTVSPost2010Prop56
140
1.0
102
RTVSPost2010PropOp56
 70
     1
102
RTVSPost2010Prop57
140
1.0
102
RTVSPost2010PropOp57
 70
     1
102
RTVSPropertyOp0
 70
     1
102
RTVSPropertyOp1
 70
     1
102
RTVSPropertyOp2
 70
     1
102
RTVSPropertyOp3
 70
     1
102
RTVSPropertyOp4
 70
     1
102
RTVSPropertyOp5
 70
     1
102
RTVSPropertyOp6
 70
     1
102
RTVSPropertyOp7
 70
     1
102
RTVSPropertyOp8
 70
     1
102
RTVSPropertyOp9
 70
     1
102
RTVSPropertyOp10
 70
     1
102
RTVSPropertyOp11
 70
     1
102
RTVSPropertyOp12
 70
     1
102
RTVSPropertyOp13
 70
     1
102
RTVSPropertyOp14
 70
     1
102
RTVSPropertyOp15
 70
     1
102
RTVSPropertyOp16
 70
     1
102
RTVSPropertyOp17
 70
     1
102
RTVSPropertyOp18
 70
     1
102
RTVSPropertyOp19
 70
     1
102
RTVSPropertyOp20
 70
     1
102
RTVSPropertyOp21
 70
     1
102
RTVSPropertyOp22
 70
     1
102
RTVSPropertyOp23
 70
     1
102
RTVSPropertyOp24
 70
     1
102
RTVSPropertyOp25
 70
     1
102
RTVSPropertyOp26
 70
     1
102
RTVSPropertyOp27
 70
     1
102
RTVSPropertyOp28
 70
     1
102
RTVSPropertyOp29
 70
     1
102
RTVSPropertyOp30
 70
     1
102
RTVSPropertyOp31
 70
     1
102
RTVSPropertyOp32
 70
     1
102
RTVSPropertyOp33
 70
     1
102
RTVSPropertyOp34
 70
     1
102
RTVSPropertyOp35
 70
     1
102
RTVSPropertyOp36
 70
     1
102
RTVSPropertyOp37
 70
     1
102
RTVSPropertyOp38
 70
     1
102
RTVSPropertyOp39
 70
     1
102
RTVSPropertyOp40
 70
     1
102
RTVSPropertyOp41
 70
     1
102
RTVSPropertyOp42
 70
     1
102
RTVSPropertyOp43
 70
     1
102
RTVSPropertyOp44
 70
     1
102
RTVSPropertyOp45
 70
     1
102
RTVSPropertyOp46
 70
     1
102
RTVSPropertyOp47
 70
     1
102
RTVSPropertyOp48
 70
     1
102
RTVSPropertyOp49
 70
     1
102
RTVSPropertyOp50
 70
     1
102
RTVSPropertyOp51
 70
     0
102
RTVSPropertyOp52
 70
     0
102
RTVSPropertyOp53
 70
     1
102
RTVSPropertyOp54
 70
     1
102
RTVSPropertyOp55
 70
     1
102
RTVSPropertyOp56
 70
     1
102
RTVSPropertyOp57
 70
     1
102
RTVSPropertyOp58
 70
     1
102
RTVSPropertyOp59
 70
     1
102
RTVSPropertyOp60
 70
     1
102
RTVSPropertyOp61
 70
     1
102
RTVSPropertyOp62
 70
     1
  0
XRECORD
  5
995EB
102
{ACAD_REACTORS
330
995EA
102
}
330
995EA
100
AcDbXrecord
280
     1
102
RTVSPost2010Prop28
280
     0
102
RTVSPost2010PropOp28
 70
     1
102
RTVSPost2010Prop29
280
     1
102
RTVSPost2010PropOp29
 70
     1
102
RTVSPost2010Prop30
280
     1
102
RTVSPost2010PropOp30
 70
     1
102
RTVSPost2010Prop31
280
     0
102
RTVSPost2010PropOp31
 70
     1
102
RTVSPost2010Prop32
280
     0
102
RTVSPost2010PropOp32
 70
     1
102
RTVSPost2010Prop33
280
     0
102
RTVSPost2010PropOp33
 70
     1
102
RTVSPost2010Prop34
280
     0
102
RTVSPost2010PropOp34
 70
     1
102
RTVSPost2010Prop35
280
     0
102
RTVSPost2010PropOp35
 70
     1
102
RTVSPost2010Prop36
280
     0
102
RTVSPost2010PropOp36
 70
     1
102
RTVSPost2010Prop37
 90
       50
102
RTVSPost2010PropOp37
 70
     1
102
RTVSPost2010Prop38
140
0.0
102
RTVSPost2010PropOp38
 70
     1
102
RTVSPost2010Prop39
140
1.0
102
RTVSPost2010PropOp39
 70
     1
102
RTVSPost2010Prop40
 90
        0
102
RTVSPost2010PropOp40
 70
     1
102
RTVSPost2010Prop41ColorIndex
 90
       18
102
RTVSPost2010Prop41ColorRGB
 90
        0
102
RTVSPost2010PropOp41
 70
     1
102
RTVSPost2010Prop42
 90
       50
102
RTVSPost2010PropOp42
 70
     1
102
RTVSPost2010Prop43
 90
        3
102
RTVSPost2010PropOp43
 70
     1
102
RTVSPost2010Prop44ColorIndex
 90
        5
102
RTVSPost2010Prop44ColorRGB
 90
      255
102
RTVSPost2010PropOp44
 70
     1
102
RTVSPost2010Prop45
280
     0
102
RTVSPost2010PropOp45
 70
     1
102
RTVSPost2010Prop46
 90
       50
102
RTVSPost2010PropOp46
 70
     1
102
RTVSPost2010Prop47
 90
       50
102
RTVSPost2010PropOp47
 70
     1
102
RTVSPost2010Prop48
 90
       50
102
RTVSPost2010PropOp48
 70
     1
102
RTVSPost2010Prop49
280
     0
102
RTVSPost2010PropOp49
 70
     1
102
RTVSPost2010Prop50
 90
       50
102
RTVSPost2010PropOp50
 70
     1
102
RTVSPost2010Prop51ColorIndex
 90
      256
102
RTVSPost2010Prop51ColorRGB
 90
-16777216
102
RTVSPost2010PropOp51
 70
     0
102
RTVSPost2010Prop52
140
1.0
102
RTVSPost2010PropOp52
 70
     0
102
RTVSPost2010Prop53
 90
        2
102
RTVSPost2010PropOp53
 70
     1
102
RTVSPost2010Prop54
  1
strokes_ogs.tif
102
RTVSPost2010PropOp54
 70
     1
102
RTVSPost2010Prop55
280
     0
102
RTVSPost2010PropOp55
 70
     1
102
RTVSPost2010Prop56
140
1.0
102
RTVSPost2010PropOp56
 70
     1
102
RTVSPost2010Prop57
140
1.0
102
RTVSPost2010PropOp57
 70
     1
102
RTVSPropertyOp0
 70
     1
102
RTVSPropertyOp1
 70
     1
102
RTVSPropertyOp2
 70
     1
102
RTVSPropertyOp3
 70
     1
102
RTVSPropertyOp4
 70
     1
102
RTVSPropertyOp5
 70
     1
102
RTVSPropertyOp6
 70
     1
102
RTVSPropertyOp7
 70
     1
102
RTVSPropertyOp8
 70
     1
102
RTVSPropertyOp9
 70
     1
102
RTVSPropertyOp10
 70
     1
102
RTVSPropertyOp11
 70
     1
102
RTVSPropertyOp12
 70
     1
102
RTVSPropertyOp13
 70
     1
102
RTVSPropertyOp14
 70
     1
102
RTVSPropertyOp15
 70
     1
102
RTVSPropertyOp16
 70
     1
102
RTVSPropertyOp17
 70
     1
102
RTVSPropertyOp18
 70
     1
102
RTVSPropertyOp19
 70
     1
102
RTVSPropertyOp20
 70
     1
102
RTVSPropertyOp21
 70
     1
102
RTVSPropertyOp22
 70
     1
102
RTVSPropertyOp23
 70
     1
102
RTVSPropertyOp24
 70
     1
102
RTVSPropertyOp25
 70
     1
102
RTVSPropertyOp26
 70
     1
102
RTVSPropertyOp27
 70
     1
102
RTVSPropertyOp28
 70
     1
102
RTVSPropertyOp29
 70
     1
102
RTVSPropertyOp30
 70
     1
102
RTVSPropertyOp31
 70
     1
102
RTVSPropertyOp32
 70
     1
102
RTVSPropertyOp33
 70
     1
102
RTVSPropertyOp34
 70
     1
102
RTVSPropertyOp35
 70
     1
102
RTVSPropertyOp36
 70
     1
102
RTVSPropertyOp37
 70
     1
102
RTVSPropertyOp38
 70
     1
102
RTVSPropertyOp39
 70
     1
102
RTVSPropertyOp40
 70
     1
102
RTVSPropertyOp41
 70
     1
102
RTVSPropertyOp42
 70
     1
102
RTVSPropertyOp43
 70
     1
102
RTVSPropertyOp44
 70
     1
102
RTVSPropertyOp45
 70
     1
102
RTVSPropertyOp46
 70
     1
102
RTVSPropertyOp47
 70
     1
102
RTVSPropertyOp48
 70
     1
102
RTVSPropertyOp49
 70
     1
102
RTVSPropertyOp50
 70
     1
102
RTVSPropertyOp51
 70
     0
102
RTVSPropertyOp52
 70
     0
102
RTVSPropertyOp53
 70
     1
102
RTVSPropertyOp54
 70
     1
102
RTVSPropertyOp55
 70
     1
102
RTVSPropertyOp56
 70
     1
102
RTVSPropertyOp57
 70
     1
102
RTVSPropertyOp58
 70
     1
102
RTVSPropertyOp59
 70
     1
102
RTVSPropertyOp60
 70
     1
102
RTVSPropertyOp61
 70
     1
102
RTVSPropertyOp62
 70
     1
  0
XRECORD
  5
995F4
102
{ACAD_REACTORS
330
995F3
102
}
330
995F3
100
AcDbXrecord
280
     1
102
RTVSPost2010Prop28
280
     0
102
RTVSPost2010PropOp28
 70
     1
102
RTVSPost2010Prop29
280
     1
102
RTVSPost2010PropOp29
 70
     1
102
RTVSPost2010Prop30
280
     1
102
RTVSPost2010PropOp30
 70
     1
102
RTVSPost2010Prop31
280
     0
102
RTVSPost2010PropOp31
 70
     1
102
RTVSPost2010Prop32
280
     0
102
RTVSPost2010PropOp32
 70
     1
102
RTVSPost2010Prop33
280
     0
102
RTVSPost2010PropOp33
 70
     1
102
RTVSPost2010Prop34
280
     0
102
RTVSPost2010PropOp34
 70
     1
102
RTVSPost2010Prop35
280
     0
102
RTVSPost2010PropOp35
 70
     1
102
RTVSPost2010Prop36
280
     0
102
RTVSPost2010PropOp36
 70
     1
102
RTVSPost2010Prop37
 90
       50
102
RTVSPost2010PropOp37
 70
     1
102
RTVSPost2010Prop38
140
0.0
102
RTVSPost2010PropOp38
 70
     1
102
RTVSPost2010Prop39
140
1.0
102
RTVSPost2010PropOp39
 70
     1
102
RTVSPost2010Prop40
 90
        0
102
RTVSPost2010PropOp40
 70
     1
102
RTVSPost2010Prop41ColorIndex
 90
       18
102
RTVSPost2010Prop41ColorRGB
 90
        0
102
RTVSPost2010PropOp41
 70
     1
102
RTVSPost2010Prop42
 90
       50
102
RTVSPost2010PropOp42
 70
     1
102
RTVSPost2010Prop43
 90
        3
102
RTVSPost2010PropOp43
 70
     1
102
RTVSPost2010Prop44ColorIndex
 90
        5
102
RTVSPost2010Prop44ColorRGB
 90
      255
102
RTVSPost2010PropOp44
 70
     1
102
RTVSPost2010Prop45
280
     0
102
RTVSPost2010PropOp45
 70
     1
102
RTVSPost2010Prop46
 90
       50
102
RTVSPost2010PropOp46
 70
     1
102
RTVSPost2010Prop47
 90
       50
102
RTVSPost2010PropOp47
 70
     1
102
RTVSPost2010Prop48
 90
       50
102
RTVSPost2010PropOp48
 70
     1
102
RTVSPost2010Prop49
280
     0
102
RTVSPost2010PropOp49
 70
     1
102
RTVSPost2010Prop50
 90
       50
102
RTVSPost2010PropOp50
 70
     1
102
RTVSPost2010Prop51ColorIndex
 90
      256
102
RTVSPost2010Prop51ColorRGB
 90
-16777216
102
RTVSPost2010PropOp51
 70
     0
102
RTVSPost2010Prop52
140
1.0
102
RTVSPost2010PropOp52
 70
     0
102
RTVSPost2010Prop53
 90
        2
102
RTVSPost2010PropOp53
 70
     1
102
RTVSPost2010Prop54
  1
strokes_ogs.tif
102
RTVSPost2010PropOp54
 70
     1
102
RTVSPost2010Prop55
280
     0
102
RTVSPost2010PropOp55
 70
     1
102
RTVSPost2010Prop56
140
1.0
102
RTVSPost2010PropOp56
 70
     1
102
RTVSPost2010Prop57
140
1.0
102
RTVSPost2010PropOp57
 70
     1
102
RTVSPropertyOp0
 70
     1
102
RTVSPropertyOp1
 70
     1
102
RTVSPropertyOp2
 70
     1
102
RTVSPropertyOp3
 70
     1
102
RTVSPropertyOp4
 70
     1
102
RTVSPropertyOp5
 70
     1
102
RTVSPropertyOp6
 70
     1
102
RTVSPropertyOp7
 70
     1
102
RTVSPropertyOp8
 70
     1
102
RTVSPropertyOp9
 70
     1
102
RTVSPropertyOp10
 70
     1
102
RTVSPropertyOp11
 70
     1
102
RTVSPropertyOp12
 70
     1
102
RTVSPropertyOp13
 70
     1
102
RTVSPropertyOp14
 70
     1
102
RTVSPropertyOp15
 70
     1
102
RTVSPropertyOp16
 70
     1
102
RTVSPropertyOp17
 70
     1
102
RTVSPropertyOp18
 70
     1
102
RTVSPropertyOp19
 70
     1
102
RTVSPropertyOp20
 70
     1
102
RTVSPropertyOp21
 70
     1
102
RTVSPropertyOp22
 70
     1
102
RTVSPropertyOp23
 70
     1
102
RTVSPropertyOp24
 70
     1
102
RTVSPropertyOp25
 70
     1
102
RTVSPropertyOp26
 70
     1
102
RTVSPropertyOp27
 70
     1
102
RTVSPropertyOp28
 70
     1
102
RTVSPropertyOp29
 70
     1
102
RTVSPropertyOp30
 70
     1
102
RTVSPropertyOp31
 70
     1
102
RTVSPropertyOp32
 70
     1
102
RTVSPropertyOp33
 70
     1
102
RTVSPropertyOp34
 70
     1
102
RTVSPropertyOp35
 70
     1
102
RTVSPropertyOp36
 70
     1
102
RTVSPropertyOp37
 70
     1
102
RTVSPropertyOp38
 70
     1
102
RTVSPropertyOp39
 70
     1
102
RTVSPropertyOp40
 70
     1
102
RTVSPropertyOp41
 70
     1
102
RTVSPropertyOp42
 70
     1
102
RTVSPropertyOp43
 70
     1
102
RTVSPropertyOp44
 70
     1
102
RTVSPropertyOp45
 70
     1
102
RTVSPropertyOp46
 70
     1
102
RTVSPropertyOp47
 70
     1
102
RTVSPropertyOp48
 70
     1
102
RTVSPropertyOp49
 70
     1
102
RTVSPropertyOp50
 70
     1
102
RTVSPropertyOp51
 70
     0
102
RTVSPropertyOp52
 70
     0
102
RTVSPropertyOp53
 70
     1
102
RTVSPropertyOp54
 70
     1
102
RTVSPropertyOp55
 70
     1
102
RTVSPropertyOp56
 70
     1
102
RTVSPropertyOp57
 70
     1
102
RTVSPropertyOp58
 70
     1
102
RTVSPropertyOp59
 70
     1
102
RTVSPropertyOp60
 70
     1
102
RTVSPropertyOp61
 70
     1
102
RTVSPropertyOp62
 70
     1
  0
XRECORD
  5
995FC
102
{ACAD_REACTORS
330
995FB
102
}
330
995FB
100
AcDbXrecord
280
     1
102
RTVSPost2010Prop28
280
     0
102
RTVSPost2010PropOp28
 70
     1
102
RTVSPost2010Prop29
280
     1
102
RTVSPost2010PropOp29
 70
     1
102
RTVSPost2010Prop30
280
     1
102
RTVSPost2010PropOp30
 70
     1
102
RTVSPost2010Prop31
280
     0
102
RTVSPost2010PropOp31
 70
     1
102
RTVSPost2010Prop32
280
     0
102
RTVSPost2010PropOp32
 70
     1
102
RTVSPost2010Prop33
280
     0
102
RTVSPost2010PropOp33
 70
     1
102
RTVSPost2010Prop34
280
     0
102
RTVSPost2010PropOp34
 70
     1
102
RTVSPost2010Prop35
280
     0
102
RTVSPost2010PropOp35
 70
     1
102
RTVSPost2010Prop36
280
     0
102
RTVSPost2010PropOp36
 70
     1
102
RTVSPost2010Prop37
 90
       50
102
RTVSPost2010PropOp37
 70
     1
102
RTVSPost2010Prop38
140
0.0
102
RTVSPost2010PropOp38
 70
     1
102
RTVSPost2010Prop39
140
1.0
102
RTVSPost2010PropOp39
 70
     1
102
RTVSPost2010Prop40
 90
        0
102
RTVSPost2010PropOp40
 70
     1
102
RTVSPost2010Prop41ColorIndex
 90
       18
102
RTVSPost2010Prop41ColorRGB
 90
        0
102
RTVSPost2010PropOp41
 70
     1
102
RTVSPost2010Prop42
 90
       50
102
RTVSPost2010PropOp42
 70
     1
102
RTVSPost2010Prop43
 90
        3
102
RTVSPost2010PropOp43
 70
     1
102
RTVSPost2010Prop44ColorIndex
 90
        5
102
RTVSPost2010Prop44ColorRGB
 90
      255
102
RTVSPost2010PropOp44
 70
     1
102
RTVSPost2010Prop45
280
     0
102
RTVSPost2010PropOp45
 70
     1
102
RTVSPost2010Prop46
 90
       50
102
RTVSPost2010PropOp46
 70
     1
102
RTVSPost2010Prop47
 90
       50
102
RTVSPost2010PropOp47
 70
     1
102
RTVSPost2010Prop48
 90
       50
102
RTVSPost2010PropOp48
 70
     1
102
RTVSPost2010Prop49
280
     0
102
RTVSPost2010PropOp49
 70
     1
102
RTVSPost2010Prop50
 90
       50
102
RTVSPost2010PropOp50
 70
     1
102
RTVSPost2010Prop51ColorIndex
 90
      256
102
RTVSPost2010Prop51ColorRGB
 90
-16777216
102
RTVSPost2010PropOp51
 70
     0
102
RTVSPost2010Prop52
140
1.0
102
RTVSPost2010PropOp52
 70
     0
102
RTVSPost2010Prop53
 90
        2
102
RTVSPost2010PropOp53
 70
     1
102
RTVSPost2010Prop54
  1
strokes_ogs.tif
102
RTVSPost2010PropOp54
 70
     1
102
RTVSPost2010Prop55
280
     0
102
RTVSPost2010PropOp55
 70
     1
102
RTVSPost2010Prop56
140
1.0
102
RTVSPost2010PropOp56
 70
     1
102
RTVSPost2010Prop57
140
1.0
102
RTVSPost2010PropOp57
 70
     1
102
RTVSPropertyOp0
 70
     1
102
RTVSPropertyOp1
 70
     1
102
RTVSPropertyOp2
 70
     1
102
RTVSPropertyOp3
 70
     1
102
RTVSPropertyOp4
 70
     1
102
RTVSPropertyOp5
 70
     1
102
RTVSPropertyOp6
 70
     1
102
RTVSPropertyOp7
 70
     1
102
RTVSPropertyOp8
 70
     1
102
RTVSPropertyOp9
 70
     1
102
RTVSPropertyOp10
 70
     1
102
RTVSPropertyOp11
 70
     1
102
RTVSPropertyOp12
 70
     1
102
RTVSPropertyOp13
 70
     1
102
RTVSPropertyOp14
 70
     1
102
RTVSPropertyOp15
 70
     1
102
RTVSPropertyOp16
 70
     1
102
RTVSPropertyOp17
 70
     1
102
RTVSPropertyOp18
 70
     1
102
RTVSPropertyOp19
 70
     1
102
RTVSPropertyOp20
 70
     1
102
RTVSPropertyOp21
 70
     1
102
RTVSPropertyOp22
 70
     1
102
RTVSPropertyOp23
 70
     1
102
RTVSPropertyOp24
 70
     1
102
RTVSPropertyOp25
 70
     1
102
RTVSPropertyOp26
 70
     1
102
RTVSPropertyOp27
 70
     1
102
RTVSPropertyOp28
 70
     1
102
RTVSPropertyOp29
 70
     1
102
RTVSPropertyOp30
 70
     1
102
RTVSPropertyOp31
 70
     1
102
RTVSPropertyOp32
 70
     1
102
RTVSPropertyOp33
 70
     1
102
RTVSPropertyOp34
 70
     1
102
RTVSPropertyOp35
 70
     1
102
RTVSPropertyOp36
 70
     1
102
RTVSPropertyOp37
 70
     1
102
RTVSPropertyOp38
 70
     1
102
RTVSPropertyOp39
 70
     1
102
RTVSPropertyOp40
 70
     1
102
RTVSPropertyOp41
 70
     1
102
RTVSPropertyOp42
 70
     1
102
RTVSPropertyOp43
 70
     1
102
RTVSPropertyOp44
 70
     1
102
RTVSPropertyOp45
 70
     1
102
RTVSPropertyOp46
 70
     1
102
RTVSPropertyOp47
 70
     1
102
RTVSPropertyOp48
 70
     1
102
RTVSPropertyOp49
 70
     1
102
RTVSPropertyOp50
 70
     1
102
RTVSPropertyOp51
 70
     0
102
RTVSPropertyOp52
 70
     0
102
RTVSPropertyOp53
 70
     1
102
RTVSPropertyOp54
 70
     1
102
RTVSPropertyOp55
 70
     1
102
RTVSPropertyOp56
 70
     1
102
RTVSPropertyOp57
 70
     1
102
RTVSPropertyOp58
 70
     1
102
RTVSPropertyOp59
 70
     1
102
RTVSPropertyOp60
 70
     1
102
RTVSPropertyOp61
 70
     1
102
RTVSPropertyOp62
 70
     1
  0
ENDSEC
  0
EOF
