  0
SECTION
  2
HEADER
  9
$ACADVER
  1
AC1015
  9
$ACADMAINTVER
 70
    20
  9
$DWGCODEPAGE
  3
ANSI_932
  9
$INSBASE
 10
0.0
 20
0.0
 30
0.0
  9
$EXTMIN
 10
-1409.804812014952
 20
-984.8183484568865
 30
0.0
  9
$EXTMAX
 10
1482.209105953543
 20
647.4288469291916
 30
0.0
  9
$LIMMIN
 10
-4267.152221060483
 20
-2696.083210198413
  9
$LIMMAX
 10
7190.717422586465
 20
5141.155363923066
  9
$ORTHOMODE
 70
     0
  9
$REGENMODE
 70
     1
  9
$FILLMODE
 70
     1
  9
$QTEXTMODE
 70
     0
  9
$MIRRTEXT
 70
     0
  9
$LTSCALE
 40
20.0
  9
$ATTMODE
 70
     1
  9
$TEXTSIZE
 40
53.0
  9
$TRACEWID
 40
0.05
  9
$TEXTSTYLE
  7
kaigai_standard_1
  9
$CLAYER
  8
NOTE
  9
$CELTYPE
  6
BYLAYER
  9
$CECOLOR
 62
   256
  9
$CELTSCALE
 40
1.0
  9
$DISPSILH
 70
     0
  9
$DIMSCALE
 40
1.0
  9
$DIMASZ
 40
30.0
  9
$DIMEXO
 40
20.0
  9
$DIMDLI
 40
80.0
  9
$DIMRND
 40
0.0
  9
$DIMDLE
 40
0.0
  9
$DIMEXE
 40
20.0
  9
$DIMTP
 40
0.0
  9
$DIMTM
 40
0.0
  9
$DIMTXT
 40
40.0
  9
$DIMCEN
 40
0.09
  9
$DIMTSZ
 40
0.0
  9
$DIMTOL
 70
     0
  9
$DIMLIM
 70
     0
  9
$DIMTIH
 70
     0
  9
$DIMTOH
 70
     0
  9
$DIMSE1
 70
     0
  9
$DIMSE2
 70
     0
  9
$DIMTAD
 70
     1
  9
$DIMZIN
 70
     8
  9
$DIMBLK
  1
Small
  9
$DIMASO
 70
     1
  9
$DIMSHO
 70
     0
  9
$DIMPOST
  1

  9
$DIMAPOST
  1

  9
$DIMALT
 70
     0
  9
$DIMALTD
 70
     2
  9
$DIMALTF
 40
25.4
  9
$DIMLFAC
 40
1.0
  9
$DIMTOFL
 70
     1
  9
$DIMTVP
 40
0.0
  9
$DIMTIX
 70
     0
  9
$DIMSOXD
 70
     0
  9
$DIMSAH
 70
     0
  9
$DIMBLK1
  1

  9
$DIMBLK2
  1

  9
$DIMSTYLE
  2
kaigai_CADSYMBOL
  9
$DIMCLRD
 70
     0
  9
$DIMCLRE
 70
     0
  9
$DIMCLRT
 70
     0
  9
$DIMTFAC
 40
1.0
  9
$DIMGAP
 40
20.0
  9
$DIMJUST
 70
     0
  9
$DIMSD1
 70
     0
  9
$DIMSD2
 70
     0
  9
$DIMTOLJ
 70
     1
  9
$DIMTZIN
 70
     0
  9
$DIMALTZ
 70
     0
  9
$DIMALTTZ
 70
     0
  9
$DIMUPT
 70
     0
  9
$DIMDEC
 70
     1
  9
$DIMTDEC
 70
     1
  9
$DIMALTU
 70
     2
  9
$DIMALTTD
 70
     2
  9
$DIMTXSTY
  7
STANDARD
  9
$DIMAUNIT
 70
     0
  9
$DIMADEC
 70
     0
  9
$DIMALTRND
 40
0.0
  9
$DIMAZIN
 70
     2
  9
$DIMDSEP
 70
    46
  9
$DIMATFIT
 70
     3
  9
$DIMFRAC
 70
     0
  9
$DIMLDRBLK
  1
Open30
  9
$DIMLUNIT
 70
     2
  9
$DIMLWD
 70
    -2
  9
$DIMLWE
 70
    -2
  9
$DIMTMOVE
 70
     0
  9
$LUNITS
 70
     2
  9
$LUPREC
 70
     4
  9
$SKETCHINC
 40
0.1
  9
$FILLETRAD
 40
0.0
  9
$AUNITS
 70
     1
  9
$AUPREC
 70
     3
  9
$MENU
  1
ACAD
  9
$ELEVATION
 40
0.0
  9
$PELEVATION
 40
0.0
  9
$THICKNESS
 40
0.0
  9
$LIMCHECK
 70
     0
  9
$CHAMFERA
 40
0.0
  9
$CHAMFERB
 40
0.0
  9
$CHAMFERC
 40
0.0
  9
$CHAMFERD
 40
0.0
  9
$SKPOLY
 70
     0
  9
$TDCREATE
 40
2455902.607164352
  9
$TDUCREATE
 40
2455902.232169063
  9
$TDUPDATE
 40
2460202.566412037
  9
$TDUUPDATE
 40
2460202.191412037
  9
$TDINDWG
 40
1.6468009375
  9
$TDUSRTIMER
 40
1.6467973264
  9
$USRTIMER
 70
     1
  9
$ANGBASE
 50
0.0
  9
$ANGDIR
 70
     0
  9
$PDMODE
 70
     3
  9
$PDSIZE
 40
-2.0
  9
$PLINEWID
 40
0.0
  9
$SPLFRAME
 70
     0
  9
$SPLINETYPE
 70
     6
  9
$SPLINESEGS
 70
     8
  9
$HANDSEED
  5
99663
  9
$SURFTAB1
 70
     6
  9
$SURFTAB2
 70
     6
  9
$SURFTYPE
 70
     6
  9
$SURFU
 70
     6
  9
$SURFV
 70
     6
  9
$UCSBASE
  2

  9
$UCSNAME
  2

  9
$UCSORG
 10
0.0
 20
0.0
 30
0.0
  9
$UCSXDIR
 10
1.0
 20
0.0
 30
0.0
  9
$UCSYDIR
 10
0.0
 20
1.0
 30
0.0
  9
$UCSORTHOREF
  2

  9
$UCSORTHOVIEW
 70
     0
  9
$UCSORGTOP
 10
0.0
 20
0.0
 30
0.0
  9
$UCSORGBOTTOM
 10
0.0
 20
0.0
 30
0.0
  9
$UCSORGLEFT
 10
0.0
 20
0.0
 30
0.0
  9
$UCSORGRIGHT
 10
0.0
 20
0.0
 30
0.0
  9
$UCSORGFRONT
 10
0.0
 20
0.0
 30
0.0
  9
$UCSORGBACK
 10
0.0
 20
0.0
 30
0.0
  9
$PUCSBASE
  2

  9
$PUCSNAME
  2

  9
$PUCSORG
 10
0.0
 20
0.0
 30
0.0
  9
$PUCSXDIR
 10
1.0
 20
0.0
 30
0.0
  9
$PUCSYDIR
 10
0.0
 20
1.0
 30
0.0
  9
$PUCSORTHOREF
  2

  9
$PUCSORTHOVIEW
 70
     0
  9
$PUCSORGTOP
 10
0.0
 20
0.0
 30
0.0
  9
$PUCSORGBOTTOM
 10
0.0
 20
0.0
 30
0.0
  9
$PUCSORGLEFT
 10
0.0
 20
0.0
 30
0.0
  9
$PUCSORGRIGHT
 10
0.0
 20
0.0
 30
0.0
  9
$PUCSORGFRONT
 10
0.0
 20
0.0
 30
0.0
  9
$PUCSORGBACK
 10
0.0
 20
0.0
 30
0.0
  9
$USERI1
 70
     0
  9
$USERI2
 70
     0
  9
$USERI3
 70
     0
  9
$USERI4
 70
     0
  9
$USERI5
 70
     0
  9
$USERR1
 40
20.0
  9
$USERR2
 40
0.0
  9
$USERR3
 40
0.0
  9
$USERR4
 40
0.0
  9
$USERR5
 40
0.0
  9
$WORLDVIEW
 70
     1
  9
$SHADEDGE
 70
     3
  9
$SHADEDIF
 70
    70
  9
$TILEMODE
 70
     1
  9
$MAXACTVP
 70
    48
  9
$PINSBASE
 10
0.0
 20
0.0
 30
0.0
  9
$PLIMCHECK
 70
     0
  9
$PEXTMIN
 10
1.000000000000000E+20
 20
1.000000000000000E+20
 30
1.000000000000000E+20
  9
$PEXTMAX
 10
-1.000000000000000E+20
 20
-1.000000000000000E+20
 30
-1.000000000000000E+20
  9
$PLIMMIN
 10
0.0
 20
0.0
  9
$PLIMMAX
 10
12.0
 20
9.0
  9
$UNITMODE
 70
     0
  9
$VISRETAIN
 70
     1
  9
$PLINEGEN
 70
     0
  9
$PSLTSCALE
 70
     1
  9
$TREEDEPTH
 70
  3020
  9
$CMLSTYLE
  2
STANDARD
  9
$CMLJUST
 70
     0
  9
$CMLSCALE
 40
1.0
  9
$PROXYGRAPHICS
 70
     1
  9
$MEASUREMENT
 70
     0
  9
$CELWEIGHT
370
    -1
  9
$ENDCAPS
280
     0
  9
$JOINSTYLE
280
     0
  9
$LWDISPLAY
290
     0
  9
$INSUNITS
 70
     0
  9
$HYPERLINKBASE
  1

  9
$STYLESHEET
  1
MONOCHROME.CTB
  9
$XEDIT
290
     1
  9
$CEPSNTYPE
380
     0
  9
$PSTYLEMODE
290
     1
  9
$FINGERPRINTGUID
  2
{E0B14F79-3871-45BD-B89A-A0F693FE2771}
  9
$VERSIONGUID
  2
{971A6449-6F83-4441-943A-0A82C854DB5F}
  9
$EXTNAMES
290
     1
  9
$PSVPSCALE
 40
0.0
  9
$OLESTARTUP
290
     0
  0
ENDSEC
  0
SECTION
  2
CLASSES
  0
CLASS
  1
ACDBDICTIONARYWDFLT
  2
AcDbDictionaryWithDefault
  3
ObjectDBX Classes
 90
        0
280
     0
281
     0
  0
CLASS
  1
ACDBPLACEHOLDER
  2
AcDbPlaceHolder
  3
ObjectDBX Classes
 90
        0
280
     0
281
     0
  0
CLASS
  1
LAYOUT
  2
AcDbLayout
  3
ObjectDBX Classes
 90
        0
280
     0
281
     0
  0
CLASS
  1
DICTIONARYVAR
  2
AcDbDictionaryVar
  3
ObjectDBX Classes
 90
        0
280
     0
281
     0
  0
CLASS
  1
SORTENTSTABLE
  2
AcDbSortentsTable
  3
ObjectDBX Classes
 90
        0
280
     0
281
     0
  0
CLASS
  1
MATERIAL
  2
AcDbMaterial
  3
ObjectDBX Classes
 90
     1153
280
     0
281
     0
  0
CLASS
  1
VISUALSTYLE
  2
AcDbVisualStyle
  3
ObjectDBX Classes
 90
     4095
280
     0
281
     0
  0
CLASS
  1
TABLESTYLE
  2
AcDbTableStyle
  3
ObjectDBX Classes
 90
     4095
280
     0
281
     0
  0
CLASS
  1
SCALE
  2
AcDbScale
  3
ObjectDBX Classes
 90
     1153
280
     0
281
     0
  0
CLASS
  1
MLEADERSTYLE
  2
AcDbMLeaderStyle
  3
ACDB_MLEADERSTYLE_CLASS
 90
     4095
280
     0
281
     0
  0
CLASS
  1
CELLSTYLEMAP
  2
AcDbCellStyleMap
  3
ObjectDBX Classes
 90
     1152
280
     0
281
     0
  0
CLASS
  1
ACARRAYJIGENTITY
  2
AcArrayJigEntity
  3
ACAD_ARRAY
 90
    32897
280
     0
281
     1
  0
CLASS
  1
ACDBASSOCNETWORK
  2
AcDbAssocNetwork
  3
ObjectDBX Classes
 90
    33793
280
     0
281
     0
  0
CLASS
  1
ACDBASSOCACTION
  2
AcDbAssocAction
  3
ObjectDBX Classes
 90
    33793
280
     0
281
     0
  0
CLASS
  1
ACDBASSOCARRAYACTIONBODY
  2
AcDbAssocArrayActionBody
  3
ObjectDBX Classes
 90
    33793
280
     0
281
     0
  0
CLASS
  1
ACDBASSOCVERTEXACTIONPARAM
  2
AcDbAssocVertexActionParam
  3
ObjectDBX Classes
 90
    33793
280
     0
281
     0
  0
CLASS
  1
ACDBASSOCDEPENDENCY
  2
AcDbAssocDependency
  3
ObjectDBX Classes
 90
    33793
280
     0
281
     0
  0
CLASS
  1
ACDBASSOCARRAYRECTANGULARPARAMETERS
  2
AcDbAssocArrayRectangularParameters
  3
ObjectDBX Classes
 90
    33793
280
     0
281
     0
  0
CLASS
  1
ACAD_EVALUATION_GRAPH
  2
AcDbEvalGraph
  3
ObjectDBX Classes
 90
    33921
280
     0
281
     0
  0
CLASS
  1
ACAECUSTOBJ
  2
AcAeEditorObj
  3
AcAeEditorObj
 90
    33792
280
     0
281
     0
  0
CLASS
  1
ACDB_DYNAMICBLOCKPURGEPREVENTER_VERSION
  2
AcDbDynamicBlockPurgePreventer
  3
ObjectDBX Classes
 90
    33921
280
     0
281
     0
  0
CLASS
  1
ACDBSECTIONVIEWSTYLE
  2
AcDbSectionViewStyle
  3
ObjectDBX Classes
 90
     1025
280
     0
281
     0
  0
CLASS
  1
ACDBDETAILVIEWSTYLE
  2
AcDbDetailViewStyle
  3
ObjectDBX Classes
 90
     1025
280
     0
281
     0
  0
ENDSEC
  0
SECTION
  2
TABLES
  0
TABLE
  2
VPORT
  5
8
102
{ACAD_XDICTIONARY
360
70D15
102
}
330
0
100
AcDbSymbolTable
 70
     1
  0
VPORT
  5
513CD
330
8
100
AcDbSymbolTableRecord
100
AcDbViewportTableRecord
  2
*Active
 70
     0
 10
0.0
 20
0.0
 11
1.0
 21
1.0
 12
289.7504624317798
 22
-168.5570112683508
 13
0.0
 23
0.0
 14
50.0
 24
50.0
 15
100.0
 25
100.0
 16
0.0
 26
0.0
 36
1.0
 17
0.0
 27
0.0
 37
0.0
 40
1646.280732246173
 41
2.151432469304229
 42
50.0
 43
0.0
 44
0.0
 50
0.0
 51
0.0
 71
     0
 72
  1000
 73
     1
 74
     0
 75
     0
 76
     0
 77
     0
 78
     0
281
     0
 65
     1
110
0.0
120
0.0
130
0.0
111
1.0
121
0.0
131
0.0
112
0.0
122
1.0
132
0.0
 79
     0
146
0.0
1001
ACAD_NAV_VCDISPLAY
1070
     3
  0
ENDTAB
  0
TABLE
  2
LTYPE
  5
5
330
0
100
AcDbSymbolTable
 70
     3
  0
LTYPE
  5
12
330
5
100
AcDbSymbolTableRecord
100
AcDbLinetypeTableRecord
  2
BYBLOCK
 70
     0
  3

 72
    65
 73
     0
 40
0.0
  0
LTYPE
  5
13
330
5
100
AcDbSymbolTableRecord
100
AcDbLinetypeTableRecord
  2
BYLAYER
 70
     0
  3

 72
    65
 73
     0
 40
0.0
  0
LTYPE
  5
14
330
5
100
AcDbSymbolTableRecord
100
AcDbLinetypeTableRecord
  2
CONTINUOUS
 70
     0
  3
実線
 72
    65
 73
     0
 40
0.0
  0
LTYPE
  5
1F
330
5
100
AcDbSymbolTableRecord
100
AcDbLinetypeTableRecord
  2
DASHDOT
 70
     0
  3
____ _ ____ _ ____ _ ____ _ ____ _ ____ _ ____
 72
    65
 73
     4
 40
5.5
 49
4.0
 74
     0
 49
-0.6
 74
     0
 49
0.3
 74
     0
 49
-0.6
 74
     0
  0
ENDTAB
  0
TABLE
  2
LAYER
  5
2
102
{ACAD_XDICTIONARY
360
5148D
102
}
330
0
100
AcDbSymbolTable
 70
    12
  0
LAYER
  5
E
102
{ACAD_XDICTIONARY
360
5144C
102
}
330
2
100
AcDbSymbolTableRecord
100
AcDbLayerTableRecord
  2
0
 70
     0
 62
     7
  6
CONTINUOUS
370
    -3
390
21F0
  0
LAYER
  5
25
102
{ACAD_XDICTIONARY
360
5144E
102
}
330
2
100
AcDbSymbolTableRecord
100
AcDbLayerTableRecord
  2
OUTLINE
 70
     0
 62
     3
  6
CONTINUOUS
370
    -3
390
21F0
  0
LAYER
  5
26
102
{ACAD_XDICTIONARY
360
51450
102
}
330
2
100
AcDbSymbolTableRecord
100
AcDbLayerTableRecord
  2
DETAIL
 70
     0
 62
     5
  6
CONTINUOUS
370
    -3
390
21F0
  0
LAYER
  5
27
102
{ACAD_XDICTIONARY
360
51452
102
}
330
2
100
AcDbSymbolTableRecord
100
AcDbLayerTableRecord
  2
BASIS
 70
     0
 62
     6
  6
DASHDOT
370
    -3
390
21F0
  0
LAYER
  5
28
102
{ACAD_XDICTIONARY
360
51454
102
}
330
2
100
AcDbSymbolTableRecord
100
AcDbLayerTableRecord
  2
SIZE
 70
     0
 62
    30
  6
CONTINUOUS
370
    -3
390
21F0
  0
LAYER
  5
29
102
{ACAD_XDICTIONARY
360
51456
102
}
330
2
100
AcDbSymbolTableRecord
100
AcDbLayerTableRecord
  2
NOTE
 70
     0
 62
     4
  6
CONTINUOUS
370
    -3
390
21F0
  0
LAYER
  5
2A
330
2
100
AcDbSymbolTableRecord
100
AcDbLayerTableRecord
  2
DEFPOINTS
 70
     0
 62
     7
  6
CONTINUOUS
290
     0
370
    -3
390
21F0
  0
LAYER
  5
2B
102
{ACAD_XDICTIONARY
360
51458
102
}
330
2
100
AcDbSymbolTableRecord
100
AcDbLayerTableRecord
  2
FIX
 70
     0
 62
    11
  6
CONTINUOUS
370
    -3
390
21F0
  0
LAYER
  5
2C
102
{ACAD_XDICTIONARY
360
5145A
102
}
330
2
100
AcDbSymbolTableRecord
100
AcDbLayerTableRecord
  2
ARRANGE
 70
     0
 62
     1
  6
CONTINUOUS
370
    -3
390
21F0
  0
LAYER
  5
2D
102
{ACAD_XDICTIONARY
360
5145C
102
}
330
2
100
AcDbSymbolTableRecord
100
AcDbLayerTableRecord
  2
ETC
 70
     0
 62
    61
  6
CONTINUOUS
370
    -3
390
21F0
  0
LAYER
  5
85433
102
{ACAD_XDICTIONARY
360
85434
102
}
330
2
100
AcDbSymbolTableRecord
100
AcDbLayerTableRecord
  2
SERVICESPACE
 70
     0
 62
     2
  6
DASHDOT
370
    -3
390
21F0
  0
LAYER
  5
85435
102
{ACAD_XDICTIONARY
360
85436
102
}
330
2
100
AcDbSymbolTableRecord
100
AcDbLayerTableRecord
  2
SYMBOLLINE
 70
     0
 62
    15
  6
CONTINUOUS
370
    -3
390
21F0
  0
ENDTAB
  0
TABLE
  2
STYLE
  5
3
330
0
100
AcDbSymbolTable
 70
     6
  0
STYLE
  5
F
330
3
100
AcDbSymbolTableRecord
100
AcDbTextStyleTableRecord
  2
STANDARD
 70
     0
 40
0.0
 41
0.9
 50
0.0
 71
     0
 42
64.0
  3
SIMPLEX
  4
BIGFONT
  0
STYLE
  5
30
330
3
100
AcDbSymbolTableRecord
100
AcDbTextStyleTableRecord
  2
STANDARD1
 70
     0
 40
60.0
 41
0.7
 50
0.0
 71
     0
 42
60.0
  3
MONOTXT.shx
  4
BIGFONT.shx
  0
STYLE
  5
51425
330
3
100
AcDbSymbolTableRecord
100
AcDbTextStyleTableRecord
  2
STANDARD_MODELNAME
 70
     0
 40
80.0
 41
0.8
 50
0.0
 71
     0
 42
64.0
  3
MONOTXT.shx
  4
BIGFONT.shx
  0
STYLE
  5
6FACE
330
3
100
AcDbSymbolTableRecord
100
AcDbTextStyleTableRecord
  2
kaigai_standard_1
 70
     0
 40
53.0
 41
0.51
 50
0.0
 71
     0
 42
53.0
  3
MONOTXT.shx
  4
BIGFONT.shx
  0
STYLE
  5
73585
330
3
100
AcDbSymbolTableRecord
100
AcDbTextStyleTableRecord
  2
ZU_SHPTB00001
 70
     0
 40
0.0
 41
1.0
 50
0.0
 71
     0
 42
0.0
  3
monotxt
  4
bigfont
  0
STYLE
  5
9924D
330
3
100
AcDbSymbolTableRecord
100
AcDbTextStyleTableRecord
  2
note
 70
     0
 40
0.0
 41
0.7
 50
0.0
 71
     0
 42
64.0
  3
SIMPLEX.shx
  4
BIGFONT.shx
  0
ENDTAB
  0
TABLE
  2
VIEW
  5
6
330
0
100
AcDbSymbolTable
 70
     1
  0
VIEW
  5
31
330
6
100
AcDbSymbolTableRecord
100
AcDbViewTableRecord
  2
ALL
 70
     0
 40
9000.0
 10
241.506647
 20
0.0
 41
12483.01
 11
0.0
 21
0.0
 31
1.0
 12
0.0
 22
0.0
 32
0.0
 42
50.0
 43
0.0
 44
0.0
 50
0.0
 71
     0
281
     0
 72
     0
  0
ENDTAB
  0
TABLE
  2
UCS
  5
7
330
0
100
AcDbSymbolTable
 70
     0
  0
ENDTAB
  0
TABLE
  2
APPID
  5
9
330
0
100
AcDbSymbolTable
 70
    17
  0
APPID
  5
10
330
9
100
AcDbSymbolTableRecord
100
AcDbRegAppTableRecord
  2
ACAD
 70
     0
  0
APPID
  5
51420
330
9
100
AcDbSymbolTableRecord
100
AcDbRegAppTableRecord
  2
ACAD_MLEADERVER
 70
     0
  0
APPID
  5
51424
330
9
100
AcDbSymbolTableRecord
100
AcDbRegAppTableRecord
  2
AcadAnnoPO
 70
     0
  0
APPID
  5
6B6C8
330
9
100
AcDbSymbolTableRecord
100
AcDbRegAppTableRecord
  2
ACAD_PSEXT
 70
     0
  0
APPID
  5
6CFAF
330
9
100
AcDbSymbolTableRecord
100
AcDbRegAppTableRecord
  2
ACAD_EXEMPT_FROM_CAD_STANDARDS
 70
     0
  0
APPID
  5
6E4A4
330
9
100
AcDbSymbolTableRecord
100
AcDbRegAppTableRecord
  2
ACAD_DSTYLE_DIMJAG
 70
     0
  0
APPID
  5
6E4A5
330
9
100
AcDbSymbolTableRecord
100
AcDbRegAppTableRecord
  2
ACAD_DSTYLE_DIMTALN
 70
     0
  0
APPID
  5
6EF6C
330
9
100
AcDbSymbolTableRecord
100
AcDbRegAppTableRecord
  2
ACAD_DSTYLE_DIMBREAK
 70
     0
  0
APPID
  5
70D0F
330
9
100
AcDbSymbolTableRecord
100
AcDbRegAppTableRecord
  2
ACAD_NAV_VCDISPLAY
 70
     0
  0
APPID
  5
990C9
330
9
100
AcDbSymbolTableRecord
100
AcDbRegAppTableRecord
  2
ACAUTHENVIRON
 70
     0
  0
APPID
  5
990CD
330
9
100
AcDbSymbolTableRecord
100
AcDbRegAppTableRecord
  2
AcDbDynamicBlockTrueName
 70
     0
  0
APPID
  5
990CE
330
9
100
AcDbSymbolTableRecord
100
AcDbRegAppTableRecord
  2
AcDbDynamicBlockGUID
 70
     0
  0
APPID
  5
9924F
330
9
100
AcDbSymbolTableRecord
100
AcDbRegAppTableRecord
  2
AcLayerTools
 70
     0
  0
APPID
  5
99613
330
9
100
AcDbSymbolTableRecord
100
AcDbRegAppTableRecord
  2
ACAD_DSTYLE_DIMARC_LENGTH_SYMBOL
 70
     0
  0
APPID
  5
99614
330
9
100
AcDbSymbolTableRecord
100
AcDbRegAppTableRecord
  2
ACAD_DSTYLE_DIM_LINETYPE
 70
     0
  0
APPID
  5
99615
330
9
100
AcDbSymbolTableRecord
100
AcDbRegAppTableRecord
  2
ACAD_DSTYLE_DIM_EXT1_LINETYPE
 70
     0
  0
APPID
  5
99616
330
9
100
AcDbSymbolTableRecord
100
AcDbRegAppTableRecord
  2
ACAD_DSTYLE_DIM_EXT2_LINETYPE
 70
     0
  0
ENDTAB
  0
TABLE
  2
DIMSTYLE
  5
A
330
0
100
AcDbSymbolTable
 70
     4
100
AcDbDimStyleTable
 71
     2
340
6EF6D
340
138
  0
DIMSTYLE
105
138
330
A
100
AcDbSymbolTableRecord
100
AcDbDimStyleTableRecord
  2
STANDARD
 70
     0
 73
     0
 74
     0
 77
     1
140
40.0
147
15.0
340
F
1001
ACAD_DSTYLE_DIMJAG
1070
   388
1040
1.5
1001
ACAD_DSTYLE_DIMTALN
1070
   392
1070
     0
  0
DIMSTYLE
105
6EF6D
330
A
100
AcDbSymbolTableRecord
100
AcDbDimStyleTableRecord
  2
kaigai_CADSYMBOL
 70
     0
 41
30.0
 42
20.0
 43
80.0
 44
20.0
 73
     0
 74
     0
 77
     1
 78
     8
 79
     2
140
40.0
147
20.0
172
     1
271
     1
272
     1
340
F
341
4C0C3
342
4C0BF
1001
ACAD_DSTYLE_DIMBREAK
1070
   391
1040
0.125
1001
ACAD_DSTYLE_DIMJAG
1070
   388
1040
1.5
1001
ACAD_DSTYLE_DIMTALN
1070
   392
1070
     0
  0
DIMSTYLE
105
7FE04
330
A
100
AcDbSymbolTableRecord
100
AcDbDimStyleTableRecord
  2
CADSYMBOL
 70
     0
 41
30.0
 42
20.0
 43
80.0
 44
20.0
 73
     0
 74
     0
 77
     1
 78
     8
 79
     2
140
60.0
147
20.0
172
     1
271
     1
272
     1
340
F
341
4C0C3
342
4C0BF
  0
DIMSTYLE
105
9924E
330
A
100
AcDbSymbolTableRecord
100
AcDbDimStyleTableRecord
  2
AM_ANSI
 70
     0
  4
mm
 41
0.12
 42
0.05
 43
0.5
 44
0.1
 47
0.1
 48
0.1
 78
     7
 79
     2
140
0.12
141
0.0
146
0.71
147
0.06
176
   256
177
   256
178
     2
274
     4
284
     7
340
F
371
    -1
372
    -1
1001
ACAD_DSTYLE_DIMARC_LENGTH_SYMBOL
1070
   379
1070
     1
1001
ACAD_DSTYLE_DIM_LINETYPE
1070
   380
1005
12
1001
ACAD_DSTYLE_DIM_EXT1_LINETYPE
1070
   381
1005
12
1001
ACAD_DSTYLE_DIM_EXT2_LINETYPE
1070
   382
1005
12
  0
ENDTAB
  0
TABLE
  2
BLOCK_RECORD
  5
1
330
0
100
AcDbSymbolTable
 70
     3
  0
BLOCK_RECORD
  5
18
102
{ACAD_XDICTIONARY
360
28B3
102
}
330
1
100
AcDbSymbolTableRecord
100
AcDbBlockTableRecord
  2
*MODEL_SPACE
340
21F3
  0
BLOCK_RECORD
  5
15
102
{ACAD_XDICTIONARY
360
29B6
102
}
330
1
100
AcDbSymbolTableRecord
100
AcDbBlockTableRecord
  2
*PAPER_SPACE
340
21F4
  0
BLOCK_RECORD
  5
4C0BF
330
1
100
AcDbSymbolTableRecord
100
AcDbBlockTableRecord
  2
_Small
340
0
  0
BLOCK_RECORD
  5
4C0C3
102
{ACAD_XDICTIONARY
360
990CA
102
}
330
1
100
AcDbSymbolTableRecord
100
AcDbBlockTableRecord
  2
_Open30
340
0
1001
AcDbDynamicBlockGUID
1000
{CF3FF556-EE00-416E-9104-4A9DDFC40C99}
  0
BLOCK_RECORD
  5
99250
102
{ACAD_XDICTIONARY
360
9940C
102
}
330
1
100
AcDbSymbolTableRecord
100
AcDbBlockTableRecord
  2
block
340
0
  0
ENDTAB
  0
ENDSEC
  0
SECTION
  2
BLOCKS
  0
BLOCK
  5
19
330
18
100
AcDbEntity
  8
0
100
AcDbBlockBegin
  2
*MODEL_SPACE
 70
     0
 10
0.0
 20
0.0
 30
0.0
  3
*MODEL_SPACE
  1

  0
ENDBLK
  5
1A
330
18
100
AcDbEntity
  8
0
100
AcDbBlockEnd
  0
BLOCK
  5
16
330
15
100
AcDbEntity
 67
     1
  8
0
100
AcDbBlockBegin
  2
*PAPER_SPACE
 70
     0
 10
0.0
 20
0.0
 30
0.0
  3
*PAPER_SPACE
  1

  0
ENDBLK
  5
17
330
15
100
AcDbEntity
 67
     1
  8
0
100
AcDbBlockEnd
  0
BLOCK
  5
4C0C1
330
4C0BF
100
AcDbEntity
  8
0
100
AcDbBlockBegin
  2
_Small
 70
     0
 10
0.0
 20
0.0
 30
0.0
  3
_Small
  1

  0
CIRCLE
  5
4C0C0
330
4C0BF
100
AcDbEntity
  8
0
  6
ByBlock
 62
     0
370
    -2
100
AcDbCircle
 10
0.0
 20
0.0
 30
0.0
 40
0.25
  0
ENDBLK
  5
4C0C2
330
4C0BF
100
AcDbEntity
  8
0
100
AcDbBlockEnd
  0
BLOCK
  5
4C0C7
330
4C0C3
100
AcDbEntity
  8
0
100
AcDbBlockBegin
  2
_Open30
 70
     0
 10
0.0
 20
0.0
 30
0.0
  3
_Open30
  1

  0
LINE
  5
990C6
330
4C0C3
100
AcDbEntity
  8
NOTE
100
AcDbLine
 10
-1.0
 20
0.26794919
 30
0.0
 11
0.0
 21
0.0
 31
0.0
  0
LINE
  5
990C7
330
4C0C3
100
AcDbEntity
  8
NOTE
100
AcDbLine
 10
0.0
 20
0.0
 30
0.0
 11
-1.0
 21
-0.26794919
 31
0.0
  0
LINE
  5
990C8
330
4C0C3
100
AcDbEntity
  8
NOTE
100
AcDbLine
 10
0.0
 20
0.0
 30
0.0
 11
-1.0
 21
0.0
 31
0.0
  0
ENDBLK
  5
4C0C8
330
4C0C3
100
AcDbEntity
  8
0
100
AcDbBlockEnd
  0
BLOCK
  5
9940E
330
99250
100
AcDbEntity
  8
0
100
AcDbBlockBegin
  2
block
 70
     0
 10
0.0
 20
0.0
 30
0.0
  3
block
  1

  0
TEXT
  5
99251
330
99250
100
AcDbEntity
  8
ETC
100
AcDbText
 10
-1409.804808873485
 20
587.4288068380831
 30
0.0
 40
60.0
  1
PEFY-M50VMA-A1_2
 50
0.0000029998804485
 41
0.8
100
AcDbText
  0
LINE
  5
99252
330
99250
100
AcDbEntity
  8
DETAIL
100
AcDbLine
 10
600.0000000000036
 20
-15.02145922746875
 30
0.0
 11
600.0000000000036
 21
-26.9926245158416
 31
0.0
  0
LINE
  5
99253
330
99250
100
AcDbEntity
  8
DETAIL
100
AcDbLine
 10
597.5006829152007
 20
-17.69516496038646
 30
0.0
 11
597.5006829152007
 21
-26.9926245158416
 31
0.0
  0
LINE
  5
99254
330
99250
100
AcDbEntity
  8
DETAIL
100
AcDbLine
 10
597.5006829152007
 20
-26.9926245158416
 30
0.0
 11
600.0000000000036
 21
-26.9926245158416
 31
0.0
  0
LINE
  5
99255
330
99250
100
AcDbEntity
  8
DETAIL
100
AcDbLine
 10
550.0000000000018
 20
-17.4952195935907
 30
0.0
 11
597.3007375484193
 21
-17.49521959359059
 31
0.0
  0
LINE
  5
99256
330
99250
100
AcDbEntity
  8
DETAIL
100
AcDbLine
 10
550.0000000000018
 20
-15.02145922746886
 30
0.0
 11
600.0000000000036
 21
-15.02145922746875
 31
0.0
  0
LINE
  5
99257
330
99250
100
AcDbEntity
  8
DETAIL
100
AcDbLine
 10
550.0000000000036
 20
0.0000000000003411
 30
0.0
 11
0.0000000000027285
 21
0.0000000000004832
 31
0.0
  0
ARC
  5
99258
330
99250
100
AcDbEntity
  8
DETAIL
100
AcDbCircle
 10
597.3007375484193
 20
-17.69516496038646
 30
0.0
 40
0.1999453667838173
100
AcDbArc
 50
0.0
 51
90.0
  0
LINE
  5
99259
330
99250
100
AcDbEntity
  8
DETAIL
100
AcDbLine
 10
550.0000000000036
 20
-237.2390450899982
 30
0.0
 11
590.0000000000036
 21
-237.2390450899982
 31
0.0
  0
LINE
  5
9925A
330
99250
100
AcDbEntity
  8
DETAIL
100
AcDbLine
 10
590.0000000000036
 20
-237.2390450899979
 30
0.0
 11
590.0000000000036
 21
-197.2499717331807
 31
0.0
  0
LINE
  5
9925B
330
99250
100
AcDbEntity
  8
DETAIL
100
AcDbLine
 10
550.0000000000018
 20
-197.2499717331807
 30
0.0
 11
590.0000000000036
 21
-197.2499717331807
 31
0.0
  0
LINE
  5
9925C
330
99250
100
AcDbEntity
  8
DETAIL
100
AcDbLine
 10
550.0000000000036
 20
-249.9999999999843
 30
0.0
 11
0.000000000003638
 21
-249.9999999999843
 31
0.0
  0
LINE
  5
9925D
330
99250
100
AcDbEntity
  8
BASIS
100
AcDbLine
 10
0.000000000003638
 20
29.41240878975532
 30
0.0
 11
0.000000000003638
 21
-282.6696284795062
 31
0.0
  0
CIRCLE
  5
9925E
330
99250
100
AcDbEntity
  8
ARRANGE
100
AcDbCircle
 10
0.0
 20
0.0
 30
0.0
 40
19.125
  0
LINE
  5
9925F
330
99250
100
AcDbEntity
  8
ARRANGE
100
AcDbLine
 10
-21.26587376331372
 20
-21.04700008888811
 30
0.0
 11
21.26587376331736
 21
21.04700008888813
 31
0.0
  0
LINE
  5
99260
330
99250
100
AcDbEntity
  8
ARRANGE
100
AcDbLine
 10
-21.23459940696193
 20
21.07855278914394
 30
0.0
 11
21.23459940696557
 21
-21.07855278914302
 31
0.0
  0
LINE
  5
99261
330
99250
100
AcDbEntity
  8
DETAIL
100
AcDbLine
 10
550.0000000000036
 20
0.0000000000003411
 30
0.0
 11
550.0000000000036
 21
-249.9999999999843
 31
0.0
  0
LINE
  5
99262
330
99250
100
AcDbEntity
  8
NOTE
100
AcDbLine
 10
607.997814671362
 20
-30.12252827872281
 30
0.0
 11
607.997814671362
 21
-51.85507210270917
 31
0.0
  0
LINE
  5
99263
330
99250
100
AcDbEntity
  8
NOTE
100
AcDbLine
 10
618.8640865833548
 20
-40.98880019071599
 30
0.0
 11
597.1315427593689
 21
-40.98880019071599
 31
0.0
  0
LINE
  5
99264
330
99250
100
AcDbEntity
  8
NOTE
100
AcDbLine
 10
607.9978146713637
 20
-40.98880019071018
 30
0.0
 11
603.8306291730658
 21
-6.856934800525777
 31
0.0
  0
LINE
  5
99265
330
99250
100
AcDbEntity
  8
NOTE
100
AcDbLine
 10
607.9978146713637
 20
-40.98880019071018
 30
0.0
 11
621.4548593236648
 21
-9.34614513120414
 31
0.0
  0
LINE
  5
99266
330
99250
100
AcDbEntity
  8
NOTE
100
AcDbLine
 10
657.6352733441326
 20
329.6970389270774
 30
0.0
 11
607.9978146713637
 21
-40.98880019071018
 31
0.0
  0
LINE
  5
99267
330
99250
100
AcDbEntity
  8
NOTE
100
AcDbLine
 10
590.0000000000036
 20
-206.3782364995961
 30
0.0
 11
590.0000000000036
 21
-228.1107803235825
 31
0.0
  0
LINE
  5
99268
330
99250
100
AcDbEntity
  8
NOTE
100
AcDbLine
 10
600.8662719119911
 20
-216.9999999999841
 30
0.0
 11
579.1337280880052
 21
-216.9999999999841
 31
0.0
  0
LINE
  5
99269
330
99250
100
AcDbEntity
  8
NOTE
100
AcDbLine
 10
577.0000000000036
 20
-4.155187315475586
 30
0.0
 11
577.0000000000036
 21
-25.88773113946194
 31
0.0
  0
LINE
  5
9926A
330
99250
100
AcDbEntity
  8
NOTE
100
AcDbLine
 10
587.8662719119965
 20
-15.02145922746875
 30
0.0
 11
566.1337280880108
 21
-15.02145922746875
 31
0.0
  0
LINE
  5
9926B
330
99250
100
AcDbEntity
  8
DETAIL
100
AcDbLine
 10
-599.9999999999962
 20
-15.02145922746875
 30
0.0
 11
-599.9999999999962
 21
-26.9926245158416
 31
0.0
  0
LINE
  5
9926C
330
99250
100
AcDbEntity
  8
DETAIL
100
AcDbLine
 10
-597.5006829151935
 20
-17.69516496038646
 30
0.0
 11
-597.5006829151935
 21
-26.9926245158416
 31
0.0
  0
LINE
  5
9926D
330
99250
100
AcDbEntity
  8
DETAIL
100
AcDbLine
 10
-597.5006829151935
 20
-26.9926245158416
 30
0.0
 11
-599.9999999999962
 21
-26.9926245158416
 31
0.0
  0
LINE
  5
9926E
330
99250
100
AcDbEntity
  8
DETAIL
100
AcDbLine
 10
-549.9999999999945
 20
-17.4952195935907
 30
0.0
 11
-597.3007375484121
 21
-17.49521959359059
 31
0.0
  0
LINE
  5
9926F
330
99250
100
AcDbEntity
  8
DETAIL
100
AcDbLine
 10
-549.9999999999945
 20
-15.02145922746886
 30
0.0
 11
-599.9999999999962
 21
-15.02145922746875
 31
0.0
  0
LINE
  5
99270
330
99250
100
AcDbEntity
  8
DETAIL
100
AcDbLine
 10
-549.9999999999971
 20
0.0000000000004547
 30
0.0
 11
0.000000000001819
 21
0.0000000000004547
 31
0.0
  0
ARC
  5
99271
330
99250
100
AcDbEntity
  8
DETAIL
100
AcDbCircle
 10
-597.3007375484121
 20
-17.69516496038646
 30
0.0
 40
0.1999453667838173
100
AcDbArc
 50
90.0
 51
180.0
  0
LINE
  5
99272
330
99250
100
AcDbEntity
  8
DETAIL
100
AcDbLine
 10
-549.9999999999963
 20
-249.9999999999843
 30
0.0
 11
0.000000000003638
 21
-249.9999999999843
 31
0.0
  0
LINE
  5
99273
330
99250
100
AcDbEntity
  8
DETAIL
100
AcDbLine
 10
-549.9999999999963
 20
0.0000000000003411
 30
0.0
 11
-549.9999999999963
 21
-249.9999999999843
 31
0.0
  0
LINE
  5
99274
330
99250
100
AcDbEntity
  8
NOTE
100
AcDbLine
 10
-576.9999999999964
 20
-4.155187315475586
 30
0.0
 11
-576.9999999999964
 21
-25.88773113946194
 31
0.0
  0
LINE
  5
99275
330
99250
100
AcDbEntity
  8
NOTE
100
AcDbLine
 10
-587.8662719119891
 20
-15.02145922746875
 30
0.0
 11
-566.1337280880034
 21
-15.02145922746875
 31
0.0
  0
LINE
  5
99276
330
99250
100
AcDbEntity
  8
SERVICESPACE
100
AcDbLine
 10
1150.000000000003
 20
-649.9999999999843
 30
0.0
 11
-549.9999999999963
 21
-649.9999999999843
 31
0.0
  0
LINE
  5
99277
330
99250
100
AcDbEntity
  8
SERVICESPACE
100
AcDbLine
 10
1150.000000000003
 20
-669.9999999999842
 30
0.0
 11
-549.9999999999963
 21
-669.9999999999842
 31
0.0
  0
LINE
  5
99278
330
99250
100
AcDbEntity
  8
SERVICESPACE
100
AcDbLine
 10
1150.000000000003
 20
-669.9999999999842
 30
0.0
 11
700.0000000000036
 21
-649.9999999999843
 31
0.0
  0
LINE
  5
99279
330
99250
100
AcDbEntity
  8
SERVICESPACE
100
AcDbLine
 10
700.0000000000036
 20
-669.9999999999842
 30
0.0
 11
1150.000000000003
 21
-649.9999999999843
 31
0.0
  0
LINE
  5
9927A
330
99250
100
AcDbEntity
  8
SERVICESPACE
100
AcDbLine
 10
-599.9999999999962
 20
0.0000000000003411
 30
0.0
 11
-599.9999999999962
 21
10.00000000000034
 31
0.0
  0
LINE
  5
9927B
330
99250
100
AcDbEntity
  8
SIZE
100
AcDbLine
 10
-564.9999999999964
 20
0.0000000000003979
 30
0.0
 11
-635.4679019979304
 21
0.0000000000003837
 31
0.0
  0
LINE
  5
9927C
330
99250
100
AcDbEntity
  8
SIZE
100
AcDbLine
 10
-602.8662719119895
 20
-15.02145922746881
 30
0.0
 11
-635.4679019979304
 21
-15.02145922746881
 31
0.0
  0
LINE
  5
9927D
330
99250
100
AcDbEntity
  8
SIZE
100
AcDbLine
 10
-630.4679019979304
 20
-15.02145922746881
 30
0.0
 11
-630.4679019979304
 21
-35.02145922746881
 31
0.0
  0
LINE
  5
9927E
330
99250
100
AcDbEntity
  8
SIZE
100
AcDbLine
 10
-630.4679019979304
 20
0.0000000000003837
 30
0.0
 11
-630.4679019979304
 21
108.5714285714309
 31
0.0
  0
LINE
  5
9927F
330
99250
100
AcDbEntity
  8
SIZE
100
AcDbLine
 10
-630.4679019979304
 20
-15.02145922746881
 30
0.0
 11
-630.4679019979304
 21
0.0000000000003837
 31
0.0
  0
CIRCLE
  5
99280
330
99250
100
AcDbEntity
  8
SIZE
100
AcDbCircle
 10
-630.4679019979304
 20
-15.02145922746881
 30
0.0
 40
5.0
  0
CIRCLE
  5
99281
330
99250
100
AcDbEntity
  8
SIZE
100
AcDbCircle
 10
-630.4679019979304
 20
0.0000000000003837
 30
0.0
 40
5.0
  0
TEXT
  5
99282
330
99250
100
AcDbEntity
  8
SIZE
100
AcDbText
 10
-645.4679019979302
 20
55.00000000000254
 30
0.0
 40
30.0
  1
15
 50
90.0
 41
0.9
100
AcDbText
  0
LINE
  5
99283
330
99250
100
AcDbEntity
  8
NOTE
100
AcDbLine
 10
-576.9944553664372
 20
-15.00072868278401
 30
0.0
 11
-591.5241762112836
 21
16.16394494235874
 31
0.0
  0
LINE
  5
99284
330
99250
100
AcDbEntity
  8
NOTE
100
AcDbLine
 10
-576.9944553664372
 20
-15.00072868278401
 30
0.0
 11
-573.9952254163272
 21
19.25353075594012
 31
0.0
  0
LINE
  5
99285
330
99250
100
AcDbEntity
  8
NOTE
100
AcDbLine
 10
-652.9473925726724
 20
398.4973002814458
 30
0.0
 11
-576.9944553664372
 21
-15.00072868278401
 31
0.0
  0
LINE
  5
99286
330
99250
100
AcDbEntity
  8
SIZE
100
AcDbLine
 10
565.0000000000037
 20
0.0000000000002984
 30
0.0
 11
693.3045959596277
 21
0.0000000000003126
 31
0.0
  0
LINE
  5
99287
330
99250
100
AcDbEntity
  8
SIZE
100
AcDbLine
 10
633.8640865833553
 20
-40.98880019071605
 30
0.0
 11
693.3045959596277
 21
-40.98880019071605
 31
0.0
  0
LINE
  5
99288
330
99250
100
AcDbEntity
  8
SIZE
100
AcDbLine
 10
688.3045959596277
 20
-40.98880019071605
 30
0.0
 11
688.3045959596277
 21
0.0000000000003126
 31
0.0
  0
LINE
  5
99289
330
99250
100
AcDbEntity
  8
SIZE
100
AcDbLine
 10
688.3045959596277
 20
0.0000000000003126
 30
0.0
 11
688.3045959596277
 21
113.2142857142875
 31
0.0
  0
CIRCLE
  5
9928A
330
99250
100
AcDbEntity
  8
SIZE
100
AcDbCircle
 10
688.3045959596277
 20
-40.98880019071605
 30
0.0
 40
5.0
  0
CIRCLE
  5
9928B
330
99250
100
AcDbEntity
  8
SIZE
100
AcDbCircle
 10
688.3045959596277
 20
0.0000000000003126
 30
0.0
 40
5.0
  0
TEXT
  5
9928C
330
99250
100
AcDbEntity
  8
SIZE
100
AcDbText
 10
673.3045959596275
 20
66.07142857143029
 30
0.0
 40
30.0
  1
41
 50
90.0
 41
0.9
100
AcDbText
  0
LINE
  5
9928D
330
99250
100
AcDbEntity
  8
SIZE
100
AcDbLine
 10
565.0000000000037
 20
0.0000000000004121
 30
0.0
 11
937.5869839327753
 21
0.0000000000004547
 31
0.0
  0
LINE
  5
9928E
330
99250
100
AcDbEntity
  8
SIZE
100
AcDbLine
 10
615.8662719119912
 20
-216.9999999999842
 30
0.0
 11
937.5869839327755
 21
-216.9999999999841
 31
0.0
  0
LINE
  5
9928F
330
99250
100
AcDbEntity
  8
SIZE
100
AcDbLine
 10
932.5869839327754
 20
0.0000000000004547
 30
0.0
 11
932.5869839327754
 21
-216.9999999999841
 31
0.0
  0
CIRCLE
  5
99290
330
99250
100
AcDbEntity
  8
SIZE
100
AcDbCircle
 10
932.5869839327754
 20
0.0000000000004547
 30
0.0
 40
5.0
  0
CIRCLE
  5
99291
330
99250
100
AcDbEntity
  8
SIZE
100
AcDbCircle
 10
932.5869839327754
 20
-216.9999999999841
 30
0.0
 40
5.0
  0
TEXT
  5
99292
330
99250
100
AcDbEntity
  8
SIZE
100
AcDbText
 10
917.5869839327752
 20
-140.6428571428475
 30
0.0
 40
30.0
  1
217
 50
90.0
 41
0.9
100
AcDbText
  0
LINE
  5
99293
330
99250
100
AcDbEntity
  8
SIZE
100
AcDbLine
 10
-564.9999999999964
 20
0.0000000000002842
 30
0.0
 11
-842.9303594522433
 21
0.0000000000002416
 31
0.0
  0
LINE
  5
99294
330
99250
100
AcDbEntity
  8
SIZE
100
AcDbLine
 10
-564.9999999999964
 20
-249.9999999999844
 30
0.0
 11
-842.9303594522432
 21
-249.9999999999845
 31
0.0
  0
LINE
  5
99295
330
99250
100
AcDbEntity
  8
SIZE
100
AcDbLine
 10
-837.9303594522436
 20
0.0000000000002416
 30
0.0
 11
-837.9303594522435
 21
-249.9999999999845
 31
0.0
  0
CIRCLE
  5
99296
330
99250
100
AcDbEntity
  8
SIZE
100
AcDbCircle
 10
-837.9303594522436
 20
0.0000000000002416
 30
0.0
 40
5.0
  0
CIRCLE
  5
99297
330
99250
100
AcDbEntity
  8
SIZE
100
AcDbCircle
 10
-837.9303594522435
 20
-249.9999999999845
 30
0.0
 40
5.0
  0
TEXT
  5
99298
330
99250
100
AcDbEntity
  8
SIZE
100
AcDbText
 10
-852.9303594522431
 20
-159.7142857142775
 30
0.0
 40
30.0
  1
250
 50
90.0
 41
0.9
100
AcDbText
  0
LINE
  5
99299
330
99250
100
AcDbEntity
  8
SIZE
100
AcDbLine
 10
600.0000000000036
 20
-0.0214592274687533
 30
0.0
 11
600.0000000000036
 21
389.0456839755288
 31
0.0
  0
LINE
  5
9929A
330
99250
100
AcDbEntity
  8
SIZE
100
AcDbLine
 10
577.0000000000036
 20
9.925546901338066
 30
0.0
 11
577.0000000000036
 21
389.0456839755288
 31
0.0
  0
LINE
  5
9929B
330
99250
100
AcDbEntity
  8
SIZE
100
AcDbLine
 10
577.0000000000036
 20
384.0456839755288
 30
0.0
 11
557.0000000000036
 21
384.0456839755288
 31
0.0
  0
LINE
  5
9929C
330
99250
100
AcDbEntity
  8
SIZE
100
AcDbLine
 10
600.0000000000036
 20
384.0456839755288
 30
0.0
 11
713.7142857142895
 21
384.0456839755288
 31
0.0
  0
LINE
  5
9929D
330
99250
100
AcDbEntity
  8
SIZE
100
AcDbLine
 10
577.0000000000036
 20
384.0456839755288
 30
0.0
 11
600.0000000000036
 21
384.0456839755288
 31
0.0
  0
CIRCLE
  5
9929E
330
99250
100
AcDbEntity
  8
SIZE
100
AcDbCircle
 10
577.0000000000036
 20
384.0456839755288
 30
0.0
 40
5.0
  0
CIRCLE
  5
9929F
330
99250
100
AcDbEntity
  8
SIZE
100
AcDbCircle
 10
600.0000000000036
 20
384.0456839755288
 30
0.0
 40
5.0
  0
TEXT
  5
992A0
330
99250
100
AcDbEntity
  8
SIZE
100
AcDbText
 10
655.0000000000038
 20
399.0456839755288
 30
0.0
 40
30.0
  1
23
 41
0.9
100
AcDbText
  0
LINE
  5
992A1
330
99250
100
AcDbEntity
  8
SIZE
100
AcDbLine
 10
577.0000000000036
 20
9.925546901338066
 30
0.0
 11
577.0000000000036
 21
389.0456839755288
 31
0.0
  0
LINE
  5
992A2
330
99250
100
AcDbEntity
  8
SIZE
100
AcDbLine
 10
-576.9999999999964
 20
10.84481268452441
 30
0.0
 11
-576.9999999999964
 21
389.0456839755288
 31
0.0
  0
LINE
  5
992A3
330
99250
100
AcDbEntity
  8
SIZE
100
AcDbLine
 10
577.0000000000036
 20
384.0456839755288
 30
0.0
 11
-576.9999999999964
 21
384.0456839755288
 31
0.0
  0
CIRCLE
  5
992A4
330
99250
100
AcDbEntity
  8
SIZE
100
AcDbCircle
 10
577.0000000000036
 20
384.0456839755288
 30
0.0
 40
5.0
  0
CIRCLE
  5
992A5
330
99250
100
AcDbEntity
  8
SIZE
100
AcDbCircle
 10
-576.9999999999964
 20
384.0456839755288
 30
0.0
 40
5.0
  0
TEXT
  5
992A6
330
99250
100
AcDbEntity
  8
SIZE
100
AcDbText
 10
-277.1999999999964
 20
401.9028268326716
 30
0.0
 40
30.0
  1
1154(Suspension bolt pitch)
 41
0.9
100
AcDbText
  0
LINE
  5
992A7
330
99250
100
AcDbEntity
  8
SIZE
100
AcDbLine
 10
600.0000000000036
 20
-0.0214592274687533
 30
0.0
 11
600.0000000000036
 21
478.4004013530874
 31
0.0
  0
LINE
  5
992A8
330
99250
100
AcDbEntity
  8
SIZE
100
AcDbLine
 10
-599.9999999999962
 20
-0.0214592274687533
 30
0.0
 11
-599.9999999999962
 21
478.4004013530874
 31
0.0
  0
LINE
  5
992A9
330
99250
100
AcDbEntity
  8
SIZE
100
AcDbLine
 10
600.0000000000036
 20
473.4004013530874
 30
0.0
 11
-599.9999999999962
 21
473.4004013530874
 31
0.0
  0
CIRCLE
  5
992AA
330
99250
100
AcDbEntity
  8
SIZE
100
AcDbCircle
 10
600.0000000000036
 20
473.4004013530874
 30
0.0
 40
5.0
  0
CIRCLE
  5
992AB
330
99250
100
AcDbEntity
  8
SIZE
100
AcDbCircle
 10
-599.9999999999962
 20
473.4004013530874
 30
0.0
 40
5.0
  0
TEXT
  5
992AC
330
99250
100
AcDbEntity
  8
SIZE
100
AcDbText
 10
-44.99999999999635
 20
488.4004013530875
 30
0.0
 40
30.0
  1
1200
 41
0.9
100
AcDbText
  0
LINE
  5
992AD
330
99250
100
AcDbEntity
  8
SIZE
100
AcDbLine
 10
607.997814671362
 20
-66.85507210270917
 30
0.0
 11
607.997814671362
 21
-100.374998084334
 31
0.0
  0
LINE
  5
992AE
330
99250
100
AcDbEntity
  8
SIZE
100
AcDbLine
 10
550.0000000000018
 20
-72.81045944301933
 30
0.0
 11
550.0000000000018
 21
-100.374998084334
 31
0.0
  0
LINE
  5
992AF
330
99250
100
AcDbEntity
  8
SIZE
100
AcDbLine
 10
607.997814671362
 20
-95.374998084334
 30
0.0
 11
550.0000000000018
 21
-95.374998084334
 31
0.0
  0
LINE
  5
992B0
330
99250
100
AcDbEntity
  8
SIZE
100
AcDbLine
 10
550.0000000000018
 20
-95.374998084334
 30
0.0
 11
456.285714285716
 21
-95.374998084334
 31
0.0
  0
CIRCLE
  5
992B1
330
99250
100
AcDbEntity
  8
SIZE
100
AcDbCircle
 10
607.997814671362
 20
-95.374998084334
 30
0.0
 40
5.0
  0
CIRCLE
  5
992B2
330
99250
100
AcDbEntity
  8
SIZE
100
AcDbCircle
 10
550.0000000000018
 20
-95.374998084334
 30
0.0
 40
5.0
  0
TEXT
  5
992B3
330
99250
100
AcDbEntity
  8
SIZE
100
AcDbText
 10
471.2857142857161
 20
-80.374998084334
 30
0.0
 40
30.0
  1
58
 41
0.9
100
AcDbText
  0
LINE
  5
992B4
330
99250
100
AcDbEntity
  8
SIZE
100
AcDbLine
 10
550.0000000000036
 20
-264.9999999999843
 30
0.0
 11
550.0000000000036
 21
-334.906432244813
 31
0.0
  0
LINE
  5
992B5
330
99250
100
AcDbEntity
  8
SIZE
100
AcDbLine
 10
590.0000000000036
 20
-252.2390450899982
 30
0.0
 11
590.0000000000036
 21
-334.906432244813
 31
0.0
  0
LINE
  5
992B6
330
99250
100
AcDbEntity
  8
SIZE
100
AcDbLine
 10
590.0000000000036
 20
-329.906432244813
 30
0.0
 11
550.0000000000036
 21
-329.906432244813
 31
0.0
  0
LINE
  5
992B7
330
99250
100
AcDbEntity
  8
SIZE
100
AcDbLine
 10
550.0000000000036
 20
-329.906432244813
 30
0.0
 11
456.2857142857176
 21
-329.906432244813
 31
0.0
  0
CIRCLE
  5
992B8
330
99250
100
AcDbEntity
  8
SIZE
100
AcDbCircle
 10
590.0000000000036
 20
-329.906432244813
 30
0.0
 40
5.0
  0
CIRCLE
  5
992B9
330
99250
100
AcDbEntity
  8
SIZE
100
AcDbCircle
 10
550.0000000000036
 20
-329.906432244813
 30
0.0
 40
5.0
  0
TEXT
  5
992BA
330
99250
100
AcDbEntity
  8
SIZE
100
AcDbText
 10
471.2857142857177
 20
-314.906432244813
 30
0.0
 40
30.0
  1
40
 41
0.9
100
AcDbText
  0
LINE
  5
992BB
330
99250
100
AcDbEntity
  8
SIZE
100
AcDbLine
 10
1150.000000000003
 20
-684.9999999999843
 30
0.0
 11
1150.000000000003
 21
-931.5190046320108
 31
0.0
  0
LINE
  5
992BC
330
99250
100
AcDbEntity
  8
SIZE
100
AcDbLine
 10
700.0000000000044
 20
-684.9999999999843
 30
0.0
 11
700.0000000000044
 21
-931.5190046320108
 31
0.0
  0
LINE
  5
992BD
330
99250
100
AcDbEntity
  8
SIZE
100
AcDbLine
 10
1150.000000000003
 20
-926.5190046320103
 30
0.0
 11
700.0000000000044
 21
-926.5190046320103
 31
0.0
  0
CIRCLE
  5
992BE
330
99250
100
AcDbEntity
  8
SIZE
100
AcDbCircle
 10
1150.000000000003
 20
-926.5190046320103
 30
0.0
 40
5.0
  0
CIRCLE
  5
992BF
330
99250
100
AcDbEntity
  8
SIZE
100
AcDbCircle
 10
700.0000000000044
 20
-926.5190046320103
 30
0.0
 40
5.0
  0
TEXT
  5
992C0
330
99250
100
AcDbEntity
  8
SIZE
100
AcDbText
 10
890.2857142857184
 20
-911.5190046320106
 30
0.0
 40
30.0
  1
450
 41
0.9
100
AcDbText
  0
LINE
  5
992C1
330
99250
100
AcDbEntity
  8
SIZE
100
AcDbLine
 10
550.0000000000036
 20
15.00000000000045
 30
0.0
 11
550.0000000000036
 21
320.1966499432647
 31
0.0
  0
LINE
  5
992C2
330
99250
100
AcDbEntity
  8
SIZE
100
AcDbLine
 10
-549.9999999999963
 20
15.00000000000034
 30
0.0
 11
-549.9999999999963
 21
320.1966499432647
 31
0.0
  0
LINE
  5
992C3
330
99250
100
AcDbEntity
  8
SIZE
100
AcDbLine
 10
550.0000000000036
 20
315.1966499432647
 30
0.0
 11
-549.9999999999963
 21
315.1966499432647
 31
0.0
  0
CIRCLE
  5
992C4
330
99250
100
AcDbEntity
  8
SIZE
100
AcDbCircle
 10
550.0000000000036
 20
315.1966499432647
 30
0.0
 40
5.0
  0
CIRCLE
  5
992C5
330
99250
100
AcDbEntity
  8
SIZE
100
AcDbCircle
 10
-549.9999999999963
 20
315.1966499432647
 30
0.0
 40
5.0
  0
TEXT
  5
992C6
330
99250
100
AcDbEntity
  8
SIZE
100
AcDbText
 10
-42.42857142856779
 20
330.1966499432647
 30
0.0
 40
30.0
  1
1100
 41
0.9
100
AcDbText
  0
TEXT
  5
992C7
330
99250
100
AcDbEntity
  8
NOTE
100
AcDbText
 10
675.2931128244036
 20
336.1845746102199
 30
0.0
 40
30.0
  1
Drain pipe (O.D.%%C32)
 50
359.9999974955184
 41
0.6
  7
STANDARD1
100
AcDbText
  0
LINE
  5
992C8
330
99250
100
AcDbEntity
  8
NOTE
100
AcDbLine
 10
1014.26579850903
 20
329.6970105482195
 30
0.0
 11
657.6352733441326
 21
329.6970389270774
 31
0.0
  0
LINE
  5
992C9
330
99250
100
AcDbEntity
  8
OUTLINE
100
AcDbLine
 10
-549.9999999999963
 20
0.0000000000003411
 30
0.0
 11
-549.9999999999963
 21
-249.9999999999843
 31
0.0
  0
LINE
  5
992CA
330
99250
100
AcDbEntity
  8
OUTLINE
100
AcDbLine
 10
-549.9999999999963
 20
-249.9999999999843
 30
0.0
 11
550.0000000000036
 21
-249.9999999999843
 31
0.0
  0
LINE
  5
992CB
330
99250
100
AcDbEntity
  8
OUTLINE
100
AcDbLine
 10
550.0000000000036
 20
-249.9999999999843
 30
0.0
 11
550.0000000000036
 21
0.0000000000004547
 31
0.0
  0
LINE
  5
992CC
330
99250
100
AcDbEntity
  8
DETAIL
100
AcDbLine
 10
530.0000000000036
 20
-200.9999999999841
 30
0.0
 11
530.0000000000036
 21
-22.99999999998407
 31
0.0
  0
LINE
  5
992CD
330
99250
100
AcDbEntity
  8
DETAIL
100
AcDbLine
 10
-529.9999999999963
 20
-200.9999999999841
 30
0.0
 11
-529.9999999999963
 21
-22.99999999998407
 31
0.0
  0
LINE
  5
992CE
330
99250
100
AcDbEntity
  8
OUTLINE
100
AcDbLine
 10
550.0000000000036
 20
0.000000000000469
 30
0.0
 11
-549.9999999999963
 21
0.0000000000002842
 31
0.0
  0
TEXT
  5
992CF
330
99250
100
AcDbEntity
  8
NOTE
100
AcDbText
 10
-1001.122760613887
 20
495.6581329828285
 30
0.0
 40
30.0
  1
Suspension bolt hole
 50
359.9999974955248
 41
0.65
  7
STANDARD1
100
AcDbText
  0
LINE
  5
992D0
330
99250
100
AcDbEntity
  8
NOTE
100
AcDbLine
 10
-652.9473925726724
 20
398.4973002814458
 30
0.0
 11
-1008.388314872765
 21
398.4973323285976
 31
0.0
  0
TEXT
  5
992D1
330
99250
100
AcDbEntity
  8
NOTE
100
AcDbText
 10
-1010.081134607158
 20
447.2340901546271
 30
0.0
 40
30.0
  1
 4-14X30 Slot
 50
359.9999974955248
 41
0.65
  7
STANDARD1
100
AcDbText
  0
TEXT
  5
992D2
330
99250
100
AcDbEntity
  8
NOTE
100
AcDbText
 10
-1000.090336619714
 20
408.4004703571225
 30
0.0
 40
30.0
  1
(Use M10 screw)
 50
359.9999974955248
 41
0.65
  7
STANDARD1
100
AcDbText
  0
LINE
  5
992D3
330
99250
100
AcDbEntity
  8
DETAIL
100
AcDbLine
 10
-529.9999999999963
 20
-22.99999999998407
 30
0.0
 11
530.0000000000026
 21
-22.99999999998407
 31
0.0
  0
LINE
  5
992D4
330
99250
100
AcDbEntity
  8
DETAIL
100
AcDbLine
 10
-529.9999999999963
 20
-200.999999999984
 30
0.0
 11
530.0000000000026
 21
-200.9999999999843
 31
0.0
  0
LINE
  5
992D5
330
99250
100
AcDbEntity
  8
DETAIL
100
AcDbLine
 10
530.0000000000046
 20
-35.32641011617573
 30
0.0
 11
-529.9999999999963
 21
-35.32641011617585
 31
0.0
  0
LINE
  5
992D6
330
99250
100
AcDbEntity
  8
DETAIL
100
AcDbLine
 10
-529.9999999999963
 20
-169.9812154311963
 30
0.0
 11
530.0000000000036
 21
-182.2859773359946
 31
0.0
  0
LINE
  5
992D7
330
99250
100
AcDbEntity
  8
DETAIL
100
AcDbLine
 10
364.3507269410402
 20
-180.3630765202461
 30
0.0
 11
364.3507269410402
 21
-35.32641011617578
 31
0.0
  0
LINE
  5
992D8
330
99250
100
AcDbEntity
  8
DETAIL
100
AcDbLine
 10
376.0475308979076
 20
-35.32641011617578
 30
0.0
 11
376.0475308979076
 21
-179.7934135505336
 31
0.0
  0
LINE
  5
992D9
330
99250
100
AcDbEntity
  8
DETAIL
100
AcDbLine
 10
364.3507269410411
 20
-180.3630765202461
 30
0.0
 11
364.3507269410402
 21
-90.86493897971987
 31
0.0
  0
LINE
  5
992DA
330
99250
100
AcDbEntity
  8
DETAIL
100
AcDbLine
 10
354.3507271590224
 20
-180.2469938632972
 30
0.0
 11
354.3507271590243
 21
-93.30284113125413
 31
0.0
  0
LINE
  5
992DB
330
99250
100
AcDbEntity
  8
DETAIL
100
AcDbLine
 10
344.3507273770101
 20
-180.1309112063485
 30
0.0
 11
344.3507273770083
 21
-98.53288875024258
 31
0.0
  0
LINE
  5
992DC
330
99250
100
AcDbEntity
  8
DETAIL
100
AcDbLine
 10
334.3507275949887
 20
-180.0148285493994
 30
0.0
 11
334.3507275949887
 21
-105.5212693448272
 31
0.0
  0
LINE
  5
992DD
330
99250
100
AcDbEntity
  8
DETAIL
100
AcDbLine
 10
324.3507278129773
 20
-179.8987458924508
 30
0.0
 11
324.3507278129764
 21
-112.5484275592046
 31
0.0
  0
LINE
  5
992DE
330
99250
100
AcDbEntity
  8
DETAIL
100
AcDbLine
 10
314.3507280309577
 20
-179.782663235502
 30
0.0
 11
314.3507280309568
 21
-119.6736863863577
 31
0.0
  0
LINE
  5
992DF
330
99250
100
AcDbEntity
  8
DETAIL
100
AcDbLine
 10
304.3507282489372
 20
-179.666580578553
 30
0.0
 11
304.3507282489372
 21
-125.4849216401605
 31
0.0
  0
LINE
  5
992E0
330
99250
100
AcDbEntity
  8
DETAIL
100
AcDbLine
 10
294.3507284669158
 20
-179.5504979216042
 30
0.0
 11
294.3507284669177
 21
-129.2339217631913
 31
0.0
  0
LINE
  5
992E1
330
99250
100
AcDbEntity
  8
DETAIL
100
AcDbLine
 10
284.3507286848999
 20
-179.4344152646554
 30
0.0
 11
284.3507286849017
 21
-135.0319613417093
 31
0.0
  0
LINE
  5
992E2
330
99250
100
AcDbEntity
  8
DETAIL
100
AcDbLine
 10
274.3507289028857
 20
-179.3183326077067
 30
0.0
 11
274.3507289028857
 21
-140.7226735523315
 31
0.0
  0
LINE
  5
992E3
330
99250
100
AcDbEntity
  8
DETAIL
100
AcDbLine
 10
264.3507291208662
 20
-179.2022499507578
 30
0.0
 11
264.3507291208662
 21
-146.1207175431543
 31
0.0
  0
LINE
  5
992E4
330
99250
100
AcDbEntity
  8
DETAIL
100
AcDbLine
 10
254.3507293388484
 20
-179.0861672938089
 30
0.0
 11
254.3507293388502
 21
-150.9474739122695
 31
0.0
  0
LINE
  5
992E5
330
99250
100
AcDbEntity
  8
DETAIL
100
AcDbLine
 10
244.3507295568343
 20
-178.9700846368601
 30
0.0
 11
244.3507295568343
 21
-155.0112668294903
 31
0.0
  0
LINE
  5
992E6
330
99250
100
AcDbEntity
  8
DETAIL
100
AcDbLine
 10
234.3507297748174
 20
-178.8540019799113
 30
0.0
 11
234.3507297748147
 21
-158.6026573244369
 31
0.0
  0
LINE
  5
992E7
330
99250
100
AcDbEntity
  8
DETAIL
100
AcDbLine
 10
214.3507302107828
 20
-178.6218366660136
 30
0.0
 11
214.3507302107828
 21
-169.5796625488281
 31
0.0
  0
LINE
  5
992E8
330
99250
100
AcDbEntity
  8
DETAIL
100
AcDbLine
 10
224.3507299928006
 20
-178.7379193229624
 30
0.0
 11
224.3507299927987
 21
-162.7570904642241
 31
0.0
  0
LINE
  5
992E9
330
99250
100
AcDbEntity
  8
DETAIL
100
AcDbLine
 10
-388.0000030953561
 20
-35.32641011617578
 30
0.0
 11
-388.0000030953561
 21
-56.32778951622366
 31
0.0
  0
LINE
  5
992EA
330
99250
100
AcDbEntity
  8
DETAIL
100
AcDbLine
 10
-368.0000035313169
 20
-35.32641011617578
 30
0.0
 11
-368.0000035313169
 21
-45.35078429183247
 31
0.0
  0
LINE
  5
992EB
330
99250
100
AcDbEntity
  8
DETAIL
100
AcDbLine
 10
-378.0000033133365
 20
-35.32641011617578
 30
0.0
 11
-378.0000033133365
 21
-52.17335637643643
 31
0.0
  0
LINE
  5
992EC
330
99250
100
AcDbEntity
  8
DETAIL
100
AcDbLine
 10
-518.0000002615814
 20
-35.32641011617578
 30
0.0
 11
-518.0000002615814
 21
-124.0655078609406
 31
0.0
  0
LINE
  5
992ED
330
99250
100
AcDbEntity
  8
DETAIL
100
AcDbLine
 10
-508.0000004795618
 20
-35.32641011617578
 30
0.0
 11
-508.0000004795618
 21
-121.6276057094064
 31
0.0
  0
LINE
  5
992EE
330
99250
100
AcDbEntity
  8
DETAIL
100
AcDbLine
 10
-498.0000006975459
 20
-35.32641011617578
 30
0.0
 11
-498.0000006975459
 21
-116.3975580904307
 31
0.0
  0
LINE
  5
992EF
330
99250
100
AcDbEntity
  8
DETAIL
100
AcDbLine
 10
-488.0000009155301
 20
-35.32641011617578
 30
0.0
 11
-488.0000009155301
 21
-109.4091774958333
 31
0.0
  0
LINE
  5
992F0
330
99250
100
AcDbEntity
  8
DETAIL
100
AcDbLine
 10
-478.0000011335105
 20
-35.32641011617578
 30
0.0
 11
-478.0000011335105
 21
-102.2201145230801
 31
0.0
  0
LINE
  5
992F1
330
99250
100
AcDbEntity
  8
DETAIL
100
AcDbLine
 10
-468.0000013514908
 20
-35.32641011617578
 30
0.0
 11
-468.0000013514908
 21
-95.25676045430278
 31
0.0
  0
LINE
  5
992F2
330
99250
100
AcDbEntity
  8
DETAIL
100
AcDbLine
 10
-458.0000015694748
 20
-35.32641011617578
 30
0.0
 11
-458.0000015694748
 21
-89.44552520050001
 31
0.0
  0
LINE
  5
992F3
330
99250
100
AcDbEntity
  8
DETAIL
100
AcDbLine
 10
-448.000001787459
 20
-35.32641011617578
 30
0.0
 11
-448.000001787459
 21
-85.69652507746921
 31
0.0
  0
LINE
  5
992F4
330
99250
100
AcDbEntity
  8
DETAIL
100
AcDbLine
 10
-438.0000020054394
 20
-35.32641011617578
 30
0.0
 11
-438.0000020054394
 21
-79.8984854989512
 31
0.0
  0
LINE
  5
992F5
330
99250
100
AcDbEntity
  8
DETAIL
100
AcDbLine
 10
-428.0000022234234
 20
-35.32641011617578
 30
0.0
 11
-428.0000022234234
 21
-74.20777328832897
 31
0.0
  0
LINE
  5
992F6
330
99250
100
AcDbEntity
  8
DETAIL
100
AcDbLine
 10
-418.0000024414074
 20
-35.32641011617578
 30
0.0
 11
-418.0000024414074
 21
-68.80972929750623
 31
0.0
  0
LINE
  5
992F7
330
99250
100
AcDbEntity
  8
DETAIL
100
AcDbLine
 10
-408.000002659388
 20
-35.32641011617578
 30
0.0
 11
-408.000002659388
 21
-63.98297292839105
 31
0.0
  0
LINE
  5
992F8
330
99250
100
AcDbEntity
  8
DETAIL
100
AcDbLine
 10
-398.000002877372
 20
-35.32641011617578
 30
0.0
 11
-398.000002877372
 21
-59.91918001118481
 31
0.0
  0
LINE
  5
992F9
330
99250
100
AcDbEntity
  8
NOTE
100
AcDbLine
 10
400.0000000000036
 20
-19.36348759542396
 30
0.0
 11
400.0000000000036
 21
-26.63651240454418
 31
0.0
  0
LINE
  5
992FA
330
99250
100
AcDbEntity
  8
NOTE
100
AcDbLine
 10
403.6365124045623
 20
-22.99999999998407
 30
0.0
 11
396.3634875954412
 21
-22.99999999998407
 31
0.0
  0
LINE
  5
992FB
330
99250
100
AcDbEntity
  8
NOTE
100
AcDbLine
 10
200.0000000000036
 20
-19.36348759542396
 30
0.0
 11
200.0000000000036
 21
-26.63651240454418
 31
0.0
  0
LINE
  5
992FC
330
99250
100
AcDbEntity
  8
NOTE
100
AcDbLine
 10
203.6365124045624
 20
-22.99999999998407
 30
0.0
 11
196.3634875954411
 21
-22.99999999998407
 31
0.0
  0
LINE
  5
992FD
330
99250
100
AcDbEntity
  8
NOTE
100
AcDbLine
 10
100.0000000000035
 20
-19.36348759542396
 30
0.0
 11
100.0000000000035
 21
-26.63651240454418
 31
0.0
  0
LINE
  5
992FE
330
99250
100
AcDbEntity
  8
NOTE
100
AcDbLine
 10
103.6365124045623
 20
-22.99999999998407
 30
0.0
 11
96.36348759544128
 21
-22.99999999998407
 31
0.0
  0
LINE
  5
992FF
330
99250
100
AcDbEntity
  8
NOTE
100
AcDbLine
 10
400.0000000000036
 20
-197.3634875954242
 30
0.0
 11
400.0000000000036
 21
-204.6365124045444
 31
0.0
  0
LINE
  5
99300
330
99250
100
AcDbEntity
  8
NOTE
100
AcDbLine
 10
403.6365124045623
 20
-200.9999999999843
 30
0.0
 11
396.3634875954412
 21
-200.9999999999843
 31
0.0
  0
LINE
  5
99301
330
99250
100
AcDbEntity
  8
NOTE
100
AcDbLine
 10
200.0000000000036
 20
-197.3634875954242
 30
0.0
 11
200.0000000000036
 21
-204.6365124045444
 31
0.0
  0
LINE
  5
99302
330
99250
100
AcDbEntity
  8
NOTE
100
AcDbLine
 10
203.6365124045624
 20
-200.9999999999843
 30
0.0
 11
196.3634875954411
 21
-200.9999999999843
 31
0.0
  0
LINE
  5
99303
330
99250
100
AcDbEntity
  8
NOTE
100
AcDbLine
 10
100.0000000000035
 20
-197.3634875954242
 30
0.0
 11
100.0000000000035
 21
-204.6365124045444
 31
0.0
  0
LINE
  5
99304
330
99250
100
AcDbEntity
  8
NOTE
100
AcDbLine
 10
103.6365124045623
 20
-200.9999999999843
 30
0.0
 11
96.36348759544128
 21
-200.9999999999843
 31
0.0
  0
LINE
  5
99305
330
99250
100
AcDbEntity
  8
NOTE
100
AcDbLine
 10
530.0000000000036
 20
-59.36348759542397
 30
0.0
 11
530.0000000000036
 21
-66.63651240454417
 31
0.0
  0
LINE
  5
99306
330
99250
100
AcDbEntity
  8
NOTE
100
AcDbLine
 10
533.6365124045624
 20
-62.99999999998408
 30
0.0
 11
526.3634875954412
 21
-62.99999999998408
 31
0.0
  0
LINE
  5
99307
330
99250
100
AcDbEntity
  8
NOTE
100
AcDbLine
 10
530.0000000000036
 20
-159.363487595424
 30
0.0
 11
530.0000000000036
 21
-166.6365124045442
 31
0.0
  0
LINE
  5
99308
330
99250
100
AcDbEntity
  8
NOTE
100
AcDbLine
 10
533.6365124045624
 20
-162.9999999999841
 30
0.0
 11
526.3634875954412
 21
-162.9999999999841
 31
0.0
  0
LINE
  5
99309
330
99250
100
AcDbEntity
  8
NOTE
100
AcDbLine
 10
-529.9999999999963
 20
-159.363487595424
 30
0.0
 11
-529.9999999999963
 21
-166.6365124045442
 31
0.0
  0
LINE
  5
9930A
330
99250
100
AcDbEntity
  8
NOTE
100
AcDbLine
 10
-526.3634875954376
 20
-162.9999999999841
 30
0.0
 11
-533.6365124045587
 21
-162.9999999999841
 31
0.0
  0
LINE
  5
9930B
330
99250
100
AcDbEntity
  8
NOTE
100
AcDbLine
 10
-529.9999999999963
 20
-59.36348759542397
 30
0.0
 11
-529.9999999999963
 21
-66.63651240454417
 31
0.0
  0
LINE
  5
9930C
330
99250
100
AcDbEntity
  8
NOTE
100
AcDbLine
 10
-526.3634875954376
 20
-62.99999999998408
 30
0.0
 11
-533.6365124045587
 21
-62.99999999998408
 31
0.0
  0
LINE
  5
9930D
330
99250
100
AcDbEntity
  8
NOTE
100
AcDbLine
 10
0.000000000003638
 20
-19.36348759542396
 30
0.0
 11
0.000000000003638
 21
-26.63651240454418
 31
0.0
  0
LINE
  5
9930E
330
99250
100
AcDbEntity
  8
NOTE
100
AcDbLine
 10
3.636512404562381
 20
-22.99999999998407
 30
0.0
 11
-3.636512404558743
 21
-22.99999999998407
 31
0.0
  0
LINE
  5
9930F
330
99250
100
AcDbEntity
  8
NOTE
100
AcDbLine
 10
0.000000000003638
 20
-197.3634875954242
 30
0.0
 11
0.000000000003638
 21
-204.6365124045444
 31
0.0
  0
LINE
  5
99310
330
99250
100
AcDbEntity
  8
NOTE
100
AcDbLine
 10
3.636512404562381
 20
-200.9999999999843
 30
0.0
 11
-3.636512404558743
 21
-200.9999999999843
 31
0.0
  0
LINE
  5
99311
330
99250
100
AcDbEntity
  8
NOTE
100
AcDbLine
 10
-99.99999999999637
 20
-19.36348759542396
 30
0.0
 11
-99.99999999999637
 21
-26.63651240454418
 31
0.0
  0
LINE
  5
99312
330
99250
100
AcDbEntity
  8
NOTE
100
AcDbLine
 10
-96.36348759543762
 20
-22.99999999998407
 30
0.0
 11
-103.6365124045587
 21
-22.99999999998407
 31
0.0
  0
LINE
  5
99313
330
99250
100
AcDbEntity
  8
NOTE
100
AcDbLine
 10
-99.99999999999637
 20
-197.3634875954242
 30
0.0
 11
-99.99999999999637
 21
-204.6365124045444
 31
0.0
  0
LINE
  5
99314
330
99250
100
AcDbEntity
  8
NOTE
100
AcDbLine
 10
-96.36348759543762
 20
-200.9999999999843
 30
0.0
 11
-103.6365124045587
 21
-200.9999999999843
 31
0.0
  0
LINE
  5
99315
330
99250
100
AcDbEntity
  8
NOTE
100
AcDbLine
 10
-399.9999999999964
 20
-19.36348759542396
 30
0.0
 11
-399.9999999999964
 21
-26.63651240454418
 31
0.0
  0
LINE
  5
99316
330
99250
100
AcDbEntity
  8
NOTE
100
AcDbLine
 10
-396.3634875954376
 20
-22.99999999998407
 30
0.0
 11
-403.6365124045587
 21
-22.99999999998407
 31
0.0
  0
LINE
  5
99317
330
99250
100
AcDbEntity
  8
NOTE
100
AcDbLine
 10
-399.9999999999964
 20
-197.3634875954242
 30
0.0
 11
-399.9999999999964
 21
-204.6365124045444
 31
0.0
  0
LINE
  5
99318
330
99250
100
AcDbEntity
  8
NOTE
100
AcDbLine
 10
-396.3634875954376
 20
-200.9999999999843
 30
0.0
 11
-403.6365124045587
 21
-200.9999999999843
 31
0.0
  0
LINE
  5
99319
330
99250
100
AcDbEntity
  8
NOTE
100
AcDbLine
 10
-499.9999999999963
 20
-19.36348759542396
 30
0.0
 11
-499.9999999999963
 21
-26.63651240454418
 31
0.0
  0
LINE
  5
9931A
330
99250
100
AcDbEntity
  8
NOTE
100
AcDbLine
 10
-496.3634875954376
 20
-22.99999999998407
 30
0.0
 11
-503.6365124045587
 21
-22.99999999998407
 31
0.0
  0
LINE
  5
9931B
330
99250
100
AcDbEntity
  8
NOTE
100
AcDbLine
 10
-499.9999999999963
 20
-197.3634875954242
 30
0.0
 11
-499.9999999999963
 21
-204.6365124045444
 31
0.0
  0
LINE
  5
9931C
330
99250
100
AcDbEntity
  8
NOTE
100
AcDbLine
 10
-496.3634875954376
 20
-200.9999999999843
 30
0.0
 11
-503.6365124045587
 21
-200.9999999999843
 31
0.0
  0
LINE
  5
9931D
330
99250
100
AcDbEntity
  8
SIZE
100
AcDbLine
 10
500.0000000000036
 20
-4.36348759542396
 30
0.0
 11
500.0000000000036
 21
56.80614459233857
 31
0.0
  0
LINE
  5
9931E
330
99250
100
AcDbEntity
  8
SIZE
100
AcDbLine
 10
400.0000000000036
 20
-4.36348759542396
 30
0.0
 11
400.0000000000036
 21
56.80614459233857
 31
0.0
  0
LINE
  5
9931F
330
99250
100
AcDbEntity
  8
SIZE
100
AcDbLine
 10
500.0000000000036
 20
51.80614459233857
 30
0.0
 11
400.0000000000036
 21
51.80614459233857
 31
0.0
  0
CIRCLE
  5
99320
330
99250
100
AcDbEntity
  8
SIZE
100
AcDbCircle
 10
500.0000000000036
 20
51.80614459233857
 30
0.0
 40
5.0
  0
CIRCLE
  5
99321
330
99250
100
AcDbEntity
  8
SIZE
100
AcDbCircle
 10
400.0000000000036
 20
51.80614459233857
 30
0.0
 40
5.0
  0
TEXT
  5
99322
330
99250
100
AcDbEntity
  8
SIZE
100
AcDbText
 10
417.8571428571465
 20
66.80614459233857
 30
0.0
 40
30.0
  1
100
 41
0.9
100
AcDbText
  0
LINE
  5
99323
330
99250
100
AcDbEntity
  8
SIZE
100
AcDbLine
 10
-499.9999999999963
 20
-4.36348759542396
 30
0.0
 11
-499.9999999999963
 21
122.7881975392965
 31
0.0
  0
LINE
  5
99324
330
99250
100
AcDbEntity
  8
SIZE
100
AcDbLine
 10
500.0000000000036
 20
-4.36348759542396
 30
0.0
 11
500.0000000000036
 21
122.7881975392965
 31
0.0
  0
LINE
  5
99325
330
99250
100
AcDbEntity
  8
SIZE
100
AcDbLine
 10
-499.9999999999963
 20
117.7881975392965
 30
0.0
 11
500.0000000000036
 21
117.7881975392965
 31
0.0
  0
CIRCLE
  5
99326
330
99250
100
AcDbEntity
  8
SIZE
100
AcDbCircle
 10
-499.9999999999963
 20
117.7881975392965
 30
0.0
 40
5.0
  0
CIRCLE
  5
99327
330
99250
100
AcDbEntity
  8
SIZE
100
AcDbCircle
 10
500.0000000000036
 20
117.7881975392965
 30
0.0
 40
5.0
  0
TEXT
  5
99328
330
99250
100
AcDbEntity
  8
SIZE
100
AcDbText
 10
-133.714285714282
 20
132.7881975392965
 30
0.0
 40
30.0
  1
100X10=1000
 41
0.9
100
AcDbText
  0
LINE
  5
99329
330
99250
100
AcDbEntity
  8
SIZE
100
AcDbLine
 10
500.0000000000036
 20
-4.36348759542396
 30
0.0
 11
500.0000000000036
 21
122.7881975392965
 31
0.0
  0
LINE
  5
9932A
330
99250
100
AcDbEntity
  8
SIZE
100
AcDbLine
 10
530.0000000000036
 20
-7.999999999984068
 30
0.0
 11
530.0000000000036
 21
122.7881975392965
 31
0.0
  0
LINE
  5
9932B
330
99250
100
AcDbEntity
  8
SIZE
100
AcDbLine
 10
500.0000000000036
 20
117.7881975392965
 30
0.0
 11
530.0000000000036
 21
117.7881975392965
 31
0.0
  0
LINE
  5
9932C
330
99250
100
AcDbEntity
  8
SIZE
100
AcDbLine
 10
515.0000000000036
 20
117.7881975392965
 30
0.0
 11
499.9600010077265
 21
157.9604137518008
 31
0.0
  0
LINE
  5
9932D
330
99250
100
AcDbEntity
  8
SIZE
100
AcDbLine
 10
499.9600010077265
 20
157.9604137518008
 30
0.0
 11
426.2457152934407
 21
157.9604137518008
 31
0.0
  0
TEXT
  5
9932E
330
99250
100
AcDbEntity
  8
SIZE
100
AcDbText
 10
441.2457152934407
 20
172.9604137518008
 30
0.0
 40
30.0
  1
30
 41
0.9
100
AcDbText
  0
CIRCLE
  5
9932F
330
99250
100
AcDbEntity
  8
SIZE
100
AcDbCircle
 10
500.0000000000036
 20
117.7881975392965
 30
0.0
 40
5.0
  0
CIRCLE
  5
99330
330
99250
100
AcDbEntity
  8
SIZE
100
AcDbCircle
 10
530.0000000000036
 20
117.7881975392965
 30
0.0
 40
5.0
  0
LINE
  5
99331
330
99250
100
AcDbEntity
  8
SIZE
100
AcDbLine
 10
-544.9999999999966
 20
-22.99999999998413
 30
0.0
 11
-701.0023616050071
 21
-22.99999999998418
 31
0.0
  0
LINE
  5
99332
330
99250
100
AcDbEntity
  8
SIZE
100
AcDbLine
 10
-548.6365124045589
 20
-62.99999999998412
 30
0.0
 11
-701.0023616050071
 21
-62.99999999998417
 31
0.0
  0
LINE
  5
99333
330
99250
100
AcDbEntity
  8
SIZE
100
AcDbLine
 10
-696.0023616050071
 20
-62.99999999998417
 30
0.0
 11
-696.0023616050071
 21
-22.99999999998418
 31
0.0
  0
LINE
  5
99334
330
99250
100
AcDbEntity
  8
SIZE
100
AcDbLine
 10
-696.0023616050071
 20
-22.99999999998418
 30
0.0
 11
-696.0023616050071
 21
111.143679686131
 31
0.0
  0
CIRCLE
  5
99335
330
99250
100
AcDbEntity
  8
SIZE
100
AcDbCircle
 10
-696.0023616050071
 20
-62.99999999998417
 30
0.0
 40
5.0
  0
CIRCLE
  5
99336
330
99250
100
AcDbEntity
  8
SIZE
100
AcDbCircle
 10
-696.0023616050071
 20
-22.99999999998418
 30
0.0
 40
5.0
  0
TEXT
  5
99337
330
99250
100
AcDbEntity
  8
SIZE
100
AcDbText
 10
-711.0023616050072
 20
52.42939397184549
 30
0.0
 40
30.0
  1
40
 50
90.0
 41
0.9
100
AcDbText
  0
LINE
  5
99338
330
99250
100
AcDbEntity
  8
SIZE
100
AcDbLine
 10
-548.6365124045589
 20
-62.99999999998412
 30
0.0
 11
-701.0023616050077
 21
-62.99999999998417
 31
0.0
  0
LINE
  5
99339
330
99250
100
AcDbEntity
  8
SIZE
100
AcDbLine
 10
-548.6365124045589
 20
-162.9999999999842
 30
0.0
 11
-701.0023616050077
 21
-162.9999999999842
 31
0.0
  0
LINE
  5
9933A
330
99250
100
AcDbEntity
  8
SIZE
100
AcDbLine
 10
-696.0023616050079
 20
-62.99999999998417
 30
0.0
 11
-696.0023616050078
 21
-162.9999999999842
 31
0.0
  0
CIRCLE
  5
9933B
330
99250
100
AcDbEntity
  8
SIZE
100
AcDbCircle
 10
-696.0023616050079
 20
-62.99999999998417
 30
0.0
 40
5.0
  0
CIRCLE
  5
9933C
330
99250
100
AcDbEntity
  8
SIZE
100
AcDbCircle
 10
-696.0023616050078
 20
-162.9999999999842
 30
0.0
 40
5.0
  0
TEXT
  5
9933D
330
99250
100
AcDbEntity
  8
SIZE
100
AcDbText
 10
-711.0023616050077
 20
-145.1428571428411
 30
0.0
 40
30.0
  1
100
 50
90.0
 41
0.9
100
AcDbText
  0
LINE
  5
9933E
330
99250
100
AcDbEntity
  8
SIZE
100
AcDbLine
 10
-564.9999999999964
 20
0.0000000000002842
 30
0.0
 11
-768.3649675130221
 21
0.0000000000002558
 31
0.0
  0
LINE
  5
9933F
330
99250
100
AcDbEntity
  8
SIZE
100
AcDbLine
 10
-544.9999999999966
 20
-22.99999999998413
 30
0.0
 11
-768.3649675130221
 21
-22.99999999998416
 31
0.0
  0
LINE
  5
99340
330
99250
100
AcDbEntity
  8
SIZE
100
AcDbLine
 10
-763.3649675130222
 20
-22.99999999998416
 30
0.0
 11
-763.3649675130222
 21
-42.99999999998415
 31
0.0
  0
LINE
  5
99341
330
99250
100
AcDbEntity
  8
SIZE
100
AcDbLine
 10
-763.3649675130222
 20
0.0000000000002558
 30
0.0
 11
-763.3649675130222
 21
113.7142857142879
 31
0.0
  0
LINE
  5
99342
330
99250
100
AcDbEntity
  8
SIZE
100
AcDbLine
 10
-763.3649675130222
 20
-22.99999999998416
 30
0.0
 11
-763.3649675130222
 21
0.0000000000002558
 31
0.0
  0
CIRCLE
  5
99343
330
99250
100
AcDbEntity
  8
SIZE
100
AcDbCircle
 10
-763.3649675130222
 20
-22.99999999998416
 30
0.0
 40
5.0
  0
CIRCLE
  5
99344
330
99250
100
AcDbEntity
  8
SIZE
100
AcDbCircle
 10
-763.3649675130222
 20
0.0000000000002558
 30
0.0
 40
5.0
  0
TEXT
  5
99345
330
99250
100
AcDbEntity
  8
SIZE
100
AcDbText
 10
-778.3649675130217
 20
55.00000000000243
 30
0.0
 40
30.0
  1
23
 50
90.0
 41
0.9
100
AcDbText
  0
LINE
  5
99346
330
99250
100
AcDbEntity
  8
SIZE
100
AcDbLine
 10
-544.9999999999966
 20
-22.99999999998413
 30
0.0
 11
-768.3649675130229
 21
-22.99999999998416
 31
0.0
  0
LINE
  5
99347
330
99250
100
AcDbEntity
  8
SIZE
100
AcDbLine
 10
-564.9999999999964
 20
-200.9999999999842
 30
0.0
 11
-768.3649675130227
 21
-200.9999999999843
 31
0.0
  0
LINE
  5
99348
330
99250
100
AcDbEntity
  8
SIZE
100
AcDbLine
 10
-763.364967513023
 20
-22.99999999998416
 30
0.0
 11
-763.3649675130227
 21
-200.9999999999843
 31
0.0
  0
TEXT
  5
99349
330
99250
100
AcDbEntity
  8
SIZE
100
AcDbText
 10
-780.7082870304927
 20
-207.7857142856984
 30
0.0
 40
30.0
  1
178(Duct)
 50
90.0
 41
0.9
100
AcDbText
  0
CIRCLE
  5
9934A
330
99250
100
AcDbEntity
  8
SIZE
100
AcDbCircle
 10
-763.364967513023
 20
-22.99999999998416
 30
0.0
 40
5.0
  0
CIRCLE
  5
9934B
330
99250
100
AcDbEntity
  8
SIZE
100
AcDbCircle
 10
-763.3649675130227
 20
-200.9999999999843
 30
0.0
 40
5.0
  0
LINE
  5
9934C
330
99250
100
AcDbEntity
  8
SIZE
100
AcDbLine
 10
-529.9999999999963
 20
-7.999999999984068
 30
0.0
 11
-529.9999999999963
 21
221.2712588304867
 31
0.0
  0
LINE
  5
9934D
330
99250
100
AcDbEntity
  8
SIZE
100
AcDbLine
 10
530.0000000000036
 20
-7.999999999984068
 30
0.0
 11
530.0000000000036
 21
221.2712588304867
 31
0.0
  0
LINE
  5
9934E
330
99250
100
AcDbEntity
  8
SIZE
100
AcDbLine
 10
-529.9999999999963
 20
216.2712588304867
 30
0.0
 11
530.0000000000036
 21
216.2712588304867
 31
0.0
  0
CIRCLE
  5
9934F
330
99250
100
AcDbEntity
  8
SIZE
100
AcDbCircle
 10
-529.9999999999963
 20
216.2712588304867
 30
0.0
 40
5.0
  0
CIRCLE
  5
99350
330
99250
100
AcDbEntity
  8
SIZE
100
AcDbCircle
 10
530.0000000000036
 20
216.2712588304867
 30
0.0
 40
5.0
  0
TEXT
  5
99351
330
99250
100
AcDbEntity
  8
SIZE
100
AcDbText
 10
-108.6428571428535
 20
244.1284016876295
 30
0.0
 40
30.0
  1
1060(Duct)
 41
0.9
100
AcDbText
  0
LINE
  5
99352
330
99250
100
AcDbEntity
  8
SIZE
100
AcDbLine
 10
530.0000000000036
 20
-7.999999999984068
 30
0.0
 11
530.0000000000036
 21
221.2712588304867
 31
0.0
  0
LINE
  5
99353
330
99250
100
AcDbEntity
  8
SIZE
100
AcDbLine
 10
550.0000000000036
 20
15.00000000000034
 30
0.0
 11
550.0000000000036
 21
221.2712588304867
 31
0.0
  0
LINE
  5
99354
330
99250
100
AcDbEntity
  8
SIZE
100
AcDbLine
 10
530.0000000000036
 20
216.2712588304867
 30
0.0
 11
510.0000000000036
 21
216.2712588304867
 31
0.0
  0
LINE
  5
99355
330
99250
100
AcDbEntity
  8
SIZE
100
AcDbLine
 10
550.0000000000036
 20
216.2712588304867
 30
0.0
 11
570.0000000000036
 21
216.2712588304867
 31
0.0
  0
LINE
  5
99356
330
99250
100
AcDbEntity
  8
SIZE
100
AcDbLine
 10
540.0000000000036
 20
216.2712588304867
 30
0.0
 11
528.1358783072428
 21
258.0066305877817
 31
0.0
  0
LINE
  5
99357
330
99250
100
AcDbEntity
  8
SIZE
100
AcDbLine
 10
528.1358783072428
 20
258.0066305877817
 30
0.0
 11
454.4215925929571
 21
258.0066305877817
 31
0.0
  0
TEXT
  5
99358
330
99250
100
AcDbEntity
  8
SIZE
100
AcDbText
 10
469.4215925929571
 20
273.0066305877817
 30
0.0
 40
30.0
  1
20
 41
0.9
100
AcDbText
  0
LINE
  5
99359
330
99250
100
AcDbEntity
  8
SIZE
100
AcDbLine
 10
530.0000000000036
 20
216.2712588304867
 30
0.0
 11
550.0000000000036
 21
216.2712588304867
 31
0.0
  0
LINE
  5
9935A
330
99250
100
AcDbEntity
  8
SIZE
100
AcDbLine
 10
530.0000000000036
 20
216.2712588304867
 30
0.0
 11
550.0000000000036
 21
216.2712588304867
 31
0.0
  0
CIRCLE
  5
9935B
330
99250
100
AcDbEntity
  8
SIZE
100
AcDbCircle
 10
530.0000000000036
 20
216.2712588304867
 30
0.0
 40
5.0
  0
CIRCLE
  5
9935C
330
99250
100
AcDbEntity
  8
SIZE
100
AcDbCircle
 10
550.0000000000036
 20
216.2712588304867
 30
0.0
 40
5.0
  0
CIRCLE
  5
9935D
330
99250
100
AcDbEntity
  8
FIX
100
AcDbCircle
 10
-576.999999999998
 20
-15.02145922746852
 30
0.0
 40
9.947006128806801
  0
CIRCLE
  5
9935E
330
99250
100
AcDbEntity
  8
FIX
100
AcDbCircle
 10
577.0000000000017
 20
-14.99999999998384
 30
0.0
 40
9.947006128806801
  0
LINE
  5
9935F
330
99250
100
AcDbEntity
  8
NOTE
100
AcDbLine
 10
500.0000000000036
 20
-19.36348759542396
 30
0.0
 11
500.0000000000036
 21
-26.63651240454418
 31
0.0
  0
LINE
  5
99360
330
99250
100
AcDbEntity
  8
NOTE
100
AcDbLine
 10
503.6365124045623
 20
-22.99999999998407
 30
0.0
 11
496.3634875954411
 21
-22.99999999998407
 31
0.0
  0
LINE
  5
99361
330
99250
100
AcDbEntity
  8
NOTE
100
AcDbLine
 10
500.0000000000036
 20
-197.3634875954242
 30
0.0
 11
500.0000000000036
 21
-204.6365124045444
 31
0.0
  0
LINE
  5
99362
330
99250
100
AcDbEntity
  8
NOTE
100
AcDbLine
 10
503.6365124045623
 20
-200.9999999999843
 30
0.0
 11
496.3634875954411
 21
-200.9999999999843
 31
0.0
  0
LINE
  5
99363
330
99250
100
AcDbEntity
  8
NOTE
100
AcDbLine
 10
-299.9999999999964
 20
-19.36348759542396
 30
0.0
 11
-299.9999999999964
 21
-26.63651240454418
 31
0.0
  0
LINE
  5
99364
330
99250
100
AcDbEntity
  8
NOTE
100
AcDbLine
 10
-296.3634875954376
 20
-22.99999999998407
 30
0.0
 11
-303.6365124045588
 21
-22.99999999998407
 31
0.0
  0
LINE
  5
99365
330
99250
100
AcDbEntity
  8
NOTE
100
AcDbLine
 10
-299.9999999999964
 20
-197.3634875954242
 30
0.0
 11
-299.9999999999964
 21
-204.6365124045444
 31
0.0
  0
LINE
  5
99366
330
99250
100
AcDbEntity
  8
NOTE
100
AcDbLine
 10
-296.3634875954376
 20
-200.9999999999843
 30
0.0
 11
-303.6365124045588
 21
-200.9999999999843
 31
0.0
  0
LINE
  5
99367
330
99250
100
AcDbEntity
  8
NOTE
100
AcDbLine
 10
300.0000000000036
 20
-19.36348759542396
 30
0.0
 11
300.0000000000036
 21
-26.63651240454418
 31
0.0
  0
LINE
  5
99368
330
99250
100
AcDbEntity
  8
NOTE
100
AcDbLine
 10
303.6365124045624
 20
-22.99999999998407
 30
0.0
 11
296.3634875954411
 21
-22.99999999998407
 31
0.0
  0
LINE
  5
99369
330
99250
100
AcDbEntity
  8
NOTE
100
AcDbLine
 10
300.0000000000036
 20
-197.3634875954242
 30
0.0
 11
300.0000000000036
 21
-204.6365124045444
 31
0.0
  0
LINE
  5
9936A
330
99250
100
AcDbEntity
  8
NOTE
100
AcDbLine
 10
303.6365124045624
 20
-200.9999999999843
 30
0.0
 11
296.3634875954411
 21
-200.9999999999843
 31
0.0
  0
LINE
  5
9936B
330
99250
100
AcDbEntity
  8
NOTE
100
AcDbLine
 10
-199.9999999999963
 20
-19.36348759542396
 30
0.0
 11
-199.9999999999963
 21
-26.63651240454418
 31
0.0
  0
LINE
  5
9936C
330
99250
100
AcDbEntity
  8
NOTE
100
AcDbLine
 10
-196.3634875954376
 20
-22.99999999998407
 30
0.0
 11
-203.6365124045588
 21
-22.99999999998407
 31
0.0
  0
LINE
  5
9936D
330
99250
100
AcDbEntity
  8
NOTE
100
AcDbLine
 10
-199.9999999999963
 20
-197.3634875954242
 30
0.0
 11
-199.9999999999963
 21
-204.6365124045444
 31
0.0
  0
LINE
  5
9936E
330
99250
100
AcDbEntity
  8
NOTE
100
AcDbLine
 10
-196.3634875954376
 20
-200.9999999999843
 30
0.0
 11
-203.6365124045588
 21
-200.9999999999843
 31
0.0
  0
LINE
  5
9936F
330
99250
100
AcDbEntity
  8
SERVICESPACE
100
AcDbLine
 10
-549.9999999999963
 20
-649.9999999999843
 30
0.0
 11
-549.9999999999963
 21
-669.9999999999842
 31
0.0
  0
LINE
  5
99370
330
99250
100
AcDbEntity
  8
SERVICESPACE
100
AcDbLine
 10
1150.000000000003
 20
-649.9999999999843
 30
0.0
 11
1150.000000000003
 21
-669.9999999999842
 31
0.0
  0
LINE
  5
99371
330
99250
100
AcDbEntity
  8
SERVICESPACE
100
AcDbLine
 10
700.0000000000036
 20
-649.9999999999843
 30
0.0
 11
700.0000000000036
 21
-669.9999999999842
 31
0.0
  0
LINE
  5
99372
330
99250
100
AcDbEntity
  8
SERVICESPACE
100
AcDbLine
 10
200.0000000000091
 20
-650.6402813732568
 30
0.0
 11
200.0000000000073
 21
-670.6402813732568
 31
0.0
  0
LINE
  5
99373
330
99250
100
AcDbEntity
  8
SERVICESPACE
100
AcDbLine
 10
-249.9999999999936
 20
-650.6402813732568
 30
0.0
 11
-249.9999999999936
 21
-670.6402813732568
 31
0.0
  0
LINE
  5
99374
330
99250
100
AcDbEntity
  8
SERVICESPACE
100
AcDbLine
 10
-249.9999999999936
 20
-670.6402813732568
 30
0.0
 11
200.0000000000073
 21
-650.6402813732568
 31
0.0
  0
LINE
  5
99375
330
99250
100
AcDbEntity
  8
SERVICESPACE
100
AcDbLine
 10
200.0000000000073
 20
-670.6402813732568
 30
0.0
 11
-249.9999999999936
 21
-650.6402813732568
 31
0.0
  0
LINE
  5
99376
330
99250
100
AcDbEntity
  8
SIZE
100
AcDbLine
 10
-249.9999999999936
 20
-685.6402813732568
 30
0.0
 11
-249.9999999999936
 21
-931.5190046320108
 31
0.0
  0
LINE
  5
99377
330
99250
100
AcDbEntity
  8
SIZE
100
AcDbLine
 10
200.0000000000073
 20
-685.6402813732568
 30
0.0
 11
200.0000000000071
 21
-931.5190046320108
 31
0.0
  0
LINE
  5
99378
330
99250
100
AcDbEntity
  8
SIZE
100
AcDbLine
 10
-249.9999999999936
 20
-926.5190046320103
 30
0.0
 11
200.0000000000071
 21
-926.5190046320103
 31
0.0
  0
CIRCLE
  5
99379
330
99250
100
AcDbEntity
  8
SIZE
100
AcDbCircle
 10
-249.9999999999936
 20
-926.5190046320103
 30
0.0
 40
5.0
  0
CIRCLE
  5
9937A
330
99250
100
AcDbEntity
  8
SIZE
100
AcDbCircle
 10
200.0000000000071
 20
-926.5190046320103
 30
0.0
 40
5.0
  0
TEXT
  5
9937B
330
99250
100
AcDbEntity
  8
SIZE
100
AcDbText
 10
-59.7142857142789
 20
-911.5190046320106
 30
0.0
 40
30.0
  1
450
 41
0.9
100
AcDbText
  0
TEXT
  5
9937C
330
99250
100
AcDbEntity
  8
NOTE
100
AcDbText
 10
-933.7665789290158
 20
-790.6158646529495
 30
0.0
 40
35.0
  1
Ceiling surface
 50
0.0000006832429822
 41
0.7
  7
STANDARD1
100
AcDbText
  0
LINE
  5
9937D
330
99250
100
AcDbEntity
  8
NOTE
100
AcDbLine
 10
-502.1645260329205
 20
-669.9999999999842
 30
0.0
 11
-511.3723895378561
 21
-703.1295173472888
 31
0.0
  0
LINE
  5
9937E
330
99250
100
AcDbEntity
  8
NOTE
100
AcDbLine
 10
-502.1645260329205
 20
-669.9999999999842
 30
0.0
 11
-526.7035287673498
 21
-694.087071527854
 31
0.0
  0
LINE
  5
9937F
330
99250
100
AcDbEntity
  8
NOTE
100
AcDbLine
 10
-577.6375247688673
 20
-800.8685844505905
 30
0.0
 11
-502.1645260329205
 21
-669.9999999999842
 31
0.0
  0
LINE
  5
99380
330
99250
100
AcDbEntity
  8
NOTE
100
AcDbLine
 10
-943.8906393542747
 20
-800.8685844505905
 30
0.0
 11
-577.6375247688673
 21
-800.8685844505905
 31
0.0
  0
LINE
  5
99381
330
99250
100
AcDbEntity
  8
SIZE
100
AcDbLine
 10
-564.9999999999964
 20
-249.999999999989
 30
0.0
 11
-842.9303594522432
 21
-249.999999999989
 31
0.0
  0
LINE
  5
99382
330
99250
100
AcDbEntity
  8
SIZE
100
AcDbLine
 10
-478.3076796307178
 20
-549.9999999999845
 30
0.0
 11
-842.9303594522432
 21
-549.9999999999845
 31
0.0
  0
LINE
  5
99383
330
99250
100
AcDbEntity
  8
SIZE
100
AcDbLine
 10
-837.9303594522435
 20
-249.999999999989
 30
0.0
 11
-837.9303594522435
 21
-549.9999999999845
 31
0.0
  0
CIRCLE
  5
99384
330
99250
100
AcDbEntity
  8
SIZE
100
AcDbCircle
 10
-837.9303594522435
 20
-249.999999999989
 30
0.0
 40
5.0
  0
CIRCLE
  5
99385
330
99250
100
AcDbEntity
  8
SIZE
100
AcDbCircle
 10
-837.9303594522435
 20
-549.9999999999845
 30
0.0
 40
5.0
  0
TEXT
  5
99386
330
99250
100
AcDbEntity
  8
SIZE
100
AcDbText
 10
-852.9303594522431
 20
-511.2142857142723
 30
0.0
 40
30.0
  1
Min.300mm
 50
90.0
 41
0.9
100
AcDbText
  0
LINE
  5
99387
330
99250
100
AcDbEntity
  8
OUTLINE
100
AcDbLine
 10
440.8109478027181
 20
-569.0028124857113
 30
0.0
 11
440.8109478027181
 21
-609.0028124857115
 31
0.0
  0
LINE
  5
99388
330
99250
100
AcDbEntity
  8
OUTLINE
100
AcDbLine
 10
440.8109478027181
 20
-609.0028124857115
 30
0.0
 11
480.8109478027181
 21
-609.0028124857115
 31
0.0
  0
LINE
  5
99389
330
99250
100
AcDbEntity
  8
OUTLINE
100
AcDbLine
 10
480.8109478027181
 20
-609.0028124857115
 30
0.0
 11
480.8109478027181
 21
-569.0028124857113
 31
0.0
  0
LINE
  5
9938A
330
99250
100
AcDbEntity
  8
OUTLINE
100
AcDbLine
 10
480.8109478027181
 20
-569.0028124857113
 30
0.0
 11
440.8109478027181
 21
-569.0028124857113
 31
0.0
  0
LINE
  5
9938B
330
99250
100
AcDbEntity
  8
OUTLINE
100
AcDbLine
 10
480.8109478027181
 20
-609.0028124857115
 30
0.0
 11
440.8109478027181
 21
-569.0028124857113
 31
0.0
  0
LINE
  5
9938C
330
99250
100
AcDbEntity
  8
OUTLINE
100
AcDbLine
 10
440.8109478027181
 20
-609.0028124857115
 30
0.0
 11
480.8109478027181
 21
-569.0028124857113
 31
0.0
  0
LINE
  5
9938D
330
99250
100
AcDbEntity
  8
OUTLINE
100
AcDbLine
 10
-463.3076796307177
 20
-549.9999999999841
 30
0.0
 11
-463.3076796307177
 21
-589.9999999999843
 31
0.0
  0
LINE
  5
9938E
330
99250
100
AcDbEntity
  8
OUTLINE
100
AcDbLine
 10
-463.3076796307177
 20
-589.9999999999843
 30
0.0
 11
-423.3076796307178
 21
-589.9999999999843
 31
0.0
  0
LINE
  5
9938F
330
99250
100
AcDbEntity
  8
OUTLINE
100
AcDbLine
 10
-423.3076796307178
 20
-589.9999999999843
 30
0.0
 11
-423.3076796307178
 21
-549.9999999999841
 31
0.0
  0
LINE
  5
99390
330
99250
100
AcDbEntity
  8
OUTLINE
100
AcDbLine
 10
-423.3076796307178
 20
-549.9999999999841
 30
0.0
 11
-463.3076796307177
 21
-549.9999999999841
 31
0.0
  0
LINE
  5
99391
330
99250
100
AcDbEntity
  8
OUTLINE
100
AcDbLine
 10
-423.3076796307178
 20
-589.9999999999843
 30
0.0
 11
-463.3076796307177
 21
-549.9999999999841
 31
0.0
  0
LINE
  5
99392
330
99250
100
AcDbEntity
  8
OUTLINE
100
AcDbLine
 10
-463.3076796307177
 20
-589.9999999999843
 30
0.0
 11
-423.3076796307178
 21
-549.9999999999841
 31
0.0
  0
TEXT
  5
99393
330
99250
100
AcDbEntity
  8
NOTE
100
AcDbText
 10
834.9571711267799
 20
-745.4760450316381
 30
0.0
 40
35.0
  1
Access door 1
 50
0.0000006832429822
 41
0.7
  7
STANDARD1
100
AcDbText
  0
LINE
  5
99394
330
99250
100
AcDbEntity
  8
NOTE
100
AcDbLine
 10
748.9898310858023
 20
-669.9999999999842
 30
0.0
 11
778.8820683662442
 21
-686.9942290310589
 31
0.0
  0
LINE
  5
99395
330
99250
100
AcDbEntity
  8
NOTE
100
AcDbLine
 10
748.9898310858023
 20
-669.9999999999842
 30
0.0
 11
766.3801529988759
 21
-699.6635529521969
 31
0.0
  0
LINE
  5
99396
330
99250
100
AcDbEntity
  8
NOTE
100
AcDbLine
 10
835.1895287381248
 20
-753.8452122924114
 30
0.0
 11
748.9898310858023
 21
-669.9999999999842
 31
0.0
  0
LINE
  5
99397
330
99250
100
AcDbEntity
  8
NOTE
100
AcDbLine
 10
835.1895287381248
 20
-753.8452122924114
 30
0.0
 11
1124.863271608832
 21
-753.8452122924114
 31
0.0
  0
LINE
  5
99398
330
99250
100
AcDbEntity
  8
NOTE
100
AcDbLine
 10
-188.4968760123829
 20
-702.8381868719168
 30
0.0
 11
-203.8136813020174
 21
-669.9999999999842
 31
0.0
  0
LINE
  5
99399
330
99250
100
AcDbEntity
  8
NOTE
100
AcDbLine
 10
-203.8136813020174
 20
-669.9999999999842
 30
0.0
 11
-174.1298454746784
 21
-690.7803015351429
 31
0.0
  0
LINE
  5
9939A
330
99250
100
AcDbEntity
  8
NOTE
100
AcDbLine
 10
-203.8136813020174
 20
-669.9999999999842
 30
0.0
 11
-181.3133607435311
 21
-696.8092442035298
 31
0.0
  0
LINE
  5
9939B
330
99250
100
AcDbEntity
  8
NOTE
100
AcDbLine
 10
-181.3133607435311
 20
-696.8092442035298
 30
0.0
 11
-134.3543913754292
 21
-752.7610904922893
 31
0.0
1001
ACAD
1000
DSTYLE
1002
{
1070
    41
1040
35.0
1070
   341
1005
4C0C3
1070
   271
1070
     0
1002
}
  0
LINE
  5
9939C
330
99250
100
AcDbEntity
  8
NOTE
100
AcDbLine
 10
-134.3543913754292
 20
-752.7610904922893
 30
0.0
 11
164.3421059320972
 21
-752.7610904922893
 31
0.0
1001
ACAD
1000
DSTYLE
1002
{
1070
    41
1040
35.0
1070
   341
1005
4C0C3
1070
   271
1070
     0
1002
}
  0
TEXT
  5
9939D
330
99250
100
AcDbEntity
  8
NOTE
100
AcDbText
 10
-126.4181907997536
 20
-744.2662575107798
 30
0.0
 40
35.0
  1
Access door 2
 50
0.0000006832429822
 41
0.7
  7
STANDARD1
100
AcDbText
  0
TEXT
  5
9939E
330
99250
100
AcDbEntity
  8
NOTE
100
AcDbText
 10
-105.5935858776029
 20
-809.9407103958036
 30
0.0
 40
35.0
  1
(450X450)
 50
359.9999974955248
 41
0.6
  7
STANDARD1
100
AcDbText
  0
TEXT
  5
9939F
330
99250
100
AcDbEntity
  8
NOTE
100
AcDbText
 10
846.8699205382945
 20
-808.4034323513767
 30
0.0
 40
35.0
  1
(450X450)
 50
359.9999974955248
 41
0.6
  7
STANDARD1
100
AcDbText
  0
LINE
  5
993A0
330
99250
100
AcDbEntity
  8
NOTE
100
AcDbLine
 10
415.2439786089288
 20
-543.3263421760999
 30
0.0
 11
440.8109478027181
 21
-569.0028124857113
 31
0.0
  0
LINE
  5
993A1
330
99250
100
AcDbEntity
  8
NOTE
100
AcDbLine
 10
440.8109478027181
 20
-569.0028124857113
 30
0.0
 11
405.8310678712005
 21
-559.5498213562781
 31
0.0
  0
LINE
  5
993A2
330
99250
100
AcDbEntity
  8
NOTE
100
AcDbLine
 10
440.8109478027181
 20
-569.0028124857113
 30
0.0
 11
410.5375232400646
 21
-551.4380817661892
 31
0.0
  0
LINE
  5
993A3
330
99250
100
AcDbEntity
  8
NOTE
100
AcDbLine
 10
410.5375232400646
 20
-551.4380817661889
 30
0.0
 11
319.0300813517597
 21
-498.3451925797023
 31
0.0
1001
ACAD
1000
DSTYLE
1002
{
1070
    41
1040
35.0
1070
   271
1070
     0
1070
   341
1005
4C0C3
1002
}
  0
LINE
  5
993A4
330
99250
100
AcDbEntity
  8
NOTE
100
AcDbLine
 10
319.0300813517597
 20
-498.3451925797023
 30
0.0
 11
28.4966076269111
 21
-498.3451925797023
 31
0.0
1001
ACAD
1000
DSTYLE
1002
{
1070
    41
1040
35.0
1070
   271
1070
     0
1070
   341
1005
4C0C3
1002
}
  0
TEXT
  5
993A5
330
99250
100
AcDbEntity
  8
NOTE
100
AcDbText
 10
31.96593631571159
 20
-474.3953880400911
 30
0.0
 40
35.0
  1
Ceiling beam
 50
359.999999316757
 41
0.7
  7
STANDARD1
100
AcDbText
  0
TEXT
  5
993A6
330
99250
100
AcDbEntity
  8
NOTE
100
AcDbText
 10
763.142719175561
 20
-472.8960982021624
 30
0.0
 40
26.24081511270206
  1
Drain pipe
 50
359.9999974955184
 41
0.6
  7
STANDARD1
100
AcDbText
  0
TEXT
  5
993A7
330
99250
100
AcDbEntity
  8
NOTE
100
AcDbText
 10
764.4131873238328
 20
-505.9139124778437
 30
0.0
 40
26.24081511270206
  1
(O.D.%%C32)
 50
359.9999974955184
 41
0.6
  7
STANDARD1
100
AcDbText
  0
TEXT
  5
993A8
330
99250
100
AcDbEntity
  8
NOTE
100
AcDbText
 10
762.9384922007321
 20
-547.783880763802
 30
0.0
 40
26.24081511270206
  1
(Spontaneous
 50
359.9999974955184
 41
0.6
  7
STANDARD1
100
AcDbText
  0
TEXT
  5
993A9
330
99250
100
AcDbEntity
  8
NOTE
100
AcDbText
 10
779.1524597058177
 20
-579.5317726230189
 30
0.0
 40
26.24081511270206
  1
draining)
 50
359.9999974955184
 41
0.6
  7
STANDARD1
100
AcDbText
  0
LINE
  5
993AA
330
99250
100
AcDbEntity
  8
NOTE
100
AcDbLine
 10
747.9249930759015
 20
-517.7504024217049
 30
0.0
 11
948.5794808774608
 21
-517.7504024217049
 31
0.0
  0
LINE
  5
993AB
330
99250
100
AcDbEntity
  8
NOTE
100
AcDbLine
 10
590.0000000000036
 20
-216.9999999999841
 30
0.0
 11
613.1381417522916
 21
-242.435724213025
 31
0.0
  0
LINE
  5
993AC
330
99250
100
AcDbEntity
  8
NOTE
100
AcDbLine
 10
590.0000000000036
 20
-216.9999999999841
 30
0.0
 11
597.3203559578232
 21
-250.5970543149055
 31
0.0
  0
LINE
  5
993AD
330
99250
100
AcDbEntity
  8
NOTE
100
AcDbLine
 10
747.9249930759015
 20
-517.7504024217049
 30
0.0
 11
590.0000000000036
 21
-216.9999999999841
 31
0.0
  0
LINE
  5
993AE
330
99250
100
AcDbEntity
  8
SIZE
100
AcDbLine
 10
-249.9999999999936
 20
-685.6402813732568
 30
0.0
 11
-249.9999999999936
 21
-931.5190046320108
 31
0.0
  0
LINE
  5
993AF
330
99250
100
AcDbEntity
  8
SIZE
100
AcDbLine
 10
-549.9999999999963
 20
-264.9999999999888
 30
0.0
 11
-549.9999999999963
 21
-931.5190046320108
 31
0.0
  0
LINE
  5
993B0
330
99250
100
AcDbEntity
  8
SIZE
100
AcDbLine
 10
-249.9999999999936
 20
-926.5190046320103
 30
0.0
 11
-549.9999999999963
 21
-926.5190046320103
 31
0.0
  0
CIRCLE
  5
993B1
330
99250
100
AcDbEntity
  8
SIZE
100
AcDbCircle
 10
-249.9999999999936
 20
-926.5190046320103
 30
0.0
 40
5.0
  0
CIRCLE
  5
993B2
330
99250
100
AcDbEntity
  8
SIZE
100
AcDbCircle
 10
-549.9999999999963
 20
-926.5190046320103
 30
0.0
 40
5.0
  0
TEXT
  5
993B3
330
99250
100
AcDbEntity
  8
SIZE
100
AcDbText
 10
-489.9999999999948
 20
-911.5190046320106
 30
0.0
 40
30.0
  1
250~350
 41
0.9
100
AcDbText
  0
LINE
  5
993B4
330
99250
100
AcDbEntity
  8
SIZE
100
AcDbLine
 10
700.0000000000036
 20
-684.9999999999843
 30
0.0
 11
700.0000000000036
 21
-931.5190046320108
 31
0.0
  0
LINE
  5
993B5
330
99250
100
AcDbEntity
  8
SIZE
100
AcDbLine
 10
550.0000000000036
 20
-264.9999999999843
 30
0.0
 11
550.0000000000036
 21
-931.5190046320108
 31
0.0
  0
LINE
  5
993B6
330
99250
100
AcDbEntity
  8
SIZE
100
AcDbLine
 10
700.0000000000036
 20
-926.5190046320103
 30
0.0
 11
550.0000000000036
 21
-926.5190046320103
 31
0.0
  0
LINE
  5
993B7
330
99250
100
AcDbEntity
  8
SIZE
100
AcDbLine
 10
625.0000000000036
 20
-926.5190046320103
 30
0.0
 11
704.5978164225308
 21
-984.8183484568865
 31
0.0
  0
LINE
  5
993B8
330
99250
100
AcDbEntity
  8
SIZE
100
AcDbLine
 10
704.5978164225308
 20
-984.8183484568865
 30
0.0
 11
909.4549592796736
 21
-984.8183484568865
 31
0.0
  0
TEXT
  5
993B9
330
99250
100
AcDbEntity
  8
SIZE
100
AcDbText
 10
719.5978164225309
 20
-969.8183484568865
 30
0.0
 40
30.0
  1
100~200
 41
0.9
100
AcDbText
  0
CIRCLE
  5
993BA
330
99250
100
AcDbEntity
  8
SIZE
100
AcDbCircle
 10
700.0000000000036
 20
-926.5190046320103
 30
0.0
 40
5.0
  0
CIRCLE
  5
993BB
330
99250
100
AcDbEntity
  8
SIZE
100
AcDbCircle
 10
550.0000000000036
 20
-926.5190046320103
 30
0.0
 40
5.0
  0
LINE
  5
993BC
330
99250
100
AcDbEntity
  8
NOTE
100
AcDbLine
 10
623.0000000000027
 20
-106.8798402021123
 30
0.0
 11
623.0000000000027
 21
-137.5054088295722
 31
0.0
  0
LINE
  5
993BD
330
99250
100
AcDbEntity
  8
NOTE
100
AcDbLine
 10
633.8662719119955
 20
-122.1926245158422
 30
0.0
 11
612.1337280880098
 21
-122.1926245158422
 31
0.0
  0
LINE
  5
993BE
330
99250
100
AcDbEntity
  8
NOTE
100
AcDbLine
 10
650.0000000000007
 20
-138.9752507553942
 30
0.0
 11
650.0000000000045
 21
-171.4099982762903
 31
0.0
  0
LINE
  5
993BF
330
99250
100
AcDbEntity
  8
NOTE
100
AcDbLine
 10
660.8662719119958
 20
-155.1926245158423
 30
0.0
 11
639.1337280880097
 21
-155.1926245158423
 31
0.0
  0
LINE
  5
993C0
330
99250
100
AcDbEntity
  8
SIZE
100
AcDbLine
 10
565.0000000000057
 20
-0.0000000000036664
 30
0.0
 11
844.2799793577203
 21
-0.0000000000036238
 31
0.0
  0
LINE
  5
993C1
330
99250
100
AcDbEntity
  8
SIZE
100
AcDbLine
 10
648.8662719119957
 20
-122.1926245158424
 30
0.0
 11
844.2799793577203
 21
-122.1926245158423
 31
0.0
  0
LINE
  5
993C2
330
99250
100
AcDbEntity
  8
SIZE
100
AcDbLine
 10
839.2799793577204
 20
-0.0000000000036238
 30
0.0
 11
839.2799793577204
 21
-122.1926245158423
 31
0.0
  0
CIRCLE
  5
993C3
330
99250
100
AcDbEntity
  8
SIZE
100
AcDbCircle
 10
839.2799793577204
 20
-0.0000000000036238
 30
0.0
 40
5.0
  0
CIRCLE
  5
993C4
330
99250
100
AcDbEntity
  8
SIZE
100
AcDbCircle
 10
839.2799793577204
 20
-122.1926245158423
 30
0.0
 40
5.0
  0
TEXT
  5
993C5
330
99250
100
AcDbEntity
  8
SIZE
100
AcDbText
 10
824.2799793577201
 20
-93.23916940078031
 30
0.0
 40
30.0
  1
122
 50
90.0
 41
0.9
100
AcDbText
  0
LINE
  5
993C6
330
99250
100
AcDbEntity
  8
SIZE
100
AcDbLine
 10
648.8662719119957
 20
-122.1926245158424
 30
0.0
 11
844.2799793577561
 21
-122.1926245158423
 31
0.0
  0
LINE
  5
993C7
330
99250
100
AcDbEntity
  8
SIZE
100
AcDbLine
 10
675.8662719119958
 20
-155.1926245158424
 30
0.0
 11
844.2799793577565
 21
-155.1926245158424
 31
0.0
  0
LINE
  5
993C8
330
99250
100
AcDbEntity
  8
SIZE
100
AcDbLine
 10
839.2799793577562
 20
-122.1926245158423
 30
0.0
 11
839.2799793577562
 21
-155.1926245158424
 31
0.0
  0
LINE
  5
993C9
330
99250
100
AcDbEntity
  8
SIZE
100
AcDbLine
 10
839.2799793577562
 20
-155.1926245158424
 30
0.0
 11
839.2799793577562
 21
-288.0720134861959
 31
0.0
  0
CIRCLE
  5
993CA
330
99250
100
AcDbEntity
  8
SIZE
100
AcDbCircle
 10
839.2799793577562
 20
-122.1926245158423
 30
0.0
 40
5.0
  0
CIRCLE
  5
993CB
330
99250
100
AcDbEntity
  8
SIZE
100
AcDbCircle
 10
839.2799793577562
 20
-155.1926245158424
 30
0.0
 40
5.0
  0
TEXT
  5
993CC
330
99250
100
AcDbEntity
  8
SIZE
100
AcDbText
 10
824.279979357756
 20
-273.072013486196
 30
0.0
 40
30.0
  1
33
 50
90.0
 41
0.9
100
AcDbText
  0
LINE
  5
993CD
330
99250
100
AcDbEntity
  8
NOTE
100
AcDbLine
 10
648.6823722932432
 20
-104.7274349958033
 30
0.0
 11
623.0000000000027
 21
-122.1926245158422
 31
0.0
  0
LINE
  5
993CE
330
99250
100
AcDbEntity
  8
NOTE
100
AcDbLine
 10
623.0000000000027
 20
-122.1926245158422
 30
0.0
 11
636.5089922022502
 21
-94.22614062424251
 31
0.0
  0
LINE
  5
993CF
330
99250
100
AcDbEntity
  8
NOTE
100
AcDbLine
 10
623.0000000000027
 20
-122.1926245158422
 30
0.0
 11
642.5956822477466
 21
-99.47678781002293
 31
0.0
  0
LINE
  5
993D0
330
99250
100
AcDbEntity
  8
NOTE
100
AcDbLine
 10
642.5956822477466
 20
-99.47678781002293
 30
0.0
 11
793.9730748525743
 21
76.00391696410453
 31
0.0
1001
ACAD
1000
DSTYLE
1002
{
1070
    41
1040
30.0
1070
    90
1070
     1
1070
   345
1005
12
1070
   346
1005
12
1070
   347
1005
12
1002
}
  0
LINE
  5
993D1
330
99250
100
AcDbEntity
  8
NOTE
100
AcDbLine
 10
793.9730748525743
 20
76.00391696410453
 30
0.0
 11
1369.040555501107
 21
76.00391696410454
 31
0.0
1001
ACAD
1000
DSTYLE
1002
{
1070
    41
1040
30.0
1070
    90
1070
     1
1070
   345
1005
12
1070
   346
1005
12
1070
   347
1005
12
1002
}
  0
LINE
  5
993D2
330
99250
100
AcDbEntity
  8
NOTE
100
AcDbLine
 10
667.0947911319146
 20
-181.1230161005406
 30
0.0
 11
650.0000000000027
 21
-155.1926245158423
 31
0.0
  0
LINE
  5
993D3
330
99250
100
AcDbEntity
  8
NOTE
100
AcDbLine
 10
650.0000000000027
 20
-155.1926245158423
 30
0.0
 11
677.769719121878
 21
-169.1016069182917
 31
0.0
  0
LINE
  5
993D4
330
99250
100
AcDbEntity
  8
NOTE
100
AcDbLine
 10
650.0000000000027
 20
-155.1926245158423
 30
0.0
 11
672.4322551268962
 21
-175.1123115094162
 31
0.0
  0
LINE
  5
993D5
330
99250
100
AcDbEntity
  8
NOTE
100
AcDbLine
 10
672.4322551268962
 20
-175.1123115094162
 30
0.0
 11
923.7945787309271
 21
-398.3203117682437
 31
0.0
1001
ACAD
1000
DSTYLE
1002
{
1070
    41
1040
30.0
1070
    90
1070
     1
1070
   345
1005
12
1070
   346
1005
12
1070
   347
1005
12
1002
}
  0
LINE
  5
993D6
330
99250
100
AcDbEntity
  8
NOTE
100
AcDbLine
 10
923.7945787309271
 20
-398.3203117682437
 30
0.0
 11
1482.209105953543
 21
-398.3203117682437
 31
0.0
1001
ACAD
1000
DSTYLE
1002
{
1070
    41
1040
30.0
1070
    90
1070
     1
1070
   345
1005
12
1070
   346
1005
12
1070
   347
1005
12
1002
}
  0
LINE
  5
993D7
330
99250
100
AcDbEntity
  8
SIZE
100
AcDbLine
 10
623.0000000000027
 20
-152.5054088295722
 30
0.0
 11
623.0000000000027
 21
-414.2817610589204
 31
0.0
  0
LINE
  5
993D8
330
99250
100
AcDbEntity
  8
SIZE
100
AcDbLine
 10
550.0000000000036
 20
-264.9999999999843
 30
0.0
 11
550.0000000000036
 21
-414.2817610589204
 31
0.0
  0
LINE
  5
993D9
330
99250
100
AcDbEntity
  8
SIZE
100
AcDbLine
 10
623.0000000000027
 20
-409.2817610589204
 30
0.0
 11
550.0000000000036
 21
-409.2817610589204
 31
0.0
  0
CIRCLE
  5
993DA
330
99250
100
AcDbEntity
  8
SIZE
100
AcDbCircle
 10
623.0000000000027
 20
-409.2817610589204
 30
0.0
 40
5.0
  0
CIRCLE
  5
993DB
330
99250
100
AcDbEntity
  8
SIZE
100
AcDbCircle
 10
550.0000000000036
 20
-409.2817610589204
 30
0.0
 40
5.0
  0
TEXT
  5
993DC
330
99250
100
AcDbEntity
  8
SIZE
100
AcDbText
 10
564.6428571428603
 20
-394.2817610589204
 30
0.0
 40
30.0
  1
73
 41
0.9
100
AcDbText
  0
ARC
  5
993DD
330
99250
100
AcDbEntity
  8
DETAIL
100
AcDbCircle
 10
607.4979512544014
 20
-25.49303426495986
 30
0.0
 40
0.4998634169600655
100
AcDbArc
 50
0.0
 51
90.0
  0
LINE
  5
993DE
330
99250
100
AcDbEntity
  8
DETAIL
100
AcDbLine
 10
607.997814671362
 20
-54.00008651208809
 30
0.0
 11
607.997814671362
 21
-25.49303426495986
 31
0.0
  0
LINE
  5
993DF
330
99250
100
AcDbEntity
  8
DETAIL
100
AcDbLine
 10
583.0046438233621
 20
-57.23436124190572
 30
0.0
 11
583.0046438233621
 21
-24.74323913952627
 31
0.0
  0
LINE
  5
993E0
330
99250
100
AcDbEntity
  8
DETAIL
100
AcDbLine
 10
550.0000000000018
 20
-57.81045944301933
 30
0.0
 11
583.0046438233621
 21
-57.23436124190572
 31
0.0
  0
LINE
  5
993E1
330
99250
100
AcDbEntity
  8
DETAIL
100
AcDbLine
 10
550.0000000000018
 20
-24.16714093899223
 30
0.0
 11
583.0046438233621
 21
-24.74323913952627
 31
0.0
  0
ARC
  5
993E2
330
99250
100
AcDbEntity
  8
DETAIL
100
AcDbCircle
 10
607.4979512544014
 20
-25.49303426495986
 30
0.0
 40
0.4998634169600655
100
AcDbArc
 50
0.0
 51
90.0
  0
LINE
  5
993E3
330
99250
100
AcDbEntity
  8
DETAIL
100
AcDbLine
 10
583.0046438233621
 20
-24.99317084799928
 30
0.0
 11
597.5006829152007
 21
-24.99317084799928
 31
0.0
  0
LINE
  5
993E4
330
99250
100
AcDbEntity
  8
DETAIL
100
AcDbLine
 10
600.0000000000036
 20
-24.99317084799928
 30
0.0
 11
607.4979512544014
 21
-24.99317084799928
 31
0.0
  0
LINE
  5
993E5
330
99250
100
AcDbEntity
  8
DETAIL
100
AcDbLine
 10
650.0000000000027
 20
-145.9926245158415
 30
0.0
 11
650.0000000000027
 21
-164.3926245158429
 31
0.0
  0
LINE
  5
993E6
330
99250
100
AcDbEntity
  8
DETAIL
100
AcDbLine
 10
634.5029437252033
 20
-145.9926245158415
 30
0.0
 11
634.5029437252033
 21
-164.3926245158429
 31
0.0
  0
LINE
  5
993E7
330
99250
100
AcDbEntity
  8
DETAIL
100
AcDbLine
 10
633.2429437252031
 20
-147.2526245158418
 30
0.0
 11
633.2429437252031
 21
-163.1326245158428
 31
0.0
  0
LINE
  5
993E8
330
99250
100
AcDbEntity
  8
DETAIL
100
AcDbLine
 10
623.0000000000027
 20
-116.682624515842
 30
0.0
 11
623.0000000000027
 21
-127.7026245158425
 31
0.0
  0
LINE
  5
993E9
330
99250
100
AcDbEntity
  8
DETAIL
100
AcDbLine
 10
612.7100505064036
 20
-116.682624515842
 30
0.0
 11
612.7100505064036
 21
-127.7026245158425
 31
0.0
  0
LINE
  5
993EA
330
99250
100
AcDbEntity
  8
DETAIL
100
AcDbLine
 10
611.9600505064036
 20
-117.432624515842
 30
0.0
 11
611.9600505064036
 21
-126.9526245158425
 31
0.0
  0
LINE
  5
993EB
330
99250
100
AcDbEntity
  8
DETAIL
100
AcDbLine
 10
580.0000000000027
 20
-155.2926245158426
 30
0.0
 11
580.0000000000027
 21
-173.1924686104424
 31
0.0
  0
LINE
  5
993EC
330
99250
100
AcDbEntity
  8
DETAIL
100
AcDbLine
 10
580.0000000000027
 20
-122.2926245158426
 30
0.0
 11
580.0000000000027
 21
-155.0926245158419
 31
0.0
  0
LINE
  5
993ED
330
99250
100
AcDbEntity
  8
DETAIL
100
AcDbLine
 10
580.0000000000027
 20
-107.1926262075424
 30
0.0
 11
580.0000000000027
 21
-122.0926245158419
 31
0.0
  0
LINE
  5
993EE
330
99250
100
AcDbEntity
  8
DETAIL
100
AcDbLine
 10
634.5029437252033
 20
-145.9926245158415
 30
0.0
 11
633.2429437252031
 21
-147.2526245158418
 31
0.0
  0
LINE
  5
993EF
330
99250
100
AcDbEntity
  8
DETAIL
100
AcDbLine
 10
612.7100505064036
 20
-116.682624515842
 30
0.0
 11
611.9600505064036
 21
-117.432624515842
 31
0.0
  0
LINE
  5
993F0
330
99250
100
AcDbEntity
  8
DETAIL
100
AcDbLine
 10
550.0000000000036
 20
-173.1926245158423
 30
0.0
 11
580.0000000000027
 21
-173.1926245158423
 31
0.0
  0
LINE
  5
993F1
330
99250
100
AcDbEntity
  8
DETAIL
100
AcDbLine
 10
650.0000000000027
 20
-164.3926245158429
 30
0.0
 11
634.5029437252033
 21
-164.3926245158429
 31
0.0
  0
LINE
  5
993F2
330
99250
100
AcDbEntity
  8
DETAIL
100
AcDbLine
 10
633.2429437252031
 20
-163.1326245158428
 30
0.0
 11
580.0000000000027
 21
-163.1326245158428
 31
0.0
  0
LINE
  5
993F3
330
99250
100
AcDbEntity
  8
DETAIL
100
AcDbLine
 10
633.2429437252031
 20
-147.2526245158418
 30
0.0
 11
580.0000000000027
 21
-147.2526245158418
 31
0.0
  0
LINE
  5
993F4
330
99250
100
AcDbEntity
  8
DETAIL
100
AcDbLine
 10
650.0000000000027
 20
-145.9926245158415
 30
0.0
 11
634.5029437252033
 21
-145.9926245158415
 31
0.0
  0
LINE
  5
993F5
330
99250
100
AcDbEntity
  8
DETAIL
100
AcDbLine
 10
550.0000000000036
 20
-137.1926245158423
 30
0.0
 11
580.0000000000027
 21
-137.1926245158423
 31
0.0
  0
LINE
  5
993F6
330
99250
100
AcDbEntity
  8
DETAIL
100
AcDbLine
 10
623.0000000000027
 20
-127.7026245158425
 30
0.0
 11
612.7100505064036
 21
-127.7026245158425
 31
0.0
  0
LINE
  5
993F7
330
99250
100
AcDbEntity
  8
DETAIL
100
AcDbLine
 10
611.9600505064036
 20
-126.9526245158425
 30
0.0
 11
580.0000000000027
 21
-126.9526245158425
 31
0.0
  0
LINE
  5
993F8
330
99250
100
AcDbEntity
  8
DETAIL
100
AcDbLine
 10
550.0000000000036
 20
-122.2926245158426
 30
0.0
 11
580.0000000000027
 21
-122.2926245158426
 31
0.0
  0
LINE
  5
993F9
330
99250
100
AcDbEntity
  8
DETAIL
100
AcDbLine
 10
580.0000000000027
 20
-117.432624515842
 30
0.0
 11
611.9600505064036
 21
-117.432624515842
 31
0.0
  0
LINE
  5
993FA
330
99250
100
AcDbEntity
  8
DETAIL
100
AcDbLine
 10
623.0000000000027
 20
-116.682624515842
 30
0.0
 11
612.7100505064036
 21
-116.682624515842
 31
0.0
  0
LINE
  5
993FB
330
99250
100
AcDbEntity
  8
DETAIL
100
AcDbLine
 10
550.0000000000036
 20
-107.1926245158422
 30
0.0
 11
580.0000000000027
 21
-107.1926245158422
 31
0.0
  0
LINE
  5
993FC
330
99250
100
AcDbEntity
  8
DETAIL
100
AcDbLine
 10
634.5029437252033
 20
-164.3926245158429
 30
0.0
 11
633.2429437252031
 21
-163.1326245158428
 31
0.0
  0
LINE
  5
993FD
330
99250
100
AcDbEntity
  8
DETAIL
100
AcDbLine
 10
612.7100505064036
 20
-127.7026245158425
 30
0.0
 11
611.9600505064036
 21
-126.9526245158425
 31
0.0
  0
LINE
  5
993FE
330
99250
100
AcDbEntity
  8
DETAIL
100
AcDbLine
 10
608.0046438233621
 20
-25.48436124190572
 30
0.0
 11
608.0046438233621
 21
-56.4843612419057
 31
0.0
  0
LINE
  5
993FF
330
99250
100
AcDbEntity
  8
DETAIL
100
AcDbLine
 10
607.5046438233621
 20
-24.98436124190572
 30
0.0
 11
607.5046438233621
 21
-56.98436124190571
 31
0.0
  0
LINE
  5
99400
330
99250
100
AcDbEntity
  8
DETAIL
100
AcDbLine
 10
607.5046438233621
 20
-56.98436124190571
 30
0.0
 11
583.0046438233621
 21
-56.98436124190571
 31
0.0
  0
ARC
  5
99401
330
99250
100
AcDbEntity
  8
DETAIL
100
AcDbCircle
 10
607.5046438233621
 20
-56.4843612419057
 30
0.0
 40
0.5
100
AcDbArc
 50
270.0
 51
0.0
  0
LINE
  5
99402
330
99250
100
AcDbEntity
  8
SIZE
100
AcDbLine
 10
550.0000000000036
 20
-264.9999999999843
 30
0.0
 11
550.0000000000036
 21
-491.9557907357462
 31
0.0
  0
LINE
  5
99403
330
99250
100
AcDbEntity
  8
SIZE
100
AcDbLine
 10
650.0000000000045
 20
-186.4099982762903
 30
0.0
 11
650.0000000000045
 21
-491.9557907357462
 31
0.0
  0
LINE
  5
99404
330
99250
100
AcDbEntity
  8
SIZE
100
AcDbLine
 10
550.0000000000036
 20
-486.9557907357461
 30
0.0
 11
650.0000000000045
 21
-486.9557907357461
 31
0.0
  0
CIRCLE
  5
99405
330
99250
100
AcDbEntity
  8
SIZE
100
AcDbCircle
 10
550.0000000000036
 20
-486.9557907357461
 30
0.0
 40
5.0
  0
CIRCLE
  5
99406
330
99250
100
AcDbEntity
  8
SIZE
100
AcDbCircle
 10
650.0000000000045
 20
-486.9557907357461
 30
0.0
 40
5.0
  0
TEXT
  5
99407
330
99250
100
AcDbEntity
  8
SIZE
100
AcDbText
 10
567.8571428571468
 20
-471.9557907357462
 30
0.0
 40
30.0
  1
100
 41
0.9
100
AcDbText
  0
TEXT
  5
99408
330
99250
100
AcDbEntity
  8
NOTE
100
AcDbText
 10
799.1340544613031
 20
95.27621731976116
 30
0.0
 40
30.0
  1
Brazing connection (liquid) %%C6.35
 41
0.6
  7
STANDARD1
100
AcDbText
  0
TEXT
  5
99409
330
99250
100
AcDbEntity
  8
NOTE
100
AcDbText
 10
934.4633986681927
 20
-332.0467469707796
 30
0.0
 40
30.0
  1
Refrigerant piping
 41
0.6
  7
STANDARD1
100
AcDbText
  0
TEXT
  5
9940A
330
99250
100
AcDbEntity
  8
NOTE
100
AcDbText
 10
933.3275408481185
 20
-380.8656304686297
 30
0.0
 40
30.0
  1
Brazing connection (gas) %%C12.7
 41
0.6
  7
STANDARD1
100
AcDbText
  0
TEXT
  5
9940B
330
99250
100
AcDbEntity
  8
NOTE
100
AcDbText
 10
800.2699122813702
 20
146.3657545367955
 30
0.0
 40
30.0
  1
Refrigerant piping
 41
0.6
  7
STANDARD1
100
AcDbText
  0
ENDBLK
  5
9940F
330
99250
100
AcDbEntity
  8
0
100
AcDbBlockEnd
  0
ENDSEC
  0
SECTION
  2
ENTITIES
  0
TEXT
  5
99412
330
18
100
AcDbEntity
  8
ETC
100
AcDbText
 10
-1409.804808873485
 20
587.4288068380831
 30
0.0
 40
60.0
  1
PEFY-MS50VMA-A_2
 50
0.0000029998804485
 41
0.8
100
AcDbText
  0
LINE
  5
99413
330
18
100
AcDbEntity
  8
DETAIL
100
AcDbLine
 10
600.0000000000036
 20
-15.02145922746875
 30
0.0
 11
600.0000000000036
 21
-26.9926245158416
 31
0.0
  0
LINE
  5
99414
330
18
100
AcDbEntity
  8
DETAIL
100
AcDbLine
 10
597.5006829152007
 20
-17.69516496038646
 30
0.0
 11
597.5006829152007
 21
-26.9926245158416
 31
0.0
  0
LINE
  5
99415
330
18
100
AcDbEntity
  8
DETAIL
100
AcDbLine
 10
597.5006829152007
 20
-26.9926245158416
 30
0.0
 11
600.0000000000036
 21
-26.9926245158416
 31
0.0
  0
LINE
  5
99416
330
18
100
AcDbEntity
  8
DETAIL
100
AcDbLine
 10
550.0000000000018
 20
-17.4952195935907
 30
0.0
 11
597.3007375484193
 21
-17.49521959359059
 31
0.0
  0
LINE
  5
99417
330
18
100
AcDbEntity
  8
DETAIL
100
AcDbLine
 10
550.0000000000018
 20
-15.02145922746886
 30
0.0
 11
600.0000000000036
 21
-15.02145922746875
 31
0.0
  0
LINE
  5
99418
330
18
100
AcDbEntity
  8
DETAIL
100
AcDbLine
 10
550.0000000000036
 20
0.0000000000003411
 30
0.0
 11
0.0000000000027285
 21
0.0000000000004832
 31
0.0
  0
ARC
  5
99419
330
18
100
AcDbEntity
  8
DETAIL
100
AcDbCircle
 10
597.3007375484193
 20
-17.69516496038646
 30
0.0
 40
0.1999453667838173
100
AcDbArc
 50
0.0
 51
90.0
  0
LINE
  5
9941A
330
18
100
AcDbEntity
  8
DETAIL
100
AcDbLine
 10
550.0000000000036
 20
-237.2390450899982
 30
0.0
 11
590.0000000000036
 21
-237.2390450899982
 31
0.0
  0
LINE
  5
9941B
330
18
100
AcDbEntity
  8
DETAIL
100
AcDbLine
 10
590.0000000000036
 20
-237.2390450899979
 30
0.0
 11
590.0000000000036
 21
-197.2499717331807
 31
0.0
  0
LINE
  5
9941C
330
18
100
AcDbEntity
  8
DETAIL
100
AcDbLine
 10
550.0000000000018
 20
-197.2499717331807
 30
0.0
 11
590.0000000000036
 21
-197.2499717331807
 31
0.0
  0
LINE
  5
9941D
330
18
100
AcDbEntity
  8
DETAIL
100
AcDbLine
 10
550.0000000000036
 20
-249.9999999999843
 30
0.0
 11
0.000000000003638
 21
-249.9999999999843
 31
0.0
  0
LINE
  5
9941E
330
18
100
AcDbEntity
  8
BASIS
100
AcDbLine
 10
0.000000000003638
 20
29.41240878975532
 30
0.0
 11
0.000000000003638
 21
-282.6696284795062
 31
0.0
  0
CIRCLE
  5
9941F
330
18
100
AcDbEntity
  8
ARRANGE
100
AcDbCircle
 10
0.0
 20
0.0
 30
0.0
 40
19.125
  0
LINE
  5
99420
330
18
100
AcDbEntity
  8
ARRANGE
100
AcDbLine
 10
-21.26587376331372
 20
-21.04700008888811
 30
0.0
 11
21.26587376331736
 21
21.04700008888813
 31
0.0
  0
LINE
  5
99421
330
18
100
AcDbEntity
  8
ARRANGE
100
AcDbLine
 10
-21.23459940696193
 20
21.07855278914394
 30
0.0
 11
21.23459940696557
 21
-21.07855278914302
 31
0.0
  0
LINE
  5
99422
330
18
100
AcDbEntity
  8
DETAIL
100
AcDbLine
 10
550.0000000000036
 20
0.0000000000003411
 30
0.0
 11
550.0000000000036
 21
-249.9999999999843
 31
0.0
  0
LINE
  5
99423
330
18
100
AcDbEntity
  8
NOTE
100
AcDbLine
 10
607.997814671362
 20
-30.12252827872281
 30
0.0
 11
607.997814671362
 21
-51.85507210270917
 31
0.0
  0
LINE
  5
99424
330
18
100
AcDbEntity
  8
NOTE
100
AcDbLine
 10
618.8640865833548
 20
-40.98880019071599
 30
0.0
 11
597.1315427593689
 21
-40.98880019071599
 31
0.0
  0
LINE
  5
99425
330
18
100
AcDbEntity
  8
NOTE
100
AcDbLine
 10
607.9978146713637
 20
-40.98880019071018
 30
0.0
 11
603.8306291730658
 21
-6.856934800525777
 31
0.0
  0
LINE
  5
99426
330
18
100
AcDbEntity
  8
NOTE
100
AcDbLine
 10
607.9978146713637
 20
-40.98880019071018
 30
0.0
 11
621.4548593236648
 21
-9.34614513120414
 31
0.0
  0
LINE
  5
99427
330
18
100
AcDbEntity
  8
NOTE
100
AcDbLine
 10
657.6352733441326
 20
329.6970389270774
 30
0.0
 11
607.9978146713637
 21
-40.98880019071018
 31
0.0
  0
LINE
  5
99428
330
18
100
AcDbEntity
  8
NOTE
100
AcDbLine
 10
590.0000000000036
 20
-206.3782364995961
 30
0.0
 11
590.0000000000036
 21
-228.1107803235825
 31
0.0
  0
LINE
  5
99429
330
18
100
AcDbEntity
  8
NOTE
100
AcDbLine
 10
600.8662719119911
 20
-216.9999999999841
 30
0.0
 11
579.1337280880052
 21
-216.9999999999841
 31
0.0
  0
LINE
  5
9942A
330
18
100
AcDbEntity
  8
NOTE
100
AcDbLine
 10
577.0000000000036
 20
-4.155187315475586
 30
0.0
 11
577.0000000000036
 21
-25.88773113946194
 31
0.0
  0
LINE
  5
9942B
330
18
100
AcDbEntity
  8
NOTE
100
AcDbLine
 10
587.8662719119965
 20
-15.02145922746875
 30
0.0
 11
566.1337280880108
 21
-15.02145922746875
 31
0.0
  0
LINE
  5
9942C
330
18
100
AcDbEntity
  8
DETAIL
100
AcDbLine
 10
-599.9999999999962
 20
-15.02145922746875
 30
0.0
 11
-599.9999999999962
 21
-26.9926245158416
 31
0.0
  0
LINE
  5
9942D
330
18
100
AcDbEntity
  8
DETAIL
100
AcDbLine
 10
-597.5006829151935
 20
-17.69516496038646
 30
0.0
 11
-597.5006829151935
 21
-26.9926245158416
 31
0.0
  0
LINE
  5
9942E
330
18
100
AcDbEntity
  8
DETAIL
100
AcDbLine
 10
-597.5006829151935
 20
-26.9926245158416
 30
0.0
 11
-599.9999999999962
 21
-26.9926245158416
 31
0.0
  0
LINE
  5
9942F
330
18
100
AcDbEntity
  8
DETAIL
100
AcDbLine
 10
-549.9999999999945
 20
-17.4952195935907
 30
0.0
 11
-597.3007375484121
 21
-17.49521959359059
 31
0.0
  0
LINE
  5
99430
330
18
100
AcDbEntity
  8
DETAIL
100
AcDbLine
 10
-549.9999999999945
 20
-15.02145922746886
 30
0.0
 11
-599.9999999999962
 21
-15.02145922746875
 31
0.0
  0
LINE
  5
99431
330
18
100
AcDbEntity
  8
DETAIL
100
AcDbLine
 10
-549.9999999999971
 20
0.0000000000004547
 30
0.0
 11
0.000000000001819
 21
0.0000000000004547
 31
0.0
  0
ARC
  5
99432
330
18
100
AcDbEntity
  8
DETAIL
100
AcDbCircle
 10
-597.3007375484121
 20
-17.69516496038646
 30
0.0
 40
0.1999453667838173
100
AcDbArc
 50
90.0
 51
180.0
  0
LINE
  5
99433
330
18
100
AcDbEntity
  8
DETAIL
100
AcDbLine
 10
-549.9999999999963
 20
-249.9999999999843
 30
0.0
 11
0.000000000003638
 21
-249.9999999999843
 31
0.0
  0
LINE
  5
99434
330
18
100
AcDbEntity
  8
DETAIL
100
AcDbLine
 10
-549.9999999999963
 20
0.0000000000003411
 30
0.0
 11
-549.9999999999963
 21
-249.9999999999843
 31
0.0
  0
LINE
  5
99435
330
18
100
AcDbEntity
  8
NOTE
100
AcDbLine
 10
-576.9999999999964
 20
-4.155187315475586
 30
0.0
 11
-576.9999999999964
 21
-25.88773113946194
 31
0.0
  0
LINE
  5
99436
330
18
100
AcDbEntity
  8
NOTE
100
AcDbLine
 10
-587.8662719119891
 20
-15.02145922746875
 30
0.0
 11
-566.1337280880034
 21
-15.02145922746875
 31
0.0
  0
LINE
  5
99437
330
18
100
AcDbEntity
  8
SERVICESPACE
100
AcDbLine
 10
1150.000000000003
 20
-649.9999999999843
 30
0.0
 11
-549.9999999999963
 21
-649.9999999999843
 31
0.0
  0
LINE
  5
99438
330
18
100
AcDbEntity
  8
SERVICESPACE
100
AcDbLine
 10
1150.000000000003
 20
-669.9999999999842
 30
0.0
 11
-549.9999999999963
 21
-669.9999999999842
 31
0.0
  0
LINE
  5
99439
330
18
100
AcDbEntity
  8
SERVICESPACE
100
AcDbLine
 10
1150.000000000003
 20
-669.9999999999842
 30
0.0
 11
700.0000000000036
 21
-649.9999999999843
 31
0.0
  0
LINE
  5
9943A
330
18
100
AcDbEntity
  8
SERVICESPACE
100
AcDbLine
 10
700.0000000000036
 20
-669.9999999999842
 30
0.0
 11
1150.000000000003
 21
-649.9999999999843
 31
0.0
  0
LINE
  5
9943B
330
18
100
AcDbEntity
  8
SERVICESPACE
100
AcDbLine
 10
-599.9999999999962
 20
0.0000000000003411
 30
0.0
 11
-599.9999999999962
 21
10.00000000000034
 31
0.0
  0
LINE
  5
9943C
330
18
100
AcDbEntity
  8
SIZE
100
AcDbLine
 10
-564.9999999999964
 20
0.0000000000003979
 30
0.0
 11
-635.4679019979304
 21
0.0000000000003837
 31
0.0
  0
LINE
  5
9943D
330
18
100
AcDbEntity
  8
SIZE
100
AcDbLine
 10
-602.8662719119895
 20
-15.02145922746881
 30
0.0
 11
-635.4679019979304
 21
-15.02145922746881
 31
0.0
  0
LINE
  5
9943E
330
18
100
AcDbEntity
  8
SIZE
100
AcDbLine
 10
-630.4679019979304
 20
-15.02145922746881
 30
0.0
 11
-630.4679019979304
 21
-35.02145922746881
 31
0.0
  0
LINE
  5
9943F
330
18
100
AcDbEntity
  8
SIZE
100
AcDbLine
 10
-630.4679019979304
 20
0.0000000000003837
 30
0.0
 11
-630.4679019979304
 21
108.5714285714309
 31
0.0
  0
LINE
  5
99440
330
18
100
AcDbEntity
  8
SIZE
100
AcDbLine
 10
-630.4679019979304
 20
-15.02145922746881
 30
0.0
 11
-630.4679019979304
 21
0.0000000000003837
 31
0.0
  0
CIRCLE
  5
99441
330
18
100
AcDbEntity
  8
SIZE
100
AcDbCircle
 10
-630.4679019979304
 20
-15.02145922746881
 30
0.0
 40
5.0
  0
CIRCLE
  5
99442
330
18
100
AcDbEntity
  8
SIZE
100
AcDbCircle
 10
-630.4679019979304
 20
0.0000000000003837
 30
0.0
 40
5.0
  0
TEXT
  5
99443
330
18
100
AcDbEntity
  8
SIZE
100
AcDbText
 10
-645.4679019979302
 20
55.00000000000254
 30
0.0
 40
30.0
  1
15
 50
90.0
 41
0.9
100
AcDbText
  0
LINE
  5
99444
330
18
100
AcDbEntity
  8
NOTE
100
AcDbLine
 10
-576.9944553664372
 20
-15.00072868278401
 30
0.0
 11
-591.5241762112836
 21
16.16394494235874
 31
0.0
  0
LINE
  5
99445
330
18
100
AcDbEntity
  8
NOTE
100
AcDbLine
 10
-576.9944553664372
 20
-15.00072868278401
 30
0.0
 11
-573.9952254163272
 21
19.25353075594012
 31
0.0
  0
LINE
  5
99446
330
18
100
AcDbEntity
  8
NOTE
100
AcDbLine
 10
-652.9473925726724
 20
398.4973002814458
 30
0.0
 11
-576.9944553664372
 21
-15.00072868278401
 31
0.0
  0
LINE
  5
99447
330
18
100
AcDbEntity
  8
SIZE
100
AcDbLine
 10
565.0000000000037
 20
0.0000000000002984
 30
0.0
 11
693.3045959596277
 21
0.0000000000003126
 31
0.0
  0
LINE
  5
99448
330
18
100
AcDbEntity
  8
SIZE
100
AcDbLine
 10
633.8640865833553
 20
-40.98880019071605
 30
0.0
 11
693.3045959596277
 21
-40.98880019071605
 31
0.0
  0
LINE
  5
99449
330
18
100
AcDbEntity
  8
SIZE
100
AcDbLine
 10
688.3045959596277
 20
-40.98880019071605
 30
0.0
 11
688.3045959596277
 21
0.0000000000003126
 31
0.0
  0
LINE
  5
9944A
330
18
100
AcDbEntity
  8
SIZE
100
AcDbLine
 10
688.3045959596277
 20
0.0000000000003126
 30
0.0
 11
688.3045959596277
 21
113.2142857142875
 31
0.0
  0
CIRCLE
  5
9944B
330
18
100
AcDbEntity
  8
SIZE
100
AcDbCircle
 10
688.3045959596277
 20
-40.98880019071605
 30
0.0
 40
5.0
  0
CIRCLE
  5
9944C
330
18
100
AcDbEntity
  8
SIZE
100
AcDbCircle
 10
688.3045959596277
 20
0.0000000000003126
 30
0.0
 40
5.0
  0
TEXT
  5
9944D
330
18
100
AcDbEntity
  8
SIZE
100
AcDbText
 10
673.3045959596275
 20
66.07142857143029
 30
0.0
 40
30.0
  1
41
 50
90.0
 41
0.9
100
AcDbText
  0
LINE
  5
9944E
330
18
100
AcDbEntity
  8
SIZE
100
AcDbLine
 10
565.0000000000037
 20
0.0000000000004121
 30
0.0
 11
937.5869839327753
 21
0.0000000000004547
 31
0.0
  0
LINE
  5
9944F
330
18
100
AcDbEntity
  8
SIZE
100
AcDbLine
 10
615.8662719119912
 20
-216.9999999999842
 30
0.0
 11
937.5869839327755
 21
-216.9999999999841
 31
0.0
  0
LINE
  5
99450
330
18
100
AcDbEntity
  8
SIZE
100
AcDbLine
 10
932.5869839327754
 20
0.0000000000004547
 30
0.0
 11
932.5869839327754
 21
-216.9999999999841
 31
0.0
  0
CIRCLE
  5
99451
330
18
100
AcDbEntity
  8
SIZE
100
AcDbCircle
 10
932.5869839327754
 20
0.0000000000004547
 30
0.0
 40
5.0
  0
CIRCLE
  5
99452
330
18
100
AcDbEntity
  8
SIZE
100
AcDbCircle
 10
932.5869839327754
 20
-216.9999999999841
 30
0.0
 40
5.0
  0
TEXT
  5
99453
330
18
100
AcDbEntity
  8
SIZE
100
AcDbText
 10
917.5869839327752
 20
-140.6428571428475
 30
0.0
 40
30.0
  1
217
 50
90.0
 41
0.9
100
AcDbText
  0
LINE
  5
99454
330
18
100
AcDbEntity
  8
SIZE
100
AcDbLine
 10
-564.9999999999964
 20
0.0000000000002842
 30
0.0
 11
-842.9303594522433
 21
0.0000000000002416
 31
0.0
  0
LINE
  5
99455
330
18
100
AcDbEntity
  8
SIZE
100
AcDbLine
 10
-564.9999999999964
 20
-249.9999999999844
 30
0.0
 11
-842.9303594522432
 21
-249.9999999999845
 31
0.0
  0
LINE
  5
99456
330
18
100
AcDbEntity
  8
SIZE
100
AcDbLine
 10
-837.9303594522436
 20
0.0000000000002416
 30
0.0
 11
-837.9303594522435
 21
-249.9999999999845
 31
0.0
  0
CIRCLE
  5
99457
330
18
100
AcDbEntity
  8
SIZE
100
AcDbCircle
 10
-837.9303594522436
 20
0.0000000000002416
 30
0.0
 40
5.0
  0
CIRCLE
  5
99458
330
18
100
AcDbEntity
  8
SIZE
100
AcDbCircle
 10
-837.9303594522435
 20
-249.9999999999845
 30
0.0
 40
5.0
  0
TEXT
  5
99459
330
18
100
AcDbEntity
  8
SIZE
100
AcDbText
 10
-852.9303594522431
 20
-159.7142857142775
 30
0.0
 40
30.0
  1
250
 50
90.0
 41
0.9
100
AcDbText
  0
LINE
  5
9945A
330
18
100
AcDbEntity
  8
SIZE
100
AcDbLine
 10
600.0000000000036
 20
-0.0214592274687533
 30
0.0
 11
600.0000000000036
 21
389.0456839755288
 31
0.0
  0
LINE
  5
9945B
330
18
100
AcDbEntity
  8
SIZE
100
AcDbLine
 10
577.0000000000036
 20
9.925546901338066
 30
0.0
 11
577.0000000000036
 21
389.0456839755288
 31
0.0
  0
LINE
  5
9945C
330
18
100
AcDbEntity
  8
SIZE
100
AcDbLine
 10
577.0000000000036
 20
384.0456839755288
 30
0.0
 11
557.0000000000036
 21
384.0456839755288
 31
0.0
  0
LINE
  5
9945D
330
18
100
AcDbEntity
  8
SIZE
100
AcDbLine
 10
600.0000000000036
 20
384.0456839755288
 30
0.0
 11
713.7142857142895
 21
384.0456839755288
 31
0.0
  0
LINE
  5
9945E
330
18
100
AcDbEntity
  8
SIZE
100
AcDbLine
 10
577.0000000000036
 20
384.0456839755288
 30
0.0
 11
600.0000000000036
 21
384.0456839755288
 31
0.0
  0
CIRCLE
  5
9945F
330
18
100
AcDbEntity
  8
SIZE
100
AcDbCircle
 10
577.0000000000036
 20
384.0456839755288
 30
0.0
 40
5.0
  0
CIRCLE
  5
99460
330
18
100
AcDbEntity
  8
SIZE
100
AcDbCircle
 10
600.0000000000036
 20
384.0456839755288
 30
0.0
 40
5.0
  0
TEXT
  5
99461
330
18
100
AcDbEntity
  8
SIZE
100
AcDbText
 10
655.0000000000038
 20
399.0456839755288
 30
0.0
 40
30.0
  1
23
 41
0.9
100
AcDbText
  0
LINE
  5
99462
330
18
100
AcDbEntity
  8
SIZE
100
AcDbLine
 10
577.0000000000036
 20
9.925546901338066
 30
0.0
 11
577.0000000000036
 21
389.0456839755288
 31
0.0
  0
LINE
  5
99463
330
18
100
AcDbEntity
  8
SIZE
100
AcDbLine
 10
-576.9999999999964
 20
10.84481268452441
 30
0.0
 11
-576.9999999999964
 21
389.0456839755288
 31
0.0
  0
LINE
  5
99464
330
18
100
AcDbEntity
  8
SIZE
100
AcDbLine
 10
577.0000000000036
 20
384.0456839755288
 30
0.0
 11
-576.9999999999964
 21
384.0456839755288
 31
0.0
  0
CIRCLE
  5
99465
330
18
100
AcDbEntity
  8
SIZE
100
AcDbCircle
 10
577.0000000000036
 20
384.0456839755288
 30
0.0
 40
5.0
  0
CIRCLE
  5
99466
330
18
100
AcDbEntity
  8
SIZE
100
AcDbCircle
 10
-576.9999999999964
 20
384.0456839755288
 30
0.0
 40
5.0
  0
TEXT
  5
99467
330
18
100
AcDbEntity
  8
SIZE
100
AcDbText
 10
-277.1999999999964
 20
401.9028268326716
 30
0.0
 40
30.0
  1
1154(Suspension bolt pitch)
 41
0.9
100
AcDbText
  0
LINE
  5
99468
330
18
100
AcDbEntity
  8
SIZE
100
AcDbLine
 10
600.0000000000036
 20
-0.0214592274687533
 30
0.0
 11
600.0000000000036
 21
478.4004013530874
 31
0.0
  0
LINE
  5
99469
330
18
100
AcDbEntity
  8
SIZE
100
AcDbLine
 10
-599.9999999999962
 20
-0.0214592274687533
 30
0.0
 11
-599.9999999999962
 21
478.4004013530874
 31
0.0
  0
LINE
  5
9946A
330
18
100
AcDbEntity
  8
SIZE
100
AcDbLine
 10
600.0000000000036
 20
473.4004013530874
 30
0.0
 11
-599.9999999999962
 21
473.4004013530874
 31
0.0
  0
CIRCLE
  5
9946B
330
18
100
AcDbEntity
  8
SIZE
100
AcDbCircle
 10
600.0000000000036
 20
473.4004013530874
 30
0.0
 40
5.0
  0
CIRCLE
  5
9946C
330
18
100
AcDbEntity
  8
SIZE
100
AcDbCircle
 10
-599.9999999999962
 20
473.4004013530874
 30
0.0
 40
5.0
  0
TEXT
  5
9946D
330
18
100
AcDbEntity
  8
SIZE
100
AcDbText
 10
-44.99999999999635
 20
488.4004013530875
 30
0.0
 40
30.0
  1
1200
 41
0.9
100
AcDbText
  0
LINE
  5
9946E
330
18
100
AcDbEntity
  8
SIZE
100
AcDbLine
 10
607.997814671362
 20
-66.85507210270917
 30
0.0
 11
607.997814671362
 21
-100.374998084334
 31
0.0
  0
LINE
  5
9946F
330
18
100
AcDbEntity
  8
SIZE
100
AcDbLine
 10
550.0000000000018
 20
-72.81045944301933
 30
0.0
 11
550.0000000000018
 21
-100.374998084334
 31
0.0
  0
LINE
  5
99470
330
18
100
AcDbEntity
  8
SIZE
100
AcDbLine
 10
607.997814671362
 20
-95.374998084334
 30
0.0
 11
550.0000000000018
 21
-95.374998084334
 31
0.0
  0
LINE
  5
99471
330
18
100
AcDbEntity
  8
SIZE
100
AcDbLine
 10
550.0000000000018
 20
-95.374998084334
 30
0.0
 11
456.285714285716
 21
-95.374998084334
 31
0.0
  0
CIRCLE
  5
99472
330
18
100
AcDbEntity
  8
SIZE
100
AcDbCircle
 10
607.997814671362
 20
-95.374998084334
 30
0.0
 40
5.0
  0
CIRCLE
  5
99473
330
18
100
AcDbEntity
  8
SIZE
100
AcDbCircle
 10
550.0000000000018
 20
-95.374998084334
 30
0.0
 40
5.0
  0
TEXT
  5
99474
330
18
100
AcDbEntity
  8
SIZE
100
AcDbText
 10
471.2857142857161
 20
-80.374998084334
 30
0.0
 40
30.0
  1
58
 41
0.9
100
AcDbText
  0
LINE
  5
99475
330
18
100
AcDbEntity
  8
SIZE
100
AcDbLine
 10
550.0000000000036
 20
-264.9999999999843
 30
0.0
 11
550.0000000000036
 21
-334.906432244813
 31
0.0
  0
LINE
  5
99476
330
18
100
AcDbEntity
  8
SIZE
100
AcDbLine
 10
590.0000000000036
 20
-252.2390450899982
 30
0.0
 11
590.0000000000036
 21
-334.906432244813
 31
0.0
  0
LINE
  5
99477
330
18
100
AcDbEntity
  8
SIZE
100
AcDbLine
 10
590.0000000000036
 20
-329.906432244813
 30
0.0
 11
550.0000000000036
 21
-329.906432244813
 31
0.0
  0
LINE
  5
99478
330
18
100
AcDbEntity
  8
SIZE
100
AcDbLine
 10
550.0000000000036
 20
-329.906432244813
 30
0.0
 11
456.2857142857176
 21
-329.906432244813
 31
0.0
  0
CIRCLE
  5
99479
330
18
100
AcDbEntity
  8
SIZE
100
AcDbCircle
 10
590.0000000000036
 20
-329.906432244813
 30
0.0
 40
5.0
  0
CIRCLE
  5
9947A
330
18
100
AcDbEntity
  8
SIZE
100
AcDbCircle
 10
550.0000000000036
 20
-329.906432244813
 30
0.0
 40
5.0
  0
TEXT
  5
9947B
330
18
100
AcDbEntity
  8
SIZE
100
AcDbText
 10
471.2857142857177
 20
-314.906432244813
 30
0.0
 40
30.0
  1
40
 41
0.9
100
AcDbText
  0
LINE
  5
9947C
330
18
100
AcDbEntity
  8
SIZE
100
AcDbLine
 10
1150.000000000003
 20
-684.9999999999843
 30
0.0
 11
1150.000000000003
 21
-931.5190046320108
 31
0.0
  0
LINE
  5
9947D
330
18
100
AcDbEntity
  8
SIZE
100
AcDbLine
 10
700.0000000000044
 20
-684.9999999999843
 30
0.0
 11
700.0000000000044
 21
-931.5190046320108
 31
0.0
  0
LINE
  5
9947E
330
18
100
AcDbEntity
  8
SIZE
100
AcDbLine
 10
1150.000000000003
 20
-926.5190046320103
 30
0.0
 11
700.0000000000044
 21
-926.5190046320103
 31
0.0
  0
CIRCLE
  5
9947F
330
18
100
AcDbEntity
  8
SIZE
100
AcDbCircle
 10
1150.000000000003
 20
-926.5190046320103
 30
0.0
 40
5.0
  0
CIRCLE
  5
99480
330
18
100
AcDbEntity
  8
SIZE
100
AcDbCircle
 10
700.0000000000044
 20
-926.5190046320103
 30
0.0
 40
5.0
  0
TEXT
  5
99481
330
18
100
AcDbEntity
  8
SIZE
100
AcDbText
 10
890.2857142857184
 20
-911.5190046320106
 30
0.0
 40
30.0
  1
450
 41
0.9
100
AcDbText
  0
LINE
  5
99482
330
18
100
AcDbEntity
  8
SIZE
100
AcDbLine
 10
550.0000000000036
 20
15.00000000000045
 30
0.0
 11
550.0000000000036
 21
320.1966499432647
 31
0.0
  0
LINE
  5
99483
330
18
100
AcDbEntity
  8
SIZE
100
AcDbLine
 10
-549.9999999999963
 20
15.00000000000034
 30
0.0
 11
-549.9999999999963
 21
320.1966499432647
 31
0.0
  0
LINE
  5
99484
330
18
100
AcDbEntity
  8
SIZE
100
AcDbLine
 10
550.0000000000036
 20
315.1966499432647
 30
0.0
 11
-549.9999999999963
 21
315.1966499432647
 31
0.0
  0
CIRCLE
  5
99485
330
18
100
AcDbEntity
  8
SIZE
100
AcDbCircle
 10
550.0000000000036
 20
315.1966499432647
 30
0.0
 40
5.0
  0
CIRCLE
  5
99486
330
18
100
AcDbEntity
  8
SIZE
100
AcDbCircle
 10
-549.9999999999963
 20
315.1966499432647
 30
0.0
 40
5.0
  0
TEXT
  5
99487
330
18
100
AcDbEntity
  8
SIZE
100
AcDbText
 10
-42.42857142856779
 20
330.1966499432647
 30
0.0
 40
30.0
  1
1100
 41
0.9
100
AcDbText
  0
TEXT
  5
99488
330
18
100
AcDbEntity
  8
NOTE
100
AcDbText
 10
675.2931128244036
 20
336.1845746102199
 30
0.0
 40
30.0
  1
Drain pipe (O.D.%%C32)
 50
359.9999974955184
 41
0.6
  7
STANDARD1
100
AcDbText
  0
LINE
  5
99489
330
18
100
AcDbEntity
  8
NOTE
100
AcDbLine
 10
1014.26579850903
 20
329.6970105482195
 30
0.0
 11
657.6352733441326
 21
329.6970389270774
 31
0.0
  0
LINE
  5
9948A
330
18
100
AcDbEntity
  8
OUTLINE
100
AcDbLine
 10
-549.9999999999963
 20
0.0000000000003411
 30
0.0
 11
-549.9999999999963
 21
-249.9999999999843
 31
0.0
  0
LINE
  5
9948B
330
18
100
AcDbEntity
  8
OUTLINE
100
AcDbLine
 10
-549.9999999999963
 20
-249.9999999999843
 30
0.0
 11
550.0000000000036
 21
-249.9999999999843
 31
0.0
  0
LINE
  5
9948C
330
18
100
AcDbEntity
  8
OUTLINE
100
AcDbLine
 10
550.0000000000036
 20
-249.9999999999843
 30
0.0
 11
550.0000000000036
 21
0.0000000000004547
 31
0.0
  0
LINE
  5
9948D
330
18
100
AcDbEntity
  8
DETAIL
100
AcDbLine
 10
530.0000000000036
 20
-200.9999999999841
 30
0.0
 11
530.0000000000036
 21
-22.99999999998407
 31
0.0
  0
LINE
  5
9948E
330
18
100
AcDbEntity
  8
DETAIL
100
AcDbLine
 10
-529.9999999999963
 20
-200.9999999999841
 30
0.0
 11
-529.9999999999963
 21
-22.99999999998407
 31
0.0
  0
LINE
  5
9948F
330
18
100
AcDbEntity
  8
OUTLINE
100
AcDbLine
 10
550.0000000000036
 20
0.000000000000469
 30
0.0
 11
-549.9999999999963
 21
0.0000000000002842
 31
0.0
  0
TEXT
  5
99490
330
18
100
AcDbEntity
  8
NOTE
100
AcDbText
 10
-1001.122760613887
 20
495.6581329828285
 30
0.0
 40
30.0
  1
Suspension bolt hole
 50
359.9999974955248
 41
0.65
  7
STANDARD1
100
AcDbText
  0
LINE
  5
99491
330
18
100
AcDbEntity
  8
NOTE
100
AcDbLine
 10
-652.9473925726724
 20
398.4973002814458
 30
0.0
 11
-1008.388314872765
 21
398.4973323285976
 31
0.0
  0
TEXT
  5
99492
330
18
100
AcDbEntity
  8
NOTE
100
AcDbText
 10
-1010.081134607158
 20
447.2340901546271
 30
0.0
 40
30.0
  1
 4-14X30 Slot
 50
359.9999974955248
 41
0.65
  7
STANDARD1
100
AcDbText
  0
TEXT
  5
99493
330
18
100
AcDbEntity
  8
NOTE
100
AcDbText
 10
-1000.090336619714
 20
408.4004703571225
 30
0.0
 40
30.0
  1
(Use M10 screw)
 50
359.9999974955248
 41
0.65
  7
STANDARD1
100
AcDbText
  0
LINE
  5
99494
330
18
100
AcDbEntity
  8
DETAIL
100
AcDbLine
 10
-529.9999999999963
 20
-22.99999999998407
 30
0.0
 11
530.0000000000026
 21
-22.99999999998407
 31
0.0
  0
LINE
  5
99495
330
18
100
AcDbEntity
  8
DETAIL
100
AcDbLine
 10
-529.9999999999963
 20
-200.999999999984
 30
0.0
 11
530.0000000000026
 21
-200.9999999999843
 31
0.0
  0
LINE
  5
99496
330
18
100
AcDbEntity
  8
DETAIL
100
AcDbLine
 10
530.0000000000046
 20
-35.32641011617573
 30
0.0
 11
-529.9999999999963
 21
-35.32641011617585
 31
0.0
  0
LINE
  5
99497
330
18
100
AcDbEntity
  8
DETAIL
100
AcDbLine
 10
-529.9999999999963
 20
-169.9812154311963
 30
0.0
 11
530.0000000000036
 21
-182.2859773359946
 31
0.0
  0
LINE
  5
99498
330
18
100
AcDbEntity
  8
DETAIL
100
AcDbLine
 10
364.3507269410402
 20
-180.3630765202461
 30
0.0
 11
364.3507269410402
 21
-35.32641011617578
 31
0.0
  0
LINE
  5
99499
330
18
100
AcDbEntity
  8
DETAIL
100
AcDbLine
 10
376.0475308979076
 20
-35.32641011617578
 30
0.0
 11
376.0475308979076
 21
-179.7934135505336
 31
0.0
  0
LINE
  5
9949A
330
18
100
AcDbEntity
  8
DETAIL
100
AcDbLine
 10
364.3507269410411
 20
-180.3630765202461
 30
0.0
 11
364.3507269410402
 21
-90.86493897971987
 31
0.0
  0
LINE
  5
9949B
330
18
100
AcDbEntity
  8
DETAIL
100
AcDbLine
 10
354.3507271590224
 20
-180.2469938632972
 30
0.0
 11
354.3507271590243
 21
-93.30284113125413
 31
0.0
  0
LINE
  5
9949C
330
18
100
AcDbEntity
  8
DETAIL
100
AcDbLine
 10
344.3507273770101
 20
-180.1309112063485
 30
0.0
 11
344.3507273770083
 21
-98.53288875024258
 31
0.0
  0
LINE
  5
9949D
330
18
100
AcDbEntity
  8
DETAIL
100
AcDbLine
 10
334.3507275949887
 20
-180.0148285493994
 30
0.0
 11
334.3507275949887
 21
-105.5212693448272
 31
0.0
  0
LINE
  5
9949E
330
18
100
AcDbEntity
  8
DETAIL
100
AcDbLine
 10
324.3507278129773
 20
-179.8987458924508
 30
0.0
 11
324.3507278129764
 21
-112.5484275592046
 31
0.0
  0
LINE
  5
9949F
330
18
100
AcDbEntity
  8
DETAIL
100
AcDbLine
 10
314.3507280309577
 20
-179.782663235502
 30
0.0
 11
314.3507280309568
 21
-119.6736863863577
 31
0.0
  0
LINE
  5
994A0
330
18
100
AcDbEntity
  8
DETAIL
100
AcDbLine
 10
304.3507282489372
 20
-179.666580578553
 30
0.0
 11
304.3507282489372
 21
-125.4849216401605
 31
0.0
  0
LINE
  5
994A1
330
18
100
AcDbEntity
  8
DETAIL
100
AcDbLine
 10
294.3507284669158
 20
-179.5504979216042
 30
0.0
 11
294.3507284669177
 21
-129.2339217631913
 31
0.0
  0
LINE
  5
994A2
330
18
100
AcDbEntity
  8
DETAIL
100
AcDbLine
 10
284.3507286848999
 20
-179.4344152646554
 30
0.0
 11
284.3507286849017
 21
-135.0319613417093
 31
0.0
  0
LINE
  5
994A3
330
18
100
AcDbEntity
  8
DETAIL
100
AcDbLine
 10
274.3507289028857
 20
-179.3183326077067
 30
0.0
 11
274.3507289028857
 21
-140.7226735523315
 31
0.0
  0
LINE
  5
994A4
330
18
100
AcDbEntity
  8
DETAIL
100
AcDbLine
 10
264.3507291208662
 20
-179.2022499507578
 30
0.0
 11
264.3507291208662
 21
-146.1207175431543
 31
0.0
  0
LINE
  5
994A5
330
18
100
AcDbEntity
  8
DETAIL
100
AcDbLine
 10
254.3507293388484
 20
-179.0861672938089
 30
0.0
 11
254.3507293388502
 21
-150.9474739122695
 31
0.0
  0
LINE
  5
994A6
330
18
100
AcDbEntity
  8
DETAIL
100
AcDbLine
 10
244.3507295568343
 20
-178.9700846368601
 30
0.0
 11
244.3507295568343
 21
-155.0112668294903
 31
0.0
  0
LINE
  5
994A7
330
18
100
AcDbEntity
  8
DETAIL
100
AcDbLine
 10
234.3507297748174
 20
-178.8540019799113
 30
0.0
 11
234.3507297748147
 21
-158.6026573244369
 31
0.0
  0
LINE
  5
994A8
330
18
100
AcDbEntity
  8
DETAIL
100
AcDbLine
 10
214.3507302107828
 20
-178.6218366660136
 30
0.0
 11
214.3507302107828
 21
-169.5796625488281
 31
0.0
  0
LINE
  5
994A9
330
18
100
AcDbEntity
  8
DETAIL
100
AcDbLine
 10
224.3507299928006
 20
-178.7379193229624
 30
0.0
 11
224.3507299927987
 21
-162.7570904642241
 31
0.0
  0
LINE
  5
994AA
330
18
100
AcDbEntity
  8
DETAIL
100
AcDbLine
 10
-388.0000030953561
 20
-35.32641011617578
 30
0.0
 11
-388.0000030953561
 21
-56.32778951622366
 31
0.0
  0
LINE
  5
994AB
330
18
100
AcDbEntity
  8
DETAIL
100
AcDbLine
 10
-368.0000035313169
 20
-35.32641011617578
 30
0.0
 11
-368.0000035313169
 21
-45.35078429183247
 31
0.0
  0
LINE
  5
994AC
330
18
100
AcDbEntity
  8
DETAIL
100
AcDbLine
 10
-378.0000033133365
 20
-35.32641011617578
 30
0.0
 11
-378.0000033133365
 21
-52.17335637643643
 31
0.0
  0
LINE
  5
994AD
330
18
100
AcDbEntity
  8
DETAIL
100
AcDbLine
 10
-518.0000002615814
 20
-35.32641011617578
 30
0.0
 11
-518.0000002615814
 21
-124.0655078609406
 31
0.0
  0
LINE
  5
994AE
330
18
100
AcDbEntity
  8
DETAIL
100
AcDbLine
 10
-508.0000004795618
 20
-35.32641011617578
 30
0.0
 11
-508.0000004795618
 21
-121.6276057094064
 31
0.0
  0
LINE
  5
994AF
330
18
100
AcDbEntity
  8
DETAIL
100
AcDbLine
 10
-498.0000006975459
 20
-35.32641011617578
 30
0.0
 11
-498.0000006975459
 21
-116.3975580904307
 31
0.0
  0
LINE
  5
994B0
330
18
100
AcDbEntity
  8
DETAIL
100
AcDbLine
 10
-488.0000009155301
 20
-35.32641011617578
 30
0.0
 11
-488.0000009155301
 21
-109.4091774958333
 31
0.0
  0
LINE
  5
994B1
330
18
100
AcDbEntity
  8
DETAIL
100
AcDbLine
 10
-478.0000011335105
 20
-35.32641011617578
 30
0.0
 11
-478.0000011335105
 21
-102.2201145230801
 31
0.0
  0
LINE
  5
994B2
330
18
100
AcDbEntity
  8
DETAIL
100
AcDbLine
 10
-468.0000013514908
 20
-35.32641011617578
 30
0.0
 11
-468.0000013514908
 21
-95.25676045430278
 31
0.0
  0
LINE
  5
994B3
330
18
100
AcDbEntity
  8
DETAIL
100
AcDbLine
 10
-458.0000015694748
 20
-35.32641011617578
 30
0.0
 11
-458.0000015694748
 21
-89.44552520050001
 31
0.0
  0
LINE
  5
994B4
330
18
100
AcDbEntity
  8
DETAIL
100
AcDbLine
 10
-448.000001787459
 20
-35.32641011617578
 30
0.0
 11
-448.000001787459
 21
-85.69652507746921
 31
0.0
  0
LINE
  5
994B5
330
18
100
AcDbEntity
  8
DETAIL
100
AcDbLine
 10
-438.0000020054394
 20
-35.32641011617578
 30
0.0
 11
-438.0000020054394
 21
-79.8984854989512
 31
0.0
  0
LINE
  5
994B6
330
18
100
AcDbEntity
  8
DETAIL
100
AcDbLine
 10
-428.0000022234234
 20
-35.32641011617578
 30
0.0
 11
-428.0000022234234
 21
-74.20777328832897
 31
0.0
  0
LINE
  5
994B7
330
18
100
AcDbEntity
  8
DETAIL
100
AcDbLine
 10
-418.0000024414074
 20
-35.32641011617578
 30
0.0
 11
-418.0000024414074
 21
-68.80972929750623
 31
0.0
  0
LINE
  5
994B8
330
18
100
AcDbEntity
  8
DETAIL
100
AcDbLine
 10
-408.000002659388
 20
-35.32641011617578
 30
0.0
 11
-408.000002659388
 21
-63.98297292839105
 31
0.0
  0
LINE
  5
994B9
330
18
100
AcDbEntity
  8
DETAIL
100
AcDbLine
 10
-398.000002877372
 20
-35.32641011617578
 30
0.0
 11
-398.000002877372
 21
-59.91918001118481
 31
0.0
  0
LINE
  5
994BA
330
18
100
AcDbEntity
  8
NOTE
100
AcDbLine
 10
400.0000000000036
 20
-19.36348759542396
 30
0.0
 11
400.0000000000036
 21
-26.63651240454418
 31
0.0
  0
LINE
  5
994BB
330
18
100
AcDbEntity
  8
NOTE
100
AcDbLine
 10
403.6365124045623
 20
-22.99999999998407
 30
0.0
 11
396.3634875954412
 21
-22.99999999998407
 31
0.0
  0
LINE
  5
994BC
330
18
100
AcDbEntity
  8
NOTE
100
AcDbLine
 10
200.0000000000036
 20
-19.36348759542396
 30
0.0
 11
200.0000000000036
 21
-26.63651240454418
 31
0.0
  0
LINE
  5
994BD
330
18
100
AcDbEntity
  8
NOTE
100
AcDbLine
 10
203.6365124045624
 20
-22.99999999998407
 30
0.0
 11
196.3634875954411
 21
-22.99999999998407
 31
0.0
  0
LINE
  5
994BE
330
18
100
AcDbEntity
  8
NOTE
100
AcDbLine
 10
100.0000000000035
 20
-19.36348759542396
 30
0.0
 11
100.0000000000035
 21
-26.63651240454418
 31
0.0
  0
LINE
  5
994BF
330
18
100
AcDbEntity
  8
NOTE
100
AcDbLine
 10
103.6365124045623
 20
-22.99999999998407
 30
0.0
 11
96.36348759544128
 21
-22.99999999998407
 31
0.0
  0
LINE
  5
994C0
330
18
100
AcDbEntity
  8
NOTE
100
AcDbLine
 10
400.0000000000036
 20
-197.3634875954242
 30
0.0
 11
400.0000000000036
 21
-204.6365124045444
 31
0.0
  0
LINE
  5
994C1
330
18
100
AcDbEntity
  8
NOTE
100
AcDbLine
 10
403.6365124045623
 20
-200.9999999999843
 30
0.0
 11
396.3634875954412
 21
-200.9999999999843
 31
0.0
  0
LINE
  5
994C2
330
18
100
AcDbEntity
  8
NOTE
100
AcDbLine
 10
200.0000000000036
 20
-197.3634875954242
 30
0.0
 11
200.0000000000036
 21
-204.6365124045444
 31
0.0
  0
LINE
  5
994C3
330
18
100
AcDbEntity
  8
NOTE
100
AcDbLine
 10
203.6365124045624
 20
-200.9999999999843
 30
0.0
 11
196.3634875954411
 21
-200.9999999999843
 31
0.0
  0
LINE
  5
994C4
330
18
100
AcDbEntity
  8
NOTE
100
AcDbLine
 10
100.0000000000035
 20
-197.3634875954242
 30
0.0
 11
100.0000000000035
 21
-204.6365124045444
 31
0.0
  0
LINE
  5
994C5
330
18
100
AcDbEntity
  8
NOTE
100
AcDbLine
 10
103.6365124045623
 20
-200.9999999999843
 30
0.0
 11
96.36348759544128
 21
-200.9999999999843
 31
0.0
  0
LINE
  5
994C6
330
18
100
AcDbEntity
  8
NOTE
100
AcDbLine
 10
530.0000000000036
 20
-59.36348759542397
 30
0.0
 11
530.0000000000036
 21
-66.63651240454417
 31
0.0
  0
LINE
  5
994C7
330
18
100
AcDbEntity
  8
NOTE
100
AcDbLine
 10
533.6365124045624
 20
-62.99999999998408
 30
0.0
 11
526.3634875954412
 21
-62.99999999998408
 31
0.0
  0
LINE
  5
994C8
330
18
100
AcDbEntity
  8
NOTE
100
AcDbLine
 10
530.0000000000036
 20
-159.363487595424
 30
0.0
 11
530.0000000000036
 21
-166.6365124045442
 31
0.0
  0
LINE
  5
994C9
330
18
100
AcDbEntity
  8
NOTE
100
AcDbLine
 10
533.6365124045624
 20
-162.9999999999841
 30
0.0
 11
526.3634875954412
 21
-162.9999999999841
 31
0.0
  0
LINE
  5
994CA
330
18
100
AcDbEntity
  8
NOTE
100
AcDbLine
 10
-529.9999999999963
 20
-159.363487595424
 30
0.0
 11
-529.9999999999963
 21
-166.6365124045442
 31
0.0
  0
LINE
  5
994CB
330
18
100
AcDbEntity
  8
NOTE
100
AcDbLine
 10
-526.3634875954376
 20
-162.9999999999841
 30
0.0
 11
-533.6365124045587
 21
-162.9999999999841
 31
0.0
  0
LINE
  5
994CC
330
18
100
AcDbEntity
  8
NOTE
100
AcDbLine
 10
-529.9999999999963
 20
-59.36348759542397
 30
0.0
 11
-529.9999999999963
 21
-66.63651240454417
 31
0.0
  0
LINE
  5
994CD
330
18
100
AcDbEntity
  8
NOTE
100
AcDbLine
 10
-526.3634875954376
 20
-62.99999999998408
 30
0.0
 11
-533.6365124045587
 21
-62.99999999998408
 31
0.0
  0
LINE
  5
994CE
330
18
100
AcDbEntity
  8
NOTE
100
AcDbLine
 10
0.000000000003638
 20
-19.36348759542396
 30
0.0
 11
0.000000000003638
 21
-26.63651240454418
 31
0.0
  0
LINE
  5
994CF
330
18
100
AcDbEntity
  8
NOTE
100
AcDbLine
 10
3.636512404562381
 20
-22.99999999998407
 30
0.0
 11
-3.636512404558743
 21
-22.99999999998407
 31
0.0
  0
LINE
  5
994D0
330
18
100
AcDbEntity
  8
NOTE
100
AcDbLine
 10
0.000000000003638
 20
-197.3634875954242
 30
0.0
 11
0.000000000003638
 21
-204.6365124045444
 31
0.0
  0
LINE
  5
994D1
330
18
100
AcDbEntity
  8
NOTE
100
AcDbLine
 10
3.636512404562381
 20
-200.9999999999843
 30
0.0
 11
-3.636512404558743
 21
-200.9999999999843
 31
0.0
  0
LINE
  5
994D2
330
18
100
AcDbEntity
  8
NOTE
100
AcDbLine
 10
-99.99999999999637
 20
-19.36348759542396
 30
0.0
 11
-99.99999999999637
 21
-26.63651240454418
 31
0.0
  0
LINE
  5
994D3
330
18
100
AcDbEntity
  8
NOTE
100
AcDbLine
 10
-96.36348759543762
 20
-22.99999999998407
 30
0.0
 11
-103.6365124045587
 21
-22.99999999998407
 31
0.0
  0
LINE
  5
994D4
330
18
100
AcDbEntity
  8
NOTE
100
AcDbLine
 10
-99.99999999999637
 20
-197.3634875954242
 30
0.0
 11
-99.99999999999637
 21
-204.6365124045444
 31
0.0
  0
LINE
  5
994D5
330
18
100
AcDbEntity
  8
NOTE
100
AcDbLine
 10
-96.36348759543762
 20
-200.9999999999843
 30
0.0
 11
-103.6365124045587
 21
-200.9999999999843
 31
0.0
  0
LINE
  5
994D6
330
18
100
AcDbEntity
  8
NOTE
100
AcDbLine
 10
-399.9999999999964
 20
-19.36348759542396
 30
0.0
 11
-399.9999999999964
 21
-26.63651240454418
 31
0.0
  0
LINE
  5
994D7
330
18
100
AcDbEntity
  8
NOTE
100
AcDbLine
 10
-396.3634875954376
 20
-22.99999999998407
 30
0.0
 11
-403.6365124045587
 21
-22.99999999998407
 31
0.0
  0
LINE
  5
994D8
330
18
100
AcDbEntity
  8
NOTE
100
AcDbLine
 10
-399.9999999999964
 20
-197.3634875954242
 30
0.0
 11
-399.9999999999964
 21
-204.6365124045444
 31
0.0
  0
LINE
  5
994D9
330
18
100
AcDbEntity
  8
NOTE
100
AcDbLine
 10
-396.3634875954376
 20
-200.9999999999843
 30
0.0
 11
-403.6365124045587
 21
-200.9999999999843
 31
0.0
  0
LINE
  5
994DA
330
18
100
AcDbEntity
  8
NOTE
100
AcDbLine
 10
-499.9999999999963
 20
-19.36348759542396
 30
0.0
 11
-499.9999999999963
 21
-26.63651240454418
 31
0.0
  0
LINE
  5
994DB
330
18
100
AcDbEntity
  8
NOTE
100
AcDbLine
 10
-496.3634875954376
 20
-22.99999999998407
 30
0.0
 11
-503.6365124045587
 21
-22.99999999998407
 31
0.0
  0
LINE
  5
994DC
330
18
100
AcDbEntity
  8
NOTE
100
AcDbLine
 10
-499.9999999999963
 20
-197.3634875954242
 30
0.0
 11
-499.9999999999963
 21
-204.6365124045444
 31
0.0
  0
LINE
  5
994DD
330
18
100
AcDbEntity
  8
NOTE
100
AcDbLine
 10
-496.3634875954376
 20
-200.9999999999843
 30
0.0
 11
-503.6365124045587
 21
-200.9999999999843
 31
0.0
  0
LINE
  5
994DE
330
18
100
AcDbEntity
  8
SIZE
100
AcDbLine
 10
500.0000000000036
 20
-4.36348759542396
 30
0.0
 11
500.0000000000036
 21
56.80614459233857
 31
0.0
  0
LINE
  5
994DF
330
18
100
AcDbEntity
  8
SIZE
100
AcDbLine
 10
400.0000000000036
 20
-4.36348759542396
 30
0.0
 11
400.0000000000036
 21
56.80614459233857
 31
0.0
  0
LINE
  5
994E0
330
18
100
AcDbEntity
  8
SIZE
100
AcDbLine
 10
500.0000000000036
 20
51.80614459233857
 30
0.0
 11
400.0000000000036
 21
51.80614459233857
 31
0.0
  0
CIRCLE
  5
994E1
330
18
100
AcDbEntity
  8
SIZE
100
AcDbCircle
 10
500.0000000000036
 20
51.80614459233857
 30
0.0
 40
5.0
  0
CIRCLE
  5
994E2
330
18
100
AcDbEntity
  8
SIZE
100
AcDbCircle
 10
400.0000000000036
 20
51.80614459233857
 30
0.0
 40
5.0
  0
TEXT
  5
994E3
330
18
100
AcDbEntity
  8
SIZE
100
AcDbText
 10
417.8571428571465
 20
66.80614459233857
 30
0.0
 40
30.0
  1
100
 41
0.9
100
AcDbText
  0
LINE
  5
994E4
330
18
100
AcDbEntity
  8
SIZE
100
AcDbLine
 10
-499.9999999999963
 20
-4.36348759542396
 30
0.0
 11
-499.9999999999963
 21
122.7881975392965
 31
0.0
  0
LINE
  5
994E5
330
18
100
AcDbEntity
  8
SIZE
100
AcDbLine
 10
500.0000000000036
 20
-4.36348759542396
 30
0.0
 11
500.0000000000036
 21
122.7881975392965
 31
0.0
  0
LINE
  5
994E6
330
18
100
AcDbEntity
  8
SIZE
100
AcDbLine
 10
-499.9999999999963
 20
117.7881975392965
 30
0.0
 11
500.0000000000036
 21
117.7881975392965
 31
0.0
  0
CIRCLE
  5
994E7
330
18
100
AcDbEntity
  8
SIZE
100
AcDbCircle
 10
-499.9999999999963
 20
117.7881975392965
 30
0.0
 40
5.0
  0
CIRCLE
  5
994E8
330
18
100
AcDbEntity
  8
SIZE
100
AcDbCircle
 10
500.0000000000036
 20
117.7881975392965
 30
0.0
 40
5.0
  0
TEXT
  5
994E9
330
18
100
AcDbEntity
  8
SIZE
100
AcDbText
 10
-133.714285714282
 20
132.7881975392965
 30
0.0
 40
30.0
  1
100X10=1000
 41
0.9
100
AcDbText
  0
LINE
  5
994EA
330
18
100
AcDbEntity
  8
SIZE
100
AcDbLine
 10
500.0000000000036
 20
-4.36348759542396
 30
0.0
 11
500.0000000000036
 21
122.7881975392965
 31
0.0
  0
LINE
  5
994EB
330
18
100
AcDbEntity
  8
SIZE
100
AcDbLine
 10
530.0000000000036
 20
-7.999999999984068
 30
0.0
 11
530.0000000000036
 21
122.7881975392965
 31
0.0
  0
LINE
  5
994EC
330
18
100
AcDbEntity
  8
SIZE
100
AcDbLine
 10
500.0000000000036
 20
117.7881975392965
 30
0.0
 11
530.0000000000036
 21
117.7881975392965
 31
0.0
  0
LINE
  5
994ED
330
18
100
AcDbEntity
  8
SIZE
100
AcDbLine
 10
515.0000000000036
 20
117.7881975392965
 30
0.0
 11
499.9600010077265
 21
157.9604137518008
 31
0.0
  0
LINE
  5
994EE
330
18
100
AcDbEntity
  8
SIZE
100
AcDbLine
 10
499.9600010077265
 20
157.9604137518008
 30
0.0
 11
426.2457152934407
 21
157.9604137518008
 31
0.0
  0
TEXT
  5
994EF
330
18
100
AcDbEntity
  8
SIZE
100
AcDbText
 10
441.2457152934407
 20
172.9604137518008
 30
0.0
 40
30.0
  1
30
 41
0.9
100
AcDbText
  0
CIRCLE
  5
994F0
330
18
100
AcDbEntity
  8
SIZE
100
AcDbCircle
 10
500.0000000000036
 20
117.7881975392965
 30
0.0
 40
5.0
  0
CIRCLE
  5
994F1
330
18
100
AcDbEntity
  8
SIZE
100
AcDbCircle
 10
530.0000000000036
 20
117.7881975392965
 30
0.0
 40
5.0
  0
LINE
  5
994F2
330
18
100
AcDbEntity
  8
SIZE
100
AcDbLine
 10
-544.9999999999966
 20
-22.99999999998413
 30
0.0
 11
-701.0023616050071
 21
-22.99999999998418
 31
0.0
  0
LINE
  5
994F3
330
18
100
AcDbEntity
  8
SIZE
100
AcDbLine
 10
-548.6365124045589
 20
-62.99999999998412
 30
0.0
 11
-701.0023616050071
 21
-62.99999999998417
 31
0.0
  0
LINE
  5
994F4
330
18
100
AcDbEntity
  8
SIZE
100
AcDbLine
 10
-696.0023616050071
 20
-62.99999999998417
 30
0.0
 11
-696.0023616050071
 21
-22.99999999998418
 31
0.0
  0
LINE
  5
994F5
330
18
100
AcDbEntity
  8
SIZE
100
AcDbLine
 10
-696.0023616050071
 20
-22.99999999998418
 30
0.0
 11
-696.0023616050071
 21
111.143679686131
 31
0.0
  0
CIRCLE
  5
994F6
330
18
100
AcDbEntity
  8
SIZE
100
AcDbCircle
 10
-696.0023616050071
 20
-62.99999999998417
 30
0.0
 40
5.0
  0
CIRCLE
  5
994F7
330
18
100
AcDbEntity
  8
SIZE
100
AcDbCircle
 10
-696.0023616050071
 20
-22.99999999998418
 30
0.0
 40
5.0
  0
TEXT
  5
994F8
330
18
100
AcDbEntity
  8
SIZE
100
AcDbText
 10
-711.0023616050072
 20
52.42939397184549
 30
0.0
 40
30.0
  1
40
 50
90.0
 41
0.9
100
AcDbText
  0
LINE
  5
994F9
330
18
100
AcDbEntity
  8
SIZE
100
AcDbLine
 10
-548.6365124045589
 20
-62.99999999998412
 30
0.0
 11
-701.0023616050077
 21
-62.99999999998417
 31
0.0
  0
LINE
  5
994FA
330
18
100
AcDbEntity
  8
SIZE
100
AcDbLine
 10
-548.6365124045589
 20
-162.9999999999842
 30
0.0
 11
-701.0023616050077
 21
-162.9999999999842
 31
0.0
  0
LINE
  5
994FB
330
18
100
AcDbEntity
  8
SIZE
100
AcDbLine
 10
-696.0023616050079
 20
-62.99999999998417
 30
0.0
 11
-696.0023616050078
 21
-162.9999999999842
 31
0.0
  0
CIRCLE
  5
994FC
330
18
100
AcDbEntity
  8
SIZE
100
AcDbCircle
 10
-696.0023616050079
 20
-62.99999999998417
 30
0.0
 40
5.0
  0
CIRCLE
  5
994FD
330
18
100
AcDbEntity
  8
SIZE
100
AcDbCircle
 10
-696.0023616050078
 20
-162.9999999999842
 30
0.0
 40
5.0
  0
TEXT
  5
994FE
330
18
100
AcDbEntity
  8
SIZE
100
AcDbText
 10
-711.0023616050077
 20
-145.1428571428411
 30
0.0
 40
30.0
  1
100
 50
90.0
 41
0.9
100
AcDbText
  0
LINE
  5
994FF
330
18
100
AcDbEntity
  8
SIZE
100
AcDbLine
 10
-564.9999999999964
 20
0.0000000000002842
 30
0.0
 11
-768.3649675130221
 21
0.0000000000002558
 31
0.0
  0
LINE
  5
99500
330
18
100
AcDbEntity
  8
SIZE
100
AcDbLine
 10
-544.9999999999966
 20
-22.99999999998413
 30
0.0
 11
-768.3649675130221
 21
-22.99999999998416
 31
0.0
  0
LINE
  5
99501
330
18
100
AcDbEntity
  8
SIZE
100
AcDbLine
 10
-763.3649675130222
 20
-22.99999999998416
 30
0.0
 11
-763.3649675130222
 21
-42.99999999998415
 31
0.0
  0
LINE
  5
99502
330
18
100
AcDbEntity
  8
SIZE
100
AcDbLine
 10
-763.3649675130222
 20
0.0000000000002558
 30
0.0
 11
-763.3649675130222
 21
113.7142857142879
 31
0.0
  0
LINE
  5
99503
330
18
100
AcDbEntity
  8
SIZE
100
AcDbLine
 10
-763.3649675130222
 20
-22.99999999998416
 30
0.0
 11
-763.3649675130222
 21
0.0000000000002558
 31
0.0
  0
CIRCLE
  5
99504
330
18
100
AcDbEntity
  8
SIZE
100
AcDbCircle
 10
-763.3649675130222
 20
-22.99999999998416
 30
0.0
 40
5.0
  0
CIRCLE
  5
99505
330
18
100
AcDbEntity
  8
SIZE
100
AcDbCircle
 10
-763.3649675130222
 20
0.0000000000002558
 30
0.0
 40
5.0
  0
TEXT
  5
99506
330
18
100
AcDbEntity
  8
SIZE
100
AcDbText
 10
-778.3649675130217
 20
55.00000000000243
 30
0.0
 40
30.0
  1
23
 50
90.0
 41
0.9
100
AcDbText
  0
LINE
  5
99507
330
18
100
AcDbEntity
  8
SIZE
100
AcDbLine
 10
-544.9999999999966
 20
-22.99999999998413
 30
0.0
 11
-768.3649675130229
 21
-22.99999999998416
 31
0.0
  0
LINE
  5
99508
330
18
100
AcDbEntity
  8
SIZE
100
AcDbLine
 10
-564.9999999999964
 20
-200.9999999999842
 30
0.0
 11
-768.3649675130227
 21
-200.9999999999843
 31
0.0
  0
LINE
  5
99509
330
18
100
AcDbEntity
  8
SIZE
100
AcDbLine
 10
-763.364967513023
 20
-22.99999999998416
 30
0.0
 11
-763.3649675130227
 21
-200.9999999999843
 31
0.0
  0
TEXT
  5
9950A
330
18
100
AcDbEntity
  8
SIZE
100
AcDbText
 10
-780.7082870304927
 20
-207.7857142856984
 30
0.0
 40
30.0
  1
178(Duct)
 50
90.0
 41
0.9
100
AcDbText
  0
CIRCLE
  5
9950B
330
18
100
AcDbEntity
  8
SIZE
100
AcDbCircle
 10
-763.364967513023
 20
-22.99999999998416
 30
0.0
 40
5.0
  0
CIRCLE
  5
9950C
330
18
100
AcDbEntity
  8
SIZE
100
AcDbCircle
 10
-763.3649675130227
 20
-200.9999999999843
 30
0.0
 40
5.0
  0
LINE
  5
9950D
330
18
100
AcDbEntity
  8
SIZE
100
AcDbLine
 10
-529.9999999999963
 20
-7.999999999984068
 30
0.0
 11
-529.9999999999963
 21
221.2712588304867
 31
0.0
  0
LINE
  5
9950E
330
18
100
AcDbEntity
  8
SIZE
100
AcDbLine
 10
530.0000000000036
 20
-7.999999999984068
 30
0.0
 11
530.0000000000036
 21
221.2712588304867
 31
0.0
  0
LINE
  5
9950F
330
18
100
AcDbEntity
  8
SIZE
100
AcDbLine
 10
-529.9999999999963
 20
216.2712588304867
 30
0.0
 11
530.0000000000036
 21
216.2712588304867
 31
0.0
  0
CIRCLE
  5
99510
330
18
100
AcDbEntity
  8
SIZE
100
AcDbCircle
 10
-529.9999999999963
 20
216.2712588304867
 30
0.0
 40
5.0
  0
CIRCLE
  5
99511
330
18
100
AcDbEntity
  8
SIZE
100
AcDbCircle
 10
530.0000000000036
 20
216.2712588304867
 30
0.0
 40
5.0
  0
TEXT
  5
99512
330
18
100
AcDbEntity
  8
SIZE
100
AcDbText
 10
-108.6428571428535
 20
244.1284016876295
 30
0.0
 40
30.0
  1
1060(Duct)
 41
0.9
100
AcDbText
  0
LINE
  5
99513
330
18
100
AcDbEntity
  8
SIZE
100
AcDbLine
 10
530.0000000000036
 20
-7.999999999984068
 30
0.0
 11
530.0000000000036
 21
221.2712588304867
 31
0.0
  0
LINE
  5
99514
330
18
100
AcDbEntity
  8
SIZE
100
AcDbLine
 10
550.0000000000036
 20
15.00000000000034
 30
0.0
 11
550.0000000000036
 21
221.2712588304867
 31
0.0
  0
LINE
  5
99515
330
18
100
AcDbEntity
  8
SIZE
100
AcDbLine
 10
530.0000000000036
 20
216.2712588304867
 30
0.0
 11
510.0000000000036
 21
216.2712588304867
 31
0.0
  0
LINE
  5
99516
330
18
100
AcDbEntity
  8
SIZE
100
AcDbLine
 10
550.0000000000036
 20
216.2712588304867
 30
0.0
 11
570.0000000000036
 21
216.2712588304867
 31
0.0
  0
LINE
  5
99517
330
18
100
AcDbEntity
  8
SIZE
100
AcDbLine
 10
540.0000000000036
 20
216.2712588304867
 30
0.0
 11
528.1358783072428
 21
258.0066305877817
 31
0.0
  0
LINE
  5
99518
330
18
100
AcDbEntity
  8
SIZE
100
AcDbLine
 10
528.1358783072428
 20
258.0066305877817
 30
0.0
 11
454.4215925929571
 21
258.0066305877817
 31
0.0
  0
TEXT
  5
99519
330
18
100
AcDbEntity
  8
SIZE
100
AcDbText
 10
469.4215925929571
 20
273.0066305877817
 30
0.0
 40
30.0
  1
20
 41
0.9
100
AcDbText
  0
LINE
  5
9951A
330
18
100
AcDbEntity
  8
SIZE
100
AcDbLine
 10
530.0000000000036
 20
216.2712588304867
 30
0.0
 11
550.0000000000036
 21
216.2712588304867
 31
0.0
  0
LINE
  5
9951B
330
18
100
AcDbEntity
  8
SIZE
100
AcDbLine
 10
530.0000000000036
 20
216.2712588304867
 30
0.0
 11
550.0000000000036
 21
216.2712588304867
 31
0.0
  0
CIRCLE
  5
9951C
330
18
100
AcDbEntity
  8
SIZE
100
AcDbCircle
 10
530.0000000000036
 20
216.2712588304867
 30
0.0
 40
5.0
  0
CIRCLE
  5
9951D
330
18
100
AcDbEntity
  8
SIZE
100
AcDbCircle
 10
550.0000000000036
 20
216.2712588304867
 30
0.0
 40
5.0
  0
CIRCLE
  5
9951E
330
18
100
AcDbEntity
  8
FIX
100
AcDbCircle
 10
-576.999999999998
 20
-15.02145922746852
 30
0.0
 40
9.947006128806801
  0
CIRCLE
  5
9951F
330
18
100
AcDbEntity
  8
FIX
100
AcDbCircle
 10
577.0000000000017
 20
-14.99999999998384
 30
0.0
 40
9.947006128806801
  0
LINE
  5
99520
330
18
100
AcDbEntity
  8
NOTE
100
AcDbLine
 10
500.0000000000036
 20
-19.36348759542396
 30
0.0
 11
500.0000000000036
 21
-26.63651240454418
 31
0.0
  0
LINE
  5
99521
330
18
100
AcDbEntity
  8
NOTE
100
AcDbLine
 10
503.6365124045623
 20
-22.99999999998407
 30
0.0
 11
496.3634875954411
 21
-22.99999999998407
 31
0.0
  0
LINE
  5
99522
330
18
100
AcDbEntity
  8
NOTE
100
AcDbLine
 10
500.0000000000036
 20
-197.3634875954242
 30
0.0
 11
500.0000000000036
 21
-204.6365124045444
 31
0.0
  0
LINE
  5
99523
330
18
100
AcDbEntity
  8
NOTE
100
AcDbLine
 10
503.6365124045623
 20
-200.9999999999843
 30
0.0
 11
496.3634875954411
 21
-200.9999999999843
 31
0.0
  0
LINE
  5
99524
330
18
100
AcDbEntity
  8
NOTE
100
AcDbLine
 10
-299.9999999999964
 20
-19.36348759542396
 30
0.0
 11
-299.9999999999964
 21
-26.63651240454418
 31
0.0
  0
LINE
  5
99525
330
18
100
AcDbEntity
  8
NOTE
100
AcDbLine
 10
-296.3634875954376
 20
-22.99999999998407
 30
0.0
 11
-303.6365124045588
 21
-22.99999999998407
 31
0.0
  0
LINE
  5
99526
330
18
100
AcDbEntity
  8
NOTE
100
AcDbLine
 10
-299.9999999999964
 20
-197.3634875954242
 30
0.0
 11
-299.9999999999964
 21
-204.6365124045444
 31
0.0
  0
LINE
  5
99527
330
18
100
AcDbEntity
  8
NOTE
100
AcDbLine
 10
-296.3634875954376
 20
-200.9999999999843
 30
0.0
 11
-303.6365124045588
 21
-200.9999999999843
 31
0.0
  0
LINE
  5
99528
330
18
100
AcDbEntity
  8
NOTE
100
AcDbLine
 10
300.0000000000036
 20
-19.36348759542396
 30
0.0
 11
300.0000000000036
 21
-26.63651240454418
 31
0.0
  0
LINE
  5
99529
330
18
100
AcDbEntity
  8
NOTE
100
AcDbLine
 10
303.6365124045624
 20
-22.99999999998407
 30
0.0
 11
296.3634875954411
 21
-22.99999999998407
 31
0.0
  0
LINE
  5
9952A
330
18
100
AcDbEntity
  8
NOTE
100
AcDbLine
 10
300.0000000000036
 20
-197.3634875954242
 30
0.0
 11
300.0000000000036
 21
-204.6365124045444
 31
0.0
  0
LINE
  5
9952B
330
18
100
AcDbEntity
  8
NOTE
100
AcDbLine
 10
303.6365124045624
 20
-200.9999999999843
 30
0.0
 11
296.3634875954411
 21
-200.9999999999843
 31
0.0
  0
LINE
  5
9952C
330
18
100
AcDbEntity
  8
NOTE
100
AcDbLine
 10
-199.9999999999963
 20
-19.36348759542396
 30
0.0
 11
-199.9999999999963
 21
-26.63651240454418
 31
0.0
  0
LINE
  5
9952D
330
18
100
AcDbEntity
  8
NOTE
100
AcDbLine
 10
-196.3634875954376
 20
-22.99999999998407
 30
0.0
 11
-203.6365124045588
 21
-22.99999999998407
 31
0.0
  0
LINE
  5
9952E
330
18
100
AcDbEntity
  8
NOTE
100
AcDbLine
 10
-199.9999999999963
 20
-197.3634875954242
 30
0.0
 11
-199.9999999999963
 21
-204.6365124045444
 31
0.0
  0
LINE
  5
9952F
330
18
100
AcDbEntity
  8
NOTE
100
AcDbLine
 10
-196.3634875954376
 20
-200.9999999999843
 30
0.0
 11
-203.6365124045588
 21
-200.9999999999843
 31
0.0
  0
LINE
  5
99530
330
18
100
AcDbEntity
  8
SERVICESPACE
100
AcDbLine
 10
-549.9999999999963
 20
-649.9999999999843
 30
0.0
 11
-549.9999999999963
 21
-669.9999999999842
 31
0.0
  0
LINE
  5
99531
330
18
100
AcDbEntity
  8
SERVICESPACE
100
AcDbLine
 10
1150.000000000003
 20
-649.9999999999843
 30
0.0
 11
1150.000000000003
 21
-669.9999999999842
 31
0.0
  0
LINE
  5
99532
330
18
100
AcDbEntity
  8
SERVICESPACE
100
AcDbLine
 10
700.0000000000036
 20
-649.9999999999843
 30
0.0
 11
700.0000000000036
 21
-669.9999999999842
 31
0.0
  0
LINE
  5
99533
330
18
100
AcDbEntity
  8
SERVICESPACE
100
AcDbLine
 10
200.0000000000091
 20
-650.6402813732568
 30
0.0
 11
200.0000000000073
 21
-670.6402813732568
 31
0.0
  0
LINE
  5
99534
330
18
100
AcDbEntity
  8
SERVICESPACE
100
AcDbLine
 10
-249.9999999999936
 20
-650.6402813732568
 30
0.0
 11
-249.9999999999936
 21
-670.6402813732568
 31
0.0
  0
LINE
  5
99535
330
18
100
AcDbEntity
  8
SERVICESPACE
100
AcDbLine
 10
-249.9999999999936
 20
-670.6402813732568
 30
0.0
 11
200.0000000000073
 21
-650.6402813732568
 31
0.0
  0
LINE
  5
99536
330
18
100
AcDbEntity
  8
SERVICESPACE
100
AcDbLine
 10
200.0000000000073
 20
-670.6402813732568
 30
0.0
 11
-249.9999999999936
 21
-650.6402813732568
 31
0.0
  0
LINE
  5
99537
330
18
100
AcDbEntity
  8
SIZE
100
AcDbLine
 10
-249.9999999999936
 20
-685.6402813732568
 30
0.0
 11
-249.9999999999936
 21
-931.5190046320108
 31
0.0
  0
LINE
  5
99538
330
18
100
AcDbEntity
  8
SIZE
100
AcDbLine
 10
200.0000000000073
 20
-685.6402813732568
 30
0.0
 11
200.0000000000071
 21
-931.5190046320108
 31
0.0
  0
LINE
  5
99539
330
18
100
AcDbEntity
  8
SIZE
100
AcDbLine
 10
-249.9999999999936
 20
-926.5190046320103
 30
0.0
 11
200.0000000000071
 21
-926.5190046320103
 31
0.0
  0
CIRCLE
  5
9953A
330
18
100
AcDbEntity
  8
SIZE
100
AcDbCircle
 10
-249.9999999999936
 20
-926.5190046320103
 30
0.0
 40
5.0
  0
CIRCLE
  5
9953B
330
18
100
AcDbEntity
  8
SIZE
100
AcDbCircle
 10
200.0000000000071
 20
-926.5190046320103
 30
0.0
 40
5.0
  0
TEXT
  5
9953C
330
18
100
AcDbEntity
  8
SIZE
100
AcDbText
 10
-59.7142857142789
 20
-911.5190046320106
 30
0.0
 40
30.0
  1
450
 41
0.9
100
AcDbText
  0
TEXT
  5
9953D
330
18
100
AcDbEntity
  8
NOTE
100
AcDbText
 10
-933.7665789290158
 20
-790.6158646529495
 30
0.0
 40
35.0
  1
Ceiling surface
 50
0.0000006832429822
 41
0.7
  7
STANDARD1
100
AcDbText
  0
LINE
  5
9953E
330
18
100
AcDbEntity
  8
NOTE
100
AcDbLine
 10
-502.1645260329205
 20
-669.9999999999842
 30
0.0
 11
-511.3723895378561
 21
-703.1295173472888
 31
0.0
  0
LINE
  5
9953F
330
18
100
AcDbEntity
  8
NOTE
100
AcDbLine
 10
-502.1645260329205
 20
-669.9999999999842
 30
0.0
 11
-526.7035287673498
 21
-694.087071527854
 31
0.0
  0
LINE
  5
99540
330
18
100
AcDbEntity
  8
NOTE
100
AcDbLine
 10
-577.6375247688673
 20
-800.8685844505905
 30
0.0
 11
-502.1645260329205
 21
-669.9999999999842
 31
0.0
  0
LINE
  5
99541
330
18
100
AcDbEntity
  8
NOTE
100
AcDbLine
 10
-943.8906393542747
 20
-800.8685844505905
 30
0.0
 11
-577.6375247688673
 21
-800.8685844505905
 31
0.0
  0
LINE
  5
99542
330
18
100
AcDbEntity
  8
SIZE
100
AcDbLine
 10
-564.9999999999964
 20
-249.999999999989
 30
0.0
 11
-842.9303594522432
 21
-249.999999999989
 31
0.0
  0
LINE
  5
99543
330
18
100
AcDbEntity
  8
SIZE
100
AcDbLine
 10
-478.3076796307178
 20
-549.9999999999845
 30
0.0
 11
-842.9303594522432
 21
-549.9999999999845
 31
0.0
  0
LINE
  5
99544
330
18
100
AcDbEntity
  8
SIZE
100
AcDbLine
 10
-837.9303594522435
 20
-249.999999999989
 30
0.0
 11
-837.9303594522435
 21
-549.9999999999845
 31
0.0
  0
CIRCLE
  5
99545
330
18
100
AcDbEntity
  8
SIZE
100
AcDbCircle
 10
-837.9303594522435
 20
-249.999999999989
 30
0.0
 40
5.0
  0
CIRCLE
  5
99546
330
18
100
AcDbEntity
  8
SIZE
100
AcDbCircle
 10
-837.9303594522435
 20
-549.9999999999845
 30
0.0
 40
5.0
  0
TEXT
  5
99547
330
18
100
AcDbEntity
  8
SIZE
100
AcDbText
 10
-852.9303594522431
 20
-511.2142857142723
 30
0.0
 40
30.0
  1
Min.300mm
 50
90.0
 41
0.9
100
AcDbText
  0
LINE
  5
99548
330
18
100
AcDbEntity
  8
OUTLINE
100
AcDbLine
 10
440.8109478027181
 20
-569.0028124857113
 30
0.0
 11
440.8109478027181
 21
-609.0028124857115
 31
0.0
  0
LINE
  5
99549
330
18
100
AcDbEntity
  8
OUTLINE
100
AcDbLine
 10
440.8109478027181
 20
-609.0028124857115
 30
0.0
 11
480.8109478027181
 21
-609.0028124857115
 31
0.0
  0
LINE
  5
9954A
330
18
100
AcDbEntity
  8
OUTLINE
100
AcDbLine
 10
480.8109478027181
 20
-609.0028124857115
 30
0.0
 11
480.8109478027181
 21
-569.0028124857113
 31
0.0
  0
LINE
  5
9954B
330
18
100
AcDbEntity
  8
OUTLINE
100
AcDbLine
 10
480.8109478027181
 20
-569.0028124857113
 30
0.0
 11
440.8109478027181
 21
-569.0028124857113
 31
0.0
  0
LINE
  5
9954C
330
18
100
AcDbEntity
  8
OUTLINE
100
AcDbLine
 10
480.8109478027181
 20
-609.0028124857115
 30
0.0
 11
440.8109478027181
 21
-569.0028124857113
 31
0.0
  0
LINE
  5
9954D
330
18
100
AcDbEntity
  8
OUTLINE
100
AcDbLine
 10
440.8109478027181
 20
-609.0028124857115
 30
0.0
 11
480.8109478027181
 21
-569.0028124857113
 31
0.0
  0
LINE
  5
9954E
330
18
100
AcDbEntity
  8
OUTLINE
100
AcDbLine
 10
-463.3076796307177
 20
-549.9999999999841
 30
0.0
 11
-463.3076796307177
 21
-589.9999999999843
 31
0.0
  0
LINE
  5
9954F
330
18
100
AcDbEntity
  8
OUTLINE
100
AcDbLine
 10
-463.3076796307177
 20
-589.9999999999843
 30
0.0
 11
-423.3076796307178
 21
-589.9999999999843
 31
0.0
  0
LINE
  5
99550
330
18
100
AcDbEntity
  8
OUTLINE
100
AcDbLine
 10
-423.3076796307178
 20
-589.9999999999843
 30
0.0
 11
-423.3076796307178
 21
-549.9999999999841
 31
0.0
  0
LINE
  5
99551
330
18
100
AcDbEntity
  8
OUTLINE
100
AcDbLine
 10
-423.3076796307178
 20
-549.9999999999841
 30
0.0
 11
-463.3076796307177
 21
-549.9999999999841
 31
0.0
  0
LINE
  5
99552
330
18
100
AcDbEntity
  8
OUTLINE
100
AcDbLine
 10
-423.3076796307178
 20
-589.9999999999843
 30
0.0
 11
-463.3076796307177
 21
-549.9999999999841
 31
0.0
  0
LINE
  5
99553
330
18
100
AcDbEntity
  8
OUTLINE
100
AcDbLine
 10
-463.3076796307177
 20
-589.9999999999843
 30
0.0
 11
-423.3076796307178
 21
-549.9999999999841
 31
0.0
  0
TEXT
  5
99554
330
18
100
AcDbEntity
  8
NOTE
100
AcDbText
 10
834.9571711267799
 20
-745.4760450316381
 30
0.0
 40
35.0
  1
Access door 1
 50
0.0000006832429822
 41
0.7
  7
STANDARD1
100
AcDbText
  0
LINE
  5
99555
330
18
100
AcDbEntity
  8
NOTE
100
AcDbLine
 10
748.9898310858023
 20
-669.9999999999842
 30
0.0
 11
778.8820683662442
 21
-686.9942290310589
 31
0.0
  0
LINE
  5
99556
330
18
100
AcDbEntity
  8
NOTE
100
AcDbLine
 10
748.9898310858023
 20
-669.9999999999842
 30
0.0
 11
766.3801529988759
 21
-699.6635529521969
 31
0.0
  0
LINE
  5
99557
330
18
100
AcDbEntity
  8
NOTE
100
AcDbLine
 10
835.1895287381248
 20
-753.8452122924114
 30
0.0
 11
748.9898310858023
 21
-669.9999999999842
 31
0.0
  0
LINE
  5
99558
330
18
100
AcDbEntity
  8
NOTE
100
AcDbLine
 10
835.1895287381248
 20
-753.8452122924114
 30
0.0
 11
1124.863271608832
 21
-753.8452122924114
 31
0.0
  0
LINE
  5
99559
330
18
100
AcDbEntity
  8
NOTE
100
AcDbLine
 10
-188.4968760123829
 20
-702.8381868719168
 30
0.0
 11
-203.8136813020174
 21
-669.9999999999842
 31
0.0
  0
LINE
  5
9955A
330
18
100
AcDbEntity
  8
NOTE
100
AcDbLine
 10
-203.8136813020174
 20
-669.9999999999842
 30
0.0
 11
-174.1298454746784
 21
-690.7803015351429
 31
0.0
  0
LINE
  5
9955B
330
18
100
AcDbEntity
  8
NOTE
100
AcDbLine
 10
-203.8136813020174
 20
-669.9999999999842
 30
0.0
 11
-181.3133607435311
 21
-696.8092442035298
 31
0.0
  0
LINE
  5
9955C
330
18
100
AcDbEntity
  8
NOTE
100
AcDbLine
 10
-181.3133607435311
 20
-696.8092442035298
 30
0.0
 11
-134.3543913754292
 21
-752.7610904922893
 31
0.0
1001
ACAD
1000
DSTYLE
1002
{
1070
    41
1040
35.0
1070
   341
1005
4C0C3
1070
   271
1070
     0
1002
}
  0
LINE
  5
9955D
330
18
100
AcDbEntity
  8
NOTE
100
AcDbLine
 10
-134.3543913754292
 20
-752.7610904922893
 30
0.0
 11
164.3421059320972
 21
-752.7610904922893
 31
0.0
1001
ACAD
1000
DSTYLE
1002
{
1070
    41
1040
35.0
1070
   341
1005
4C0C3
1070
   271
1070
     0
1002
}
  0
TEXT
  5
9955E
330
18
100
AcDbEntity
  8
NOTE
100
AcDbText
 10
-126.4181907997536
 20
-744.2662575107798
 30
0.0
 40
35.0
  1
Access door 2
 50
0.0000006832429822
 41
0.7
  7
STANDARD1
100
AcDbText
  0
TEXT
  5
9955F
330
18
100
AcDbEntity
  8
NOTE
100
AcDbText
 10
-105.5935858776029
 20
-809.9407103958036
 30
0.0
 40
35.0
  1
(450X450)
 50
359.9999974955248
 41
0.6
  7
STANDARD1
100
AcDbText
  0
TEXT
  5
99560
330
18
100
AcDbEntity
  8
NOTE
100
AcDbText
 10
846.8699205382945
 20
-808.4034323513767
 30
0.0
 40
35.0
  1
(450X450)
 50
359.9999974955248
 41
0.6
  7
STANDARD1
100
AcDbText
  0
LINE
  5
99561
330
18
100
AcDbEntity
  8
NOTE
100
AcDbLine
 10
415.2439786089288
 20
-543.3263421760999
 30
0.0
 11
440.8109478027181
 21
-569.0028124857113
 31
0.0
  0
LINE
  5
99562
330
18
100
AcDbEntity
  8
NOTE
100
AcDbLine
 10
440.8109478027181
 20
-569.0028124857113
 30
0.0
 11
405.8310678712005
 21
-559.5498213562781
 31
0.0
  0
LINE
  5
99563
330
18
100
AcDbEntity
  8
NOTE
100
AcDbLine
 10
440.8109478027181
 20
-569.0028124857113
 30
0.0
 11
410.5375232400646
 21
-551.4380817661892
 31
0.0
  0
LINE
  5
99564
330
18
100
AcDbEntity
  8
NOTE
100
AcDbLine
 10
410.5375232400646
 20
-551.4380817661889
 30
0.0
 11
319.0300813517597
 21
-498.3451925797023
 31
0.0
1001
ACAD
1000
DSTYLE
1002
{
1070
    41
1040
35.0
1070
   271
1070
     0
1070
   341
1005
4C0C3
1002
}
  0
LINE
  5
99565
330
18
100
AcDbEntity
  8
NOTE
100
AcDbLine
 10
319.0300813517597
 20
-498.3451925797023
 30
0.0
 11
28.4966076269111
 21
-498.3451925797023
 31
0.0
1001
ACAD
1000
DSTYLE
1002
{
1070
    41
1040
35.0
1070
   271
1070
     0
1070
   341
1005
4C0C3
1002
}
  0
TEXT
  5
99566
330
18
100
AcDbEntity
  8
NOTE
100
AcDbText
 10
31.96593631571159
 20
-474.3953880400911
 30
0.0
 40
35.0
  1
Ceiling beam
 50
359.999999316757
 41
0.7
  7
STANDARD1
100
AcDbText
  0
TEXT
  5
99567
330
18
100
AcDbEntity
  8
NOTE
100
AcDbText
 10
763.142719175561
 20
-472.8960982021624
 30
0.0
 40
26.24081511270206
  1
Drain pipe
 50
359.9999974955184
 41
0.6
  7
STANDARD1
100
AcDbText
  0
TEXT
  5
99568
330
18
100
AcDbEntity
  8
NOTE
100
AcDbText
 10
764.4131873238328
 20
-505.9139124778437
 30
0.0
 40
26.24081511270206
  1
(O.D.%%C32)
 50
359.9999974955184
 41
0.6
  7
STANDARD1
100
AcDbText
  0
TEXT
  5
99569
330
18
100
AcDbEntity
  8
NOTE
100
AcDbText
 10
762.9384922007321
 20
-547.783880763802
 30
0.0
 40
26.24081511270206
  1
(Spontaneous
 50
359.9999974955184
 41
0.6
  7
STANDARD1
100
AcDbText
  0
TEXT
  5
9956A
330
18
100
AcDbEntity
  8
NOTE
100
AcDbText
 10
779.1524597058177
 20
-579.5317726230189
 30
0.0
 40
26.24081511270206
  1
draining)
 50
359.9999974955184
 41
0.6
  7
STANDARD1
100
AcDbText
  0
LINE
  5
9956B
330
18
100
AcDbEntity
  8
NOTE
100
AcDbLine
 10
747.9249930759015
 20
-517.7504024217049
 30
0.0
 11
948.5794808774608
 21
-517.7504024217049
 31
0.0
  0
LINE
  5
9956C
330
18
100
AcDbEntity
  8
NOTE
100
AcDbLine
 10
590.0000000000036
 20
-216.9999999999841
 30
0.0
 11
613.1381417522916
 21
-242.435724213025
 31
0.0
  0
LINE
  5
9956D
330
18
100
AcDbEntity
  8
NOTE
100
AcDbLine
 10
590.0000000000036
 20
-216.9999999999841
 30
0.0
 11
597.3203559578232
 21
-250.5970543149055
 31
0.0
  0
LINE
  5
9956E
330
18
100
AcDbEntity
  8
NOTE
100
AcDbLine
 10
747.9249930759015
 20
-517.7504024217049
 30
0.0
 11
590.0000000000036
 21
-216.9999999999841
 31
0.0
  0
LINE
  5
9956F
330
18
100
AcDbEntity
  8
SIZE
100
AcDbLine
 10
-249.9999999999936
 20
-685.6402813732568
 30
0.0
 11
-249.9999999999936
 21
-931.5190046320108
 31
0.0
  0
LINE
  5
99570
330
18
100
AcDbEntity
  8
SIZE
100
AcDbLine
 10
-549.9999999999963
 20
-264.9999999999888
 30
0.0
 11
-549.9999999999963
 21
-931.5190046320108
 31
0.0
  0
LINE
  5
99571
330
18
100
AcDbEntity
  8
SIZE
100
AcDbLine
 10
-249.9999999999936
 20
-926.5190046320103
 30
0.0
 11
-549.9999999999963
 21
-926.5190046320103
 31
0.0
  0
CIRCLE
  5
99572
330
18
100
AcDbEntity
  8
SIZE
100
AcDbCircle
 10
-249.9999999999936
 20
-926.5190046320103
 30
0.0
 40
5.0
  0
CIRCLE
  5
99573
330
18
100
AcDbEntity
  8
SIZE
100
AcDbCircle
 10
-549.9999999999963
 20
-926.5190046320103
 30
0.0
 40
5.0
  0
TEXT
  5
99574
330
18
100
AcDbEntity
  8
SIZE
100
AcDbText
 10
-489.9999999999948
 20
-911.5190046320106
 30
0.0
 40
30.0
  1
250~350
 41
0.9
100
AcDbText
  0
LINE
  5
99575
330
18
100
AcDbEntity
  8
SIZE
100
AcDbLine
 10
700.0000000000036
 20
-684.9999999999843
 30
0.0
 11
700.0000000000036
 21
-931.5190046320108
 31
0.0
  0
LINE
  5
99576
330
18
100
AcDbEntity
  8
SIZE
100
AcDbLine
 10
550.0000000000036
 20
-264.9999999999843
 30
0.0
 11
550.0000000000036
 21
-931.5190046320108
 31
0.0
  0
LINE
  5
99577
330
18
100
AcDbEntity
  8
SIZE
100
AcDbLine
 10
700.0000000000036
 20
-926.5190046320103
 30
0.0
 11
550.0000000000036
 21
-926.5190046320103
 31
0.0
  0
LINE
  5
99578
330
18
100
AcDbEntity
  8
SIZE
100
AcDbLine
 10
625.0000000000036
 20
-926.5190046320103
 30
0.0
 11
704.5978164225308
 21
-984.8183484568865
 31
0.0
  0
LINE
  5
99579
330
18
100
AcDbEntity
  8
SIZE
100
AcDbLine
 10
704.5978164225308
 20
-984.8183484568865
 30
0.0
 11
909.4549592796736
 21
-984.8183484568865
 31
0.0
  0
TEXT
  5
9957A
330
18
100
AcDbEntity
  8
SIZE
100
AcDbText
 10
719.5978164225309
 20
-969.8183484568865
 30
0.0
 40
30.0
  1
100~200
 41
0.9
100
AcDbText
  0
CIRCLE
  5
9957B
330
18
100
AcDbEntity
  8
SIZE
100
AcDbCircle
 10
700.0000000000036
 20
-926.5190046320103
 30
0.0
 40
5.0
  0
CIRCLE
  5
9957C
330
18
100
AcDbEntity
  8
SIZE
100
AcDbCircle
 10
550.0000000000036
 20
-926.5190046320103
 30
0.0
 40
5.0
  0
LINE
  5
9957D
330
18
100
AcDbEntity
  8
NOTE
100
AcDbLine
 10
623.0000000000027
 20
-106.8798402021123
 30
0.0
 11
623.0000000000027
 21
-137.5054088295722
 31
0.0
  0
LINE
  5
9957E
330
18
100
AcDbEntity
  8
NOTE
100
AcDbLine
 10
633.8662719119955
 20
-122.1926245158422
 30
0.0
 11
612.1337280880098
 21
-122.1926245158422
 31
0.0
  0
LINE
  5
9957F
330
18
100
AcDbEntity
  8
NOTE
100
AcDbLine
 10
650.0000000000007
 20
-138.9752507553942
 30
0.0
 11
650.0000000000045
 21
-171.4099982762903
 31
0.0
  0
LINE
  5
99580
330
18
100
AcDbEntity
  8
NOTE
100
AcDbLine
 10
660.8662719119958
 20
-155.1926245158423
 30
0.0
 11
639.1337280880097
 21
-155.1926245158423
 31
0.0
  0
LINE
  5
99581
330
18
100
AcDbEntity
  8
SIZE
100
AcDbLine
 10
565.0000000000057
 20
-0.0000000000036664
 30
0.0
 11
844.2799793577203
 21
-0.0000000000036238
 31
0.0
  0
LINE
  5
99582
330
18
100
AcDbEntity
  8
SIZE
100
AcDbLine
 10
648.8662719119957
 20
-122.1926245158424
 30
0.0
 11
844.2799793577203
 21
-122.1926245158423
 31
0.0
  0
LINE
  5
99583
330
18
100
AcDbEntity
  8
SIZE
100
AcDbLine
 10
839.2799793577204
 20
-0.0000000000036238
 30
0.0
 11
839.2799793577204
 21
-122.1926245158423
 31
0.0
  0
CIRCLE
  5
99584
330
18
100
AcDbEntity
  8
SIZE
100
AcDbCircle
 10
839.2799793577204
 20
-0.0000000000036238
 30
0.0
 40
5.0
  0
CIRCLE
  5
99585
330
18
100
AcDbEntity
  8
SIZE
100
AcDbCircle
 10
839.2799793577204
 20
-122.1926245158423
 30
0.0
 40
5.0
  0
TEXT
  5
99586
330
18
100
AcDbEntity
  8
SIZE
100
AcDbText
 10
824.2799793577201
 20
-93.23916940078031
 30
0.0
 40
30.0
  1
122
 50
90.0
 41
0.9
100
AcDbText
  0
LINE
  5
99587
330
18
100
AcDbEntity
  8
SIZE
100
AcDbLine
 10
648.8662719119957
 20
-122.1926245158424
 30
0.0
 11
844.2799793577561
 21
-122.1926245158423
 31
0.0
  0
LINE
  5
99588
330
18
100
AcDbEntity
  8
SIZE
100
AcDbLine
 10
675.8662719119958
 20
-155.1926245158424
 30
0.0
 11
844.2799793577565
 21
-155.1926245158424
 31
0.0
  0
LINE
  5
99589
330
18
100
AcDbEntity
  8
SIZE
100
AcDbLine
 10
839.2799793577562
 20
-122.1926245158423
 30
0.0
 11
839.2799793577562
 21
-155.1926245158424
 31
0.0
  0
LINE
  5
9958A
330
18
100
AcDbEntity
  8
SIZE
100
AcDbLine
 10
839.2799793577562
 20
-155.1926245158424
 30
0.0
 11
839.2799793577562
 21
-288.0720134861959
 31
0.0
  0
CIRCLE
  5
9958B
330
18
100
AcDbEntity
  8
SIZE
100
AcDbCircle
 10
839.2799793577562
 20
-122.1926245158423
 30
0.0
 40
5.0
  0
CIRCLE
  5
9958C
330
18
100
AcDbEntity
  8
SIZE
100
AcDbCircle
 10
839.2799793577562
 20
-155.1926245158424
 30
0.0
 40
5.0
  0
TEXT
  5
9958D
330
18
100
AcDbEntity
  8
SIZE
100
AcDbText
 10
824.279979357756
 20
-273.072013486196
 30
0.0
 40
30.0
  1
33
 50
90.0
 41
0.9
100
AcDbText
  0
LINE
  5
9958E
330
18
100
AcDbEntity
  8
NOTE
100
AcDbLine
 10
648.6823722932432
 20
-104.7274349958033
 30
0.0
 11
623.0000000000027
 21
-122.1926245158422
 31
0.0
  0
LINE
  5
9958F
330
18
100
AcDbEntity
  8
NOTE
100
AcDbLine
 10
623.0000000000027
 20
-122.1926245158422
 30
0.0
 11
636.5089922022502
 21
-94.22614062424251
 31
0.0
  0
LINE
  5
99590
330
18
100
AcDbEntity
  8
NOTE
100
AcDbLine
 10
623.0000000000027
 20
-122.1926245158422
 30
0.0
 11
642.5956822477466
 21
-99.47678781002293
 31
0.0
  0
LINE
  5
99591
330
18
100
AcDbEntity
  8
NOTE
100
AcDbLine
 10
642.5956822477466
 20
-99.47678781002293
 30
0.0
 11
793.9730748525743
 21
76.00391696410453
 31
0.0
1001
ACAD
1000
DSTYLE
1002
{
1070
    41
1040
30.0
1070
    90
1070
     1
1070
   345
1005
12
1070
   346
1005
12
1070
   347
1005
12
1002
}
  0
LINE
  5
99592
330
18
100
AcDbEntity
  8
NOTE
100
AcDbLine
 10
793.9730748525743
 20
76.00391696410453
 30
0.0
 11
1369.040555501107
 21
76.00391696410454
 31
0.0
1001
ACAD
1000
DSTYLE
1002
{
1070
    41
1040
30.0
1070
    90
1070
     1
1070
   345
1005
12
1070
   346
1005
12
1070
   347
1005
12
1002
}
  0
LINE
  5
99593
330
18
100
AcDbEntity
  8
NOTE
100
AcDbLine
 10
667.0947911319146
 20
-181.1230161005406
 30
0.0
 11
650.0000000000027
 21
-155.1926245158423
 31
0.0
  0
LINE
  5
99594
330
18
100
AcDbEntity
  8
NOTE
100
AcDbLine
 10
650.0000000000027
 20
-155.1926245158423
 30
0.0
 11
677.769719121878
 21
-169.1016069182917
 31
0.0
  0
LINE
  5
99595
330
18
100
AcDbEntity
  8
NOTE
100
AcDbLine
 10
650.0000000000027
 20
-155.1926245158423
 30
0.0
 11
672.4322551268962
 21
-175.1123115094162
 31
0.0
  0
LINE
  5
99596
330
18
100
AcDbEntity
  8
NOTE
100
AcDbLine
 10
672.4322551268962
 20
-175.1123115094162
 30
0.0
 11
923.7945787309271
 21
-398.3203117682437
 31
0.0
1001
ACAD
1000
DSTYLE
1002
{
1070
    41
1040
30.0
1070
    90
1070
     1
1070
   345
1005
12
1070
   346
1005
12
1070
   347
1005
12
1002
}
  0
LINE
  5
99597
330
18
100
AcDbEntity
  8
NOTE
100
AcDbLine
 10
923.7945787309271
 20
-398.3203117682437
 30
0.0
 11
1482.209105953543
 21
-398.3203117682437
 31
0.0
1001
ACAD
1000
DSTYLE
1002
{
1070
    41
1040
30.0
1070
    90
1070
     1
1070
   345
1005
12
1070
   346
1005
12
1070
   347
1005
12
1002
}
  0
LINE
  5
99598
330
18
100
AcDbEntity
  8
SIZE
100
AcDbLine
 10
623.0000000000027
 20
-152.5054088295722
 30
0.0
 11
623.0000000000027
 21
-414.2817610589204
 31
0.0
  0
LINE
  5
99599
330
18
100
AcDbEntity
  8
SIZE
100
AcDbLine
 10
550.0000000000036
 20
-264.9999999999843
 30
0.0
 11
550.0000000000036
 21
-414.2817610589204
 31
0.0
  0
LINE
  5
9959A
330
18
100
AcDbEntity
  8
SIZE
100
AcDbLine
 10
623.0000000000027
 20
-409.2817610589204
 30
0.0
 11
550.0000000000036
 21
-409.2817610589204
 31
0.0
  0
CIRCLE
  5
9959B
330
18
100
AcDbEntity
  8
SIZE
100
AcDbCircle
 10
623.0000000000027
 20
-409.2817610589204
 30
0.0
 40
5.0
  0
CIRCLE
  5
9959C
330
18
100
AcDbEntity
  8
SIZE
100
AcDbCircle
 10
550.0000000000036
 20
-409.2817610589204
 30
0.0
 40
5.0
  0
TEXT
  5
9959D
330
18
100
AcDbEntity
  8
SIZE
100
AcDbText
 10
564.6428571428603
 20
-394.2817610589204
 30
0.0
 40
30.0
  1
73
 41
0.9
100
AcDbText
  0
ARC
  5
9959E
330
18
100
AcDbEntity
  8
DETAIL
100
AcDbCircle
 10
607.4979512544014
 20
-25.49303426495986
 30
0.0
 40
0.4998634169600655
100
AcDbArc
 50
0.0
 51
90.0
  0
LINE
  5
9959F
330
18
100
AcDbEntity
  8
DETAIL
100
AcDbLine
 10
607.997814671362
 20
-54.00008651208809
 30
0.0
 11
607.997814671362
 21
-25.49303426495986
 31
0.0
  0
LINE
  5
995A0
330
18
100
AcDbEntity
  8
DETAIL
100
AcDbLine
 10
583.0046438233621
 20
-57.23436124190572
 30
0.0
 11
583.0046438233621
 21
-24.74323913952627
 31
0.0
  0
LINE
  5
995A1
330
18
100
AcDbEntity
  8
DETAIL
100
AcDbLine
 10
550.0000000000018
 20
-57.81045944301933
 30
0.0
 11
583.0046438233621
 21
-57.23436124190572
 31
0.0
  0
LINE
  5
995A2
330
18
100
AcDbEntity
  8
DETAIL
100
AcDbLine
 10
550.0000000000018
 20
-24.16714093899223
 30
0.0
 11
583.0046438233621
 21
-24.74323913952627
 31
0.0
  0
ARC
  5
995A3
330
18
100
AcDbEntity
  8
DETAIL
100
AcDbCircle
 10
607.4979512544014
 20
-25.49303426495986
 30
0.0
 40
0.4998634169600655
100
AcDbArc
 50
0.0
 51
90.0
  0
LINE
  5
995A4
330
18
100
AcDbEntity
  8
DETAIL
100
AcDbLine
 10
583.0046438233621
 20
-24.99317084799928
 30
0.0
 11
597.5006829152007
 21
-24.99317084799928
 31
0.0
  0
LINE
  5
995A5
330
18
100
AcDbEntity
  8
DETAIL
100
AcDbLine
 10
600.0000000000036
 20
-24.99317084799928
 30
0.0
 11
607.4979512544014
 21
-24.99317084799928
 31
0.0
  0
LINE
  5
995A6
330
18
100
AcDbEntity
  8
DETAIL
100
AcDbLine
 10
650.0000000000027
 20
-145.9926245158415
 30
0.0
 11
650.0000000000027
 21
-164.3926245158429
 31
0.0
  0
LINE
  5
995A7
330
18
100
AcDbEntity
  8
DETAIL
100
AcDbLine
 10
634.5029437252033
 20
-145.9926245158415
 30
0.0
 11
634.5029437252033
 21
-164.3926245158429
 31
0.0
  0
LINE
  5
995A8
330
18
100
AcDbEntity
  8
DETAIL
100
AcDbLine
 10
633.2429437252031
 20
-147.2526245158418
 30
0.0
 11
633.2429437252031
 21
-163.1326245158428
 31
0.0
  0
LINE
  5
995A9
330
18
100
AcDbEntity
  8
DETAIL
100
AcDbLine
 10
623.0000000000027
 20
-116.682624515842
 30
0.0
 11
623.0000000000027
 21
-127.7026245158425
 31
0.0
  0
LINE
  5
995AA
330
18
100
AcDbEntity
  8
DETAIL
100
AcDbLine
 10
612.7100505064036
 20
-116.682624515842
 30
0.0
 11
612.7100505064036
 21
-127.7026245158425
 31
0.0
  0
LINE
  5
995AB
330
18
100
AcDbEntity
  8
DETAIL
100
AcDbLine
 10
611.9600505064036
 20
-117.432624515842
 30
0.0
 11
611.9600505064036
 21
-126.9526245158425
 31
0.0
  0
LINE
  5
995AC
330
18
100
AcDbEntity
  8
DETAIL
100
AcDbLine
 10
580.0000000000027
 20
-155.2926245158426
 30
0.0
 11
580.0000000000027
 21
-173.1924686104424
 31
0.0
  0
LINE
  5
995AD
330
18
100
AcDbEntity
  8
DETAIL
100
AcDbLine
 10
580.0000000000027
 20
-122.2926245158426
 30
0.0
 11
580.0000000000027
 21
-155.0926245158419
 31
0.0
  0
LINE
  5
995AE
330
18
100
AcDbEntity
  8
DETAIL
100
AcDbLine
 10
580.0000000000027
 20
-107.1926262075424
 30
0.0
 11
580.0000000000027
 21
-122.0926245158419
 31
0.0
  0
LINE
  5
995AF
330
18
100
AcDbEntity
  8
DETAIL
100
AcDbLine
 10
634.5029437252033
 20
-145.9926245158415
 30
0.0
 11
633.2429437252031
 21
-147.2526245158418
 31
0.0
  0
LINE
  5
995B0
330
18
100
AcDbEntity
  8
DETAIL
100
AcDbLine
 10
612.7100505064036
 20
-116.682624515842
 30
0.0
 11
611.9600505064036
 21
-117.432624515842
 31
0.0
  0
LINE
  5
995B1
330
18
100
AcDbEntity
  8
DETAIL
100
AcDbLine
 10
550.0000000000036
 20
-173.1926245158423
 30
0.0
 11
580.0000000000027
 21
-173.1926245158423
 31
0.0
  0
LINE
  5
995B2
330
18
100
AcDbEntity
  8
DETAIL
100
AcDbLine
 10
650.0000000000027
 20
-164.3926245158429
 30
0.0
 11
634.5029437252033
 21
-164.3926245158429
 31
0.0
  0
LINE
  5
995B3
330
18
100
AcDbEntity
  8
DETAIL
100
AcDbLine
 10
633.2429437252031
 20
-163.1326245158428
 30
0.0
 11
580.0000000000027
 21
-163.1326245158428
 31
0.0
  0
LINE
  5
995B4
330
18
100
AcDbEntity
  8
DETAIL
100
AcDbLine
 10
633.2429437252031
 20
-147.2526245158418
 30
0.0
 11
580.0000000000027
 21
-147.2526245158418
 31
0.0
  0
LINE
  5
995B5
330
18
100
AcDbEntity
  8
DETAIL
100
AcDbLine
 10
650.0000000000027
 20
-145.9926245158415
 30
0.0
 11
634.5029437252033
 21
-145.9926245158415
 31
0.0
  0
LINE
  5
995B6
330
18
100
AcDbEntity
  8
DETAIL
100
AcDbLine
 10
550.0000000000036
 20
-137.1926245158423
 30
0.0
 11
580.0000000000027
 21
-137.1926245158423
 31
0.0
  0
LINE
  5
995B7
330
18
100
AcDbEntity
  8
DETAIL
100
AcDbLine
 10
623.0000000000027
 20
-127.7026245158425
 30
0.0
 11
612.7100505064036
 21
-127.7026245158425
 31
0.0
  0
LINE
  5
995B8
330
18
100
AcDbEntity
  8
DETAIL
100
AcDbLine
 10
611.9600505064036
 20
-126.9526245158425
 30
0.0
 11
580.0000000000027
 21
-126.9526245158425
 31
0.0
  0
LINE
  5
995B9
330
18
100
AcDbEntity
  8
DETAIL
100
AcDbLine
 10
550.0000000000036
 20
-122.2926245158426
 30
0.0
 11
580.0000000000027
 21
-122.2926245158426
 31
0.0
  0
LINE
  5
995BA
330
18
100
AcDbEntity
  8
DETAIL
100
AcDbLine
 10
580.0000000000027
 20
-117.432624515842
 30
0.0
 11
611.9600505064036
 21
-117.432624515842
 31
0.0
  0
LINE
  5
995BB
330
18
100
AcDbEntity
  8
DETAIL
100
AcDbLine
 10
623.0000000000027
 20
-116.682624515842
 30
0.0
 11
612.7100505064036
 21
-116.682624515842
 31
0.0
  0
LINE
  5
995BC
330
18
100
AcDbEntity
  8
DETAIL
100
AcDbLine
 10
550.0000000000036
 20
-107.1926245158422
 30
0.0
 11
580.0000000000027
 21
-107.1926245158422
 31
0.0
  0
LINE
  5
995BD
330
18
100
AcDbEntity
  8
DETAIL
100
AcDbLine
 10
634.5029437252033
 20
-164.3926245158429
 30
0.0
 11
633.2429437252031
 21
-163.1326245158428
 31
0.0
  0
LINE
  5
995BE
330
18
100
AcDbEntity
  8
DETAIL
100
AcDbLine
 10
612.7100505064036
 20
-127.7026245158425
 30
0.0
 11
611.9600505064036
 21
-126.9526245158425
 31
0.0
  0
LINE
  5
995BF
330
18
100
AcDbEntity
  8
DETAIL
100
AcDbLine
 10
608.0046438233621
 20
-25.48436124190572
 30
0.0
 11
608.0046438233621
 21
-56.4843612419057
 31
0.0
  0
LINE
  5
995C0
330
18
100
AcDbEntity
  8
DETAIL
100
AcDbLine
 10
607.5046438233621
 20
-24.98436124190572
 30
0.0
 11
607.5046438233621
 21
-56.98436124190571
 31
0.0
  0
LINE
  5
995C1
330
18
100
AcDbEntity
  8
DETAIL
100
AcDbLine
 10
607.5046438233621
 20
-56.98436124190571
 30
0.0
 11
583.0046438233621
 21
-56.98436124190571
 31
0.0
  0
ARC
  5
995C2
330
18
100
AcDbEntity
  8
DETAIL
100
AcDbCircle
 10
607.5046438233621
 20
-56.4843612419057
 30
0.0
 40
0.5
100
AcDbArc
 50
270.0
 51
0.0
  0
LINE
  5
995C3
330
18
100
AcDbEntity
  8
SIZE
100
AcDbLine
 10
550.0000000000036
 20
-264.9999999999843
 30
0.0
 11
550.0000000000036
 21
-491.9557907357462
 31
0.0
  0
LINE
  5
995C4
330
18
100
AcDbEntity
  8
SIZE
100
AcDbLine
 10
650.0000000000045
 20
-186.4099982762903
 30
0.0
 11
650.0000000000045
 21
-491.9557907357462
 31
0.0
  0
LINE
  5
995C5
330
18
100
AcDbEntity
  8
SIZE
100
AcDbLine
 10
550.0000000000036
 20
-486.9557907357461
 30
0.0
 11
650.0000000000045
 21
-486.9557907357461
 31
0.0
  0
CIRCLE
  5
995C6
330
18
100
AcDbEntity
  8
SIZE
100
AcDbCircle
 10
550.0000000000036
 20
-486.9557907357461
 30
0.0
 40
5.0
  0
CIRCLE
  5
995C7
330
18
100
AcDbEntity
  8
SIZE
100
AcDbCircle
 10
650.0000000000045
 20
-486.9557907357461
 30
0.0
 40
5.0
  0
TEXT
  5
995C8
330
18
100
AcDbEntity
  8
SIZE
100
AcDbText
 10
567.8571428571468
 20
-471.9557907357462
 30
0.0
 40
30.0
  1
100
 41
0.9
100
AcDbText
  0
TEXT
  5
995C9
330
18
100
AcDbEntity
  8
NOTE
100
AcDbText
 10
799.1340544613031
 20
95.27621731976116
 30
0.0
 40
30.0
  1
Brazing connection (liquid) %%C6.35
 41
0.6
  7
STANDARD1
100
AcDbText
  0
TEXT
  5
995CA
330
18
100
AcDbEntity
  8
NOTE
100
AcDbText
 10
934.4633986681927
 20
-332.0467469707796
 30
0.0
 40
30.0
  1
Refrigerant piping
 41
0.6
  7
STANDARD1
100
AcDbText
  0
TEXT
  5
995CB
330
18
100
AcDbEntity
  8
NOTE
100
AcDbText
 10
933.3275408481185
 20
-380.8656304686297
 30
0.0
 40
30.0
  1
Brazing connection (gas) %%C12.7
 41
0.6
  7
STANDARD1
100
AcDbText
  0
TEXT
  5
995CC
330
18
100
AcDbEntity
  8
NOTE
100
AcDbText
 10
800.2699122813702
 20
146.3657545367955
 30
0.0
 40
30.0
  1
Refrigerant piping
 41
0.6
  7
STANDARD1
100
AcDbText
  0
ENDSEC
  0
SECTION
  2
OBJECTS
  0
DICTIONARY
  5
C
330
0
100
AcDbDictionary
281
     1
  3
ACAD_2007HEADERVARS_RT
350
99621
  3
ACAD_CIP_PREVIOUS_PRODUCT_INFO
350
70D0E
  3
ACAD_COLOR
350
513F9
  3
ACAD_DETAILVIEWSTYLE
350
99248
  3
ACAD_GROUP
350
D
  3
ACAD_LAYOUT
350
21F1
  3
ACAD_MATERIAL
350
513CF
  3
ACAD_MLEADERSTYLE
350
5141E
  3
ACAD_MLINESTYLE
350
1B
  3
ACAD_PLOTSETTINGS
350
21F2
  3
ACAD_PLOTSTYLENAME
350
21EF
  3
ACAD_SCALELIST
350
513FC
  3
ACAD_SECTIONVIEWSTYLE
350
99246
  3
ACAD_TABLESTYLE
350
513FA
  3
ACAD_VISUALSTYLE
350
513E8
  3
AcadDim
350
956CE
  3
ACDB_RECOMPOSE_DATA
350
9961F
  3
AcDbVariableDictionary
350
28B1
  3
DWGPROPS
350
99620
  0
DICTIONARY
  5
70D15
330
8
100
AcDbDictionary
280
     1
281
     1
  0
DICTIONARY
  5
5148D
330
2
100
AcDbDictionary
280
     1
281
     1
  3
ACAD_LAYERFILTERS
360
6ADDC
  3
ACAD_LAYERSTATES
360
6B6C9
  3
ACLYDICTIONARY
360
6ADDB
  0
DICTIONARY
  5
5144C
330
E
100
AcDbDictionary
280
     1
281
     1
  3
ADSK_XREC_LAYER_RECONCILED
360
5144D
  0
DICTIONARY
  5
5144E
330
25
100
AcDbDictionary
280
     1
281
     1
  3
ADSK_XREC_LAYER_RECONCILED
360
5144F
  0
DICTIONARY
  5
51450
330
26
100
AcDbDictionary
280
     1
281
     1
  3
ADSK_XREC_LAYER_RECONCILED
360
51451
  0
DICTIONARY
  5
51452
330
27
100
AcDbDictionary
280
     1
281
     1
  3
ADSK_XREC_LAYER_RECONCILED
360
51453
  0
DICTIONARY
  5
51454
330
28
100
AcDbDictionary
280
     1
281
     1
  3
ADSK_XREC_LAYER_RECONCILED
360
51455
  0
DICTIONARY
  5
51456
330
29
100
AcDbDictionary
280
     1
281
     1
  3
ADSK_XREC_LAYER_RECONCILED
360
51457
  0
DICTIONARY
  5
51458
330
2B
100
AcDbDictionary
280
     1
281
     1
  3
ADSK_XREC_LAYER_RECONCILED
360
51459
  0
DICTIONARY
  5
5145A
330
2C
100
AcDbDictionary
280
     1
281
     1
  3
ADSK_XREC_LAYER_RECONCILED
360
5145B
  0
DICTIONARY
  5
5145C
330
2D
100
AcDbDictionary
280
     1
281
     1
  3
ADSK_XREC_LAYER_RECONCILED
360
5145D
  0
DICTIONARY
  5
85434
330
85433
100
AcDbDictionary
280
     1
281
     1
  0
DICTIONARY
  5
85436
330
85435
100
AcDbDictionary
280
     1
281
     1
  0
DICTIONARY
  5
28B3
330
18
100
AcDbDictionary
280
     1
281
     1
  3
ACAD_LAYOUTSELFREF
360
2DF14
  3
ACAD_SORTENTS
360
28B4
  0
DICTIONARY
  5
29B6
330
15
100
AcDbDictionary
280
     1
281
     1
  3
ACAD_LAYOUTSELFREF
360
2DF13
  0
DICTIONARY
  5
990CA
330
4C0C3
100
AcDbDictionary
280
     1
281
     1
  0
DICTIONARY
  5
9940C
330
99250
100
AcDbDictionary
280
     1
281
     1
  3
ACAD_SORTENTS
360
9940D
  0
DICTIONARY
  5
99621
102
{ACAD_REACTORS
330
C
102
}
330
C
100
AcDbDictionary
281
     1
  3
DIMARCSYM
350
99622
  3
DIMLTEX1
350
99624
  3
DIMLTEX2
350
99625
  3
DIMLTYPE
350
99623
  0
XRECORD
  5
70D0E
102
{ACAD_REACTORS
330
C
102
}
330
C
100
AcDbXrecord
280
     1
300
ACDLT
300
2018
300
86831ACDLT_2018_0F
  0
DICTIONARY
  5
513F9
102
{ACAD_REACTORS
330
C
102
}
330
C
100
AcDbDictionary
281
     1
  0
DICTIONARY
  5
99248
102
{ACAD_REACTORS
330
C
102
}
330
C
100
AcDbDictionary
281
     1
  3
Imperial24
350
99249
  0
DICTIONARY
  5
D
102
{ACAD_REACTORS
330
C
102
}
330
C
100
AcDbDictionary
281
     1
  0
DICTIONARY
  5
21F1
102
{ACAD_REACTORS
330
C
102
}
330
C
100
AcDbDictionary
281
     1
  3
Model
350
21F3
  3
ﾚｲｱｳﾄ1
350
21F4
  0
DICTIONARY
  5
513CF
102
{ACAD_REACTORS
330
C
102
}
330
C
100
AcDbDictionary
281
     1
  3
ByBlock
350
513D8
  3
ByLayer
350
513D0
  3
Global
350
513E0
  0
DICTIONARY
  5
5141E
102
{ACAD_REACTORS
330
C
102
}
330
C
100
AcDbDictionary
281
     1
  3
Standard
350
5141F
  0
DICTIONARY
  5
1B
102
{ACAD_REACTORS
330
C
102
}
330
C
100
AcDbDictionary
281
     1
  3
STANDARD
350
1C
  0
DICTIONARY
  5
21F2
102
{ACAD_REACTORS
330
C
102
}
330
C
100
AcDbDictionary
281
     1
  0
ACDBDICTIONARYWDFLT
  5
21EF
102
{ACAD_REACTORS
330
C
102
}
330
C
100
AcDbDictionary
281
     1
  3
Normal
350
21F0
100
AcDbDictionaryWithDefault
340
21F0
  0
DICTIONARY
  5
513FC
102
{ACAD_REACTORS
330
C
102
}
330
C
100
AcDbDictionary
281
     1
  3
A0
350
513FD
  3
A1
350
513FE
  3
A2
350
513FF
  3
A3
350
51400
  3
A4
350
51401
  3
A5
350
51402
  3
A6
350
51403
  3
A7
350
51404
  3
A8
350
51405
  3
A9
350
51406
  3
B0
350
51407
  3
B1
350
51408
  3
B2
350
51409
  3
B3
350
5140A
  3
B4
350
5140B
  3
B5
350
5140C
  3
B6
350
5140D
  3
B7
350
5140E
  3
B8
350
5140F
  3
B9
350
51410
  3
C0
350
51411
  3
C1
350
51412
  3
C2
350
51413
  3
C3
350
51414
  3
C4
350
51415
  3
C5
350
51416
  3
C6
350
51417
  3
C7
350
51418
  3
C8
350
51419
  3
C9
350
5141A
  3
D0
350
5141B
  3
D1
350
5141C
  3
D2
350
5141D
  0
DICTIONARY
  5
99246
102
{ACAD_REACTORS
330
C
102
}
330
C
100
AcDbDictionary
281
     1
  3
Imperial24
350
99247
  0
DICTIONARY
  5
513FA
102
{ACAD_REACTORS
330
C
102
}
330
C
100
AcDbDictionary
281
     1
  3
Standard
350
513FB
  0
DICTIONARY
  5
513E8
102
{ACAD_REACTORS
330
C
102
}
330
C
100
AcDbDictionary
281
     1
  3
2dWireframe
350
513EE
  3
3D Hidden
350
513F0
  3
3dWireframe
350
513EF
  3
Basic
350
513ED
  3
Brighten
350
513F4
  3
ColorChange
350
513F8
  3
Conceptual
350
513F1
  3
Dim
350
513F3
  3
EdgeColorOff
350
70D09
  3
Facepattern
350
513F7
  3
Flat
350
513E9
  3
FlatWithEdges
350
513EA
  3
Gouraud
350
513EB
  3
GouraudWithEdges
350
513EC
  3
Hidden
350
70D01
  3
JitterOff
350
70D07
  3
Linepattern
350
513F6
  3
OverhangOff
350
70D08
  3
Realistic
350
513F2
  3
Shaded
350
70D06
  3
Shaded with edges
350
70D05
  3
Shades of Gray
350
70D02
  3
Sketchy
350
70D03
  3
Thicken
350
513F5
  3
Wireframe
350
70D00
  3
X-Ray
350
70D04
  0
XRECORD
  5
956CE
102
{ACAD_REACTORS
330
C
102
}
330
C
100
AcDbXrecord
280
     1
 90
   990106
  3

 60
     0
 61
     0
 62
     1
 63
     3
 64
     0
 65
     0
 66
     0
 67
     3
 68
     1
 69
     0
 70
     0
 71
     0
 72
     0
 40
0.0
170
     0
  0
XRECORD
  5
9961F
102
{ACAD_REACTORS
330
C
102
}
330
C
100
AcDbXrecord
280
     1
 90
        1
330
513FB
  0
DICTIONARY
  5
28B1
102
{ACAD_REACTORS
330
C
102
}
330
C
100
AcDbDictionary
281
     1
  3
CANNOSCALE
350
51480
  3
CMLEADERSTYLE
350
5147E
  3
CTABLESTYLE
350
5147D
  3
CVIEWDETAILSTYLE
350
995CD
  3
CVIEWSECTIONSTYLE
350
995CE
  3
DIMASSOC
350
5135B
  3
INDEXCTL
350
70D55
  3
LIGHTINGUNITS
350
51481
  3
MSLTSCALE
350
5147F
  3
SOLIDHIST
350
70D57
  3
SORTENTS
350
28B2
  3
XCLIPFRAME
350
9961D
  0
XRECORD
  5
99620
102
{ACAD_REACTORS
330
C
102
}
330
C
100
AcDbXrecord
280
     1
  1
DWGPROPS COOKIE
  2

  3

  4

  6

  7

  8
NU55418
  9

300
=
301
=
302
=
303
=
304
=
305
=
306
=
307
=
308
=
309
=
 40
1.646789363425925
 41
2455902.607164352
 42
2460202.566412037
  1

 90
        0
  0
DICTIONARY
  5
6ADDC
102
{ACAD_REACTORS
330
5148D
102
}
330
5148D
100
AcDbDictionary
281
     1
  0
DICTIONARY
  5
6B6C9
102
{ACAD_REACTORS
330
5148D
102
}
330
5148D
100
AcDbDictionary
281
     1
  0
DICTIONARY
  5
6ADDB
102
{ACAD_REACTORS
330
5148D
102
}
330
5148D
100
AcDbDictionary
281
     1
1001
ACAD
1000
<All
  0
XRECORD
  5
5144D
102
{ACAD_REACTORS
330
5144C
102
}
330
5144C
100
AcDbXrecord
280
     1
290
     1
  0
XRECORD
  5
5144F
102
{ACAD_REACTORS
330
5144E
102
}
330
5144E
100
AcDbXrecord
280
     1
290
     1
  0
XRECORD
  5
51451
102
{ACAD_REACTORS
330
51450
102
}
330
51450
100
AcDbXrecord
280
     1
290
     1
  0
XRECORD
  5
51453
102
{ACAD_REACTORS
330
51452
102
}
330
51452
100
AcDbXrecord
280
     1
290
     1
  0
XRECORD
  5
51455
102
{ACAD_REACTORS
330
51454
102
}
330
51454
100
AcDbXrecord
280
     1
290
     1
  0
XRECORD
  5
51457
102
{ACAD_REACTORS
330
51456
102
}
330
51456
100
AcDbXrecord
280
     1
290
     1
  0
XRECORD
  5
51459
102
{ACAD_REACTORS
330
51458
102
}
330
51458
100
AcDbXrecord
280
     1
290
     1
  0
XRECORD
  5
5145B
102
{ACAD_REACTORS
330
5145A
102
}
330
5145A
100
AcDbXrecord
280
     1
290
     1
  0
XRECORD
  5
5145D
102
{ACAD_REACTORS
330
5145C
102
}
330
5145C
100
AcDbXrecord
280
     1
290
     1
  0
XRECORD
  5
2DF14
102
{ACAD_REACTORS
330
28B3
102
}
330
28B3
100
AcDbXrecord
280
     1
340
18
  0
SORTENTSTABLE
  5
28B4
102
{ACAD_REACTORS
330
28B3
102
}
330
28B3
100
AcDbSortentsTable
330
18
331
99434
  5
99434
331
99430
  5
99430
331
9946F
  5
9946F
331
9942C
  5
9942C
331
9946B
  5
9946B
331
99428
  5
99428
331
9959D
  5
9959D
331
99599
  5
99599
331
99595
  5
99595
331
99591
  5
99591
331
99524
  5
99524
331
99520
  5
99520
331
9951C
  5
9951C
331
9955F
  5
9955F
331
9955B
  5
9955B
331
99518
  5
99518
331
994DE
  5
994DE
331
9949F
  5
9949F
331
994DA
  5
994DA
331
9949B
  5
9949B
331
99497
  5
99497
331
994D6
  5
994D6
331
994D2
  5
994D2
331
99493
  5
99493
331
99467
  5
99467
331
99424
  5
99424
331
99420
  5
99420
331
99463
  5
99463
331
9945F
  5
9945F
331
9941C
  5
9941C
331
9945B
  5
9945B
331
99418
  5
99418
331
9958D
  5
9958D
331
995CC
  5
995CC
331
995C8
  5
995C8
331
99589
  5
99589
331
995C4
  5
995C4
331
99585
  5
99585
331
995C0
  5
995C0
331
99581
  5
99581
331
99557
  5
99557
331
99514
  5
99514
331
99553
  5
99553
331
99510
  5
99510
331
9950C
  5
9950C
331
9954F
  5
9954F
331
99508
  5
99508
331
9954B
  5
9954B
331
994CF
  5
994CF
331
9948C
  5
9948C
331
99488
  5
99488
331
994CB
  5
994CB
331
994C7
  5
994C7
331
99484
  5
99484
331
994C3
  5
994C3
331
99480
  5
99480
331
99415
  5
99415
331
99454
  5
99454
331
99450
  5
99450
331
9944C
  5
9944C
331
9957E
  5
9957E
331
99448
  5
99448
331
995BD
  5
995BD
331
9957A
  5
9957A
331
995B9
  5
995B9
331
99576
  5
99576
331
995B5
  5
995B5
331
99572
  5
99572
331
995B1
  5
995B1
331
99544
  5
99544
331
99505
  5
99505
331
99501
  5
99501
331
99540
  5
99540
331
994FD
  5
994FD
331
9953C
  5
9953C
331
99538
  5
99538
331
994F9
  5
994F9
331
994BF
  5
994BF
331
9947C
  5
9947C
331
99478
  5
99478
331
994BB
  5
994BB
331
99474
  5
99474
331
994B7
  5
994B7
331
994B3
  5
994B3
331
99470
  5
99470
331
99444
  5
99444
331
99440
  5
99440
331
9943C
  5
9943C
331
9956E
  5
9956E
331
99438
  5
99438
331
995AD
  5
995AD
331
9956A
  5
9956A
331
995A9
  5
995A9
331
99566
  5
99566
331
995A5
  5
995A5
331
99562
  5
99562
331
995A1
  5
995A1
331
99534
  5
99534
331
994F5
  5
994F5
331
99530
  5
99530
331
994F1
  5
994F1
331
994ED
  5
994ED
331
9952C
  5
9952C
331
99528
  5
99528
331
994E9
  5
994E9
331
994AC
  5
994AC
331
994A8
  5
994A8
331
994A4
  5
994A4
331
994E7
  5
994E7
331
994E3
  5
994E3
331
994A0
  5
994A0
331
99435
  5
99435
331
99431
  5
99431
331
9946C
  5
9946C
331
9942D
  5
9942D
331
99468
  5
99468
331
9959E
  5
9959E
331
99429
  5
99429
331
9959A
  5
9959A
331
99596
  5
99596
331
99592
  5
99592
331
99525
  5
99525
331
99521
  5
99521
331
9951D
  5
9951D
331
9955C
  5
9955C
331
99558
  5
99558
331
99519
  5
99519
331
994DF
  5
994DF
331
9949C
  5
9949C
331
994DB
  5
994DB
331
99498
  5
99498
331
99494
  5
99494
331
994D7
  5
994D7
331
994D3
  5
994D3
331
99490
  5
99490
331
99464
  5
99464
331
99425
  5
99425
331
99421
  5
99421
331
99460
  5
99460
331
9945C
  5
9945C
331
9941D
  5
9941D
331
99458
  5
99458
331
9958E
  5
9958E
331
99419
  5
99419
331
9958A
  5
9958A
331
995C9
  5
995C9
331
99586
  5
99586
331
995C5
  5
995C5
331
99582
  5
99582
331
995C1
  5
995C1
331
99554
  5
99554
331
99515
  5
99515
331
99550
  5
99550
331
99511
  5
99511
331
9950D
  5
9950D
331
9954C
  5
9954C
331
99548
  5
99548
331
99509
  5
99509
331
994CC
  5
994CC
331
9948D
  5
9948D
331
99489
  5
99489
331
994C8
  5
994C8
331
994C4
  5
994C4
331
99485
  5
99485
331
994C0
  5
994C0
331
99481
  5
99481
331
99416
  5
99416
331
99412
  5
99412
331
99455
  5
99455
331
99451
  5
99451
331
9944D
  5
9944D
331
99449
  5
99449
331
9957F
  5
9957F
331
995BE
  5
995BE
331
995BA
  5
995BA
331
9957B
  5
9957B
331
995B6
  5
995B6
331
99577
  5
99577
331
995B2
  5
995B2
331
99573
  5
99573
331
99506
  5
99506
331
99545
  5
99545
331
99502
  5
99502
331
994FE
  5
994FE
331
99541
  5
99541
331
9953D
  5
9953D
331
994FA
  5
994FA
331
99539
  5
99539
331
994BC
  5
994BC
331
9947D
  5
9947D
331
99479
  5
99479
331
994B8
  5
994B8
331
994B4
  5
994B4
331
99475
  5
99475
331
994B0
  5
994B0
331
99471
  5
99471
331
99445
  5
99445
331
99441
  5
99441
331
9943D
  5
9943D
331
99439
  5
99439
331
9956F
  5
9956F
331
995AE
  5
995AE
331
995AA
  5
995AA
331
9956B
  5
9956B
331
995A6
  5
995A6
331
99567
  5
99567
331
995A2
  5
995A2
331
99563
  5
99563
331
994F6
  5
994F6
331
99535
  5
99535
331
994F2
  5
994F2
331
994EE
  5
994EE
331
99531
  5
99531
331
994EA
  5
994EA
331
9952D
  5
9952D
331
99529
  5
99529
331
994AD
  5
994AD
331
994A9
  5
994A9
331
994A5
  5
994A5
331
994E4
  5
994E4
331
994E0
  5
994E0
331
994A1
  5
994A1
331
99436
  5
99436
331
99432
  5
99432
331
9942E
  5
9942E
331
9946D
  5
9946D
331
9942A
  5
9942A
331
9959F
  5
9959F
331
99469
  5
99469
331
9959B
  5
9959B
331
99597
  5
99597
331
99593
  5
99593
331
99526
  5
99526
331
99522
  5
99522
331
9951E
  5
9951E
331
9951A
  5
9951A
331
9955D
  5
9955D
331
99559
  5
99559
331
994DC
  5
994DC
331
9949D
  5
9949D
331
994D8
  5
994D8
331
99499
  5
99499
331
99495
  5
99495
331
994D4
  5
994D4
331
994D0
  5
994D0
331
99491
  5
99491
331
99426
  5
99426
331
99422
  5
99422
331
99465
  5
99465
331
9941E
  5
9941E
331
99461
  5
99461
331
9945D
  5
9945D
331
9941A
  5
9941A
331
9958F
  5
9958F
331
99459
  5
99459
331
995CA
  5
995CA
331
9958B
  5
9958B
331
995C6
  5
995C6
331
99587
  5
99587
331
995C2
  5
995C2
331
99583
  5
99583
331
99516
  5
99516
331
99555
  5
99555
331
99512
  5
99512
331
99551
  5
99551
331
9950E
  5
9950E
331
9950A
  5
9950A
331
9954D
  5
9954D
331
99549
  5
99549
331
9948E
  5
9948E
331
994CD
  5
994CD
331
9948A
  5
9948A
331
99486
  5
99486
331
994C9
  5
994C9
331
994C5
  5
994C5
331
99482
  5
99482
331
994C1
  5
994C1
331
99417
  5
99417
331
99456
  5
99456
331
99413
  5
99413
331
99452
  5
99452
331
9944E
  5
9944E
331
9944A
  5
9944A
331
995BF
  5
995BF
331
9957C
  5
9957C
331
995BB
  5
995BB
331
99578
  5
99578
331
995B7
  5
995B7
331
99574
  5
99574
331
99570
  5
99570
331
995B3
  5
995B3
331
99546
  5
99546
331
99507
  5
99507
331
99542
  5
99542
331
99503
  5
99503
331
994FF
  5
994FF
331
9953E
  5
9953E
331
9953A
  5
9953A
331
994FB
  5
994FB
331
9947E
  5
9947E
331
994BD
  5
994BD
331
9947A
  5
9947A
331
99476
  5
99476
331
994B9
  5
994B9
331
994B5
  5
994B5
331
99472
  5
99472
331
994B1
  5
994B1
331
99446
  5
99446
331
99442
  5
99442
331
9943E
  5
9943E
331
9943A
  5
9943A
331
9956C
  5
9956C
331
995AF
  5
995AF
331
995AB
  5
995AB
331
99568
  5
99568
331
995A7
  5
995A7
331
99564
  5
99564
331
995A3
  5
995A3
331
99560
  5
99560
331
99536
  5
99536
331
994F7
  5
994F7
331
99532
  5
99532
331
994F3
  5
994F3
331
994EF
  5
994EF
331
9952E
  5
9952E
331
9952A
  5
9952A
331
994EB
  5
994EB
331
994AE
  5
994AE
331
994AA
  5
994AA
331
994A6
  5
994A6
331
994E5
  5
994E5
331
994A2
  5
994A2
331
994E1
  5
994E1
331
99437
  5
99437
331
99433
  5
99433
331
9946E
  5
9946E
331
9942F
  5
9942F
331
9946A
  5
9946A
331
9942B
  5
9942B
331
9959C
  5
9959C
331
99598
  5
99598
331
99594
  5
99594
331
99590
  5
99590
331
99527
  5
99527
331
99523
  5
99523
331
9951F
  5
9951F
331
9955E
  5
9955E
331
9951B
  5
9951B
331
9955A
  5
9955A
331
9949E
  5
9949E
331
994DD
  5
994DD
331
9949A
  5
9949A
331
99496
  5
99496
331
994D9
  5
994D9
331
99492
  5
99492
331
994D5
  5
994D5
331
994D1
  5
994D1
331
99466
  5
99466
331
99427
  5
99427
331
99423
  5
99423
331
99462
  5
99462
331
9945E
  5
9945E
331
9941F
  5
9941F
331
9945A
  5
9945A
331
9941B
  5
9941B
331
9958C
  5
9958C
331
995CB
  5
995CB
331
99588
  5
99588
331
995C7
  5
995C7
331
99584
  5
99584
331
995C3
  5
995C3
331
99580
  5
99580
331
99556
  5
99556
331
99517
  5
99517
331
99552
  5
99552
331
99513
  5
99513
331
9954E
  5
9954E
331
9950F
  5
9950F
331
9950B
  5
9950B
331
9954A
  5
9954A
331
994CE
  5
994CE
331
9948F
  5
9948F
331
9948B
  5
9948B
331
994CA
  5
994CA
331
99487
  5
99487
331
994C6
  5
994C6
331
994C2
  5
994C2
331
99483
  5
99483
331
99414
  5
99414
331
99457
  5
99457
331
99453
  5
99453
331
9944F
  5
9944F
331
9944B
  5
9944B
331
995BC
  5
995BC
331
9957D
  5
9957D
331
995B8
  5
995B8
331
99579
  5
99579
331
995B4
  5
995B4
331
99575
  5
99575
331
99571
  5
99571
331
995B0
  5
995B0
331
99547
  5
99547
331
99504
  5
99504
331
99543
  5
99543
331
99500
  5
99500
331
994FC
  5
994FC
331
9953F
  5
9953F
331
9953B
  5
9953B
331
994F8
  5
994F8
331
994BE
  5
994BE
331
9947F
  5
9947F
331
994BA
  5
994BA
331
9947B
  5
9947B
331
99477
  5
99477
331
994B6
  5
994B6
331
994B2
  5
994B2
331
99473
  5
99473
331
99447
  5
99447
331
99443
  5
99443
331
9943F
  5
9943F
331
9943B
  5
9943B
331
995AC
  5
995AC
331
9956D
  5
9956D
331
995A8
  5
995A8
331
99569
  5
99569
331
995A4
  5
995A4
331
99565
  5
99565
331
99561
  5
99561
331
995A0
  5
995A0
331
99537
  5
99537
331
994F4
  5
994F4
331
99533
  5
99533
331
994F0
  5
994F0
331
994EC
  5
994EC
331
9952F
  5
9952F
331
9952B
  5
9952B
331
994E8
  5
994E8
331
994AF
  5
994AF
331
994AB
  5
994AB
331
994A7
  5
994A7
331
994E6
  5
994E6
331
994E2
  5
994E2
331
994A3
  5
994A3
  0
XRECORD
  5
2DF13
102
{ACAD_REACTORS
330
29B6
102
}
330
29B6
100
AcDbXrecord
280
     1
340
15
  0
SORTENTSTABLE
  5
9940D
102
{ACAD_REACTORS
330
9940C
102
}
330
9940C
100
AcDbSortentsTable
330
99250
  0
XRECORD
  5
99622
102
{ACAD_REACTORS
330
99621
102
}
330
99621
100
AcDbXrecord
280
     1
 70
     1
  0
XRECORD
  5
99624
102
{ACAD_REACTORS
330
99621
102
}
330
99621
100
AcDbXrecord
280
     1
340
12
  0
XRECORD
  5
99625
102
{ACAD_REACTORS
330
99621
102
}
330
99621
100
AcDbXrecord
280
     1
340
12
  0
XRECORD
  5
99623
102
{ACAD_REACTORS
330
99621
102
}
330
99621
100
AcDbXrecord
280
     1
340
12
  0
ACDBDETAILVIEWSTYLE
  5
99249
102
{ACAD_XDICTIONARY
360
99661
102
}
102
{ACAD_REACTORS
330
99248
102
}
330
99248
100
AcDbModelDocViewStyle
 70
     0
  3
Imperial24
290
     0
100
AcDbDetailViewStyle
 70
     0
 71
     0
 90
        3
 71
     1
340
F
 40
0.24
340
0
 40
0.24
300

 40
0.36
280
     3
 71
     2
340
14
 90
       25
 71
     3
340
F
 40
0.24
 90
        1
 40
0.75
 90
        1
300
%<\AcVar ViewType \f "%tc1">% %<\AcVar ViewDetailId>%\PSCALE %<\AcVar ViewScale \f "%sn">%
 71
     4
340
14
 90
       25
340
14
 90
       25
280
     0
  0
LAYOUT
  5
21F3
102
{ACAD_XDICTIONARY
360
99626
102
}
102
{ACAD_REACTORS
330
21F1
102
}
330
21F1
100
AcDbPlotSettings
  1

  2
EPSON LP-8900
  4
A3
  6
ALL
 40
5.873749732971191
 41
5.873747825622557
 42
5.873748779296875
 43
5.873748779296875
 44
297.0106506347656
 45
419.9466552734373
 46
0.0
 47
0.0
 48
0.0
 49
0.0
140
0.0
141
0.0
142
1.0
143
23.97224744678097
 70
 28336
 72
     1
 73
     0
 74
     1
  7
monochrome.ctb
 75
     0
147
0.0417149039621766
148
1727.082272710941
149
4319.051803274116
100
AcDbLayout
  1
Model
 70
     1
 71
     0
 10
0.0
 20
0.0
 11
12.0
 21
9.0
 12
0.0
 22
0.0
 32
0.0
 14
0.0
 24
0.0
 34
0.0
 15
0.0
 25
0.0
 35
0.0
146
0.0
 13
0.0
 23
0.0
 33
0.0
 16
1.0
 26
0.0
 36
0.0
 17
0.0
 27
1.0
 37
0.0
 76
     0
330
18
331
513CD
  0
LAYOUT
  5
21F4
102
{ACAD_XDICTIONARY
360
99628
102
}
102
{ACAD_REACTORS
330
21F1
102
}
330
21F1
100
AcDbPlotSettings
  1

  2
DocuCentre 505
  4

  6

 40
0.0
 41
0.0
 42
0.0
 43
0.0
 44
0.0
 45
0.0
 46
0.0
 47
0.0
 48
0.0
 49
0.0
140
0.0
141
0.0
142
1.0
143
1.0
 70
   688
 72
     0
 73
     0
 74
     5
  7
monochrome.ctb
 75
    16
147
1.0
148
0.0
149
0.0
100
AcDbLayout
  1
ﾚｲｱｳﾄ1
 70
     1
 71
     1
 10
0.0
 20
0.0
 11
12.0
 21
9.0
 12
0.0
 22
0.0
 32
0.0
 14
1.000000000000000E+20
 24
1.000000000000000E+20
 34
1.000000000000000E+20
 15
-1.000000000000000E+20
 25
-1.000000000000000E+20
 35
-1.000000000000000E+20
146
0.0
 13
0.0
 23
0.0
 33
0.0
 16
1.0
 26
0.0
 36
0.0
 17
0.0
 27
1.0
 37
0.0
 76
     0
330
15
  0
MATERIAL
  5
513D8
102
{ACAD_XDICTIONARY
360
513D9
102
}
102
{ACAD_REACTORS
330
513CF
102
}
330
513CF
100
AcDbMaterial
  1
ByBlock
 72
     0
 43
0.0208333333333333
 43
0.0
 43
0.0
 43
0.0
 43
0.0
 43
0.0208333333333333
 43
0.0
 43
0.0
 43
0.0
 43
0.0
 43
1.0
 43
0.0
 43
0.0
 43
0.0
 43
0.0
 43
1.0
 77
     0
 47
0.0208333333333333
 47
0.0
 47
0.0
 47
0.0
 47
0.0
 47
0.0208333333333333
 47
0.0
 47
0.0
 47
0.0
 47
0.0
 47
1.0
 47
0.0
 47
0.0
 47
0.0
 47
0.0
 47
1.0
171
     0
 49
0.0208333333333333
 49
0.0
 49
0.0
 49
0.0
 49
0.0
 49
0.0208333333333333
 49
0.0
 49
0.0
 49
0.0
 49
0.0
 49
1.0
 49
0.0
 49
0.0
 49
0.0
 49
0.0
 49
1.0
175
     0
142
0.0208333333333333
142
0.0
142
0.0
142
0.0
142
0.0
142
0.0208333333333333
142
0.0
142
0.0
142
0.0
142
0.0
142
1.0
142
0.0
142
0.0
142
0.0
142
0.0
142
1.0
179
     0
144
0.0208333333333333
144
0.0
144
0.0
144
0.0
144
0.0
144
0.0208333333333333
144
0.0
144
0.0
144
0.0
144
0.0
144
1.0
144
0.0
144
0.0
144
0.0
144
0.0
144
1.0
147
0.0208333333333333
147
0.0
147
0.0
147
0.0
147
0.0
147
0.0208333333333333
147
0.0
147
0.0
147
0.0
147
0.0
147
1.0
147
0.0
147
0.0
147
0.0
147
0.0
147
1.0
  0
MATERIAL
  5
513D0
102
{ACAD_XDICTIONARY
360
513D1
102
}
102
{ACAD_REACTORS
330
513CF
102
}
330
513CF
100
AcDbMaterial
  1
ByLayer
 72
     0
 43
0.0208333333333333
 43
0.0
 43
0.0
 43
0.0
 43
0.0
 43
0.0208333333333333
 43
0.0
 43
0.0
 43
0.0
 43
0.0
 43
1.0
 43
0.0
 43
0.0
 43
0.0
 43
0.0
 43
1.0
 77
     0
 47
0.0208333333333333
 47
0.0
 47
0.0
 47
0.0
 47
0.0
 47
0.0208333333333333
 47
0.0
 47
0.0
 47
0.0
 47
0.0
 47
1.0
 47
0.0
 47
0.0
 47
0.0
 47
0.0
 47
1.0
171
     0
 49
0.0208333333333333
 49
0.0
 49
0.0
 49
0.0
 49
0.0
 49
0.0208333333333333
 49
0.0
 49
0.0
 49
0.0
 49
0.0
 49
1.0
 49
0.0
 49
0.0
 49
0.0
 49
0.0
 49
1.0
175
     0
142
0.0208333333333333
142
0.0
142
0.0
142
0.0
142
0.0
142
0.0208333333333333
142
0.0
142
0.0
142
0.0
142
0.0
142
1.0
142
0.0
142
0.0
142
0.0
142
0.0
142
1.0
179
     0
144
0.0208333333333333
144
0.0
144
0.0
144
0.0
144
0.0
144
0.0208333333333333
144
0.0
144
0.0
144
0.0
144
0.0
144
1.0
144
0.0
144
0.0
144
0.0
144
0.0
144
1.0
147
0.0208333333333333
147
0.0
147
0.0
147
0.0
147
0.0
147
0.0208333333333333
147
0.0
147
0.0
147
0.0
147
0.0
147
1.0
147
0.0
147
0.0
147
0.0
147
0.0
147
1.0
  0
MATERIAL
  5
513E0
102
{ACAD_XDICTIONARY
360
513E1
102
}
102
{ACAD_REACTORS
330
513CF
102
}
330
513CF
100
AcDbMaterial
  1
Global
 72
     0
 43
0.0208333333333333
 43
0.0
 43
0.0
 43
0.0
 43
0.0
 43
0.0208333333333333
 43
0.0
 43
0.0
 43
0.0
 43
0.0
 43
1.0
 43
0.0
 43
0.0
 43
0.0
 43
0.0
 43
1.0
 77
     0
 47
0.0208333333333333
 47
0.0
 47
0.0
 47
0.0
 47
0.0
 47
0.0208333333333333
 47
0.0
 47
0.0
 47
0.0
 47
0.0
 47
1.0
 47
0.0
 47
0.0
 47
0.0
 47
0.0
 47
1.0
171
     0
 49
0.0208333333333333
 49
0.0
 49
0.0
 49
0.0
 49
0.0
 49
0.0208333333333333
 49
0.0
 49
0.0
 49
0.0
 49
0.0
 49
1.0
 49
0.0
 49
0.0
 49
0.0
 49
0.0
 49
1.0
175
     0
142
0.0208333333333333
142
0.0
142
0.0
142
0.0
142
0.0
142
0.0208333333333333
142
0.0
142
0.0
142
0.0
142
0.0
142
1.0
142
0.0
142
0.0
142
0.0
142
0.0
142
1.0
179
     0
144
0.0208333333333333
144
0.0
144
0.0
144
0.0
144
0.0
144
0.0208333333333333
144
0.0
144
0.0
144
0.0
144
0.0
144
1.0
144
0.0
144
0.0
144
0.0
144
0.0
144
1.0
147
0.0208333333333333
147
0.0
147
0.0
147
0.0
147
0.0
147
0.0208333333333333
147
0.0
147
0.0
147
0.0
147
0.0
147
1.0
147
0.0
147
0.0
147
0.0
147
0.0
147
1.0
  0
MLEADERSTYLE
  5
5141F
102
{ACAD_REACTORS
330
5141E
102
}
330
5141E
100
AcDbMLeaderStyle
170
     2
171
     1
172
     0
 90
        2
 40
0.0
 41
0.0
173
     1
 91
-1056964608
340
12
 92
       -2
290
     1
 42
0.09
291
     1
 43
0.36
  3
Standard
 44
0.18
300

342
F
174
     1
178
     6
175
     1
176
     0
 93
-1056964608
 45
0.18
292
     0
297
     0
 46
0.18
 94
-1056964608
 47
1.0
 49
1.0
140
1.0
293
     1
141
0.0
294
     1
177
     0
142
1.0
295
     0
296
     0
143
0.125
1001
ACAD_MLEADERVER
1070
     2
  0
MLINESTYLE
  5
1C
102
{ACAD_REACTORS
330
1B
102
}
330
1B
100
AcDbMlineStyle
  2
STANDARD
 70
     0
  3

 62
   256
 51
90.0
 52
90.0
 71
     2
 49
0.5
 62
   256
  6
BYLAYER
 49
-0.5
 62
   256
  6
BYLAYER
  0
ACDBPLACEHOLDER
  5
21F0
102
{ACAD_REACTORS
330
21EF
102
}
330
21EF
  0
SCALE
  5
513FD
102
{ACAD_REACTORS
330
513FC
102
}
330
513FC
100
AcDbScale
 70
     0
300
1:1
140
1.0
141
1.0
290
     1
  0
SCALE
  5
513FE
102
{ACAD_REACTORS
330
513FC
102
}
330
513FC
100
AcDbScale
 70
     0
300
1:2
140
1.0
141
2.0
290
     0
  0
SCALE
  5
513FF
102
{ACAD_REACTORS
330
513FC
102
}
330
513FC
100
AcDbScale
 70
     0
300
1:4
140
1.0
141
4.0
290
     0
  0
SCALE
  5
51400
102
{ACAD_REACTORS
330
513FC
102
}
330
513FC
100
AcDbScale
 70
     0
300
1:5
140
1.0
141
5.0
290
     0
  0
SCALE
  5
51401
102
{ACAD_REACTORS
330
513FC
102
}
330
513FC
100
AcDbScale
 70
     0
300
1:8
140
1.0
141
8.0
290
     0
  0
SCALE
  5
51402
102
{ACAD_REACTORS
330
513FC
102
}
330
513FC
100
AcDbScale
 70
     0
300
1:10
140
1.0
141
10.0
290
     0
  0
SCALE
  5
51403
102
{ACAD_REACTORS
330
513FC
102
}
330
513FC
100
AcDbScale
 70
     0
300
1:16
140
1.0
141
16.0
290
     0
  0
SCALE
  5
51404
102
{ACAD_REACTORS
330
513FC
102
}
330
513FC
100
AcDbScale
 70
     0
300
1:20
140
1.0
141
20.0
290
     0
  0
SCALE
  5
51405
102
{ACAD_REACTORS
330
513FC
102
}
330
513FC
100
AcDbScale
 70
     0
300
1:30
140
1.0
141
30.0
290
     0
  0
SCALE
  5
51406
102
{ACAD_REACTORS
330
513FC
102
}
330
513FC
100
AcDbScale
 70
     0
300
1:40
140
1.0
141
40.0
290
     0
  0
SCALE
  5
51407
102
{ACAD_REACTORS
330
513FC
102
}
330
513FC
100
AcDbScale
 70
     0
300
1:50
140
1.0
141
50.0
290
     0
  0
SCALE
  5
51408
102
{ACAD_REACTORS
330
513FC
102
}
330
513FC
100
AcDbScale
 70
     0
300
1:100
140
1.0
141
100.0
290
     0
  0
SCALE
  5
51409
102
{ACAD_REACTORS
330
513FC
102
}
330
513FC
100
AcDbScale
 70
     0
300
2:1
140
2.0
141
1.0
290
     0
  0
SCALE
  5
5140A
102
{ACAD_REACTORS
330
513FC
102
}
330
513FC
100
AcDbScale
 70
     0
300
4:1
140
4.0
141
1.0
290
     0
  0
SCALE
  5
5140B
102
{ACAD_REACTORS
330
513FC
102
}
330
513FC
100
AcDbScale
 70
     0
300
8:1
140
8.0
141
1.0
290
     0
  0
SCALE
  5
5140C
102
{ACAD_REACTORS
330
513FC
102
}
330
513FC
100
AcDbScale
 70
     0
300
10:1
140
10.0
141
1.0
290
     0
  0
SCALE
  5
5140D
102
{ACAD_REACTORS
330
513FC
102
}
330
513FC
100
AcDbScale
 70
     0
300
100:1
140
100.0
141
1.0
290
     0
  0
SCALE
  5
5140E
102
{ACAD_REACTORS
330
513FC
102
}
330
513FC
100
AcDbScale
 70
     0
300
1/128" = 1'-0"
140
0.0078125
141
12.0
290
     0
  0
SCALE
  5
5140F
102
{ACAD_REACTORS
330
513FC
102
}
330
513FC
100
AcDbScale
 70
     0
300
1/64" = 1'-0"
140
0.015625
141
12.0
290
     0
  0
SCALE
  5
51410
102
{ACAD_REACTORS
330
513FC
102
}
330
513FC
100
AcDbScale
 70
     0
300
1/32" = 1'-0"
140
0.03125
141
12.0
290
     0
  0
SCALE
  5
51411
102
{ACAD_REACTORS
330
513FC
102
}
330
513FC
100
AcDbScale
 70
     0
300
1/16" = 1'-0"
140
0.0625
141
12.0
290
     0
  0
SCALE
  5
51412
102
{ACAD_REACTORS
330
513FC
102
}
330
513FC
100
AcDbScale
 70
     0
300
3/32" = 1'-0"
140
0.09375
141
12.0
290
     0
  0
SCALE
  5
51413
102
{ACAD_REACTORS
330
513FC
102
}
330
513FC
100
AcDbScale
 70
     0
300
1/8" = 1'-0"
140
0.125
141
12.0
290
     0
  0
SCALE
  5
51414
102
{ACAD_REACTORS
330
513FC
102
}
330
513FC
100
AcDbScale
 70
     0
300
3/16" = 1'-0"
140
0.1875
141
12.0
290
     0
  0
SCALE
  5
51415
102
{ACAD_REACTORS
330
513FC
102
}
330
513FC
100
AcDbScale
 70
     0
300
1/4" = 1'-0"
140
0.25
141
12.0
290
     0
  0
SCALE
  5
51416
102
{ACAD_REACTORS
330
513FC
102
}
330
513FC
100
AcDbScale
 70
     0
300
3/8" = 1'-0"
140
0.375
141
12.0
290
     0
  0
SCALE
  5
51417
102
{ACAD_REACTORS
330
513FC
102
}
330
513FC
100
AcDbScale
 70
     0
300
1/2" = 1'-0"
140
0.5
141
12.0
290
     0
  0
SCALE
  5
51418
102
{ACAD_REACTORS
330
513FC
102
}
330
513FC
100
AcDbScale
 70
     0
300
3/4" = 1'-0"
140
0.75
141
12.0
290
     0
  0
SCALE
  5
51419
102
{ACAD_REACTORS
330
513FC
102
}
330
513FC
100
AcDbScale
 70
     0
300
1" = 1'-0"
140
1.0
141
12.0
290
     0
  0
SCALE
  5
5141A
102
{ACAD_REACTORS
330
513FC
102
}
330
513FC
100
AcDbScale
 70
     0
300
1-1/2" = 1'-0"
140
1.5
141
12.0
290
     0
  0
SCALE
  5
5141B
102
{ACAD_REACTORS
330
513FC
102
}
330
513FC
100
AcDbScale
 70
     0
300
3" = 1'-0"
140
3.0
141
12.0
290
     0
  0
SCALE
  5
5141C
102
{ACAD_REACTORS
330
513FC
102
}
330
513FC
100
AcDbScale
 70
     0
300
6" = 1'-0"
140
6.0
141
12.0
290
     0
  0
SCALE
  5
5141D
102
{ACAD_REACTORS
330
513FC
102
}
330
513FC
100
AcDbScale
 70
     0
300
1'-0" = 1'-0"
140
12.0
141
12.0
290
     0
  0
ACDBSECTIONVIEWSTYLE
  5
99247
102
{ACAD_XDICTIONARY
360
9965F
102
}
102
{ACAD_REACTORS
330
99246
102
}
330
99246
100
AcDbModelDocViewStyle
 70
     0
  3
Imperial24
290
     0
100
AcDbSectionViewStyle
 70
     0
 71
     0
 90
       78
 71
     1
340
F
 40
0.24
340
0
340
0
 40
0.24
300
I, O, Q, S, X, Z
 40
0.48
 90
        3
 40
0.18
 90
        1
 71
     2
340
14
 90
       25
340
14
 90
       50
 40
0.24
 40
0.0
 40
0.24
 71
     3
340
F
 40
0.24
 90
        1
 40
0.75
 90
        1
300
%<\AcVar ViewType \f "%tc1">% %<\AcVar ViewSectionStartId>%-%<\AcVar ViewSectionEndId>%\PSCALE %<\AcVar ViewScale \f "%sn">%
 71
     4
300
ANSI31
 40
1.0
 90
        0
290
     0
290
     0
 90
        6
 40
0.0
 40
1.570796326794896
 40
0.2617993877991494
 40
1.308996938995747
 40
-0.2617993877991494
 40
1.832595714594045
  0
TABLESTYLE
  5
513FB
102
{ACAD_XDICTIONARY
360
5147A
102
}
102
{ACAD_REACTORS
330
513FA
102
}
330
513FA
100
AcDbTableStyle
  3
Standard
 70
     0
 71
     0
 40
0.06
 41
0.06
280
     0
281
     0
  7
STANDARD
140
0.18
170
     2
 62
     0
 63
     7
283
     0
274
    -2
284
     1
 64
     0
275
    -2
285
     1
 65
     0
276
    -2
286
     1
 66
     0
277
    -2
287
     1
 67
     0
278
    -2
288
     1
 68
     0
279
    -2
289
     1
 69
     0
  7
STANDARD
140
0.25
170
     5
 62
     0
 63
     7
283
     0
274
    -2
284
     1
 64
     0
275
    -2
285
     1
 65
     0
276
    -2
286
     1
 66
     0
277
    -2
287
     1
 67
     0
278
    -2
288
     1
 68
     0
279
    -2
289
     1
 69
     0
  7
STANDARD
140
0.18
170
     5
 62
     0
 63
     7
283
     0
274
    -2
284
     1
 64
     0
275
    -2
285
     1
 65
     0
276
    -2
286
     1
 66
     0
277
    -2
287
     1
 67
     0
278
    -2
288
     1
 68
     0
279
    -2
289
     1
 69
     0
  0
VISUALSTYLE
  5
513EE
102
{ACAD_XDICTIONARY
360
99634
102
}
102
{ACAD_REACTORS
330
513E8
102
}
330
513E8
100
AcDbVisualStyle
  2

 70
     4
 71
     0
 72
     2
 73
     0
 90
        0
 40
-0.6
 41
-30.0
 62
     5
 63
     7
 74
     1
 91
        4
 64
     7
 65
   257
 75
     1
175
     1
 42
1.0
 92
        0
 66
   257
 43
1.0
 76
     1
 77
     6
 78
     2
 67
     7
 79
     5
170
     0
171
     0
290
     0
174
     0
 93
        1
 44
0.0
173
     0
291
     0
 45
0.0
1001
ACAD
1000
AcDbSavedByObjectVersion
1070
     0
  0
VISUALSTYLE
  5
513F0
102
{ACAD_XDICTIONARY
360
99638
102
}
102
{ACAD_REACTORS
330
513E8
102
}
330
513E8
100
AcDbVisualStyle
  2

 70
     6
 71
     1
 72
     2
 73
     2
 90
        0
 40
-0.6
 41
-30.0
 62
     5
 63
     7
 74
     2
 91
        2
 64
     7
 65
   257
 75
     2
175
     1
 42
40.0
 92
        0
 66
   257
 43
1.0
 76
     1
 77
     6
 78
     2
 67
     7
 79
     3
170
     0
171
     0
290
     0
174
     0
 93
        1
 44
0.0
173
     0
291
     0
 45
0.0
1001
ACAD
1000
AcDbSavedByObjectVersion
1070
     0
  0
VISUALSTYLE
  5
513EF
102
{ACAD_XDICTIONARY
360
99636
102
}
102
{ACAD_REACTORS
330
513E8
102
}
330
513E8
100
AcDbVisualStyle
  2

 70
     5
 71
     0
 72
     2
 73
     0
 90
        0
 40
-0.6
 41
-30.0
 62
     5
 63
     7
 74
     1
 91
        4
 64
     7
 65
   257
 75
     1
175
     1
 42
1.0
 92
        0
 66
   257
 43
1.0
 76
     1
 77
     6
 78
     2
 67
     7
 79
     5
170
     0
171
     0
290
     0
174
     0
 93
        1
 44
0.0
173
     0
291
     0
 45
0.0
1001
ACAD
1000
AcDbSavedByObjectVersion
1070
     0
  0
VISUALSTYLE
  5
513ED
102
{ACAD_XDICTIONARY
360
99632
102
}
102
{ACAD_REACTORS
330
513E8
102
}
330
513E8
100
AcDbVisualStyle
  2

 70
     7
 71
     1
 72
     0
 73
     1
 90
        0
 40
-0.6
 41
-30.0
 62
     5
 63
     7
 74
     0
 91
        4
 64
     7
 65
   257
 75
     1
175
     1
 42
1.0
 92
        8
 66
     7
 43
1.0
 76
     1
 77
     6
 78
     2
 67
     7
 79
     5
170
     0
171
     0
290
     0
174
     0
 93
        1
 44
0.0
173
     0
291
     1
 45
0.0
1001
ACAD
1000
AcDbSavedByObjectVersion
1070
     0
  0
VISUALSTYLE
  5
513F4
102
{ACAD_XDICTIONARY
360
99640
102
}
102
{ACAD_REACTORS
330
513E8
102
}
330
513E8
100
AcDbVisualStyle
  2

 70
    12
 71
     2
 72
     2
 73
     0
 90
        0
 40
-0.6
 41
-30.0
 62
     5
 63
     7
 74
     1
 91
        4
 64
     7
 65
   257
 75
     1
175
     1
 42
1.0
 92
        8
 66
     7
 43
1.0
 76
     1
 77
     6
 78
     2
 67
     7
 79
     5
170
     0
171
     0
290
     0
174
     0
 93
        1
 44
50.0
173
     0
291
     1
 45
0.0
1001
ACAD
1000
AcDbSavedByObjectVersion
1070
     0
  0
VISUALSTYLE
  5
513F8
102
{ACAD_XDICTIONARY
360
99648
102
}
102
{ACAD_REACTORS
330
513E8
102
}
330
513E8
100
AcDbVisualStyle
  2

 70
    16
 71
     2
 72
     2
 73
     3
 90
        0
 40
-0.6
 41
-30.0
 62
     5
 63
     8
 74
     1
 91
        4
 64
     7
 65
   257
 75
     1
175
     1
 42
1.0
 92
        8
 66
     8
 43
1.0
 76
     1
 77
     6
 78
     2
 67
     7
 79
     5
170
     0
171
     0
290
     0
174
     0
 93
        1
 44
0.0
173
     0
291
     1
 45
0.0
1001
ACAD
1000
AcDbSavedByObjectVersion
1070
     0
  0
VISUALSTYLE
  5
513F1
102
{ACAD_XDICTIONARY
360
9963A
102
}
102
{ACAD_REACTORS
330
513E8
102
}
330
513E8
100
AcDbVisualStyle
  2

 70
     9
 71
     3
 72
     2
 73
     0
 90
        0
 40
-0.6
 41
-30.0
 62
     5
 63
     7
 74
     2
 91
        2
 64
     7
 65
   257
 75
     1
175
     1
 42
40.0
 92
        8
 66
     7
 43
1.0
 76
     1
 77
     6
 78
     2
 67
     7
 79
     3
170
     0
171
     0
290
     0
174
     0
 93
        1
 44
0.0
173
     0
291
     0
 45
0.0
1001
ACAD
1000
AcDbSavedByObjectVersion
1070
     0
  0
VISUALSTYLE
  5
513F3
102
{ACAD_XDICTIONARY
360
9963E
102
}
102
{ACAD_REACTORS
330
513E8
102
}
330
513E8
100
AcDbVisualStyle
  2

 70
    11
 71
     2
 72
     2
 73
     0
 90
        0
 40
-0.6
 41
-30.0
 62
     5
 63
     7
 74
     1
 91
        4
 64
     7
 65
   257
 75
     1
175
     1
 42
1.0
 92
        8
 66
     7
 43
1.0
 76
     1
 77
     6
 78
     2
 67
     7
 79
     5
170
     0
171
     0
290
     0
174
     0
 93
        1
 44
-50.0
173
     0
291
     1
 45
0.0
1001
ACAD
1000
AcDbSavedByObjectVersion
1070
     0
  0
VISUALSTYLE
  5
70D09
102
{ACAD_XDICTIONARY
360
9965D
102
}
102
{ACAD_REACTORS
330
513E8
102
}
330
513E8
100
AcDbVisualStyle
  2

 70
    22
 71
     2
 72
     2
 73
     0
 90
        0
 40
-0.6
 41
-30.0
 62
     5
 63
     7
 74
     1
 91
        4
 64
     7
 65
   257
 75
     1
175
     1
 42
1.0
 92
        8
 66
     7
 43
1.0
 76
     1
 77
     6
 78
     2
 67
     7
 79
     5
170
     0
171
     0
290
     0
174
     0
 93
        1
 44
0.0
173
     0
291
     1
 45
0.0
1001
ACAD
1000
AcDbSavedByObjectVersion
1070
     0
  0
VISUALSTYLE
  5
513F7
102
{ACAD_XDICTIONARY
360
99646
102
}
102
{ACAD_REACTORS
330
513E8
102
}
330
513E8
100
AcDbVisualStyle
  2

 70
    15
 71
     2
 72
     2
 73
     0
 90
        0
 40
-0.6
 41
-30.0
 62
     5
 63
     7
 74
     1
 91
        4
 64
     7
 65
   257
 75
     1
175
     1
 42
1.0
 92
        8
 66
     7
 43
1.0
 76
     1
 77
     6
 78
     2
 67
     7
 79
     5
170
     0
171
     0
290
     0
174
     0
 93
        1
 44
0.0
173
     0
291
     1
 45
0.0
1001
ACAD
1000
AcDbSavedByObjectVersion
1070
     0
  0
VISUALSTYLE
  5
513E9
102
{ACAD_XDICTIONARY
360
9962A
102
}
102
{ACAD_REACTORS
330
513E8
102
}
330
513E8
100
AcDbVisualStyle
  2

 70
     0
 71
     2
 72
     1
 73
     1
 90
        2
 40
-0.6
 41
30.0
 62
     5
 63
     7
 74
     0
 91
        4
 64
     7
 65
   257
 75
     1
175
     1
 42
1.0
 92
        8
 66
     7
 43
1.0
 76
     1
 77
     6
 78
     2
 67
     7
 79
     5
170
     0
171
     0
290
     0
174
     0
 93
       13
 44
0.0
173
     0
291
     1
 45
0.0
1001
ACAD
1000
AcDbSavedByObjectVersion
1070
     0
  0
VISUALSTYLE
  5
513EA
102
{ACAD_XDICTIONARY
360
9962C
102
}
102
{ACAD_REACTORS
330
513E8
102
}
330
513E8
100
AcDbVisualStyle
  2

 70
     1
 71
     2
 72
     1
 73
     1
 90
        2
 40
-0.6
 41
30.0
 62
     5
 63
     7
 74
     1
 91
        4
 64
     7
 65
   257
 75
     1
175
     1
 42
1.0
 92
        0
 66
   257
 43
1.0
 76
     1
 77
     6
 78
     2
 67
     7
 79
     5
170
     0
171
     0
290
     0
174
     0
 93
       13
 44
0.0
173
     0
291
     1
 45
0.0
1001
ACAD
1000
AcDbSavedByObjectVersion
1070
     0
  0
VISUALSTYLE
  5
513EB
102
{ACAD_XDICTIONARY
360
9962E
102
}
102
{ACAD_REACTORS
330
513E8
102
}
330
513E8
100
AcDbVisualStyle
  2

 70
     2
 71
     2
 72
     2
 73
     1
 90
        2
 40
-0.6
 41
30.0
 62
     5
 63
     7
 74
     0
 91
        4
 64
     7
 65
   257
 75
     1
175
     1
 42
1.0
 92
        0
 66
     7
 43
1.0
 76
     1
 77
     6
 78
     2
 67
     7
 79
     5
170
     0
171
     0
290
     0
174
     0
 93
       13
 44
0.0
173
     0
291
     1
 45
0.0
1001
ACAD
1000
AcDbSavedByObjectVersion
1070
     0
  0
VISUALSTYLE
  5
513EC
102
{ACAD_XDICTIONARY
360
99630
102
}
102
{ACAD_REACTORS
330
513E8
102
}
330
513E8
100
AcDbVisualStyle
  2

 70
     3
 71
     2
 72
     2
 73
     1
 90
        2
 40
-0.6
 41
30.0
 62
     5
 63
     7
 74
     1
 91
        4
 64
     7
 65
   257
 75
     1
175
     1
 42
1.0
 92
        0
 66
   257
 43
1.0
 76
     1
 77
     6
 78
     2
 67
     7
 79
     5
170
     0
171
     0
290
     0
174
     0
 93
       13
 44
0.0
173
     0
291
     1
 45
0.0
1001
ACAD
1000
AcDbSavedByObjectVersion
1070
     0
  0
VISUALSTYLE
  5
70D01
102
{ACAD_XDICTIONARY
360
9964D
102
}
102
{ACAD_REACTORS
330
513E8
102
}
330
513E8
100
AcDbVisualStyle
  2

 70
     6
 71
     1
 72
     2
 73
     2
 90
        0
 40
-0.6
 41
-30.0
 62
     5
 63
     7
 74
     2
 91
        2
 64
     7
 65
   257
 75
     2
175
     1
 42
40.0
 92
        0
 66
   257
 43
1.0
 76
     1
 77
     6
 78
     2
 67
     7
 79
     3
170
     0
171
     0
290
     0
174
     0
 93
        1
 44
0.0
173
     0
291
     0
 45
0.0
1001
ACAD
1000
AcDbSavedByObjectVersion
1070
     0
  0
VISUALSTYLE
  5
70D07
102
{ACAD_XDICTIONARY
360
99659
102
}
102
{ACAD_REACTORS
330
513E8
102
}
330
513E8
100
AcDbVisualStyle
  2

 70
    20
 71
     2
 72
     2
 73
     0
 90
        0
 40
-0.6
 41
-30.0
 62
     5
 63
     7
 74
     1
 91
        4
 64
     7
 65
   257
 75
     1
175
     1
 42
1.0
 92
       10
 66
     7
 43
1.0
 76
     1
 77
     6
 78
     2
 67
     7
 79
     5
170
     0
171
     0
290
     0
174
     0
 93
        1
 44
0.0
173
     0
291
     1
 45
0.0
1001
ACAD
1000
AcDbSavedByObjectVersion
1070
     0
  0
VISUALSTYLE
  5
513F6
102
{ACAD_XDICTIONARY
360
99644
102
}
102
{ACAD_REACTORS
330
513E8
102
}
330
513E8
100
AcDbVisualStyle
  2

 70
    14
 71
     2
 72
     2
 73
     0
 90
        0
 40
-0.6
 41
-30.0
 62
     5
 63
     7
 74
     1
 91
        4
 64
     7
 65
   257
 75
     7
175
     7
 42
1.0
 92
        8
 66
     7
 43
1.0
 76
     1
 77
     6
 78
     2
 67
     7
 79
     5
170
     0
171
     0
290
     0
174
     0
 93
        1
 44
0.0
173
     0
291
     1
 45
0.0
1001
ACAD
1000
AcDbSavedByObjectVersion
1070
     0
  0
VISUALSTYLE
  5
70D08
102
{ACAD_XDICTIONARY
360
9965B
102
}
102
{ACAD_REACTORS
330
513E8
102
}
330
513E8
100
AcDbVisualStyle
  2

 70
    21
 71
     2
 72
     2
 73
     0
 90
        0
 40
-0.6
 41
-30.0
 62
     5
 63
     7
 74
     1
 91
        4
 64
     7
 65
   257
 75
     1
175
     1
 42
1.0
 92
        9
 66
     7
 43
1.0
 76
     1
 77
     6
 78
     2
 67
     7
 79
     5
170
     0
171
     0
290
     0
174
     0
 93
        1
 44
0.0
173
     0
291
     1
 45
0.0
1001
ACAD
1000
AcDbSavedByObjectVersion
1070
     0
  0
VISUALSTYLE
  5
513F2
102
{ACAD_XDICTIONARY
360
9963C
102
}
102
{ACAD_REACTORS
330
513E8
102
}
330
513E8
100
AcDbVisualStyle
  2

 70
     8
 71
     2
 72
     2
 73
     0
 90
        0
 40
-0.6
 41
-30.0
 62
     5
 63
     7
 74
     1
 91
        0
 64
     7
 65
   257
 75
     1
175
     1
 42
1.0
 92
        8
 66
     8
 43
1.0
 76
     1
 77
     6
 78
     2
 67
     7
 79
     5
170
     0
171
     0
290
     0
174
     0
 93
       13
 44
0.0
173
     0
291
     0
 45
0.0
1001
ACAD
1000
AcDbSavedByObjectVersion
1070
     0
  0
VISUALSTYLE
  5
70D06
102
{ACAD_XDICTIONARY
360
99657
102
}
102
{ACAD_REACTORS
330
513E8
102
}
330
513E8
100
AcDbVisualStyle
  2

 70
    27
 71
     2
 72
     2
 73
     1
 90
        2
 40
-0.6
 41
30.0
 62
     5
 63
     7
 74
     0
 91
        4
 64
     7
 65
   257
 75
     1
175
     1
 42
1.0
 92
        8
 66
   257
 43
1.0
 76
     1
 77
     6
 78
     2
 67
     8
 79
     3
170
     0
171
     0
290
     0
174
     0
 93
        5
 44
0.0
173
     0
291
     0
 45
0.0
1001
ACAD
1000
AcDbSavedByObjectVersion
1070
     0
  0
VISUALSTYLE
  5
70D05
102
{ACAD_XDICTIONARY
360
99655
102
}
102
{ACAD_REACTORS
330
513E8
102
}
330
513E8
100
AcDbVisualStyle
  2

 70
    26
 71
     2
 72
     2
 73
     1
 90
        2
 40
-0.6
 41
30.0
 62
     5
 63
     7
 74
     1
 91
        2
 64
     7
 65
   257
 75
     2
175
     1
 42
1.0
 92
        8
 66
   257
 43
1.0
 76
     1
 77
     6
 78
     2
 67
     7
 79
     3
170
     0
171
     0
290
     0
174
     0
 93
        5
 44
0.0
173
     0
291
     0
 45
0.0
1001
ACAD
1000
AcDbSavedByObjectVersion
1070
     0
  0
VISUALSTYLE
  5
70D02
102
{ACAD_XDICTIONARY
360
9964F
102
}
102
{ACAD_REACTORS
330
513E8
102
}
330
513E8
100
AcDbVisualStyle
  2

 70
    23
 71
     2
 72
     2
 73
     3
 90
        0
 40
-0.6
 41
-30.0
 62
     5
 63
     7
 74
     2
 91
        2
 64
     7
 65
     7
 75
     1
175
     1
 42
40.0
 92
        8
 66
     7
 43
1.0
 76
     1
 77
     6
 78
     2
 67
     7
 79
     3
170
     0
171
     0
290
     0
174
     0
 93
        1
 44
0.0
173
     0
291
     0
 45
0.0
1001
ACAD
1000
AcDbSavedByObjectVersion
1070
     0
  0
VISUALSTYLE
  5
70D03
102
{ACAD_XDICTIONARY
360
99651
102
}
102
{ACAD_REACTORS
330
513E8
102
}
330
513E8
100
AcDbVisualStyle
  2

 70
    24
 71
     1
 72
     2
 73
     2
 90
        0
 40
-0.6
 41
-30.0
 62
     5
 63
     7
 74
     2
 91
        2
 64
     7
 65
     7
 75
     1
175
     1
 42
40.0
 92
       11
 66
     7
 43
1.0
 76
     1
 77
     6
 78
     2
 67
     7
 79
     6
170
     0
171
     0
290
     0
174
     0
 93
        1
 44
0.0
173
     0
291
     0
 45
0.0
1001
ACAD
1000
AcDbSavedByObjectVersion
1070
     0
  0
VISUALSTYLE
  5
513F5
102
{ACAD_XDICTIONARY
360
99642
102
}
102
{ACAD_REACTORS
330
513E8
102
}
330
513E8
100
AcDbVisualStyle
  2

 70
    13
 71
     2
 72
     2
 73
     0
 90
        0
 40
-0.6
 41
-30.0
 62
     5
 63
     7
 74
     1
 91
        4
 64
     7
 65
   257
 75
     1
175
     1
 42
1.0
 92
       12
 66
     7
 43
1.0
 76
     1
 77
     6
 78
     2
 67
     7
 79
     5
170
     0
171
     0
290
     0
174
     0
 93
        1
 44
0.0
173
     0
291
     1
 45
0.0
1001
ACAD
1000
AcDbSavedByObjectVersion
1070
     0
  0
VISUALSTYLE
  5
70D00
102
{ACAD_XDICTIONARY
360
9964B
102
}
102
{ACAD_REACTORS
330
513E8
102
}
330
513E8
100
AcDbVisualStyle
  2

 70
     5
 71
     0
 72
     2
 73
     0
 90
        0
 40
-0.6
 41
-30.0
 62
     5
 63
     7
 74
     1
 91
        4
 64
     7
 65
   257
 75
     1
175
     1
 42
1.0
 92
        0
 66
   257
 43
1.0
 76
     1
 77
     6
 78
     2
 67
     7
 79
     3
170
     0
171
     0
290
     0
174
     0
 93
        1
 44
0.0
173
     0
291
     0
 45
0.0
1001
ACAD
1000
AcDbSavedByObjectVersion
1070
     0
  0
VISUALSTYLE
  5
70D04
102
{ACAD_XDICTIONARY
360
99653
102
}
102
{ACAD_REACTORS
330
513E8
102
}
330
513E8
100
AcDbVisualStyle
  2

 70
    25
 71
     2
 72
     2
 73
     1
 90
        1
 40
0.5
 41
-30.0
 62
     5
 63
     7
 74
     1
 91
        0
 64
     7
 65
   257
 75
     1
175
     1
 42
1.0
 92
        8
 66
     7
 43
1.0
 76
     1
 77
     6
 78
     2
 67
     7
 79
     3
170
     0
171
     0
290
     0
174
     0
 93
       13
 44
0.0
173
     0
291
     0
 45
0.0
1001
ACAD
1000
AcDbSavedByObjectVersion
1070
     0
  0
DICTIONARYVAR
  5
51480
102
{ACAD_REACTORS
330
28B1
102
}
330
28B1
100
DictionaryVariables
280
     0
  1
1:1
  0
DICTIONARYVAR
  5
5147E
102
{ACAD_REACTORS
330
28B1
102
}
330
28B1
100
DictionaryVariables
280
     0
  1
STANDARD
  0
DICTIONARYVAR
  5
5147D
102
{ACAD_REACTORS
330
28B1
102
}
330
28B1
100
DictionaryVariables
280
     0
  1
STANDARD
  0
DICTIONARYVAR
  5
995CD
102
{ACAD_REACTORS
330
28B1
102
}
330
28B1
100
DictionaryVariables
280
     0
  1
Imperial24
  0
DICTIONARYVAR
  5
995CE
102
{ACAD_REACTORS
330
28B1
102
}
330
28B1
100
DictionaryVariables
280
     0
  1
Imperial24
  0
DICTIONARYVAR
  5
5135B
102
{ACAD_REACTORS
330
28B1
102
}
330
28B1
100
DictionaryVariables
280
     0
  1
1
  0
DICTIONARYVAR
  5
70D55
102
{ACAD_REACTORS
330
28B1
102
}
330
28B1
100
DictionaryVariables
280
     0
  1
0
  0
DICTIONARYVAR
  5
51481
102
{ACAD_REACTORS
330
28B1
102
}
330
28B1
100
DictionaryVariables
280
     0
  1
0
  0
DICTIONARYVAR
  5
5147F
102
{ACAD_REACTORS
330
28B1
102
}
330
28B1
100
DictionaryVariables
280
     0
  1
0
  0
DICTIONARYVAR
  5
70D57
102
{ACAD_REACTORS
330
28B1
102
}
330
28B1
100
DictionaryVariables
280
     0
  1
1
  0
DICTIONARYVAR
  5
28B2
102
{ACAD_REACTORS
330
28B1
102
}
330
28B1
100
DictionaryVariables
280
     0
  1
127
  0
DICTIONARYVAR
  5
9961D
102
{ACAD_REACTORS
330
28B1
102
}
330
28B1
100
DictionaryVariables
280
     0
  1
2
  0
DICTIONARY
  5
99661
330
99249
100
AcDbDictionary
280
     1
281
     1
  3
ACAD_XREC_ROUNDTRIP
360
99662
  0
DICTIONARY
  5
99626
330
21F3
100
AcDbDictionary
280
     1
281
     1
  3
ACAD_XREC_ROUNDTRIP
360
99627
  0
DICTIONARY
  5
99628
330
21F4
100
AcDbDictionary
280
     1
281
     1
  3
ACAD_XREC_ROUNDTRIP
360
99629
  0
DICTIONARY
  5
513D9
330
513D8
100
AcDbDictionary
280
     1
281
     1
  3
ACAD_XREC_ROUNDTRIP
360
995D8
  3
BUMPTILE
360
513DB
  3
DIFFUSETILE
360
513DA
  3
OPACITYTILE
360
513DE
  3
REFLECTIONTILE
360
513DD
  3
REFRACTIONTILE
360
513DF
  3
SPECULARTILE
360
513DC
  0
DICTIONARY
  5
513D1
330
513D0
100
AcDbDictionary
280
     1
281
     1
  3
ACAD_XREC_ROUNDTRIP
360
995D7
  3
BUMPTILE
360
513D3
  3
DIFFUSETILE
360
513D2
  3
OPACITYTILE
360
513D6
  3
REFLECTIONTILE
360
513D5
  3
REFRACTIONTILE
360
513D7
  3
SPECULARTILE
360
513D4
  0
DICTIONARY
  5
513E1
330
513E0
100
AcDbDictionary
280
     1
281
     1
  3
ACAD_XREC_ROUNDTRIP
360
995D9
  3
BUMPTILE
360
513E3
  3
DIFFUSETILE
360
513E2
  3
OPACITYTILE
360
513E6
  3
REFLECTIONTILE
360
513E5
  3
REFRACTIONTILE
360
513E7
  3
SPECULARTILE
360
513E4
  0
DICTIONARY
  5
9965F
330
99247
100
AcDbDictionary
280
     1
281
     1
  3
ACAD_XREC_ROUNDTRIP
360
99660
  0
DICTIONARY
  5
5147A
330
513FB
100
AcDbDictionary
280
     1
281
     1
  3
ACAD_ROUNDTRIP_2008_TABLESTYLE_CELLSTYLEMAP
360
9961E
  3
ACAD_XREC_ROUNDTRIP
360
9964A
  0
DICTIONARY
  5
99634
330
513EE
100
AcDbDictionary
280
     1
281
     1
  3
ACAD_XREC_ROUNDTRIP
360
99635
  0
DICTIONARY
  5
99638
330
513F0
100
AcDbDictionary
280
     1
281
     1
  3
ACAD_XREC_ROUNDTRIP
360
99639
  0
DICTIONARY
  5
99636
330
513EF
100
AcDbDictionary
280
     1
281
     1
  3
ACAD_XREC_ROUNDTRIP
360
99637
  0
DICTIONARY
  5
99632
330
513ED
100
AcDbDictionary
280
     1
281
     1
  3
ACAD_XREC_ROUNDTRIP
360
99633
  0
DICTIONARY
  5
99640
330
513F4
100
AcDbDictionary
280
     1
281
     1
  3
ACAD_XREC_ROUNDTRIP
360
99641
  0
DICTIONARY
  5
99648
330
513F8
100
AcDbDictionary
280
     1
281
     1
  3
ACAD_XREC_ROUNDTRIP
360
99649
  0
DICTIONARY
  5
9963A
330
513F1
100
AcDbDictionary
280
     1
281
     1
  3
ACAD_XREC_ROUNDTRIP
360
9963B
  0
DICTIONARY
  5
9963E
330
513F3
100
AcDbDictionary
280
     1
281
     1
  3
ACAD_XREC_ROUNDTRIP
360
9963F
  0
DICTIONARY
  5
9965D
330
70D09
100
AcDbDictionary
280
     1
281
     1
  3
ACAD_XREC_ROUNDTRIP
360
9965E
  0
DICTIONARY
  5
99646
330
513F7
100
AcDbDictionary
280
     1
281
     1
  3
ACAD_XREC_ROUNDTRIP
360
99647
  0
DICTIONARY
  5
9962A
330
513E9
100
AcDbDictionary
280
     1
281
     1
  3
ACAD_XREC_ROUNDTRIP
360
9962B
  0
DICTIONARY
  5
9962C
330
513EA
100
AcDbDictionary
280
     1
281
     1
  3
ACAD_XREC_ROUNDTRIP
360
9962D
  0
DICTIONARY
  5
9962E
330
513EB
100
AcDbDictionary
280
     1
281
     1
  3
ACAD_XREC_ROUNDTRIP
360
9962F
  0
DICTIONARY
  5
99630
330
513EC
100
AcDbDictionary
280
     1
281
     1
  3
ACAD_XREC_ROUNDTRIP
360
99631
  0
DICTIONARY
  5
9964D
330
70D01
100
AcDbDictionary
280
     1
281
     1
  3
ACAD_XREC_ROUNDTRIP
360
9964E
  0
DICTIONARY
  5
99659
330
70D07
100
AcDbDictionary
280
     1
281
     1
  3
ACAD_XREC_ROUNDTRIP
360
9965A
  0
DICTIONARY
  5
99644
330
513F6
100
AcDbDictionary
280
     1
281
     1
  3
ACAD_XREC_ROUNDTRIP
360
99645
  0
DICTIONARY
  5
9965B
330
70D08
100
AcDbDictionary
280
     1
281
     1
  3
ACAD_XREC_ROUNDTRIP
360
9965C
  0
DICTIONARY
  5
9963C
330
513F2
100
AcDbDictionary
280
     1
281
     1
  3
ACAD_XREC_ROUNDTRIP
360
9963D
  0
DICTIONARY
  5
99657
330
70D06
100
AcDbDictionary
280
     1
281
     1
  3
ACAD_XREC_ROUNDTRIP
360
99658
  0
DICTIONARY
  5
99655
330
70D05
100
AcDbDictionary
280
     1
281
     1
  3
ACAD_XREC_ROUNDTRIP
360
99656
  0
DICTIONARY
  5
9964F
330
70D02
100
AcDbDictionary
280
     1
281
     1
  3
ACAD_XREC_ROUNDTRIP
360
99650
  0
DICTIONARY
  5
99651
330
70D03
100
AcDbDictionary
280
     1
281
     1
  3
ACAD_XREC_ROUNDTRIP
360
99652
  0
DICTIONARY
  5
99642
330
513F5
100
AcDbDictionary
280
     1
281
     1
  3
ACAD_XREC_ROUNDTRIP
360
99643
  0
DICTIONARY
  5
9964B
330
70D00
100
AcDbDictionary
280
     1
281
     1
  3
ACAD_XREC_ROUNDTRIP
360
9964C
  0
DICTIONARY
  5
99653
330
70D04
100
AcDbDictionary
280
     1
281
     1
  3
ACAD_XREC_ROUNDTRIP
360
99654
  0
XRECORD
  5
99662
102
{ACAD_REACTORS
330
99661
102
}
330
99661
100
AcDbXrecord
280
     1
102
DISPLAYNAME
  1
Imperial24
102
FLAGS
 90
        0
  0
XRECORD
  5
99627
102
{ACAD_REACTORS
330
99626
102
}
330
99626
100
AcDbXrecord
280
     1
102
SHADEPLOT
 70
     0
102
SHADEPLOTRESLEVEL
 70
     2
102
SHADEPLOTCUSTOMDPI
 70
   300
  0
XRECORD
  5
99629
102
{ACAD_REACTORS
330
99628
102
}
330
99628
100
AcDbXrecord
280
     1
102
SHADEPLOT
 70
     0
102
SHADEPLOTRESLEVEL
 70
     2
102
SHADEPLOTCUSTOMDPI
 70
   300
  0
XRECORD
  5
995D8
102
{ACAD_REACTORS
330
513D9
102
}
330
513D9
100
AcDbXrecord
280
     1
102
MATERIAL
148
0.0
149
0.0
149
0.0
 93
        0
 94
      127
282
     0
 72
     0
 77
     0
171
     0
175
     0
179
     0
273
     0
  0
XRECORD
  5
513DB
102
{ACAD_REACTORS
330
513D9
102
}
330
513D9
100
AcDbXrecord
280
     1
270
     1
271
     1
  0
XRECORD
  5
513DA
102
{ACAD_REACTORS
330
513D9
102
}
330
513D9
100
AcDbXrecord
280
     1
270
     1
271
     1
  0
XRECORD
  5
513DE
102
{ACAD_REACTORS
330
513D9
102
}
330
513D9
100
AcDbXrecord
280
     1
270
     1
271
     1
  0
XRECORD
  5
513DD
102
{ACAD_REACTORS
330
513D9
102
}
330
513D9
100
AcDbXrecord
280
     1
270
     1
271
     1
  0
XRECORD
  5
513DF
102
{ACAD_REACTORS
330
513D9
102
}
330
513D9
100
AcDbXrecord
280
     1
270
     1
271
     1
  0
XRECORD
  5
513DC
102
{ACAD_REACTORS
330
513D9
102
}
330
513D9
100
AcDbXrecord
280
     1
270
     1
271
     1
  0
XRECORD
  5
995D7
102
{ACAD_REACTORS
330
513D1
102
}
330
513D1
100
AcDbXrecord
280
     1
102
MATERIAL
148
0.0
149
0.0
149
0.0
 93
        0
 94
      127
282
     0
 72
     0
 77
     0
171
     0
175
     0
179
     0
273
     0
  0
XRECORD
  5
513D3
102
{ACAD_REACTORS
330
513D1
102
}
330
513D1
100
AcDbXrecord
280
     1
270
     1
271
     1
  0
XRECORD
  5
513D2
102
{ACAD_REACTORS
330
513D1
102
}
330
513D1
100
AcDbXrecord
280
     1
270
     1
271
     1
  0
XRECORD
  5
513D6
102
{ACAD_REACTORS
330
513D1
102
}
330
513D1
100
AcDbXrecord
280
     1
270
     1
271
     1
  0
XRECORD
  5
513D5
102
{ACAD_REACTORS
330
513D1
102
}
330
513D1
100
AcDbXrecord
280
     1
270
     1
271
     1
  0
XRECORD
  5
513D7
102
{ACAD_REACTORS
330
513D1
102
}
330
513D1
100
AcDbXrecord
280
     1
270
     1
271
     1
  0
XRECORD
  5
513D4
102
{ACAD_REACTORS
330
513D1
102
}
330
513D1
100
AcDbXrecord
280
     1
270
     1
271
     1
  0
XRECORD
  5
995D9
102
{ACAD_REACTORS
330
513E1
102
}
330
513E1
100
AcDbXrecord
280
     1
102
MATERIAL
148
0.0
149
0.0
149
0.0
 93
        0
 94
      127
282
     0
 72
     0
 77
     0
171
     0
175
     0
179
     0
273
     0
  0
XRECORD
  5
513E3
102
{ACAD_REACTORS
330
513E1
102
}
330
513E1
100
AcDbXrecord
280
     1
270
     1
271
     1
  0
XRECORD
  5
513E2
102
{ACAD_REACTORS
330
513E1
102
}
330
513E1
100
AcDbXrecord
280
     1
270
     1
271
     1
  0
XRECORD
  5
513E6
102
{ACAD_REACTORS
330
513E1
102
}
330
513E1
100
AcDbXrecord
280
     1
270
     1
271
     1
  0
XRECORD
  5
513E5
102
{ACAD_REACTORS
330
513E1
102
}
330
513E1
100
AcDbXrecord
280
     1
270
     1
271
     1
  0
XRECORD
  5
513E7
102
{ACAD_REACTORS
330
513E1
102
}
330
513E1
100
AcDbXrecord
280
     1
270
     1
271
     1
  0
XRECORD
  5
513E4
102
{ACAD_REACTORS
330
513E1
102
}
330
513E1
100
AcDbXrecord
280
     1
270
     1
271
     1
  0
XRECORD
  5
99660
102
{ACAD_REACTORS
330
9965F
102
}
330
9965F
100
AcDbXrecord
280
     1
102
DISPLAYNAME
  1
Imperial24
102
FLAGS
 90
        0
  0
CELLSTYLEMAP
  5
9961E
102
{ACAD_REACTORS
330
5147A
102
}
330
5147A
100
AcDbCellStyleMap
 90
        3
300
CELLSTYLE
  1
TABLEFORMAT_BEGIN
 90
        5
170
     1
 91
        0
 92
    32768
 62
   257
 93
        1
300
CONTENTFORMAT
  1
CONTENTFORMAT_BEGIN
 90
        0
 91
        0
 92
      512
 93
        0
300

 40
0.0
140
1.0
 94
        5
 62
     0
340
F
144
0.25
309
CONTENTFORMAT_END
171
     1
301
MARGIN
  1
CELLMARGIN_BEGIN
 40
0.06
 40
0.06
 40
0.06
 40
0.06
 40
0.18
 40
0.18
309
CELLMARGIN_END
 94
        6
 95
        1
302
GRIDFORMAT
  1
GRIDFORMAT_BEGIN
 90
        0
 91
        1
 62
     0
 92
       -2
340
0
 93
        0
 40
0.045
309
GRIDFORMAT_END
 95
        2
302
GRIDFORMAT
  1
GRIDFORMAT_BEGIN
 90
        0
 91
        1
 62
     0
 92
       -2
340
0
 93
        0
 40
0.045
309
GRIDFORMAT_END
 95
        4
302
GRIDFORMAT
  1
GRIDFORMAT_BEGIN
 90
        0
 91
        1
 62
     0
 92
       -2
340
0
 93
        0
 40
0.045
309
GRIDFORMAT_END
 95
        8
302
GRIDFORMAT
  1
GRIDFORMAT_BEGIN
 90
        0
 91
        1
 62
     0
 92
       -2
340
0
 93
        0
 40
0.045
309
GRIDFORMAT_END
 95
       16
302
GRIDFORMAT
  1
GRIDFORMAT_BEGIN
 90
        0
 91
        1
 62
     0
 92
       -2
340
0
 93
        0
 40
0.045
309
GRIDFORMAT_END
 95
       32
302
GRIDFORMAT
  1
GRIDFORMAT_BEGIN
 90
        0
 91
        1
 62
     0
 92
       -2
340
0
 93
        0
 40
0.045
309
GRIDFORMAT_END
309
TABLEFORMAT_END
  1
CELLSTYLE_BEGIN
 90
        1
 91
        1
300
_TITLE
309
CELLSTYLE_END
300
CELLSTYLE
  1
TABLEFORMAT_BEGIN
 90
        5
170
     1
 91
        0
 92
        0
 62
   257
 93
        1
300
CONTENTFORMAT
  1
CONTENTFORMAT_BEGIN
 90
        0
 91
        0
 92
      512
 93
        0
300

 40
0.0
140
1.0
 94
        5
 62
     0
340
F
144
0.18
309
CONTENTFORMAT_END
171
     1
301
MARGIN
  1
CELLMARGIN_BEGIN
 40
0.06
 40
0.06
 40
0.06
 40
0.06
 40
0.18
 40
0.18
309
CELLMARGIN_END
 94
        6
 95
        1
302
GRIDFORMAT
  1
GRIDFORMAT_BEGIN
 90
        0
 91
        1
 62
     0
 92
       -2
340
0
 93
        0
 40
0.045
309
GRIDFORMAT_END
 95
        2
302
GRIDFORMAT
  1
GRIDFORMAT_BEGIN
 90
        0
 91
        1
 62
     0
 92
       -2
340
0
 93
        0
 40
0.045
309
GRIDFORMAT_END
 95
        4
302
GRIDFORMAT
  1
GRIDFORMAT_BEGIN
 90
        0
 91
        1
 62
     0
 92
       -2
340
0
 93
        0
 40
0.045
309
GRIDFORMAT_END
 95
        8
302
GRIDFORMAT
  1
GRIDFORMAT_BEGIN
 90
        0
 91
        1
 62
     0
 92
       -2
340
0
 93
        0
 40
0.045
309
GRIDFORMAT_END
 95
       16
302
GRIDFORMAT
  1
GRIDFORMAT_BEGIN
 90
        0
 91
        1
 62
     0
 92
       -2
340
0
 93
        0
 40
0.045
309
GRIDFORMAT_END
 95
       32
302
GRIDFORMAT
  1
GRIDFORMAT_BEGIN
 90
        0
 91
        1
 62
     0
 92
       -2
340
0
 93
        0
 40
0.045
309
GRIDFORMAT_END
309
TABLEFORMAT_END
  1
CELLSTYLE_BEGIN
 90
        2
 91
        1
300
_HEADER
309
CELLSTYLE_END
300
CELLSTYLE
  1
TABLEFORMAT_BEGIN
 90
        5
170
     1
 91
        0
 92
        0
 62
   257
 93
        1
300
CONTENTFORMAT
  1
CONTENTFORMAT_BEGIN
 90
        0
 91
        0
 92
      512
 93
        0
300

 40
0.0
140
1.0
 94
        2
 62
     0
340
F
144
0.18
309
CONTENTFORMAT_END
171
     1
301
MARGIN
  1
CELLMARGIN_BEGIN
 40
0.06
 40
0.06
 40
0.06
 40
0.06
 40
0.18
 40
0.18
309
CELLMARGIN_END
 94
        6
 95
        1
302
GRIDFORMAT
  1
GRIDFORMAT_BEGIN
 90
        0
 91
        1
 62
     0
 92
       -2
340
0
 93
        0
 40
0.045
309
GRIDFORMAT_END
 95
        2
302
GRIDFORMAT
  1
GRIDFORMAT_BEGIN
 90
        0
 91
        1
 62
     0
 92
       -2
340
0
 93
        0
 40
0.045
309
GRIDFORMAT_END
 95
        4
302
GRIDFORMAT
  1
GRIDFORMAT_BEGIN
 90
        0
 91
        1
 62
     0
 92
       -2
340
0
 93
        0
 40
0.045
309
GRIDFORMAT_END
 95
        8
302
GRIDFORMAT
  1
GRIDFORMAT_BEGIN
 90
        0
 91
        1
 62
     0
 92
       -2
340
0
 93
        0
 40
0.045
309
GRIDFORMAT_END
 95
       16
302
GRIDFORMAT
  1
GRIDFORMAT_BEGIN
 90
        0
 91
        1
 62
     0
 92
       -2
340
0
 93
        0
 40
0.045
309
GRIDFORMAT_END
 95
       32
302
GRIDFORMAT
  1
GRIDFORMAT_BEGIN
 90
        0
 91
        1
 62
     0
 92
       -2
340
0
 93
        0
 40
0.045
309
GRIDFORMAT_END
309
TABLEFORMAT_END
  1
CELLSTYLE_BEGIN
 90
        3
 91
        2
300
_DATA
309
CELLSTYLE_END
  0
XRECORD
  5
9964A
102
{ACAD_REACTORS
330
5147A
102
}
330
5147A
100
AcDbXrecord
280
     1
102
ACAD_ROUNDTRIP_PRE2007_TABLESTYLE
 90
      512
 91
        0
  1

 92
      512
 93
        0
  2

 94
      512
 95
        0
  3

  0
XRECORD
  5
99635
102
{ACAD_REACTORS
330
99634
102
}
330
99634
100
AcDbXrecord
280
     1
102
RTVSPost2010Prop28
280
     1
102
RTVSPost2010PropOp28
 70
     1
102
RTVSPost2010Prop29
280
     1
102
RTVSPost2010PropOp29
 70
     1
102
RTVSPost2010Prop30
280
     0
102
RTVSPost2010PropOp30
 70
     1
102
RTVSPost2010Prop31
280
     0
102
RTVSPost2010PropOp31
 70
     1
102
RTVSPost2010Prop32
280
     0
102
RTVSPost2010PropOp32
 70
     1
102
RTVSPost2010Prop33
280
     0
102
RTVSPost2010PropOp33
 70
     1
102
RTVSPost2010Prop34
280
     0
102
RTVSPost2010PropOp34
 70
     1
102
RTVSPost2010Prop35
280
     0
102
RTVSPost2010PropOp35
 70
     1
102
RTVSPost2010Prop36
280
     0
102
RTVSPost2010PropOp36
 70
     1
102
RTVSPost2010Prop37
 90
       50
102
RTVSPost2010PropOp37
 70
     1
102
RTVSPost2010Prop38
140
0.0
102
RTVSPost2010PropOp38
 70
     1
102
RTVSPost2010Prop39
140
1.0
102
RTVSPost2010PropOp39
 70
     1
102
RTVSPost2010Prop40
 90
        0
102
RTVSPost2010PropOp40
 70
     1
102
RTVSPost2010Prop41ColorIndex
 90
       18
102
RTVSPost2010Prop41ColorRGB
 90
        0
102
RTVSPost2010PropOp41
 70
     1
102
RTVSPost2010Prop42
 90
       50
102
RTVSPost2010PropOp42
 70
     1
102
RTVSPost2010Prop43
 90
        3
102
RTVSPost2010PropOp43
 70
     1
102
RTVSPost2010Prop44ColorIndex
 90
        5
102
RTVSPost2010Prop44ColorRGB
 90
      255
102
RTVSPost2010PropOp44
 70
     1
102
RTVSPost2010Prop45
280
     0
102
RTVSPost2010PropOp45
 70
     1
102
RTVSPost2010Prop46
 90
       50
102
RTVSPost2010PropOp46
 70
     1
102
RTVSPost2010Prop47
 90
       50
102
RTVSPost2010PropOp47
 70
     1
102
RTVSPost2010Prop48
 90
       50
102
RTVSPost2010PropOp48
 70
     1
102
RTVSPost2010Prop49
280
     0
102
RTVSPost2010PropOp49
 70
     1
102
RTVSPost2010Prop50
 90
       50
102
RTVSPost2010PropOp50
 70
     1
102
RTVSPost2010Prop51ColorIndex
 90
      256
102
RTVSPost2010Prop51ColorRGB
 90
-16777216
102
RTVSPost2010PropOp51
 70
     0
102
RTVSPost2010Prop52
140
1.0
102
RTVSPost2010PropOp52
 70
     0
102
RTVSPost2010Prop53
 90
        2
102
RTVSPost2010PropOp53
 70
     1
102
RTVSPost2010Prop54
  1
strokes_ogs.tif
102
RTVSPost2010PropOp54
 70
     1
102
RTVSPost2010Prop55
280
     0
102
RTVSPost2010PropOp55
 70
     1
102
RTVSPost2010Prop56
140
1.0
102
RTVSPost2010PropOp56
 70
     1
102
RTVSPost2010Prop57
140
1.0
102
RTVSPost2010PropOp57
 70
     1
102
RTVSPropertyOp0
 70
     1
102
RTVSPropertyOp1
 70
     1
102
RTVSPropertyOp2
 70
     1
102
RTVSPropertyOp3
 70
     1
102
RTVSPropertyOp4
 70
     1
102
RTVSPropertyOp5
 70
     1
102
RTVSPropertyOp6
 70
     1
102
RTVSPropertyOp7
 70
     1
102
RTVSPropertyOp8
 70
     1
102
RTVSPropertyOp9
 70
     1
102
RTVSPropertyOp10
 70
     1
102
RTVSPropertyOp11
 70
     1
102
RTVSPropertyOp12
 70
     1
102
RTVSPropertyOp13
 70
     1
102
RTVSPropertyOp14
 70
     1
102
RTVSPropertyOp15
 70
     1
102
RTVSPropertyOp16
 70
     1
102
RTVSPropertyOp17
 70
     1
102
RTVSPropertyOp18
 70
     1
102
RTVSPropertyOp19
 70
     1
102
RTVSPropertyOp20
 70
     1
102
RTVSPropertyOp21
 70
     1
102
RTVSPropertyOp22
 70
     1
102
RTVSPropertyOp23
 70
     1
102
RTVSPropertyOp24
 70
     1
102
RTVSPropertyOp25
 70
     1
102
RTVSPropertyOp26
 70
     1
102
RTVSPropertyOp27
 70
     1
102
RTVSPropertyOp28
 70
     1
102
RTVSPropertyOp29
 70
     1
102
RTVSPropertyOp30
 70
     1
102
RTVSPropertyOp31
 70
     1
102
RTVSPropertyOp32
 70
     1
102
RTVSPropertyOp33
 70
     1
102
RTVSPropertyOp34
 70
     1
102
RTVSPropertyOp35
 70
     1
102
RTVSPropertyOp36
 70
     1
102
RTVSPropertyOp37
 70
     1
102
RTVSPropertyOp38
 70
     1
102
RTVSPropertyOp39
 70
     1
102
RTVSPropertyOp40
 70
     1
102
RTVSPropertyOp41
 70
     1
102
RTVSPropertyOp42
 70
     1
102
RTVSPropertyOp43
 70
     1
102
RTVSPropertyOp44
 70
     1
102
RTVSPropertyOp45
 70
     1
102
RTVSPropertyOp46
 70
     1
102
RTVSPropertyOp47
 70
     1
102
RTVSPropertyOp48
 70
     1
102
RTVSPropertyOp49
 70
     1
102
RTVSPropertyOp50
 70
     1
102
RTVSPropertyOp51
 70
     0
102
RTVSPropertyOp52
 70
     0
102
RTVSPropertyOp53
 70
     1
102
RTVSPropertyOp54
 70
     1
102
RTVSPropertyOp55
 70
     1
102
RTVSPropertyOp56
 70
     1
102
RTVSPropertyOp57
 70
     1
102
RTVSPropertyOp58
 70
     1
102
RTVSPropertyOp59
 70
     1
102
RTVSPropertyOp60
 70
     1
102
RTVSPropertyOp61
 70
     1
102
RTVSPropertyOp62
 70
     1
  0
XRECORD
  5
99639
102
{ACAD_REACTORS
330
99638
102
}
330
99638
100
AcDbXrecord
280
     1
102
RTVSPost2010Prop28
280
     0
102
RTVSPost2010PropOp28
 70
     1
102
RTVSPost2010Prop29
280
     1
102
RTVSPost2010PropOp29
 70
     1
102
RTVSPost2010Prop30
280
     1
102
RTVSPost2010PropOp30
 70
     1
102
RTVSPost2010Prop31
280
     0
102
RTVSPost2010PropOp31
 70
     1
102
RTVSPost2010Prop32
280
     0
102
RTVSPost2010PropOp32
 70
     1
102
RTVSPost2010Prop33
280
     0
102
RTVSPost2010PropOp33
 70
     1
102
RTVSPost2010Prop34
280
     0
102
RTVSPost2010PropOp34
 70
     1
102
RTVSPost2010Prop35
280
     0
102
RTVSPost2010PropOp35
 70
     1
102
RTVSPost2010Prop36
280
     0
102
RTVSPost2010PropOp36
 70
     1
102
RTVSPost2010Prop37
 90
       50
102
RTVSPost2010PropOp37
 70
     1
102
RTVSPost2010Prop38
140
0.0
102
RTVSPost2010PropOp38
 70
     1
102
RTVSPost2010Prop39
140
1.0
102
RTVSPost2010PropOp39
 70
     1
102
RTVSPost2010Prop40
 90
        0
102
RTVSPost2010PropOp40
 70
     1
102
RTVSPost2010Prop41ColorIndex
 90
       18
102
RTVSPost2010Prop41ColorRGB
 90
        0
102
RTVSPost2010PropOp41
 70
     1
102
RTVSPost2010Prop42
 90
       50
102
RTVSPost2010PropOp42
 70
     1
102
RTVSPost2010Prop43
 90
        3
102
RTVSPost2010PropOp43
 70
     1
102
RTVSPost2010Prop44ColorIndex
 90
        5
102
RTVSPost2010Prop44ColorRGB
 90
      255
102
RTVSPost2010PropOp44
 70
     1
102
RTVSPost2010Prop45
280
     0
102
RTVSPost2010PropOp45
 70
     1
102
RTVSPost2010Prop46
 90
       50
102
RTVSPost2010PropOp46
 70
     1
102
RTVSPost2010Prop47
 90
       50
102
RTVSPost2010PropOp47
 70
     1
102
RTVSPost2010Prop48
 90
       50
102
RTVSPost2010PropOp48
 70
     1
102
RTVSPost2010Prop49
280
     0
102
RTVSPost2010PropOp49
 70
     1
102
RTVSPost2010Prop50
 90
       50
102
RTVSPost2010PropOp50
 70
     1
102
RTVSPost2010Prop51ColorIndex
 90
      256
102
RTVSPost2010Prop51ColorRGB
 90
-16777216
102
RTVSPost2010PropOp51
 70
     0
102
RTVSPost2010Prop52
140
1.0
102
RTVSPost2010PropOp52
 70
     0
102
RTVSPost2010Prop53
 90
        2
102
RTVSPost2010PropOp53
 70
     1
102
RTVSPost2010Prop54
  1
strokes_ogs.tif
102
RTVSPost2010PropOp54
 70
     1
102
RTVSPost2010Prop55
280
     0
102
RTVSPost2010PropOp55
 70
     1
102
RTVSPost2010Prop56
140
1.0
102
RTVSPost2010PropOp56
 70
     1
102
RTVSPost2010Prop57
140
1.0
102
RTVSPost2010PropOp57
 70
     1
102
RTVSPropertyOp0
 70
     1
102
RTVSPropertyOp1
 70
     1
102
RTVSPropertyOp2
 70
     1
102
RTVSPropertyOp3
 70
     1
102
RTVSPropertyOp4
 70
     1
102
RTVSPropertyOp5
 70
     1
102
RTVSPropertyOp6
 70
     1
102
RTVSPropertyOp7
 70
     1
102
RTVSPropertyOp8
 70
     1
102
RTVSPropertyOp9
 70
     1
102
RTVSPropertyOp10
 70
     1
102
RTVSPropertyOp11
 70
     1
102
RTVSPropertyOp12
 70
     1
102
RTVSPropertyOp13
 70
     1
102
RTVSPropertyOp14
 70
     1
102
RTVSPropertyOp15
 70
     1
102
RTVSPropertyOp16
 70
     1
102
RTVSPropertyOp17
 70
     1
102
RTVSPropertyOp18
 70
     1
102
RTVSPropertyOp19
 70
     1
102
RTVSPropertyOp20
 70
     1
102
RTVSPropertyOp21
 70
     1
102
RTVSPropertyOp22
 70
     1
102
RTVSPropertyOp23
 70
     1
102
RTVSPropertyOp24
 70
     1
102
RTVSPropertyOp25
 70
     1
102
RTVSPropertyOp26
 70
     1
102
RTVSPropertyOp27
 70
     1
102
RTVSPropertyOp28
 70
     1
102
RTVSPropertyOp29
 70
     1
102
RTVSPropertyOp30
 70
     1
102
RTVSPropertyOp31
 70
     1
102
RTVSPropertyOp32
 70
     1
102
RTVSPropertyOp33
 70
     1
102
RTVSPropertyOp34
 70
     1
102
RTVSPropertyOp35
 70
     1
102
RTVSPropertyOp36
 70
     1
102
RTVSPropertyOp37
 70
     1
102
RTVSPropertyOp38
 70
     1
102
RTVSPropertyOp39
 70
     1
102
RTVSPropertyOp40
 70
     1
102
RTVSPropertyOp41
 70
     1
102
RTVSPropertyOp42
 70
     1
102
RTVSPropertyOp43
 70
     1
102
RTVSPropertyOp44
 70
     1
102
RTVSPropertyOp45
 70
     1
102
RTVSPropertyOp46
 70
     1
102
RTVSPropertyOp47
 70
     1
102
RTVSPropertyOp48
 70
     1
102
RTVSPropertyOp49
 70
     1
102
RTVSPropertyOp50
 70
     1
102
RTVSPropertyOp51
 70
     0
102
RTVSPropertyOp52
 70
     0
102
RTVSPropertyOp53
 70
     1
102
RTVSPropertyOp54
 70
     1
102
RTVSPropertyOp55
 70
     1
102
RTVSPropertyOp56
 70
     1
102
RTVSPropertyOp57
 70
     1
102
RTVSPropertyOp58
 70
     1
102
RTVSPropertyOp59
 70
     1
102
RTVSPropertyOp60
 70
     1
102
RTVSPropertyOp61
 70
     1
102
RTVSPropertyOp62
 70
     1
  0
XRECORD
  5
99637
102
{ACAD_REACTORS
330
99636
102
}
330
99636
100
AcDbXrecord
280
     1
102
RTVSPost2010Prop28
280
     0
102
RTVSPost2010PropOp28
 70
     1
102
RTVSPost2010Prop29
280
     1
102
RTVSPost2010PropOp29
 70
     1
102
RTVSPost2010Prop30
280
     1
102
RTVSPost2010PropOp30
 70
     1
102
RTVSPost2010Prop31
280
     0
102
RTVSPost2010PropOp31
 70
     1
102
RTVSPost2010Prop32
280
     0
102
RTVSPost2010PropOp32
 70
     1
102
RTVSPost2010Prop33
280
     0
102
RTVSPost2010PropOp33
 70
     1
102
RTVSPost2010Prop34
280
     0
102
RTVSPost2010PropOp34
 70
     1
102
RTVSPost2010Prop35
280
     0
102
RTVSPost2010PropOp35
 70
     1
102
RTVSPost2010Prop36
280
     0
102
RTVSPost2010PropOp36
 70
     1
102
RTVSPost2010Prop37
 90
       50
102
RTVSPost2010PropOp37
 70
     1
102
RTVSPost2010Prop38
140
0.0
102
RTVSPost2010PropOp38
 70
     1
102
RTVSPost2010Prop39
140
1.0
102
RTVSPost2010PropOp39
 70
     1
102
RTVSPost2010Prop40
 90
        0
102
RTVSPost2010PropOp40
 70
     1
102
RTVSPost2010Prop41ColorIndex
 90
       18
102
RTVSPost2010Prop41ColorRGB
 90
        0
102
RTVSPost2010PropOp41
 70
     1
102
RTVSPost2010Prop42
 90
       50
102
RTVSPost2010PropOp42
 70
     1
102
RTVSPost2010Prop43
 90
        3
102
RTVSPost2010PropOp43
 70
     1
102
RTVSPost2010Prop44ColorIndex
 90
        5
102
RTVSPost2010Prop44ColorRGB
 90
      255
102
RTVSPost2010PropOp44
 70
     1
102
RTVSPost2010Prop45
280
     0
102
RTVSPost2010PropOp45
 70
     1
102
RTVSPost2010Prop46
 90
       50
102
RTVSPost2010PropOp46
 70
     1
102
RTVSPost2010Prop47
 90
       50
102
RTVSPost2010PropOp47
 70
     1
102
RTVSPost2010Prop48
 90
       50
102
RTVSPost2010PropOp48
 70
     1
102
RTVSPost2010Prop49
280
     0
102
RTVSPost2010PropOp49
 70
     1
102
RTVSPost2010Prop50
 90
       50
102
RTVSPost2010PropOp50
 70
     1
102
RTVSPost2010Prop51ColorIndex
 90
      256
102
RTVSPost2010Prop51ColorRGB
 90
-16777216
102
RTVSPost2010PropOp51
 70
     0
102
RTVSPost2010Prop52
140
1.0
102
RTVSPost2010PropOp52
 70
     0
102
RTVSPost2010Prop53
 90
        2
102
RTVSPost2010PropOp53
 70
     1
102
RTVSPost2010Prop54
  1
strokes_ogs.tif
102
RTVSPost2010PropOp54
 70
     1
102
RTVSPost2010Prop55
280
     0
102
RTVSPost2010PropOp55
 70
     1
102
RTVSPost2010Prop56
140
1.0
102
RTVSPost2010PropOp56
 70
     1
102
RTVSPost2010Prop57
140
1.0
102
RTVSPost2010PropOp57
 70
     1
102
RTVSPropertyOp0
 70
     1
102
RTVSPropertyOp1
 70
     1
102
RTVSPropertyOp2
 70
     1
102
RTVSPropertyOp3
 70
     1
102
RTVSPropertyOp4
 70
     1
102
RTVSPropertyOp5
 70
     1
102
RTVSPropertyOp6
 70
     1
102
RTVSPropertyOp7
 70
     1
102
RTVSPropertyOp8
 70
     1
102
RTVSPropertyOp9
 70
     1
102
RTVSPropertyOp10
 70
     1
102
RTVSPropertyOp11
 70
     1
102
RTVSPropertyOp12
 70
     1
102
RTVSPropertyOp13
 70
     1
102
RTVSPropertyOp14
 70
     1
102
RTVSPropertyOp15
 70
     1
102
RTVSPropertyOp16
 70
     1
102
RTVSPropertyOp17
 70
     1
102
RTVSPropertyOp18
 70
     1
102
RTVSPropertyOp19
 70
     1
102
RTVSPropertyOp20
 70
     1
102
RTVSPropertyOp21
 70
     1
102
RTVSPropertyOp22
 70
     1
102
RTVSPropertyOp23
 70
     1
102
RTVSPropertyOp24
 70
     1
102
RTVSPropertyOp25
 70
     1
102
RTVSPropertyOp26
 70
     1
102
RTVSPropertyOp27
 70
     1
102
RTVSPropertyOp28
 70
     1
102
RTVSPropertyOp29
 70
     1
102
RTVSPropertyOp30
 70
     1
102
RTVSPropertyOp31
 70
     1
102
RTVSPropertyOp32
 70
     1
102
RTVSPropertyOp33
 70
     1
102
RTVSPropertyOp34
 70
     1
102
RTVSPropertyOp35
 70
     1
102
RTVSPropertyOp36
 70
     1
102
RTVSPropertyOp37
 70
     1
102
RTVSPropertyOp38
 70
     1
102
RTVSPropertyOp39
 70
     1
102
RTVSPropertyOp40
 70
     1
102
RTVSPropertyOp41
 70
     1
102
RTVSPropertyOp42
 70
     1
102
RTVSPropertyOp43
 70
     1
102
RTVSPropertyOp44
 70
     1
102
RTVSPropertyOp45
 70
     1
102
RTVSPropertyOp46
 70
     1
102
RTVSPropertyOp47
 70
     1
102
RTVSPropertyOp48
 70
     1
102
RTVSPropertyOp49
 70
     1
102
RTVSPropertyOp50
 70
     1
102
RTVSPropertyOp51
 70
     0
102
RTVSPropertyOp52
 70
     0
102
RTVSPropertyOp53
 70
     1
102
RTVSPropertyOp54
 70
     1
102
RTVSPropertyOp55
 70
     1
102
RTVSPropertyOp56
 70
     1
102
RTVSPropertyOp57
 70
     1
102
RTVSPropertyOp58
 70
     1
102
RTVSPropertyOp59
 70
     1
102
RTVSPropertyOp60
 70
     1
102
RTVSPropertyOp61
 70
     1
102
RTVSPropertyOp62
 70
     1
  0
XRECORD
  5
99633
102
{ACAD_REACTORS
330
99632
102
}
330
99632
100
AcDbXrecord
280
     1
102
RTVSPost2010Prop28
280
     0
102
RTVSPost2010PropOp28
 70
     1
102
RTVSPost2010Prop29
280
     1
102
RTVSPost2010PropOp29
 70
     1
102
RTVSPost2010Prop30
280
     1
102
RTVSPost2010PropOp30
 70
     1
102
RTVSPost2010Prop31
280
     0
102
RTVSPost2010PropOp31
 70
     1
102
RTVSPost2010Prop32
280
     0
102
RTVSPost2010PropOp32
 70
     1
102
RTVSPost2010Prop33
280
     0
102
RTVSPost2010PropOp33
 70
     1
102
RTVSPost2010Prop34
280
     0
102
RTVSPost2010PropOp34
 70
     1
102
RTVSPost2010Prop35
280
     0
102
RTVSPost2010PropOp35
 70
     1
102
RTVSPost2010Prop36
280
     0
102
RTVSPost2010PropOp36
 70
     1
102
RTVSPost2010Prop37
 90
       50
102
RTVSPost2010PropOp37
 70
     1
102
RTVSPost2010Prop38
140
0.0
102
RTVSPost2010PropOp38
 70
     1
102
RTVSPost2010Prop39
140
1.0
102
RTVSPost2010PropOp39
 70
     1
102
RTVSPost2010Prop40
 90
        0
102
RTVSPost2010PropOp40
 70
     1
102
RTVSPost2010Prop41ColorIndex
 90
       18
102
RTVSPost2010Prop41ColorRGB
 90
        0
102
RTVSPost2010PropOp41
 70
     1
102
RTVSPost2010Prop42
 90
       50
102
RTVSPost2010PropOp42
 70
     1
102
RTVSPost2010Prop43
 90
        3
102
RTVSPost2010PropOp43
 70
     1
102
RTVSPost2010Prop44ColorIndex
 90
        5
102
RTVSPost2010Prop44ColorRGB
 90
      255
102
RTVSPost2010PropOp44
 70
     1
102
RTVSPost2010Prop45
280
     0
102
RTVSPost2010PropOp45
 70
     1
102
RTVSPost2010Prop46
 90
       50
102
RTVSPost2010PropOp46
 70
     1
102
RTVSPost2010Prop47
 90
       50
102
RTVSPost2010PropOp47
 70
     1
102
RTVSPost2010Prop48
 90
       50
102
RTVSPost2010PropOp48
 70
     1
102
RTVSPost2010Prop49
280
     0
102
RTVSPost2010PropOp49
 70
     1
102
RTVSPost2010Prop50
 90
       50
102
RTVSPost2010PropOp50
 70
     1
102
RTVSPost2010Prop51ColorIndex
 90
      256
102
RTVSPost2010Prop51ColorRGB
 90
-16777216
102
RTVSPost2010PropOp51
 70
     0
102
RTVSPost2010Prop52
140
1.0
102
RTVSPost2010PropOp52
 70
     0
102
RTVSPost2010Prop53
 90
        2
102
RTVSPost2010PropOp53
 70
     1
102
RTVSPost2010Prop54
  1
strokes_ogs.tif
102
RTVSPost2010PropOp54
 70
     1
102
RTVSPost2010Prop55
280
     0
102
RTVSPost2010PropOp55
 70
     1
102
RTVSPost2010Prop56
140
1.0
102
RTVSPost2010PropOp56
 70
     1
102
RTVSPost2010Prop57
140
1.0
102
RTVSPost2010PropOp57
 70
     1
102
RTVSPropertyOp0
 70
     1
102
RTVSPropertyOp1
 70
     1
102
RTVSPropertyOp2
 70
     1
102
RTVSPropertyOp3
 70
     1
102
RTVSPropertyOp4
 70
     1
102
RTVSPropertyOp5
 70
     1
102
RTVSPropertyOp6
 70
     1
102
RTVSPropertyOp7
 70
     1
102
RTVSPropertyOp8
 70
     1
102
RTVSPropertyOp9
 70
     1
102
RTVSPropertyOp10
 70
     1
102
RTVSPropertyOp11
 70
     1
102
RTVSPropertyOp12
 70
     1
102
RTVSPropertyOp13
 70
     1
102
RTVSPropertyOp14
 70
     1
102
RTVSPropertyOp15
 70
     1
102
RTVSPropertyOp16
 70
     1
102
RTVSPropertyOp17
 70
     1
102
RTVSPropertyOp18
 70
     1
102
RTVSPropertyOp19
 70
     1
102
RTVSPropertyOp20
 70
     1
102
RTVSPropertyOp21
 70
     1
102
RTVSPropertyOp22
 70
     1
102
RTVSPropertyOp23
 70
     1
102
RTVSPropertyOp24
 70
     1
102
RTVSPropertyOp25
 70
     1
102
RTVSPropertyOp26
 70
     1
102
RTVSPropertyOp27
 70
     1
102
RTVSPropertyOp28
 70
     1
102
RTVSPropertyOp29
 70
     1
102
RTVSPropertyOp30
 70
     1
102
RTVSPropertyOp31
 70
     1
102
RTVSPropertyOp32
 70
     1
102
RTVSPropertyOp33
 70
     1
102
RTVSPropertyOp34
 70
     1
102
RTVSPropertyOp35
 70
     1
102
RTVSPropertyOp36
 70
     1
102
RTVSPropertyOp37
 70
     1
102
RTVSPropertyOp38
 70
     1
102
RTVSPropertyOp39
 70
     1
102
RTVSPropertyOp40
 70
     1
102
RTVSPropertyOp41
 70
     1
102
RTVSPropertyOp42
 70
     1
102
RTVSPropertyOp43
 70
     1
102
RTVSPropertyOp44
 70
     1
102
RTVSPropertyOp45
 70
     1
102
RTVSPropertyOp46
 70
     1
102
RTVSPropertyOp47
 70
     1
102
RTVSPropertyOp48
 70
     1
102
RTVSPropertyOp49
 70
     1
102
RTVSPropertyOp50
 70
     1
102
RTVSPropertyOp51
 70
     0
102
RTVSPropertyOp52
 70
     0
102
RTVSPropertyOp53
 70
     1
102
RTVSPropertyOp54
 70
     1
102
RTVSPropertyOp55
 70
     1
102
RTVSPropertyOp56
 70
     1
102
RTVSPropertyOp57
 70
     1
102
RTVSPropertyOp58
 70
     1
102
RTVSPropertyOp59
 70
     1
102
RTVSPropertyOp60
 70
     1
102
RTVSPropertyOp61
 70
     1
102
RTVSPropertyOp62
 70
     1
  0
XRECORD
  5
99641
102
{ACAD_REACTORS
330
99640
102
}
330
99640
100
AcDbXrecord
280
     1
102
RTVSPost2010Prop28
280
     0
102
RTVSPost2010PropOp28
 70
     1
102
RTVSPost2010Prop29
280
     1
102
RTVSPost2010PropOp29
 70
     1
102
RTVSPost2010Prop30
280
     1
102
RTVSPost2010PropOp30
 70
     1
102
RTVSPost2010Prop31
280
     0
102
RTVSPost2010PropOp31
 70
     1
102
RTVSPost2010Prop32
280
     0
102
RTVSPost2010PropOp32
 70
     1
102
RTVSPost2010Prop33
280
     0
102
RTVSPost2010PropOp33
 70
     1
102
RTVSPost2010Prop34
280
     0
102
RTVSPost2010PropOp34
 70
     1
102
RTVSPost2010Prop35
280
     0
102
RTVSPost2010PropOp35
 70
     1
102
RTVSPost2010Prop36
280
     0
102
RTVSPost2010PropOp36
 70
     1
102
RTVSPost2010Prop37
 90
       50
102
RTVSPost2010PropOp37
 70
     1
102
RTVSPost2010Prop38
140
0.0
102
RTVSPost2010PropOp38
 70
     1
102
RTVSPost2010Prop39
140
1.0
102
RTVSPost2010PropOp39
 70
     1
102
RTVSPost2010Prop40
 90
        0
102
RTVSPost2010PropOp40
 70
     1
102
RTVSPost2010Prop41ColorIndex
 90
       18
102
RTVSPost2010Prop41ColorRGB
 90
        0
102
RTVSPost2010PropOp41
 70
     1
102
RTVSPost2010Prop42
 90
       50
102
RTVSPost2010PropOp42
 70
     1
102
RTVSPost2010Prop43
 90
        3
102
RTVSPost2010PropOp43
 70
     1
102
RTVSPost2010Prop44ColorIndex
 90
        5
102
RTVSPost2010Prop44ColorRGB
 90
      255
102
RTVSPost2010PropOp44
 70
     1
102
RTVSPost2010Prop45
280
     0
102
RTVSPost2010PropOp45
 70
     1
102
RTVSPost2010Prop46
 90
       50
102
RTVSPost2010PropOp46
 70
     1
102
RTVSPost2010Prop47
 90
       50
102
RTVSPost2010PropOp47
 70
     1
102
RTVSPost2010Prop48
 90
       50
102
RTVSPost2010PropOp48
 70
     1
102
RTVSPost2010Prop49
280
     0
102
RTVSPost2010PropOp49
 70
     1
102
RTVSPost2010Prop50
 90
       50
102
RTVSPost2010PropOp50
 70
     1
102
RTVSPost2010Prop51ColorIndex
 90
      256
102
RTVSPost2010Prop51ColorRGB
 90
-16777216
102
RTVSPost2010PropOp51
 70
     0
102
RTVSPost2010Prop52
140
1.0
102
RTVSPost2010PropOp52
 70
     0
102
RTVSPost2010Prop53
 90
        2
102
RTVSPost2010PropOp53
 70
     1
102
RTVSPost2010Prop54
  1
strokes_ogs.tif
102
RTVSPost2010PropOp54
 70
     1
102
RTVSPost2010Prop55
280
     0
102
RTVSPost2010PropOp55
 70
     1
102
RTVSPost2010Prop56
140
1.0
102
RTVSPost2010PropOp56
 70
     1
102
RTVSPost2010Prop57
140
1.0
102
RTVSPost2010PropOp57
 70
     1
102
RTVSPropertyOp0
 70
     1
102
RTVSPropertyOp1
 70
     1
102
RTVSPropertyOp2
 70
     1
102
RTVSPropertyOp3
 70
     1
102
RTVSPropertyOp4
 70
     1
102
RTVSPropertyOp5
 70
     1
102
RTVSPropertyOp6
 70
     1
102
RTVSPropertyOp7
 70
     1
102
RTVSPropertyOp8
 70
     1
102
RTVSPropertyOp9
 70
     1
102
RTVSPropertyOp10
 70
     1
102
RTVSPropertyOp11
 70
     1
102
RTVSPropertyOp12
 70
     1
102
RTVSPropertyOp13
 70
     1
102
RTVSPropertyOp14
 70
     1
102
RTVSPropertyOp15
 70
     1
102
RTVSPropertyOp16
 70
     1
102
RTVSPropertyOp17
 70
     1
102
RTVSPropertyOp18
 70
     1
102
RTVSPropertyOp19
 70
     1
102
RTVSPropertyOp20
 70
     1
102
RTVSPropertyOp21
 70
     1
102
RTVSPropertyOp22
 70
     1
102
RTVSPropertyOp23
 70
     1
102
RTVSPropertyOp24
 70
     1
102
RTVSPropertyOp25
 70
     1
102
RTVSPropertyOp26
 70
     1
102
RTVSPropertyOp27
 70
     1
102
RTVSPropertyOp28
 70
     1
102
RTVSPropertyOp29
 70
     1
102
RTVSPropertyOp30
 70
     1
102
RTVSPropertyOp31
 70
     1
102
RTVSPropertyOp32
 70
     1
102
RTVSPropertyOp33
 70
     1
102
RTVSPropertyOp34
 70
     1
102
RTVSPropertyOp35
 70
     1
102
RTVSPropertyOp36
 70
     1
102
RTVSPropertyOp37
 70
     1
102
RTVSPropertyOp38
 70
     1
102
RTVSPropertyOp39
 70
     1
102
RTVSPropertyOp40
 70
     1
102
RTVSPropertyOp41
 70
     1
102
RTVSPropertyOp42
 70
     1
102
RTVSPropertyOp43
 70
     1
102
RTVSPropertyOp44
 70
     1
102
RTVSPropertyOp45
 70
     1
102
RTVSPropertyOp46
 70
     1
102
RTVSPropertyOp47
 70
     1
102
RTVSPropertyOp48
 70
     1
102
RTVSPropertyOp49
 70
     1
102
RTVSPropertyOp50
 70
     1
102
RTVSPropertyOp51
 70
     0
102
RTVSPropertyOp52
 70
     0
102
RTVSPropertyOp53
 70
     1
102
RTVSPropertyOp54
 70
     1
102
RTVSPropertyOp55
 70
     1
102
RTVSPropertyOp56
 70
     1
102
RTVSPropertyOp57
 70
     1
102
RTVSPropertyOp58
 70
     1
102
RTVSPropertyOp59
 70
     1
102
RTVSPropertyOp60
 70
     1
102
RTVSPropertyOp61
 70
     1
102
RTVSPropertyOp62
 70
     1
  0
XRECORD
  5
99649
102
{ACAD_REACTORS
330
99648
102
}
330
99648
100
AcDbXrecord
280
     1
102
RTVSPost2010Prop28
280
     0
102
RTVSPost2010PropOp28
 70
     1
102
RTVSPost2010Prop29
280
     1
102
RTVSPost2010PropOp29
 70
     1
102
RTVSPost2010Prop30
280
     1
102
RTVSPost2010PropOp30
 70
     1
102
RTVSPost2010Prop31
280
     0
102
RTVSPost2010PropOp31
 70
     1
102
RTVSPost2010Prop32
280
     0
102
RTVSPost2010PropOp32
 70
     1
102
RTVSPost2010Prop33
280
     0
102
RTVSPost2010PropOp33
 70
     1
102
RTVSPost2010Prop34
280
     0
102
RTVSPost2010PropOp34
 70
     1
102
RTVSPost2010Prop35
280
     0
102
RTVSPost2010PropOp35
 70
     1
102
RTVSPost2010Prop36
280
     0
102
RTVSPost2010PropOp36
 70
     1
102
RTVSPost2010Prop37
 90
       50
102
RTVSPost2010PropOp37
 70
     1
102
RTVSPost2010Prop38
140
0.0
102
RTVSPost2010PropOp38
 70
     1
102
RTVSPost2010Prop39
140
1.0
102
RTVSPost2010PropOp39
 70
     1
102
RTVSPost2010Prop40
 90
        0
102
RTVSPost2010PropOp40
 70
     1
102
RTVSPost2010Prop41ColorIndex
 90
       18
102
RTVSPost2010Prop41ColorRGB
 90
        0
102
RTVSPost2010PropOp41
 70
     1
102
RTVSPost2010Prop42
 90
       50
102
RTVSPost2010PropOp42
 70
     1
102
RTVSPost2010Prop43
 90
        3
102
RTVSPost2010PropOp43
 70
     1
102
RTVSPost2010Prop44ColorIndex
 90
        5
102
RTVSPost2010Prop44ColorRGB
 90
      255
102
RTVSPost2010PropOp44
 70
     1
102
RTVSPost2010Prop45
280
     0
102
RTVSPost2010PropOp45
 70
     1
102
RTVSPost2010Prop46
 90
       50
102
RTVSPost2010PropOp46
 70
     1
102
RTVSPost2010Prop47
 90
       50
102
RTVSPost2010PropOp47
 70
     1
102
RTVSPost2010Prop48
 90
       50
102
RTVSPost2010PropOp48
 70
     1
102
RTVSPost2010Prop49
280
     0
102
RTVSPost2010PropOp49
 70
     1
102
RTVSPost2010Prop50
 90
       50
102
RTVSPost2010PropOp50
 70
     1
102
RTVSPost2010Prop51ColorIndex
 90
      256
102
RTVSPost2010Prop51ColorRGB
 90
-16777216
102
RTVSPost2010PropOp51
 70
     0
102
RTVSPost2010Prop52
140
1.0
102
RTVSPost2010PropOp52
 70
     0
102
RTVSPost2010Prop53
 90
        2
102
RTVSPost2010PropOp53
 70
     1
102
RTVSPost2010Prop54
  1
strokes_ogs.tif
102
RTVSPost2010PropOp54
 70
     1
102
RTVSPost2010Prop55
280
     0
102
RTVSPost2010PropOp55
 70
     1
102
RTVSPost2010Prop56
140
1.0
102
RTVSPost2010PropOp56
 70
     1
102
RTVSPost2010Prop57
140
1.0
102
RTVSPost2010PropOp57
 70
     1
102
RTVSPropertyOp0
 70
     1
102
RTVSPropertyOp1
 70
     1
102
RTVSPropertyOp2
 70
     1
102
RTVSPropertyOp3
 70
     1
102
RTVSPropertyOp4
 70
     1
102
RTVSPropertyOp5
 70
     1
102
RTVSPropertyOp6
 70
     1
102
RTVSPropertyOp7
 70
     1
102
RTVSPropertyOp8
 70
     1
102
RTVSPropertyOp9
 70
     1
102
RTVSPropertyOp10
 70
     1
102
RTVSPropertyOp11
 70
     1
102
RTVSPropertyOp12
 70
     1
102
RTVSPropertyOp13
 70
     1
102
RTVSPropertyOp14
 70
     1
102
RTVSPropertyOp15
 70
     1
102
RTVSPropertyOp16
 70
     1
102
RTVSPropertyOp17
 70
     1
102
RTVSPropertyOp18
 70
     1
102
RTVSPropertyOp19
 70
     1
102
RTVSPropertyOp20
 70
     1
102
RTVSPropertyOp21
 70
     1
102
RTVSPropertyOp22
 70
     1
102
RTVSPropertyOp23
 70
     1
102
RTVSPropertyOp24
 70
     1
102
RTVSPropertyOp25
 70
     1
102
RTVSPropertyOp26
 70
     1
102
RTVSPropertyOp27
 70
     1
102
RTVSPropertyOp28
 70
     1
102
RTVSPropertyOp29
 70
     1
102
RTVSPropertyOp30
 70
     1
102
RTVSPropertyOp31
 70
     1
102
RTVSPropertyOp32
 70
     1
102
RTVSPropertyOp33
 70
     1
102
RTVSPropertyOp34
 70
     1
102
RTVSPropertyOp35
 70
     1
102
RTVSPropertyOp36
 70
     1
102
RTVSPropertyOp37
 70
     1
102
RTVSPropertyOp38
 70
     1
102
RTVSPropertyOp39
 70
     1
102
RTVSPropertyOp40
 70
     1
102
RTVSPropertyOp41
 70
     1
102
RTVSPropertyOp42
 70
     1
102
RTVSPropertyOp43
 70
     1
102
RTVSPropertyOp44
 70
     1
102
RTVSPropertyOp45
 70
     1
102
RTVSPropertyOp46
 70
     1
102
RTVSPropertyOp47
 70
     1
102
RTVSPropertyOp48
 70
     1
102
RTVSPropertyOp49
 70
     1
102
RTVSPropertyOp50
 70
     1
102
RTVSPropertyOp51
 70
     0
102
RTVSPropertyOp52
 70
     0
102
RTVSPropertyOp53
 70
     1
102
RTVSPropertyOp54
 70
     1
102
RTVSPropertyOp55
 70
     1
102
RTVSPropertyOp56
 70
     1
102
RTVSPropertyOp57
 70
     1
102
RTVSPropertyOp58
 70
     1
102
RTVSPropertyOp59
 70
     1
102
RTVSPropertyOp60
 70
     1
102
RTVSPropertyOp61
 70
     1
102
RTVSPropertyOp62
 70
     1
  0
XRECORD
  5
9963B
102
{ACAD_REACTORS
330
9963A
102
}
330
9963A
100
AcDbXrecord
280
     1
102
RTVSPost2010Prop28
280
     0
102
RTVSPost2010PropOp28
 70
     1
102
RTVSPost2010Prop29
280
     1
102
RTVSPost2010PropOp29
 70
     1
102
RTVSPost2010Prop30
280
     1
102
RTVSPost2010PropOp30
 70
     1
102
RTVSPost2010Prop31
280
     0
102
RTVSPost2010PropOp31
 70
     1
102
RTVSPost2010Prop32
280
     0
102
RTVSPost2010PropOp32
 70
     1
102
RTVSPost2010Prop33
280
     0
102
RTVSPost2010PropOp33
 70
     1
102
RTVSPost2010Prop34
280
     0
102
RTVSPost2010PropOp34
 70
     1
102
RTVSPost2010Prop35
280
     0
102
RTVSPost2010PropOp35
 70
     1
102
RTVSPost2010Prop36
280
     0
102
RTVSPost2010PropOp36
 70
     1
102
RTVSPost2010Prop37
 90
       50
102
RTVSPost2010PropOp37
 70
     1
102
RTVSPost2010Prop38
140
0.0
102
RTVSPost2010PropOp38
 70
     1
102
RTVSPost2010Prop39
140
1.0
102
RTVSPost2010PropOp39
 70
     1
102
RTVSPost2010Prop40
 90
        0
102
RTVSPost2010PropOp40
 70
     1
102
RTVSPost2010Prop41ColorIndex
 90
       18
102
RTVSPost2010Prop41ColorRGB
 90
        0
102
RTVSPost2010PropOp41
 70
     1
102
RTVSPost2010Prop42
 90
       50
102
RTVSPost2010PropOp42
 70
     1
102
RTVSPost2010Prop43
 90
        3
102
RTVSPost2010PropOp43
 70
     1
102
RTVSPost2010Prop44ColorIndex
 90
        5
102
RTVSPost2010Prop44ColorRGB
 90
      255
102
RTVSPost2010PropOp44
 70
     1
102
RTVSPost2010Prop45
280
     0
102
RTVSPost2010PropOp45
 70
     1
102
RTVSPost2010Prop46
 90
       50
102
RTVSPost2010PropOp46
 70
     1
102
RTVSPost2010Prop47
 90
       50
102
RTVSPost2010PropOp47
 70
     1
102
RTVSPost2010Prop48
 90
       50
102
RTVSPost2010PropOp48
 70
     1
102
RTVSPost2010Prop49
280
     0
102
RTVSPost2010PropOp49
 70
     1
102
RTVSPost2010Prop50
 90
       50
102
RTVSPost2010PropOp50
 70
     1
102
RTVSPost2010Prop51ColorIndex
 90
      256
102
RTVSPost2010Prop51ColorRGB
 90
-16777216
102
RTVSPost2010PropOp51
 70
     0
102
RTVSPost2010Prop52
140
1.0
102
RTVSPost2010PropOp52
 70
     0
102
RTVSPost2010Prop53
 90
        2
102
RTVSPost2010PropOp53
 70
     1
102
RTVSPost2010Prop54
  1
strokes_ogs.tif
102
RTVSPost2010PropOp54
 70
     1
102
RTVSPost2010Prop55
280
     0
102
RTVSPost2010PropOp55
 70
     1
102
RTVSPost2010Prop56
140
1.0
102
RTVSPost2010PropOp56
 70
     1
102
RTVSPost2010Prop57
140
1.0
102
RTVSPost2010PropOp57
 70
     1
102
RTVSPropertyOp0
 70
     1
102
RTVSPropertyOp1
 70
     1
102
RTVSPropertyOp2
 70
     1
102
RTVSPropertyOp3
 70
     1
102
RTVSPropertyOp4
 70
     1
102
RTVSPropertyOp5
 70
     1
102
RTVSPropertyOp6
 70
     1
102
RTVSPropertyOp7
 70
     1
102
RTVSPropertyOp8
 70
     1
102
RTVSPropertyOp9
 70
     1
102
RTVSPropertyOp10
 70
     1
102
RTVSPropertyOp11
 70
     1
102
RTVSPropertyOp12
 70
     1
102
RTVSPropertyOp13
 70
     1
102
RTVSPropertyOp14
 70
     1
102
RTVSPropertyOp15
 70
     1
102
RTVSPropertyOp16
 70
     1
102
RTVSPropertyOp17
 70
     1
102
RTVSPropertyOp18
 70
     1
102
RTVSPropertyOp19
 70
     1
102
RTVSPropertyOp20
 70
     1
102
RTVSPropertyOp21
 70
     1
102
RTVSPropertyOp22
 70
     1
102
RTVSPropertyOp23
 70
     1
102
RTVSPropertyOp24
 70
     1
102
RTVSPropertyOp25
 70
     1
102
RTVSPropertyOp26
 70
     1
102
RTVSPropertyOp27
 70
     1
102
RTVSPropertyOp28
 70
     1
102
RTVSPropertyOp29
 70
     1
102
RTVSPropertyOp30
 70
     1
102
RTVSPropertyOp31
 70
     1
102
RTVSPropertyOp32
 70
     1
102
RTVSPropertyOp33
 70
     1
102
RTVSPropertyOp34
 70
     1
102
RTVSPropertyOp35
 70
     1
102
RTVSPropertyOp36
 70
     1
102
RTVSPropertyOp37
 70
     1
102
RTVSPropertyOp38
 70
     1
102
RTVSPropertyOp39
 70
     1
102
RTVSPropertyOp40
 70
     1
102
RTVSPropertyOp41
 70
     1
102
RTVSPropertyOp42
 70
     1
102
RTVSPropertyOp43
 70
     1
102
RTVSPropertyOp44
 70
     1
102
RTVSPropertyOp45
 70
     1
102
RTVSPropertyOp46
 70
     1
102
RTVSPropertyOp47
 70
     1
102
RTVSPropertyOp48
 70
     1
102
RTVSPropertyOp49
 70
     1
102
RTVSPropertyOp50
 70
     1
102
RTVSPropertyOp51
 70
     0
102
RTVSPropertyOp52
 70
     0
102
RTVSPropertyOp53
 70
     1
102
RTVSPropertyOp54
 70
     1
102
RTVSPropertyOp55
 70
     1
102
RTVSPropertyOp56
 70
     1
102
RTVSPropertyOp57
 70
     1
102
RTVSPropertyOp58
 70
     1
102
RTVSPropertyOp59
 70
     1
102
RTVSPropertyOp60
 70
     1
102
RTVSPropertyOp61
 70
     1
102
RTVSPropertyOp62
 70
     1
  0
XRECORD
  5
9963F
102
{ACAD_REACTORS
330
9963E
102
}
330
9963E
100
AcDbXrecord
280
     1
102
RTVSPost2010Prop28
280
     0
102
RTVSPost2010PropOp28
 70
     1
102
RTVSPost2010Prop29
280
     1
102
RTVSPost2010PropOp29
 70
     1
102
RTVSPost2010Prop30
280
     1
102
RTVSPost2010PropOp30
 70
     1
102
RTVSPost2010Prop31
280
     0
102
RTVSPost2010PropOp31
 70
     1
102
RTVSPost2010Prop32
280
     0
102
RTVSPost2010PropOp32
 70
     1
102
RTVSPost2010Prop33
280
     0
102
RTVSPost2010PropOp33
 70
     1
102
RTVSPost2010Prop34
280
     0
102
RTVSPost2010PropOp34
 70
     1
102
RTVSPost2010Prop35
280
     0
102
RTVSPost2010PropOp35
 70
     1
102
RTVSPost2010Prop36
280
     0
102
RTVSPost2010PropOp36
 70
     1
102
RTVSPost2010Prop37
 90
       50
102
RTVSPost2010PropOp37
 70
     1
102
RTVSPost2010Prop38
140
0.0
102
RTVSPost2010PropOp38
 70
     1
102
RTVSPost2010Prop39
140
1.0
102
RTVSPost2010PropOp39
 70
     1
102
RTVSPost2010Prop40
 90
        0
102
RTVSPost2010PropOp40
 70
     1
102
RTVSPost2010Prop41ColorIndex
 90
       18
102
RTVSPost2010Prop41ColorRGB
 90
        0
102
RTVSPost2010PropOp41
 70
     1
102
RTVSPost2010Prop42
 90
       50
102
RTVSPost2010PropOp42
 70
     1
102
RTVSPost2010Prop43
 90
        3
102
RTVSPost2010PropOp43
 70
     1
102
RTVSPost2010Prop44ColorIndex
 90
        5
102
RTVSPost2010Prop44ColorRGB
 90
      255
102
RTVSPost2010PropOp44
 70
     1
102
RTVSPost2010Prop45
280
     0
102
RTVSPost2010PropOp45
 70
     1
102
RTVSPost2010Prop46
 90
       50
102
RTVSPost2010PropOp46
 70
     1
102
RTVSPost2010Prop47
 90
       50
102
RTVSPost2010PropOp47
 70
     1
102
RTVSPost2010Prop48
 90
       50
102
RTVSPost2010PropOp48
 70
     1
102
RTVSPost2010Prop49
280
     0
102
RTVSPost2010PropOp49
 70
     1
102
RTVSPost2010Prop50
 90
       50
102
RTVSPost2010PropOp50
 70
     1
102
RTVSPost2010Prop51ColorIndex
 90
      256
102
RTVSPost2010Prop51ColorRGB
 90
-16777216
102
RTVSPost2010PropOp51
 70
     0
102
RTVSPost2010Prop52
140
1.0
102
RTVSPost2010PropOp52
 70
     0
102
RTVSPost2010Prop53
 90
        2
102
RTVSPost2010PropOp53
 70
     1
102
RTVSPost2010Prop54
  1
strokes_ogs.tif
102
RTVSPost2010PropOp54
 70
     1
102
RTVSPost2010Prop55
280
     0
102
RTVSPost2010PropOp55
 70
     1
102
RTVSPost2010Prop56
140
1.0
102
RTVSPost2010PropOp56
 70
     1
102
RTVSPost2010Prop57
140
1.0
102
RTVSPost2010PropOp57
 70
     1
102
RTVSPropertyOp0
 70
     1
102
RTVSPropertyOp1
 70
     1
102
RTVSPropertyOp2
 70
     1
102
RTVSPropertyOp3
 70
     1
102
RTVSPropertyOp4
 70
     1
102
RTVSPropertyOp5
 70
     1
102
RTVSPropertyOp6
 70
     1
102
RTVSPropertyOp7
 70
     1
102
RTVSPropertyOp8
 70
     1
102
RTVSPropertyOp9
 70
     1
102
RTVSPropertyOp10
 70
     1
102
RTVSPropertyOp11
 70
     1
102
RTVSPropertyOp12
 70
     1
102
RTVSPropertyOp13
 70
     1
102
RTVSPropertyOp14
 70
     1
102
RTVSPropertyOp15
 70
     1
102
RTVSPropertyOp16
 70
     1
102
RTVSPropertyOp17
 70
     1
102
RTVSPropertyOp18
 70
     1
102
RTVSPropertyOp19
 70
     1
102
RTVSPropertyOp20
 70
     1
102
RTVSPropertyOp21
 70
     1
102
RTVSPropertyOp22
 70
     1
102
RTVSPropertyOp23
 70
     1
102
RTVSPropertyOp24
 70
     1
102
RTVSPropertyOp25
 70
     1
102
RTVSPropertyOp26
 70
     1
102
RTVSPropertyOp27
 70
     1
102
RTVSPropertyOp28
 70
     1
102
RTVSPropertyOp29
 70
     1
102
RTVSPropertyOp30
 70
     1
102
RTVSPropertyOp31
 70
     1
102
RTVSPropertyOp32
 70
     1
102
RTVSPropertyOp33
 70
     1
102
RTVSPropertyOp34
 70
     1
102
RTVSPropertyOp35
 70
     1
102
RTVSPropertyOp36
 70
     1
102
RTVSPropertyOp37
 70
     1
102
RTVSPropertyOp38
 70
     1
102
RTVSPropertyOp39
 70
     1
102
RTVSPropertyOp40
 70
     1
102
RTVSPropertyOp41
 70
     1
102
RTVSPropertyOp42
 70
     1
102
RTVSPropertyOp43
 70
     1
102
RTVSPropertyOp44
 70
     1
102
RTVSPropertyOp45
 70
     1
102
RTVSPropertyOp46
 70
     1
102
RTVSPropertyOp47
 70
     1
102
RTVSPropertyOp48
 70
     1
102
RTVSPropertyOp49
 70
     1
102
RTVSPropertyOp50
 70
     1
102
RTVSPropertyOp51
 70
     0
102
RTVSPropertyOp52
 70
     0
102
RTVSPropertyOp53
 70
     1
102
RTVSPropertyOp54
 70
     1
102
RTVSPropertyOp55
 70
     1
102
RTVSPropertyOp56
 70
     1
102
RTVSPropertyOp57
 70
     1
102
RTVSPropertyOp58
 70
     1
102
RTVSPropertyOp59
 70
     1
102
RTVSPropertyOp60
 70
     1
102
RTVSPropertyOp61
 70
     1
102
RTVSPropertyOp62
 70
     1
  0
XRECORD
  5
9965E
102
{ACAD_REACTORS
330
9965D
102
}
330
9965D
100
AcDbXrecord
280
     1
102
RTVSPost2010Prop28
280
     0
102
RTVSPost2010PropOp28
 70
     0
102
RTVSPost2010Prop29
280
     1
102
RTVSPost2010PropOp29
 70
     0
102
RTVSPost2010Prop30
280
     1
102
RTVSPost2010PropOp30
 70
     0
102
RTVSPost2010Prop31
280
     0
102
RTVSPost2010PropOp31
 70
     0
102
RTVSPost2010Prop32
280
     0
102
RTVSPost2010PropOp32
 70
     0
102
RTVSPost2010Prop33
280
     0
102
RTVSPost2010PropOp33
 70
     1
102
RTVSPost2010Prop34
280
     0
102
RTVSPost2010PropOp34
 70
     1
102
RTVSPost2010Prop35
280
     0
102
RTVSPost2010PropOp35
 70
     1
102
RTVSPost2010Prop36
280
     0
102
RTVSPost2010PropOp36
 70
     1
102
RTVSPost2010Prop37
 90
       50
102
RTVSPost2010PropOp37
 70
     1
102
RTVSPost2010Prop38
140
0.0
102
RTVSPost2010PropOp38
 70
     1
102
RTVSPost2010Prop39
140
1.0
102
RTVSPost2010PropOp39
 70
     1
102
RTVSPost2010Prop40
 90
        0
102
RTVSPost2010PropOp40
 70
     1
102
RTVSPost2010Prop41ColorIndex
 90
       18
102
RTVSPost2010Prop41ColorRGB
 90
        0
102
RTVSPost2010PropOp41
 70
     1
102
RTVSPost2010Prop42
 90
       50
102
RTVSPost2010PropOp42
 70
     1
102
RTVSPost2010Prop43
 90
        3
102
RTVSPost2010PropOp43
 70
     1
102
RTVSPost2010Prop44ColorIndex
 90
        5
102
RTVSPost2010Prop44ColorRGB
 90
      255
102
RTVSPost2010PropOp44
 70
     1
102
RTVSPost2010Prop45
280
     0
102
RTVSPost2010PropOp45
 70
     1
102
RTVSPost2010Prop46
 90
       50
102
RTVSPost2010PropOp46
 70
     1
102
RTVSPost2010Prop47
 90
       50
102
RTVSPost2010PropOp47
 70
     1
102
RTVSPost2010Prop48
 90
       50
102
RTVSPost2010PropOp48
 70
     1
102
RTVSPost2010Prop49
280
     0
102
RTVSPost2010PropOp49
 70
     1
102
RTVSPost2010Prop50
 90
       50
102
RTVSPost2010PropOp50
 70
     1
102
RTVSPost2010Prop51ColorIndex
 90
      256
102
RTVSPost2010Prop51ColorRGB
 90
-16777216
102
RTVSPost2010PropOp51
 70
     0
102
RTVSPost2010Prop52
140
1.0
102
RTVSPost2010PropOp52
 70
     0
102
RTVSPost2010Prop53
 90
        2
102
RTVSPost2010PropOp53
 70
     1
102
RTVSPost2010Prop54
  1
strokes_ogs.tif
102
RTVSPost2010PropOp54
 70
     1
102
RTVSPost2010Prop55
280
     0
102
RTVSPost2010PropOp55
 70
     1
102
RTVSPost2010Prop56
140
1.0
102
RTVSPost2010PropOp56
 70
     1
102
RTVSPost2010Prop57
140
1.0
102
RTVSPost2010PropOp57
 70
     1
102
RTVSPropertyOp0
 70
     0
102
RTVSPropertyOp1
 70
     0
102
RTVSPropertyOp2
 70
     0
102
RTVSPropertyOp3
 70
     0
102
RTVSPropertyOp4
 70
     0
102
RTVSPropertyOp5
 70
     0
102
RTVSPropertyOp6
 70
     0
102
RTVSPropertyOp7
 70
     0
102
RTVSPropertyOp8
 70
     0
102
RTVSPropertyOp9
 70
     0
102
RTVSPropertyOp10
 70
     0
102
RTVSPropertyOp11
 70
     0
102
RTVSPropertyOp12
 70
     0
102
RTVSPropertyOp13
 70
     0
102
RTVSPropertyOp14
 70
     2
102
RTVSPropertyOp15
 70
     0
102
RTVSPropertyOp16
 70
     0
102
RTVSPropertyOp17
 70
     0
102
RTVSPropertyOp18
 70
     0
102
RTVSPropertyOp19
 70
     0
102
RTVSPropertyOp20
 70
     0
102
RTVSPropertyOp21
 70
     0
102
RTVSPropertyOp22
 70
     0
102
RTVSPropertyOp23
 70
     0
102
RTVSPropertyOp24
 70
     0
102
RTVSPropertyOp25
 70
     0
102
RTVSPropertyOp26
 70
     0
102
RTVSPropertyOp27
 70
     0
102
RTVSPropertyOp28
 70
     0
102
RTVSPropertyOp29
 70
     0
102
RTVSPropertyOp30
 70
     0
102
RTVSPropertyOp31
 70
     0
102
RTVSPropertyOp32
 70
     0
102
RTVSPropertyOp33
 70
     1
102
RTVSPropertyOp34
 70
     1
102
RTVSPropertyOp35
 70
     1
102
RTVSPropertyOp36
 70
     1
102
RTVSPropertyOp37
 70
     1
102
RTVSPropertyOp38
 70
     1
102
RTVSPropertyOp39
 70
     1
102
RTVSPropertyOp40
 70
     1
102
RTVSPropertyOp41
 70
     1
102
RTVSPropertyOp42
 70
     1
102
RTVSPropertyOp43
 70
     1
102
RTVSPropertyOp44
 70
     1
102
RTVSPropertyOp45
 70
     1
102
RTVSPropertyOp46
 70
     1
102
RTVSPropertyOp47
 70
     1
102
RTVSPropertyOp48
 70
     1
102
RTVSPropertyOp49
 70
     1
102
RTVSPropertyOp50
 70
     1
102
RTVSPropertyOp51
 70
     0
102
RTVSPropertyOp52
 70
     0
102
RTVSPropertyOp53
 70
     1
102
RTVSPropertyOp54
 70
     1
102
RTVSPropertyOp55
 70
     1
102
RTVSPropertyOp56
 70
     1
102
RTVSPropertyOp57
 70
     1
102
RTVSPropertyOp58
 70
     1
102
RTVSPropertyOp59
 70
     1
102
RTVSPropertyOp60
 70
     1
102
RTVSPropertyOp61
 70
     1
102
RTVSPropertyOp62
 70
     1
  0
XRECORD
  5
99647
102
{ACAD_REACTORS
330
99646
102
}
330
99646
100
AcDbXrecord
280
     1
102
RTVSPost2010Prop28
280
     0
102
RTVSPost2010PropOp28
 70
     1
102
RTVSPost2010Prop29
280
     1
102
RTVSPost2010PropOp29
 70
     1
102
RTVSPost2010Prop30
280
     1
102
RTVSPost2010PropOp30
 70
     1
102
RTVSPost2010Prop31
280
     0
102
RTVSPost2010PropOp31
 70
     1
102
RTVSPost2010Prop32
280
     0
102
RTVSPost2010PropOp32
 70
     1
102
RTVSPost2010Prop33
280
     0
102
RTVSPost2010PropOp33
 70
     1
102
RTVSPost2010Prop34
280
     0
102
RTVSPost2010PropOp34
 70
     1
102
RTVSPost2010Prop35
280
     0
102
RTVSPost2010PropOp35
 70
     1
102
RTVSPost2010Prop36
280
     0
102
RTVSPost2010PropOp36
 70
     1
102
RTVSPost2010Prop37
 90
       50
102
RTVSPost2010PropOp37
 70
     1
102
RTVSPost2010Prop38
140
0.0
102
RTVSPost2010PropOp38
 70
     1
102
RTVSPost2010Prop39
140
1.0
102
RTVSPost2010PropOp39
 70
     1
102
RTVSPost2010Prop40
 90
        0
102
RTVSPost2010PropOp40
 70
     1
102
RTVSPost2010Prop41ColorIndex
 90
       18
102
RTVSPost2010Prop41ColorRGB
 90
        0
102
RTVSPost2010PropOp41
 70
     1
102
RTVSPost2010Prop42
 90
       50
102
RTVSPost2010PropOp42
 70
     1
102
RTVSPost2010Prop43
 90
        3
102
RTVSPost2010PropOp43
 70
     1
102
RTVSPost2010Prop44ColorIndex
 90
        5
102
RTVSPost2010Prop44ColorRGB
 90
      255
102
RTVSPost2010PropOp44
 70
     1
102
RTVSPost2010Prop45
280
     0
102
RTVSPost2010PropOp45
 70
     1
102
RTVSPost2010Prop46
 90
       50
102
RTVSPost2010PropOp46
 70
     1
102
RTVSPost2010Prop47
 90
       50
102
RTVSPost2010PropOp47
 70
     1
102
RTVSPost2010Prop48
 90
       50
102
RTVSPost2010PropOp48
 70
     1
102
RTVSPost2010Prop49
280
     0
102
RTVSPost2010PropOp49
 70
     1
102
RTVSPost2010Prop50
 90
       50
102
RTVSPost2010PropOp50
 70
     1
102
RTVSPost2010Prop51ColorIndex
 90
      256
102
RTVSPost2010Prop51ColorRGB
 90
-16777216
102
RTVSPost2010PropOp51
 70
     0
102
RTVSPost2010Prop52
140
1.0
102
RTVSPost2010PropOp52
 70
     0
102
RTVSPost2010Prop53
 90
        2
102
RTVSPost2010PropOp53
 70
     1
102
RTVSPost2010Prop54
  1
strokes_ogs.tif
102
RTVSPost2010PropOp54
 70
     1
102
RTVSPost2010Prop55
280
     0
102
RTVSPost2010PropOp55
 70
     1
102
RTVSPost2010Prop56
140
1.0
102
RTVSPost2010PropOp56
 70
     1
102
RTVSPost2010Prop57
140
1.0
102
RTVSPost2010PropOp57
 70
     1
102
RTVSPropertyOp0
 70
     1
102
RTVSPropertyOp1
 70
     1
102
RTVSPropertyOp2
 70
     1
102
RTVSPropertyOp3
 70
     1
102
RTVSPropertyOp4
 70
     1
102
RTVSPropertyOp5
 70
     1
102
RTVSPropertyOp6
 70
     1
102
RTVSPropertyOp7
 70
     1
102
RTVSPropertyOp8
 70
     1
102
RTVSPropertyOp9
 70
     1
102
RTVSPropertyOp10
 70
     1
102
RTVSPropertyOp11
 70
     1
102
RTVSPropertyOp12
 70
     1
102
RTVSPropertyOp13
 70
     1
102
RTVSPropertyOp14
 70
     1
102
RTVSPropertyOp15
 70
     1
102
RTVSPropertyOp16
 70
     1
102
RTVSPropertyOp17
 70
     1
102
RTVSPropertyOp18
 70
     1
102
RTVSPropertyOp19
 70
     1
102
RTVSPropertyOp20
 70
     1
102
RTVSPropertyOp21
 70
     1
102
RTVSPropertyOp22
 70
     1
102
RTVSPropertyOp23
 70
     1
102
RTVSPropertyOp24
 70
     1
102
RTVSPropertyOp25
 70
     1
102
RTVSPropertyOp26
 70
     1
102
RTVSPropertyOp27
 70
     1
102
RTVSPropertyOp28
 70
     1
102
RTVSPropertyOp29
 70
     1
102
RTVSPropertyOp30
 70
     1
102
RTVSPropertyOp31
 70
     1
102
RTVSPropertyOp32
 70
     1
102
RTVSPropertyOp33
 70
     1
102
RTVSPropertyOp34
 70
     1
102
RTVSPropertyOp35
 70
     1
102
RTVSPropertyOp36
 70
     1
102
RTVSPropertyOp37
 70
     1
102
RTVSPropertyOp38
 70
     1
102
RTVSPropertyOp39
 70
     1
102
RTVSPropertyOp40
 70
     1
102
RTVSPropertyOp41
 70
     1
102
RTVSPropertyOp42
 70
     1
102
RTVSPropertyOp43
 70
     1
102
RTVSPropertyOp44
 70
     1
102
RTVSPropertyOp45
 70
     1
102
RTVSPropertyOp46
 70
     1
102
RTVSPropertyOp47
 70
     1
102
RTVSPropertyOp48
 70
     1
102
RTVSPropertyOp49
 70
     1
102
RTVSPropertyOp50
 70
     1
102
RTVSPropertyOp51
 70
     0
102
RTVSPropertyOp52
 70
     0
102
RTVSPropertyOp53
 70
     1
102
RTVSPropertyOp54
 70
     1
102
RTVSPropertyOp55
 70
     1
102
RTVSPropertyOp56
 70
     1
102
RTVSPropertyOp57
 70
     1
102
RTVSPropertyOp58
 70
     1
102
RTVSPropertyOp59
 70
     1
102
RTVSPropertyOp60
 70
     1
102
RTVSPropertyOp61
 70
     1
102
RTVSPropertyOp62
 70
     1
  0
XRECORD
  5
9962B
102
{ACAD_REACTORS
330
9962A
102
}
330
9962A
100
AcDbXrecord
280
     1
102
RTVSPost2010Prop28
280
     0
102
RTVSPost2010PropOp28
 70
     1
102
RTVSPost2010Prop29
280
     1
102
RTVSPost2010PropOp29
 70
     1
102
RTVSPost2010Prop30
280
     1
102
RTVSPost2010PropOp30
 70
     1
102
RTVSPost2010Prop31
280
     0
102
RTVSPost2010PropOp31
 70
     1
102
RTVSPost2010Prop32
280
     0
102
RTVSPost2010PropOp32
 70
     1
102
RTVSPost2010Prop33
280
     0
102
RTVSPost2010PropOp33
 70
     1
102
RTVSPost2010Prop34
280
     0
102
RTVSPost2010PropOp34
 70
     1
102
RTVSPost2010Prop35
280
     0
102
RTVSPost2010PropOp35
 70
     1
102
RTVSPost2010Prop36
280
     0
102
RTVSPost2010PropOp36
 70
     1
102
RTVSPost2010Prop37
 90
       50
102
RTVSPost2010PropOp37
 70
     1
102
RTVSPost2010Prop38
140
0.0
102
RTVSPost2010PropOp38
 70
     1
102
RTVSPost2010Prop39
140
1.0
102
RTVSPost2010PropOp39
 70
     1
102
RTVSPost2010Prop40
 90
        0
102
RTVSPost2010PropOp40
 70
     1
102
RTVSPost2010Prop41ColorIndex
 90
       18
102
RTVSPost2010Prop41ColorRGB
 90
        0
102
RTVSPost2010PropOp41
 70
     1
102
RTVSPost2010Prop42
 90
       50
102
RTVSPost2010PropOp42
 70
     1
102
RTVSPost2010Prop43
 90
        3
102
RTVSPost2010PropOp43
 70
     1
102
RTVSPost2010Prop44ColorIndex
 90
        5
102
RTVSPost2010Prop44ColorRGB
 90
      255
102
RTVSPost2010PropOp44
 70
     1
102
RTVSPost2010Prop45
280
     0
102
RTVSPost2010PropOp45
 70
     1
102
RTVSPost2010Prop46
 90
       50
102
RTVSPost2010PropOp46
 70
     1
102
RTVSPost2010Prop47
 90
       50
102
RTVSPost2010PropOp47
 70
     1
102
RTVSPost2010Prop48
 90
       50
102
RTVSPost2010PropOp48
 70
     1
102
RTVSPost2010Prop49
280
     0
102
RTVSPost2010PropOp49
 70
     1
102
RTVSPost2010Prop50
 90
       50
102
RTVSPost2010PropOp50
 70
     1
102
RTVSPost2010Prop51ColorIndex
 90
      256
102
RTVSPost2010Prop51ColorRGB
 90
-16777216
102
RTVSPost2010PropOp51
 70
     0
102
RTVSPost2010Prop52
140
1.0
102
RTVSPost2010PropOp52
 70
     0
102
RTVSPost2010Prop53
 90
        2
102
RTVSPost2010PropOp53
 70
     1
102
RTVSPost2010Prop54
  1
strokes_ogs.tif
102
RTVSPost2010PropOp54
 70
     1
102
RTVSPost2010Prop55
280
     0
102
RTVSPost2010PropOp55
 70
     1
102
RTVSPost2010Prop56
140
1.0
102
RTVSPost2010PropOp56
 70
     1
102
RTVSPost2010Prop57
140
1.0
102
RTVSPost2010PropOp57
 70
     1
102
RTVSPropertyOp0
 70
     1
102
RTVSPropertyOp1
 70
     1
102
RTVSPropertyOp2
 70
     1
102
RTVSPropertyOp3
 70
     1
102
RTVSPropertyOp4
 70
     1
102
RTVSPropertyOp5
 70
     1
102
RTVSPropertyOp6
 70
     1
102
RTVSPropertyOp7
 70
     1
102
RTVSPropertyOp8
 70
     1
102
RTVSPropertyOp9
 70
     1
102
RTVSPropertyOp10
 70
     1
102
RTVSPropertyOp11
 70
     1
102
RTVSPropertyOp12
 70
     1
102
RTVSPropertyOp13
 70
     1
102
RTVSPropertyOp14
 70
     1
102
RTVSPropertyOp15
 70
     1
102
RTVSPropertyOp16
 70
     1
102
RTVSPropertyOp17
 70
     1
102
RTVSPropertyOp18
 70
     1
102
RTVSPropertyOp19
 70
     1
102
RTVSPropertyOp20
 70
     1
102
RTVSPropertyOp21
 70
     1
102
RTVSPropertyOp22
 70
     1
102
RTVSPropertyOp23
 70
     1
102
RTVSPropertyOp24
 70
     1
102
RTVSPropertyOp25
 70
     1
102
RTVSPropertyOp26
 70
     1
102
RTVSPropertyOp27
 70
     1
102
RTVSPropertyOp28
 70
     1
102
RTVSPropertyOp29
 70
     1
102
RTVSPropertyOp30
 70
     1
102
RTVSPropertyOp31
 70
     1
102
RTVSPropertyOp32
 70
     1
102
RTVSPropertyOp33
 70
     1
102
RTVSPropertyOp34
 70
     1
102
RTVSPropertyOp35
 70
     1
102
RTVSPropertyOp36
 70
     1
102
RTVSPropertyOp37
 70
     1
102
RTVSPropertyOp38
 70
     1
102
RTVSPropertyOp39
 70
     1
102
RTVSPropertyOp40
 70
     1
102
RTVSPropertyOp41
 70
     1
102
RTVSPropertyOp42
 70
     1
102
RTVSPropertyOp43
 70
     1
102
RTVSPropertyOp44
 70
     1
102
RTVSPropertyOp45
 70
     1
102
RTVSPropertyOp46
 70
     1
102
RTVSPropertyOp47
 70
     1
102
RTVSPropertyOp48
 70
     1
102
RTVSPropertyOp49
 70
     1
102
RTVSPropertyOp50
 70
     1
102
RTVSPropertyOp51
 70
     0
102
RTVSPropertyOp52
 70
     0
102
RTVSPropertyOp53
 70
     1
102
RTVSPropertyOp54
 70
     1
102
RTVSPropertyOp55
 70
     1
102
RTVSPropertyOp56
 70
     1
102
RTVSPropertyOp57
 70
     1
102
RTVSPropertyOp58
 70
     1
102
RTVSPropertyOp59
 70
     1
102
RTVSPropertyOp60
 70
     1
102
RTVSPropertyOp61
 70
     1
102
RTVSPropertyOp62
 70
     1
  0
XRECORD
  5
9962D
102
{ACAD_REACTORS
330
9962C
102
}
330
9962C
100
AcDbXrecord
280
     1
102
RTVSPost2010Prop28
280
     0
102
RTVSPost2010PropOp28
 70
     1
102
RTVSPost2010Prop29
280
     1
102
RTVSPost2010PropOp29
 70
     1
102
RTVSPost2010Prop30
280
     1
102
RTVSPost2010PropOp30
 70
     1
102
RTVSPost2010Prop31
280
     0
102
RTVSPost2010PropOp31
 70
     1
102
RTVSPost2010Prop32
280
     0
102
RTVSPost2010PropOp32
 70
     1
102
RTVSPost2010Prop33
280
     0
102
RTVSPost2010PropOp33
 70
     1
102
RTVSPost2010Prop34
280
     0
102
RTVSPost2010PropOp34
 70
     1
102
RTVSPost2010Prop35
280
     0
102
RTVSPost2010PropOp35
 70
     1
102
RTVSPost2010Prop36
280
     0
102
RTVSPost2010PropOp36
 70
     1
102
RTVSPost2010Prop37
 90
       50
102
RTVSPost2010PropOp37
 70
     1
102
RTVSPost2010Prop38
140
0.0
102
RTVSPost2010PropOp38
 70
     1
102
RTVSPost2010Prop39
140
1.0
102
RTVSPost2010PropOp39
 70
     1
102
RTVSPost2010Prop40
 90
        0
102
RTVSPost2010PropOp40
 70
     1
102
RTVSPost2010Prop41ColorIndex
 90
       18
102
RTVSPost2010Prop41ColorRGB
 90
        0
102
RTVSPost2010PropOp41
 70
     1
102
RTVSPost2010Prop42
 90
       50
102
RTVSPost2010PropOp42
 70
     1
102
RTVSPost2010Prop43
 90
        3
102
RTVSPost2010PropOp43
 70
     1
102
RTVSPost2010Prop44ColorIndex
 90
        5
102
RTVSPost2010Prop44ColorRGB
 90
      255
102
RTVSPost2010PropOp44
 70
     1
102
RTVSPost2010Prop45
280
     0
102
RTVSPost2010PropOp45
 70
     1
102
RTVSPost2010Prop46
 90
       50
102
RTVSPost2010PropOp46
 70
     1
102
RTVSPost2010Prop47
 90
       50
102
RTVSPost2010PropOp47
 70
     1
102
RTVSPost2010Prop48
 90
       50
102
RTVSPost2010PropOp48
 70
     1
102
RTVSPost2010Prop49
280
     0
102
RTVSPost2010PropOp49
 70
     1
102
RTVSPost2010Prop50
 90
       50
102
RTVSPost2010PropOp50
 70
     1
102
RTVSPost2010Prop51ColorIndex
 90
      256
102
RTVSPost2010Prop51ColorRGB
 90
-16777216
102
RTVSPost2010PropOp51
 70
     0
102
RTVSPost2010Prop52
140
1.0
102
RTVSPost2010PropOp52
 70
     0
102
RTVSPost2010Prop53
 90
        2
102
RTVSPost2010PropOp53
 70
     1
102
RTVSPost2010Prop54
  1
strokes_ogs.tif
102
RTVSPost2010PropOp54
 70
     1
102
RTVSPost2010Prop55
280
     0
102
RTVSPost2010PropOp55
 70
     1
102
RTVSPost2010Prop56
140
1.0
102
RTVSPost2010PropOp56
 70
     1
102
RTVSPost2010Prop57
140
1.0
102
RTVSPost2010PropOp57
 70
     1
102
RTVSPropertyOp0
 70
     1
102
RTVSPropertyOp1
 70
     1
102
RTVSPropertyOp2
 70
     1
102
RTVSPropertyOp3
 70
     1
102
RTVSPropertyOp4
 70
     1
102
RTVSPropertyOp5
 70
     1
102
RTVSPropertyOp6
 70
     1
102
RTVSPropertyOp7
 70
     1
102
RTVSPropertyOp8
 70
     1
102
RTVSPropertyOp9
 70
     1
102
RTVSPropertyOp10
 70
     1
102
RTVSPropertyOp11
 70
     1
102
RTVSPropertyOp12
 70
     1
102
RTVSPropertyOp13
 70
     1
102
RTVSPropertyOp14
 70
     1
102
RTVSPropertyOp15
 70
     1
102
RTVSPropertyOp16
 70
     1
102
RTVSPropertyOp17
 70
     1
102
RTVSPropertyOp18
 70
     1
102
RTVSPropertyOp19
 70
     1
102
RTVSPropertyOp20
 70
     1
102
RTVSPropertyOp21
 70
     1
102
RTVSPropertyOp22
 70
     1
102
RTVSPropertyOp23
 70
     1
102
RTVSPropertyOp24
 70
     1
102
RTVSPropertyOp25
 70
     1
102
RTVSPropertyOp26
 70
     1
102
RTVSPropertyOp27
 70
     1
102
RTVSPropertyOp28
 70
     1
102
RTVSPropertyOp29
 70
     1
102
RTVSPropertyOp30
 70
     1
102
RTVSPropertyOp31
 70
     1
102
RTVSPropertyOp32
 70
     1
102
RTVSPropertyOp33
 70
     1
102
RTVSPropertyOp34
 70
     1
102
RTVSPropertyOp35
 70
     1
102
RTVSPropertyOp36
 70
     1
102
RTVSPropertyOp37
 70
     1
102
RTVSPropertyOp38
 70
     1
102
RTVSPropertyOp39
 70
     1
102
RTVSPropertyOp40
 70
     1
102
RTVSPropertyOp41
 70
     1
102
RTVSPropertyOp42
 70
     1
102
RTVSPropertyOp43
 70
     1
102
RTVSPropertyOp44
 70
     1
102
RTVSPropertyOp45
 70
     1
102
RTVSPropertyOp46
 70
     1
102
RTVSPropertyOp47
 70
     1
102
RTVSPropertyOp48
 70
     1
102
RTVSPropertyOp49
 70
     1
102
RTVSPropertyOp50
 70
     1
102
RTVSPropertyOp51
 70
     0
102
RTVSPropertyOp52
 70
     0
102
RTVSPropertyOp53
 70
     1
102
RTVSPropertyOp54
 70
     1
102
RTVSPropertyOp55
 70
     1
102
RTVSPropertyOp56
 70
     1
102
RTVSPropertyOp57
 70
     1
102
RTVSPropertyOp58
 70
     1
102
RTVSPropertyOp59
 70
     1
102
RTVSPropertyOp60
 70
     1
102
RTVSPropertyOp61
 70
     1
102
RTVSPropertyOp62
 70
     1
  0
XRECORD
  5
9962F
102
{ACAD_REACTORS
330
9962E
102
}
330
9962E
100
AcDbXrecord
280
     1
102
RTVSPost2010Prop28
280
     0
102
RTVSPost2010PropOp28
 70
     1
102
RTVSPost2010Prop29
280
     1
102
RTVSPost2010PropOp29
 70
     1
102
RTVSPost2010Prop30
280
     1
102
RTVSPost2010PropOp30
 70
     1
102
RTVSPost2010Prop31
280
     0
102
RTVSPost2010PropOp31
 70
     1
102
RTVSPost2010Prop32
280
     0
102
RTVSPost2010PropOp32
 70
     1
102
RTVSPost2010Prop33
280
     0
102
RTVSPost2010PropOp33
 70
     1
102
RTVSPost2010Prop34
280
     0
102
RTVSPost2010PropOp34
 70
     1
102
RTVSPost2010Prop35
280
     0
102
RTVSPost2010PropOp35
 70
     1
102
RTVSPost2010Prop36
280
     0
102
RTVSPost2010PropOp36
 70
     1
102
RTVSPost2010Prop37
 90
       50
102
RTVSPost2010PropOp37
 70
     1
102
RTVSPost2010Prop38
140
0.0
102
RTVSPost2010PropOp38
 70
     1
102
RTVSPost2010Prop39
140
1.0
102
RTVSPost2010PropOp39
 70
     1
102
RTVSPost2010Prop40
 90
        0
102
RTVSPost2010PropOp40
 70
     1
102
RTVSPost2010Prop41ColorIndex
 90
       18
102
RTVSPost2010Prop41ColorRGB
 90
        0
102
RTVSPost2010PropOp41
 70
     1
102
RTVSPost2010Prop42
 90
       50
102
RTVSPost2010PropOp42
 70
     1
102
RTVSPost2010Prop43
 90
        3
102
RTVSPost2010PropOp43
 70
     1
102
RTVSPost2010Prop44ColorIndex
 90
        5
102
RTVSPost2010Prop44ColorRGB
 90
      255
102
RTVSPost2010PropOp44
 70
     1
102
RTVSPost2010Prop45
280
     0
102
RTVSPost2010PropOp45
 70
     1
102
RTVSPost2010Prop46
 90
       50
102
RTVSPost2010PropOp46
 70
     1
102
RTVSPost2010Prop47
 90
       50
102
RTVSPost2010PropOp47
 70
     1
102
RTVSPost2010Prop48
 90
       50
102
RTVSPost2010PropOp48
 70
     1
102
RTVSPost2010Prop49
280
     0
102
RTVSPost2010PropOp49
 70
     1
102
RTVSPost2010Prop50
 90
       50
102
RTVSPost2010PropOp50
 70
     1
102
RTVSPost2010Prop51ColorIndex
 90
      256
102
RTVSPost2010Prop51ColorRGB
 90
-16777216
102
RTVSPost2010PropOp51
 70
     0
102
RTVSPost2010Prop52
140
1.0
102
RTVSPost2010PropOp52
 70
     0
102
RTVSPost2010Prop53
 90
        2
102
RTVSPost2010PropOp53
 70
     1
102
RTVSPost2010Prop54
  1
strokes_ogs.tif
102
RTVSPost2010PropOp54
 70
     1
102
RTVSPost2010Prop55
280
     0
102
RTVSPost2010PropOp55
 70
     1
102
RTVSPost2010Prop56
140
1.0
102
RTVSPost2010PropOp56
 70
     1
102
RTVSPost2010Prop57
140
1.0
102
RTVSPost2010PropOp57
 70
     1
102
RTVSPropertyOp0
 70
     1
102
RTVSPropertyOp1
 70
     1
102
RTVSPropertyOp2
 70
     1
102
RTVSPropertyOp3
 70
     1
102
RTVSPropertyOp4
 70
     1
102
RTVSPropertyOp5
 70
     1
102
RTVSPropertyOp6
 70
     1
102
RTVSPropertyOp7
 70
     1
102
RTVSPropertyOp8
 70
     1
102
RTVSPropertyOp9
 70
     1
102
RTVSPropertyOp10
 70
     1
102
RTVSPropertyOp11
 70
     1
102
RTVSPropertyOp12
 70
     1
102
RTVSPropertyOp13
 70
     1
102
RTVSPropertyOp14
 70
     1
102
RTVSPropertyOp15
 70
     1
102
RTVSPropertyOp16
 70
     1
102
RTVSPropertyOp17
 70
     1
102
RTVSPropertyOp18
 70
     1
102
RTVSPropertyOp19
 70
     1
102
RTVSPropertyOp20
 70
     1
102
RTVSPropertyOp21
 70
     1
102
RTVSPropertyOp22
 70
     1
102
RTVSPropertyOp23
 70
     1
102
RTVSPropertyOp24
 70
     1
102
RTVSPropertyOp25
 70
     1
102
RTVSPropertyOp26
 70
     1
102
RTVSPropertyOp27
 70
     1
102
RTVSPropertyOp28
 70
     1
102
RTVSPropertyOp29
 70
     1
102
RTVSPropertyOp30
 70
     1
102
RTVSPropertyOp31
 70
     1
102
RTVSPropertyOp32
 70
     1
102
RTVSPropertyOp33
 70
     1
102
RTVSPropertyOp34
 70
     1
102
RTVSPropertyOp35
 70
     1
102
RTVSPropertyOp36
 70
     1
102
RTVSPropertyOp37
 70
     1
102
RTVSPropertyOp38
 70
     1
102
RTVSPropertyOp39
 70
     1
102
RTVSPropertyOp40
 70
     1
102
RTVSPropertyOp41
 70
     1
102
RTVSPropertyOp42
 70
     1
102
RTVSPropertyOp43
 70
     1
102
RTVSPropertyOp44
 70
     1
102
RTVSPropertyOp45
 70
     1
102
RTVSPropertyOp46
 70
     1
102
RTVSPropertyOp47
 70
     1
102
RTVSPropertyOp48
 70
     1
102
RTVSPropertyOp49
 70
     1
102
RTVSPropertyOp50
 70
     1
102
RTVSPropertyOp51
 70
     0
102
RTVSPropertyOp52
 70
     0
102
RTVSPropertyOp53
 70
     1
102
RTVSPropertyOp54
 70
     1
102
RTVSPropertyOp55
 70
     1
102
RTVSPropertyOp56
 70
     1
102
RTVSPropertyOp57
 70
     1
102
RTVSPropertyOp58
 70
     1
102
RTVSPropertyOp59
 70
     1
102
RTVSPropertyOp60
 70
     1
102
RTVSPropertyOp61
 70
     1
102
RTVSPropertyOp62
 70
     1
  0
XRECORD
  5
99631
102
{ACAD_REACTORS
330
99630
102
}
330
99630
100
AcDbXrecord
280
     1
102
RTVSPost2010Prop28
280
     0
102
RTVSPost2010PropOp28
 70
     1
102
RTVSPost2010Prop29
280
     1
102
RTVSPost2010PropOp29
 70
     1
102
RTVSPost2010Prop30
280
     1
102
RTVSPost2010PropOp30
 70
     1
102
RTVSPost2010Prop31
280
     0
102
RTVSPost2010PropOp31
 70
     1
102
RTVSPost2010Prop32
280
     0
102
RTVSPost2010PropOp32
 70
     1
102
RTVSPost2010Prop33
280
     0
102
RTVSPost2010PropOp33
 70
     1
102
RTVSPost2010Prop34
280
     0
102
RTVSPost2010PropOp34
 70
     1
102
RTVSPost2010Prop35
280
     0
102
RTVSPost2010PropOp35
 70
     1
102
RTVSPost2010Prop36
280
     0
102
RTVSPost2010PropOp36
 70
     1
102
RTVSPost2010Prop37
 90
       50
102
RTVSPost2010PropOp37
 70
     1
102
RTVSPost2010Prop38
140
0.0
102
RTVSPost2010PropOp38
 70
     1
102
RTVSPost2010Prop39
140
1.0
102
RTVSPost2010PropOp39
 70
     1
102
RTVSPost2010Prop40
 90
        0
102
RTVSPost2010PropOp40
 70
     1
102
RTVSPost2010Prop41ColorIndex
 90
       18
102
RTVSPost2010Prop41ColorRGB
 90
        0
102
RTVSPost2010PropOp41
 70
     1
102
RTVSPost2010Prop42
 90
       50
102
RTVSPost2010PropOp42
 70
     1
102
RTVSPost2010Prop43
 90
        3
102
RTVSPost2010PropOp43
 70
     1
102
RTVSPost2010Prop44ColorIndex
 90
        5
102
RTVSPost2010Prop44ColorRGB
 90
      255
102
RTVSPost2010PropOp44
 70
     1
102
RTVSPost2010Prop45
280
     0
102
RTVSPost2010PropOp45
 70
     1
102
RTVSPost2010Prop46
 90
       50
102
RTVSPost2010PropOp46
 70
     1
102
RTVSPost2010Prop47
 90
       50
102
RTVSPost2010PropOp47
 70
     1
102
RTVSPost2010Prop48
 90
       50
102
RTVSPost2010PropOp48
 70
     1
102
RTVSPost2010Prop49
280
     0
102
RTVSPost2010PropOp49
 70
     1
102
RTVSPost2010Prop50
 90
       50
102
RTVSPost2010PropOp50
 70
     1
102
RTVSPost2010Prop51ColorIndex
 90
      256
102
RTVSPost2010Prop51ColorRGB
 90
-16777216
102
RTVSPost2010PropOp51
 70
     0
102
RTVSPost2010Prop52
140
1.0
102
RTVSPost2010PropOp52
 70
     0
102
RTVSPost2010Prop53
 90
        2
102
RTVSPost2010PropOp53
 70
     1
102
RTVSPost2010Prop54
  1
strokes_ogs.tif
102
RTVSPost2010PropOp54
 70
     1
102
RTVSPost2010Prop55
280
     0
102
RTVSPost2010PropOp55
 70
     1
102
RTVSPost2010Prop56
140
1.0
102
RTVSPost2010PropOp56
 70
     1
102
RTVSPost2010Prop57
140
1.0
102
RTVSPost2010PropOp57
 70
     1
102
RTVSPropertyOp0
 70
     1
102
RTVSPropertyOp1
 70
     1
102
RTVSPropertyOp2
 70
     1
102
RTVSPropertyOp3
 70
     1
102
RTVSPropertyOp4
 70
     1
102
RTVSPropertyOp5
 70
     1
102
RTVSPropertyOp6
 70
     1
102
RTVSPropertyOp7
 70
     1
102
RTVSPropertyOp8
 70
     1
102
RTVSPropertyOp9
 70
     1
102
RTVSPropertyOp10
 70
     1
102
RTVSPropertyOp11
 70
     1
102
RTVSPropertyOp12
 70
     1
102
RTVSPropertyOp13
 70
     1
102
RTVSPropertyOp14
 70
     1
102
RTVSPropertyOp15
 70
     1
102
RTVSPropertyOp16
 70
     1
102
RTVSPropertyOp17
 70
     1
102
RTVSPropertyOp18
 70
     1
102
RTVSPropertyOp19
 70
     1
102
RTVSPropertyOp20
 70
     1
102
RTVSPropertyOp21
 70
     1
102
RTVSPropertyOp22
 70
     1
102
RTVSPropertyOp23
 70
     1
102
RTVSPropertyOp24
 70
     1
102
RTVSPropertyOp25
 70
     1
102
RTVSPropertyOp26
 70
     1
102
RTVSPropertyOp27
 70
     1
102
RTVSPropertyOp28
 70
     1
102
RTVSPropertyOp29
 70
     1
102
RTVSPropertyOp30
 70
     1
102
RTVSPropertyOp31
 70
     1
102
RTVSPropertyOp32
 70
     1
102
RTVSPropertyOp33
 70
     1
102
RTVSPropertyOp34
 70
     1
102
RTVSPropertyOp35
 70
     1
102
RTVSPropertyOp36
 70
     1
102
RTVSPropertyOp37
 70
     1
102
RTVSPropertyOp38
 70
     1
102
RTVSPropertyOp39
 70
     1
102
RTVSPropertyOp40
 70
     1
102
RTVSPropertyOp41
 70
     1
102
RTVSPropertyOp42
 70
     1
102
RTVSPropertyOp43
 70
     1
102
RTVSPropertyOp44
 70
     1
102
RTVSPropertyOp45
 70
     1
102
RTVSPropertyOp46
 70
     1
102
RTVSPropertyOp47
 70
     1
102
RTVSPropertyOp48
 70
     1
102
RTVSPropertyOp49
 70
     1
102
RTVSPropertyOp50
 70
     1
102
RTVSPropertyOp51
 70
     0
102
RTVSPropertyOp52
 70
     0
102
RTVSPropertyOp53
 70
     1
102
RTVSPropertyOp54
 70
     1
102
RTVSPropertyOp55
 70
     1
102
RTVSPropertyOp56
 70
     1
102
RTVSPropertyOp57
 70
     1
102
RTVSPropertyOp58
 70
     1
102
RTVSPropertyOp59
 70
     1
102
RTVSPropertyOp60
 70
     1
102
RTVSPropertyOp61
 70
     1
102
RTVSPropertyOp62
 70
     1
  0
XRECORD
  5
9964E
102
{ACAD_REACTORS
330
9964D
102
}
330
9964D
100
AcDbXrecord
280
     1
102
RTVSPost2010Prop28
280
     0
102
RTVSPost2010PropOp28
 70
     1
102
RTVSPost2010Prop29
280
     1
102
RTVSPost2010PropOp29
 70
     1
102
RTVSPost2010Prop30
280
     1
102
RTVSPost2010PropOp30
 70
     1
102
RTVSPost2010Prop31
280
     0
102
RTVSPost2010PropOp31
 70
     1
102
RTVSPost2010Prop32
280
     0
102
RTVSPost2010PropOp32
 70
     1
102
RTVSPost2010Prop33
280
     0
102
RTVSPost2010PropOp33
 70
     1
102
RTVSPost2010Prop34
280
     0
102
RTVSPost2010PropOp34
 70
     1
102
RTVSPost2010Prop35
280
     0
102
RTVSPost2010PropOp35
 70
     1
102
RTVSPost2010Prop36
280
     0
102
RTVSPost2010PropOp36
 70
     1
102
RTVSPost2010Prop37
 90
       50
102
RTVSPost2010PropOp37
 70
     1
102
RTVSPost2010Prop38
140
0.0
102
RTVSPost2010PropOp38
 70
     1
102
RTVSPost2010Prop39
140
1.0
102
RTVSPost2010PropOp39
 70
     1
102
RTVSPost2010Prop40
 90
        0
102
RTVSPost2010PropOp40
 70
     1
102
RTVSPost2010Prop41ColorIndex
 90
       18
102
RTVSPost2010Prop41ColorRGB
 90
        0
102
RTVSPost2010PropOp41
 70
     1
102
RTVSPost2010Prop42
 90
       50
102
RTVSPost2010PropOp42
 70
     1
102
RTVSPost2010Prop43
 90
        3
102
RTVSPost2010PropOp43
 70
     1
102
RTVSPost2010Prop44ColorIndex
 90
        5
102
RTVSPost2010Prop44ColorRGB
 90
      255
102
RTVSPost2010PropOp44
 70
     1
102
RTVSPost2010Prop45
280
     0
102
RTVSPost2010PropOp45
 70
     1
102
RTVSPost2010Prop46
 90
       50
102
RTVSPost2010PropOp46
 70
     1
102
RTVSPost2010Prop47
 90
       50
102
RTVSPost2010PropOp47
 70
     1
102
RTVSPost2010Prop48
 90
       50
102
RTVSPost2010PropOp48
 70
     1
102
RTVSPost2010Prop49
280
     0
102
RTVSPost2010PropOp49
 70
     1
102
RTVSPost2010Prop50
 90
       50
102
RTVSPost2010PropOp50
 70
     1
102
RTVSPost2010Prop51ColorIndex
 90
      256
102
RTVSPost2010Prop51ColorRGB
 90
-16777216
102
RTVSPost2010PropOp51
 70
     0
102
RTVSPost2010Prop52
140
1.0
102
RTVSPost2010PropOp52
 70
     0
102
RTVSPost2010Prop53
 90
        2
102
RTVSPost2010PropOp53
 70
     1
102
RTVSPost2010Prop54
  1
strokes_ogs.tif
102
RTVSPost2010PropOp54
 70
     1
102
RTVSPost2010Prop55
280
     0
102
RTVSPost2010PropOp55
 70
     1
102
RTVSPost2010Prop56
140
1.0
102
RTVSPost2010PropOp56
 70
     1
102
RTVSPost2010Prop57
140
1.0
102
RTVSPost2010PropOp57
 70
     1
102
RTVSPropertyOp0
 70
     1
102
RTVSPropertyOp1
 70
     1
102
RTVSPropertyOp2
 70
     1
102
RTVSPropertyOp3
 70
     1
102
RTVSPropertyOp4
 70
     1
102
RTVSPropertyOp5
 70
     1
102
RTVSPropertyOp6
 70
     1
102
RTVSPropertyOp7
 70
     1
102
RTVSPropertyOp8
 70
     1
102
RTVSPropertyOp9
 70
     1
102
RTVSPropertyOp10
 70
     1
102
RTVSPropertyOp11
 70
     1
102
RTVSPropertyOp12
 70
     1
102
RTVSPropertyOp13
 70
     1
102
RTVSPropertyOp14
 70
     1
102
RTVSPropertyOp15
 70
     1
102
RTVSPropertyOp16
 70
     1
102
RTVSPropertyOp17
 70
     1
102
RTVSPropertyOp18
 70
     1
102
RTVSPropertyOp19
 70
     1
102
RTVSPropertyOp20
 70
     1
102
RTVSPropertyOp21
 70
     1
102
RTVSPropertyOp22
 70
     1
102
RTVSPropertyOp23
 70
     1
102
RTVSPropertyOp24
 70
     1
102
RTVSPropertyOp25
 70
     1
102
RTVSPropertyOp26
 70
     1
102
RTVSPropertyOp27
 70
     1
102
RTVSPropertyOp28
 70
     1
102
RTVSPropertyOp29
 70
     1
102
RTVSPropertyOp30
 70
     1
102
RTVSPropertyOp31
 70
     1
102
RTVSPropertyOp32
 70
     1
102
RTVSPropertyOp33
 70
     1
102
RTVSPropertyOp34
 70
     1
102
RTVSPropertyOp35
 70
     1
102
RTVSPropertyOp36
 70
     1
102
RTVSPropertyOp37
 70
     1
102
RTVSPropertyOp38
 70
     1
102
RTVSPropertyOp39
 70
     1
102
RTVSPropertyOp40
 70
     1
102
RTVSPropertyOp41
 70
     1
102
RTVSPropertyOp42
 70
     1
102
RTVSPropertyOp43
 70
     1
102
RTVSPropertyOp44
 70
     1
102
RTVSPropertyOp45
 70
     1
102
RTVSPropertyOp46
 70
     1
102
RTVSPropertyOp47
 70
     1
102
RTVSPropertyOp48
 70
     1
102
RTVSPropertyOp49
 70
     1
102
RTVSPropertyOp50
 70
     1
102
RTVSPropertyOp51
 70
     0
102
RTVSPropertyOp52
 70
     0
102
RTVSPropertyOp53
 70
     1
102
RTVSPropertyOp54
 70
     1
102
RTVSPropertyOp55
 70
     1
102
RTVSPropertyOp56
 70
     1
102
RTVSPropertyOp57
 70
     1
102
RTVSPropertyOp58
 70
     1
102
RTVSPropertyOp59
 70
     1
102
RTVSPropertyOp60
 70
     1
102
RTVSPropertyOp61
 70
     1
102
RTVSPropertyOp62
 70
     1
  0
XRECORD
  5
9965A
102
{ACAD_REACTORS
330
99659
102
}
330
99659
100
AcDbXrecord
280
     1
102
RTVSPost2010Prop28
280
     0
102
RTVSPost2010PropOp28
 70
     0
102
RTVSPost2010Prop29
280
     1
102
RTVSPost2010PropOp29
 70
     0
102
RTVSPost2010Prop30
280
     1
102
RTVSPost2010PropOp30
 70
     0
102
RTVSPost2010Prop31
280
     0
102
RTVSPost2010PropOp31
 70
     0
102
RTVSPost2010Prop32
280
     0
102
RTVSPost2010PropOp32
 70
     0
102
RTVSPost2010Prop33
280
     0
102
RTVSPost2010PropOp33
 70
     1
102
RTVSPost2010Prop34
280
     0
102
RTVSPost2010PropOp34
 70
     1
102
RTVSPost2010Prop35
280
     0
102
RTVSPost2010PropOp35
 70
     1
102
RTVSPost2010Prop36
280
     0
102
RTVSPost2010PropOp36
 70
     1
102
RTVSPost2010Prop37
 90
       50
102
RTVSPost2010PropOp37
 70
     1
102
RTVSPost2010Prop38
140
0.0
102
RTVSPost2010PropOp38
 70
     1
102
RTVSPost2010Prop39
140
1.0
102
RTVSPost2010PropOp39
 70
     1
102
RTVSPost2010Prop40
 90
        0
102
RTVSPost2010PropOp40
 70
     1
102
RTVSPost2010Prop41ColorIndex
 90
       18
102
RTVSPost2010Prop41ColorRGB
 90
        0
102
RTVSPost2010PropOp41
 70
     1
102
RTVSPost2010Prop42
 90
       50
102
RTVSPost2010PropOp42
 70
     1
102
RTVSPost2010Prop43
 90
        3
102
RTVSPost2010PropOp43
 70
     1
102
RTVSPost2010Prop44ColorIndex
 90
        5
102
RTVSPost2010Prop44ColorRGB
 90
      255
102
RTVSPost2010PropOp44
 70
     1
102
RTVSPost2010Prop45
280
     0
102
RTVSPost2010PropOp45
 70
     1
102
RTVSPost2010Prop46
 90
       50
102
RTVSPost2010PropOp46
 70
     1
102
RTVSPost2010Prop47
 90
       50
102
RTVSPost2010PropOp47
 70
     1
102
RTVSPost2010Prop48
 90
       50
102
RTVSPost2010PropOp48
 70
     1
102
RTVSPost2010Prop49
280
     0
102
RTVSPost2010PropOp49
 70
     1
102
RTVSPost2010Prop50
 90
       50
102
RTVSPost2010PropOp50
 70
     1
102
RTVSPost2010Prop51ColorIndex
 90
      256
102
RTVSPost2010Prop51ColorRGB
 90
-16777216
102
RTVSPost2010PropOp51
 70
     0
102
RTVSPost2010Prop52
140
1.0
102
RTVSPost2010PropOp52
 70
     0
102
RTVSPost2010Prop53
 90
        2
102
RTVSPost2010PropOp53
 70
     1
102
RTVSPost2010Prop54
  1
strokes_ogs.tif
102
RTVSPost2010PropOp54
 70
     1
102
RTVSPost2010Prop55
280
     0
102
RTVSPost2010PropOp55
 70
     1
102
RTVSPost2010Prop56
140
1.0
102
RTVSPost2010PropOp56
 70
     1
102
RTVSPost2010Prop57
140
1.0
102
RTVSPost2010PropOp57
 70
     1
102
RTVSPropertyOp0
 70
     0
102
RTVSPropertyOp1
 70
     0
102
RTVSPropertyOp2
 70
     0
102
RTVSPropertyOp3
 70
     0
102
RTVSPropertyOp4
 70
     0
102
RTVSPropertyOp5
 70
     0
102
RTVSPropertyOp6
 70
     0
102
RTVSPropertyOp7
 70
     0
102
RTVSPropertyOp8
 70
     0
102
RTVSPropertyOp9
 70
     0
102
RTVSPropertyOp10
 70
     0
102
RTVSPropertyOp11
 70
     0
102
RTVSPropertyOp12
 70
     0
102
RTVSPropertyOp13
 70
     0
102
RTVSPropertyOp14
 70
     2
102
RTVSPropertyOp15
 70
     0
102
RTVSPropertyOp16
 70
     0
102
RTVSPropertyOp17
 70
     0
102
RTVSPropertyOp18
 70
     0
102
RTVSPropertyOp19
 70
     0
102
RTVSPropertyOp20
 70
     0
102
RTVSPropertyOp21
 70
     0
102
RTVSPropertyOp22
 70
     0
102
RTVSPropertyOp23
 70
     0
102
RTVSPropertyOp24
 70
     0
102
RTVSPropertyOp25
 70
     0
102
RTVSPropertyOp26
 70
     0
102
RTVSPropertyOp27
 70
     0
102
RTVSPropertyOp28
 70
     0
102
RTVSPropertyOp29
 70
     0
102
RTVSPropertyOp30
 70
     0
102
RTVSPropertyOp31
 70
     0
102
RTVSPropertyOp32
 70
     0
102
RTVSPropertyOp33
 70
     1
102
RTVSPropertyOp34
 70
     1
102
RTVSPropertyOp35
 70
     1
102
RTVSPropertyOp36
 70
     1
102
RTVSPropertyOp37
 70
     1
102
RTVSPropertyOp38
 70
     1
102
RTVSPropertyOp39
 70
     1
102
RTVSPropertyOp40
 70
     1
102
RTVSPropertyOp41
 70
     1
102
RTVSPropertyOp42
 70
     1
102
RTVSPropertyOp43
 70
     1
102
RTVSPropertyOp44
 70
     1
102
RTVSPropertyOp45
 70
     1
102
RTVSPropertyOp46
 70
     1
102
RTVSPropertyOp47
 70
     1
102
RTVSPropertyOp48
 70
     1
102
RTVSPropertyOp49
 70
     1
102
RTVSPropertyOp50
 70
     1
102
RTVSPropertyOp51
 70
     0
102
RTVSPropertyOp52
 70
     0
102
RTVSPropertyOp53
 70
     1
102
RTVSPropertyOp54
 70
     1
102
RTVSPropertyOp55
 70
     1
102
RTVSPropertyOp56
 70
     1
102
RTVSPropertyOp57
 70
     1
102
RTVSPropertyOp58
 70
     1
102
RTVSPropertyOp59
 70
     1
102
RTVSPropertyOp60
 70
     1
102
RTVSPropertyOp61
 70
     1
102
RTVSPropertyOp62
 70
     1
  0
XRECORD
  5
99645
102
{ACAD_REACTORS
330
99644
102
}
330
99644
100
AcDbXrecord
280
     1
102
RTVSPost2010Prop28
280
     0
102
RTVSPost2010PropOp28
 70
     1
102
RTVSPost2010Prop29
280
     1
102
RTVSPost2010PropOp29
 70
     1
102
RTVSPost2010Prop30
280
     1
102
RTVSPost2010PropOp30
 70
     1
102
RTVSPost2010Prop31
280
     0
102
RTVSPost2010PropOp31
 70
     1
102
RTVSPost2010Prop32
280
     0
102
RTVSPost2010PropOp32
 70
     1
102
RTVSPost2010Prop33
280
     0
102
RTVSPost2010PropOp33
 70
     1
102
RTVSPost2010Prop34
280
     0
102
RTVSPost2010PropOp34
 70
     1
102
RTVSPost2010Prop35
280
     0
102
RTVSPost2010PropOp35
 70
     1
102
RTVSPost2010Prop36
280
     0
102
RTVSPost2010PropOp36
 70
     1
102
RTVSPost2010Prop37
 90
       50
102
RTVSPost2010PropOp37
 70
     1
102
RTVSPost2010Prop38
140
0.0
102
RTVSPost2010PropOp38
 70
     1
102
RTVSPost2010Prop39
140
1.0
102
RTVSPost2010PropOp39
 70
     1
102
RTVSPost2010Prop40
 90
        0
102
RTVSPost2010PropOp40
 70
     1
102
RTVSPost2010Prop41ColorIndex
 90
       18
102
RTVSPost2010Prop41ColorRGB
 90
        0
102
RTVSPost2010PropOp41
 70
     1
102
RTVSPost2010Prop42
 90
       50
102
RTVSPost2010PropOp42
 70
     1
102
RTVSPost2010Prop43
 90
        3
102
RTVSPost2010PropOp43
 70
     1
102
RTVSPost2010Prop44ColorIndex
 90
        5
102
RTVSPost2010Prop44ColorRGB
 90
      255
102
RTVSPost2010PropOp44
 70
     1
102
RTVSPost2010Prop45
280
     0
102
RTVSPost2010PropOp45
 70
     1
102
RTVSPost2010Prop46
 90
       50
102
RTVSPost2010PropOp46
 70
     1
102
RTVSPost2010Prop47
 90
       50
102
RTVSPost2010PropOp47
 70
     1
102
RTVSPost2010Prop48
 90
       50
102
RTVSPost2010PropOp48
 70
     1
102
RTVSPost2010Prop49
280
     0
102
RTVSPost2010PropOp49
 70
     1
102
RTVSPost2010Prop50
 90
       50
102
RTVSPost2010PropOp50
 70
     1
102
RTVSPost2010Prop51ColorIndex
 90
      256
102
RTVSPost2010Prop51ColorRGB
 90
-16777216
102
RTVSPost2010PropOp51
 70
     0
102
RTVSPost2010Prop52
140
1.0
102
RTVSPost2010PropOp52
 70
     0
102
RTVSPost2010Prop53
 90
        2
102
RTVSPost2010PropOp53
 70
     1
102
RTVSPost2010Prop54
  1
strokes_ogs.tif
102
RTVSPost2010PropOp54
 70
     1
102
RTVSPost2010Prop55
280
     0
102
RTVSPost2010PropOp55
 70
     1
102
RTVSPost2010Prop56
140
1.0
102
RTVSPost2010PropOp56
 70
     1
102
RTVSPost2010Prop57
140
1.0
102
RTVSPost2010PropOp57
 70
     1
102
RTVSPropertyOp0
 70
     1
102
RTVSPropertyOp1
 70
     1
102
RTVSPropertyOp2
 70
     1
102
RTVSPropertyOp3
 70
     1
102
RTVSPropertyOp4
 70
     1
102
RTVSPropertyOp5
 70
     1
102
RTVSPropertyOp6
 70
     1
102
RTVSPropertyOp7
 70
     1
102
RTVSPropertyOp8
 70
     1
102
RTVSPropertyOp9
 70
     1
102
RTVSPropertyOp10
 70
     1
102
RTVSPropertyOp11
 70
     1
102
RTVSPropertyOp12
 70
     1
102
RTVSPropertyOp13
 70
     1
102
RTVSPropertyOp14
 70
     1
102
RTVSPropertyOp15
 70
     1
102
RTVSPropertyOp16
 70
     1
102
RTVSPropertyOp17
 70
     1
102
RTVSPropertyOp18
 70
     1
102
RTVSPropertyOp19
 70
     1
102
RTVSPropertyOp20
 70
     1
102
RTVSPropertyOp21
 70
     1
102
RTVSPropertyOp22
 70
     1
102
RTVSPropertyOp23
 70
     1
102
RTVSPropertyOp24
 70
     1
102
RTVSPropertyOp25
 70
     1
102
RTVSPropertyOp26
 70
     1
102
RTVSPropertyOp27
 70
     1
102
RTVSPropertyOp28
 70
     1
102
RTVSPropertyOp29
 70
     1
102
RTVSPropertyOp30
 70
     1
102
RTVSPropertyOp31
 70
     1
102
RTVSPropertyOp32
 70
     1
102
RTVSPropertyOp33
 70
     1
102
RTVSPropertyOp34
 70
     1
102
RTVSPropertyOp35
 70
     1
102
RTVSPropertyOp36
 70
     1
102
RTVSPropertyOp37
 70
     1
102
RTVSPropertyOp38
 70
     1
102
RTVSPropertyOp39
 70
     1
102
RTVSPropertyOp40
 70
     1
102
RTVSPropertyOp41
 70
     1
102
RTVSPropertyOp42
 70
     1
102
RTVSPropertyOp43
 70
     1
102
RTVSPropertyOp44
 70
     1
102
RTVSPropertyOp45
 70
     1
102
RTVSPropertyOp46
 70
     1
102
RTVSPropertyOp47
 70
     1
102
RTVSPropertyOp48
 70
     1
102
RTVSPropertyOp49
 70
     1
102
RTVSPropertyOp50
 70
     1
102
RTVSPropertyOp51
 70
     0
102
RTVSPropertyOp52
 70
     0
102
RTVSPropertyOp53
 70
     1
102
RTVSPropertyOp54
 70
     1
102
RTVSPropertyOp55
 70
     1
102
RTVSPropertyOp56
 70
     1
102
RTVSPropertyOp57
 70
     1
102
RTVSPropertyOp58
 70
     1
102
RTVSPropertyOp59
 70
     1
102
RTVSPropertyOp60
 70
     1
102
RTVSPropertyOp61
 70
     1
102
RTVSPropertyOp62
 70
     1
  0
XRECORD
  5
9965C
102
{ACAD_REACTORS
330
9965B
102
}
330
9965B
100
AcDbXrecord
280
     1
102
RTVSPost2010Prop28
280
     0
102
RTVSPost2010PropOp28
 70
     0
102
RTVSPost2010Prop29
280
     1
102
RTVSPost2010PropOp29
 70
     0
102
RTVSPost2010Prop30
280
     1
102
RTVSPost2010PropOp30
 70
     0
102
RTVSPost2010Prop31
280
     0
102
RTVSPost2010PropOp31
 70
     0
102
RTVSPost2010Prop32
280
     0
102
RTVSPost2010PropOp32
 70
     0
102
RTVSPost2010Prop33
280
     0
102
RTVSPost2010PropOp33
 70
     1
102
RTVSPost2010Prop34
280
     0
102
RTVSPost2010PropOp34
 70
     1
102
RTVSPost2010Prop35
280
     0
102
RTVSPost2010PropOp35
 70
     1
102
RTVSPost2010Prop36
280
     0
102
RTVSPost2010PropOp36
 70
     1
102
RTVSPost2010Prop37
 90
       50
102
RTVSPost2010PropOp37
 70
     1
102
RTVSPost2010Prop38
140
0.0
102
RTVSPost2010PropOp38
 70
     1
102
RTVSPost2010Prop39
140
1.0
102
RTVSPost2010PropOp39
 70
     1
102
RTVSPost2010Prop40
 90
        0
102
RTVSPost2010PropOp40
 70
     1
102
RTVSPost2010Prop41ColorIndex
 90
       18
102
RTVSPost2010Prop41ColorRGB
 90
        0
102
RTVSPost2010PropOp41
 70
     1
102
RTVSPost2010Prop42
 90
       50
102
RTVSPost2010PropOp42
 70
     1
102
RTVSPost2010Prop43
 90
        3
102
RTVSPost2010PropOp43
 70
     1
102
RTVSPost2010Prop44ColorIndex
 90
        5
102
RTVSPost2010Prop44ColorRGB
 90
      255
102
RTVSPost2010PropOp44
 70
     1
102
RTVSPost2010Prop45
280
     0
102
RTVSPost2010PropOp45
 70
     1
102
RTVSPost2010Prop46
 90
       50
102
RTVSPost2010PropOp46
 70
     1
102
RTVSPost2010Prop47
 90
       50
102
RTVSPost2010PropOp47
 70
     1
102
RTVSPost2010Prop48
 90
       50
102
RTVSPost2010PropOp48
 70
     1
102
RTVSPost2010Prop49
280
     0
102
RTVSPost2010PropOp49
 70
     1
102
RTVSPost2010Prop50
 90
       50
102
RTVSPost2010PropOp50
 70
     1
102
RTVSPost2010Prop51ColorIndex
 90
      256
102
RTVSPost2010Prop51ColorRGB
 90
-16777216
102
RTVSPost2010PropOp51
 70
     0
102
RTVSPost2010Prop52
140
1.0
102
RTVSPost2010PropOp52
 70
     0
102
RTVSPost2010Prop53
 90
        2
102
RTVSPost2010PropOp53
 70
     1
102
RTVSPost2010Prop54
  1
strokes_ogs.tif
102
RTVSPost2010PropOp54
 70
     1
102
RTVSPost2010Prop55
280
     0
102
RTVSPost2010PropOp55
 70
     1
102
RTVSPost2010Prop56
140
1.0
102
RTVSPost2010PropOp56
 70
     1
102
RTVSPost2010Prop57
140
1.0
102
RTVSPost2010PropOp57
 70
     1
102
RTVSPropertyOp0
 70
     0
102
RTVSPropertyOp1
 70
     0
102
RTVSPropertyOp2
 70
     0
102
RTVSPropertyOp3
 70
     0
102
RTVSPropertyOp4
 70
     0
102
RTVSPropertyOp5
 70
     0
102
RTVSPropertyOp6
 70
     0
102
RTVSPropertyOp7
 70
     0
102
RTVSPropertyOp8
 70
     0
102
RTVSPropertyOp9
 70
     0
102
RTVSPropertyOp10
 70
     0
102
RTVSPropertyOp11
 70
     0
102
RTVSPropertyOp12
 70
     0
102
RTVSPropertyOp13
 70
     0
102
RTVSPropertyOp14
 70
     2
102
RTVSPropertyOp15
 70
     0
102
RTVSPropertyOp16
 70
     0
102
RTVSPropertyOp17
 70
     0
102
RTVSPropertyOp18
 70
     0
102
RTVSPropertyOp19
 70
     0
102
RTVSPropertyOp20
 70
     0
102
RTVSPropertyOp21
 70
     0
102
RTVSPropertyOp22
 70
     0
102
RTVSPropertyOp23
 70
     0
102
RTVSPropertyOp24
 70
     0
102
RTVSPropertyOp25
 70
     0
102
RTVSPropertyOp26
 70
     0
102
RTVSPropertyOp27
 70
     0
102
RTVSPropertyOp28
 70
     0
102
RTVSPropertyOp29
 70
     0
102
RTVSPropertyOp30
 70
     0
102
RTVSPropertyOp31
 70
     0
102
RTVSPropertyOp32
 70
     0
102
RTVSPropertyOp33
 70
     1
102
RTVSPropertyOp34
 70
     1
102
RTVSPropertyOp35
 70
     1
102
RTVSPropertyOp36
 70
     1
102
RTVSPropertyOp37
 70
     1
102
RTVSPropertyOp38
 70
     1
102
RTVSPropertyOp39
 70
     1
102
RTVSPropertyOp40
 70
     1
102
RTVSPropertyOp41
 70
     1
102
RTVSPropertyOp42
 70
     1
102
RTVSPropertyOp43
 70
     1
102
RTVSPropertyOp44
 70
     1
102
RTVSPropertyOp45
 70
     1
102
RTVSPropertyOp46
 70
     1
102
RTVSPropertyOp47
 70
     1
102
RTVSPropertyOp48
 70
     1
102
RTVSPropertyOp49
 70
     1
102
RTVSPropertyOp50
 70
     1
102
RTVSPropertyOp51
 70
     0
102
RTVSPropertyOp52
 70
     0
102
RTVSPropertyOp53
 70
     1
102
RTVSPropertyOp54
 70
     1
102
RTVSPropertyOp55
 70
     1
102
RTVSPropertyOp56
 70
     1
102
RTVSPropertyOp57
 70
     1
102
RTVSPropertyOp58
 70
     1
102
RTVSPropertyOp59
 70
     1
102
RTVSPropertyOp60
 70
     1
102
RTVSPropertyOp61
 70
     1
102
RTVSPropertyOp62
 70
     1
  0
XRECORD
  5
9963D
102
{ACAD_REACTORS
330
9963C
102
}
330
9963C
100
AcDbXrecord
280
     1
102
RTVSPost2010Prop28
280
     0
102
RTVSPost2010PropOp28
 70
     1
102
RTVSPost2010Prop29
280
     1
102
RTVSPost2010PropOp29
 70
     1
102
RTVSPost2010Prop30
280
     1
102
RTVSPost2010PropOp30
 70
     1
102
RTVSPost2010Prop31
280
     0
102
RTVSPost2010PropOp31
 70
     1
102
RTVSPost2010Prop32
280
     0
102
RTVSPost2010PropOp32
 70
     1
102
RTVSPost2010Prop33
280
     0
102
RTVSPost2010PropOp33
 70
     1
102
RTVSPost2010Prop34
280
     0
102
RTVSPost2010PropOp34
 70
     1
102
RTVSPost2010Prop35
280
     0
102
RTVSPost2010PropOp35
 70
     1
102
RTVSPost2010Prop36
280
     0
102
RTVSPost2010PropOp36
 70
     1
102
RTVSPost2010Prop37
 90
       50
102
RTVSPost2010PropOp37
 70
     1
102
RTVSPost2010Prop38
140
0.0
102
RTVSPost2010PropOp38
 70
     1
102
RTVSPost2010Prop39
140
1.0
102
RTVSPost2010PropOp39
 70
     1
102
RTVSPost2010Prop40
 90
        0
102
RTVSPost2010PropOp40
 70
     1
102
RTVSPost2010Prop41ColorIndex
 90
       18
102
RTVSPost2010Prop41ColorRGB
 90
        0
102
RTVSPost2010PropOp41
 70
     1
102
RTVSPost2010Prop42
 90
       50
102
RTVSPost2010PropOp42
 70
     1
102
RTVSPost2010Prop43
 90
        3
102
RTVSPost2010PropOp43
 70
     1
102
RTVSPost2010Prop44ColorIndex
 90
        5
102
RTVSPost2010Prop44ColorRGB
 90
      255
102
RTVSPost2010PropOp44
 70
     1
102
RTVSPost2010Prop45
280
     0
102
RTVSPost2010PropOp45
 70
     1
102
RTVSPost2010Prop46
 90
       50
102
RTVSPost2010PropOp46
 70
     1
102
RTVSPost2010Prop47
 90
       50
102
RTVSPost2010PropOp47
 70
     1
102
RTVSPost2010Prop48
 90
       50
102
RTVSPost2010PropOp48
 70
     1
102
RTVSPost2010Prop49
280
     0
102
RTVSPost2010PropOp49
 70
     1
102
RTVSPost2010Prop50
 90
       50
102
RTVSPost2010PropOp50
 70
     1
102
RTVSPost2010Prop51ColorIndex
 90
      256
102
RTVSPost2010Prop51ColorRGB
 90
-16777216
102
RTVSPost2010PropOp51
 70
     0
102
RTVSPost2010Prop52
140
1.0
102
RTVSPost2010PropOp52
 70
     0
102
RTVSPost2010Prop53
 90
        2
102
RTVSPost2010PropOp53
 70
     1
102
RTVSPost2010Prop54
  1
strokes_ogs.tif
102
RTVSPost2010PropOp54
 70
     1
102
RTVSPost2010Prop55
280
     0
102
RTVSPost2010PropOp55
 70
     1
102
RTVSPost2010Prop56
140
1.0
102
RTVSPost2010PropOp56
 70
     1
102
RTVSPost2010Prop57
140
1.0
102
RTVSPost2010PropOp57
 70
     1
102
RTVSPropertyOp0
 70
     1
102
RTVSPropertyOp1
 70
     1
102
RTVSPropertyOp2
 70
     1
102
RTVSPropertyOp3
 70
     1
102
RTVSPropertyOp4
 70
     1
102
RTVSPropertyOp5
 70
     1
102
RTVSPropertyOp6
 70
     1
102
RTVSPropertyOp7
 70
     1
102
RTVSPropertyOp8
 70
     1
102
RTVSPropertyOp9
 70
     1
102
RTVSPropertyOp10
 70
     1
102
RTVSPropertyOp11
 70
     1
102
RTVSPropertyOp12
 70
     1
102
RTVSPropertyOp13
 70
     1
102
RTVSPropertyOp14
 70
     1
102
RTVSPropertyOp15
 70
     1
102
RTVSPropertyOp16
 70
     1
102
RTVSPropertyOp17
 70
     1
102
RTVSPropertyOp18
 70
     1
102
RTVSPropertyOp19
 70
     1
102
RTVSPropertyOp20
 70
     1
102
RTVSPropertyOp21
 70
     1
102
RTVSPropertyOp22
 70
     1
102
RTVSPropertyOp23
 70
     1
102
RTVSPropertyOp24
 70
     1
102
RTVSPropertyOp25
 70
     1
102
RTVSPropertyOp26
 70
     1
102
RTVSPropertyOp27
 70
     1
102
RTVSPropertyOp28
 70
     1
102
RTVSPropertyOp29
 70
     1
102
RTVSPropertyOp30
 70
     1
102
RTVSPropertyOp31
 70
     1
102
RTVSPropertyOp32
 70
     1
102
RTVSPropertyOp33
 70
     1
102
RTVSPropertyOp34
 70
     1
102
RTVSPropertyOp35
 70
     1
102
RTVSPropertyOp36
 70
     1
102
RTVSPropertyOp37
 70
     1
102
RTVSPropertyOp38
 70
     1
102
RTVSPropertyOp39
 70
     1
102
RTVSPropertyOp40
 70
     1
102
RTVSPropertyOp41
 70
     1
102
RTVSPropertyOp42
 70
     1
102
RTVSPropertyOp43
 70
     1
102
RTVSPropertyOp44
 70
     1
102
RTVSPropertyOp45
 70
     1
102
RTVSPropertyOp46
 70
     1
102
RTVSPropertyOp47
 70
     1
102
RTVSPropertyOp48
 70
     1
102
RTVSPropertyOp49
 70
     1
102
RTVSPropertyOp50
 70
     1
102
RTVSPropertyOp51
 70
     0
102
RTVSPropertyOp52
 70
     0
102
RTVSPropertyOp53
 70
     1
102
RTVSPropertyOp54
 70
     1
102
RTVSPropertyOp55
 70
     1
102
RTVSPropertyOp56
 70
     1
102
RTVSPropertyOp57
 70
     1
102
RTVSPropertyOp58
 70
     1
102
RTVSPropertyOp59
 70
     1
102
RTVSPropertyOp60
 70
     1
102
RTVSPropertyOp61
 70
     1
102
RTVSPropertyOp62
 70
     1
  0
XRECORD
  5
99658
102
{ACAD_REACTORS
330
99657
102
}
330
99657
100
AcDbXrecord
280
     1
102
RTVSPost2010Prop28
280
     0
102
RTVSPost2010PropOp28
 70
     1
102
RTVSPost2010Prop29
280
     1
102
RTVSPost2010PropOp29
 70
     1
102
RTVSPost2010Prop30
280
     1
102
RTVSPost2010PropOp30
 70
     1
102
RTVSPost2010Prop31
280
     0
102
RTVSPost2010PropOp31
 70
     1
102
RTVSPost2010Prop32
280
     0
102
RTVSPost2010PropOp32
 70
     1
102
RTVSPost2010Prop33
280
     0
102
RTVSPost2010PropOp33
 70
     1
102
RTVSPost2010Prop34
280
     0
102
RTVSPost2010PropOp34
 70
     1
102
RTVSPost2010Prop35
280
     0
102
RTVSPost2010PropOp35
 70
     1
102
RTVSPost2010Prop36
280
     0
102
RTVSPost2010PropOp36
 70
     1
102
RTVSPost2010Prop37
 90
       50
102
RTVSPost2010PropOp37
 70
     1
102
RTVSPost2010Prop38
140
0.0
102
RTVSPost2010PropOp38
 70
     1
102
RTVSPost2010Prop39
140
1.0
102
RTVSPost2010PropOp39
 70
     1
102
RTVSPost2010Prop40
 90
        0
102
RTVSPost2010PropOp40
 70
     1
102
RTVSPost2010Prop41ColorIndex
 90
       18
102
RTVSPost2010Prop41ColorRGB
 90
        0
102
RTVSPost2010PropOp41
 70
     1
102
RTVSPost2010Prop42
 90
       50
102
RTVSPost2010PropOp42
 70
     1
102
RTVSPost2010Prop43
 90
        3
102
RTVSPost2010PropOp43
 70
     1
102
RTVSPost2010Prop44ColorIndex
 90
        5
102
RTVSPost2010Prop44ColorRGB
 90
      255
102
RTVSPost2010PropOp44
 70
     1
102
RTVSPost2010Prop45
280
     0
102
RTVSPost2010PropOp45
 70
     1
102
RTVSPost2010Prop46
 90
       50
102
RTVSPost2010PropOp46
 70
     1
102
RTVSPost2010Prop47
 90
       50
102
RTVSPost2010PropOp47
 70
     1
102
RTVSPost2010Prop48
 90
       50
102
RTVSPost2010PropOp48
 70
     1
102
RTVSPost2010Prop49
280
     0
102
RTVSPost2010PropOp49
 70
     1
102
RTVSPost2010Prop50
 90
       50
102
RTVSPost2010PropOp50
 70
     1
102
RTVSPost2010Prop51ColorIndex
 90
      256
102
RTVSPost2010Prop51ColorRGB
 90
-16777216
102
RTVSPost2010PropOp51
 70
     0
102
RTVSPost2010Prop52
140
1.0
102
RTVSPost2010PropOp52
 70
     0
102
RTVSPost2010Prop53
 90
        2
102
RTVSPost2010PropOp53
 70
     1
102
RTVSPost2010Prop54
  1
strokes_ogs.tif
102
RTVSPost2010PropOp54
 70
     1
102
RTVSPost2010Prop55
280
     0
102
RTVSPost2010PropOp55
 70
     1
102
RTVSPost2010Prop56
140
1.0
102
RTVSPost2010PropOp56
 70
     1
102
RTVSPost2010Prop57
140
1.0
102
RTVSPost2010PropOp57
 70
     1
102
RTVSPropertyOp0
 70
     1
102
RTVSPropertyOp1
 70
     1
102
RTVSPropertyOp2
 70
     1
102
RTVSPropertyOp3
 70
     1
102
RTVSPropertyOp4
 70
     1
102
RTVSPropertyOp5
 70
     1
102
RTVSPropertyOp6
 70
     1
102
RTVSPropertyOp7
 70
     1
102
RTVSPropertyOp8
 70
     1
102
RTVSPropertyOp9
 70
     1
102
RTVSPropertyOp10
 70
     1
102
RTVSPropertyOp11
 70
     1
102
RTVSPropertyOp12
 70
     1
102
RTVSPropertyOp13
 70
     1
102
RTVSPropertyOp14
 70
     1
102
RTVSPropertyOp15
 70
     1
102
RTVSPropertyOp16
 70
     1
102
RTVSPropertyOp17
 70
     1
102
RTVSPropertyOp18
 70
     1
102
RTVSPropertyOp19
 70
     1
102
RTVSPropertyOp20
 70
     1
102
RTVSPropertyOp21
 70
     1
102
RTVSPropertyOp22
 70
     1
102
RTVSPropertyOp23
 70
     1
102
RTVSPropertyOp24
 70
     1
102
RTVSPropertyOp25
 70
     1
102
RTVSPropertyOp26
 70
     1
102
RTVSPropertyOp27
 70
     1
102
RTVSPropertyOp28
 70
     1
102
RTVSPropertyOp29
 70
     1
102
RTVSPropertyOp30
 70
     1
102
RTVSPropertyOp31
 70
     1
102
RTVSPropertyOp32
 70
     1
102
RTVSPropertyOp33
 70
     1
102
RTVSPropertyOp34
 70
     1
102
RTVSPropertyOp35
 70
     1
102
RTVSPropertyOp36
 70
     1
102
RTVSPropertyOp37
 70
     1
102
RTVSPropertyOp38
 70
     1
102
RTVSPropertyOp39
 70
     1
102
RTVSPropertyOp40
 70
     1
102
RTVSPropertyOp41
 70
     1
102
RTVSPropertyOp42
 70
     1
102
RTVSPropertyOp43
 70
     1
102
RTVSPropertyOp44
 70
     1
102
RTVSPropertyOp45
 70
     1
102
RTVSPropertyOp46
 70
     1
102
RTVSPropertyOp47
 70
     1
102
RTVSPropertyOp48
 70
     1
102
RTVSPropertyOp49
 70
     1
102
RTVSPropertyOp50
 70
     1
102
RTVSPropertyOp51
 70
     0
102
RTVSPropertyOp52
 70
     0
102
RTVSPropertyOp53
 70
     1
102
RTVSPropertyOp54
 70
     1
102
RTVSPropertyOp55
 70
     1
102
RTVSPropertyOp56
 70
     1
102
RTVSPropertyOp57
 70
     1
102
RTVSPropertyOp58
 70
     1
102
RTVSPropertyOp59
 70
     1
102
RTVSPropertyOp60
 70
     1
102
RTVSPropertyOp61
 70
     1
102
RTVSPropertyOp62
 70
     1
  0
XRECORD
  5
99656
102
{ACAD_REACTORS
330
99655
102
}
330
99655
100
AcDbXrecord
280
     1
102
RTVSPost2010Prop28
280
     0
102
RTVSPost2010PropOp28
 70
     1
102
RTVSPost2010Prop29
280
     1
102
RTVSPost2010PropOp29
 70
     1
102
RTVSPost2010Prop30
280
     1
102
RTVSPost2010PropOp30
 70
     1
102
RTVSPost2010Prop31
280
     0
102
RTVSPost2010PropOp31
 70
     1
102
RTVSPost2010Prop32
280
     0
102
RTVSPost2010PropOp32
 70
     1
102
RTVSPost2010Prop33
280
     0
102
RTVSPost2010PropOp33
 70
     1
102
RTVSPost2010Prop34
280
     0
102
RTVSPost2010PropOp34
 70
     1
102
RTVSPost2010Prop35
280
     0
102
RTVSPost2010PropOp35
 70
     1
102
RTVSPost2010Prop36
280
     0
102
RTVSPost2010PropOp36
 70
     1
102
RTVSPost2010Prop37
 90
       50
102
RTVSPost2010PropOp37
 70
     1
102
RTVSPost2010Prop38
140
0.0
102
RTVSPost2010PropOp38
 70
     1
102
RTVSPost2010Prop39
140
1.0
102
RTVSPost2010PropOp39
 70
     1
102
RTVSPost2010Prop40
 90
        0
102
RTVSPost2010PropOp40
 70
     1
102
RTVSPost2010Prop41ColorIndex
 90
       18
102
RTVSPost2010Prop41ColorRGB
 90
        0
102
RTVSPost2010PropOp41
 70
     1
102
RTVSPost2010Prop42
 90
       50
102
RTVSPost2010PropOp42
 70
     1
102
RTVSPost2010Prop43
 90
        3
102
RTVSPost2010PropOp43
 70
     1
102
RTVSPost2010Prop44ColorIndex
 90
        5
102
RTVSPost2010Prop44ColorRGB
 90
      255
102
RTVSPost2010PropOp44
 70
     1
102
RTVSPost2010Prop45
280
     0
102
RTVSPost2010PropOp45
 70
     1
102
RTVSPost2010Prop46
 90
       50
102
RTVSPost2010PropOp46
 70
     1
102
RTVSPost2010Prop47
 90
       50
102
RTVSPost2010PropOp47
 70
     1
102
RTVSPost2010Prop48
 90
       50
102
RTVSPost2010PropOp48
 70
     1
102
RTVSPost2010Prop49
280
     0
102
RTVSPost2010PropOp49
 70
     1
102
RTVSPost2010Prop50
 90
       50
102
RTVSPost2010PropOp50
 70
     1
102
RTVSPost2010Prop51ColorIndex
 90
      256
102
RTVSPost2010Prop51ColorRGB
 90
-16777216
102
RTVSPost2010PropOp51
 70
     0
102
RTVSPost2010Prop52
140
1.0
102
RTVSPost2010PropOp52
 70
     0
102
RTVSPost2010Prop53
 90
        2
102
RTVSPost2010PropOp53
 70
     1
102
RTVSPost2010Prop54
  1
strokes_ogs.tif
102
RTVSPost2010PropOp54
 70
     1
102
RTVSPost2010Prop55
280
     0
102
RTVSPost2010PropOp55
 70
     1
102
RTVSPost2010Prop56
140
1.0
102
RTVSPost2010PropOp56
 70
     1
102
RTVSPost2010Prop57
140
1.0
102
RTVSPost2010PropOp57
 70
     1
102
RTVSPropertyOp0
 70
     1
102
RTVSPropertyOp1
 70
     1
102
RTVSPropertyOp2
 70
     1
102
RTVSPropertyOp3
 70
     1
102
RTVSPropertyOp4
 70
     1
102
RTVSPropertyOp5
 70
     1
102
RTVSPropertyOp6
 70
     1
102
RTVSPropertyOp7
 70
     1
102
RTVSPropertyOp8
 70
     1
102
RTVSPropertyOp9
 70
     1
102
RTVSPropertyOp10
 70
     1
102
RTVSPropertyOp11
 70
     1
102
RTVSPropertyOp12
 70
     1
102
RTVSPropertyOp13
 70
     1
102
RTVSPropertyOp14
 70
     1
102
RTVSPropertyOp15
 70
     1
102
RTVSPropertyOp16
 70
     1
102
RTVSPropertyOp17
 70
     1
102
RTVSPropertyOp18
 70
     1
102
RTVSPropertyOp19
 70
     1
102
RTVSPropertyOp20
 70
     1
102
RTVSPropertyOp21
 70
     1
102
RTVSPropertyOp22
 70
     1
102
RTVSPropertyOp23
 70
     1
102
RTVSPropertyOp24
 70
     1
102
RTVSPropertyOp25
 70
     1
102
RTVSPropertyOp26
 70
     1
102
RTVSPropertyOp27
 70
     1
102
RTVSPropertyOp28
 70
     1
102
RTVSPropertyOp29
 70
     1
102
RTVSPropertyOp30
 70
     1
102
RTVSPropertyOp31
 70
     1
102
RTVSPropertyOp32
 70
     1
102
RTVSPropertyOp33
 70
     1
102
RTVSPropertyOp34
 70
     1
102
RTVSPropertyOp35
 70
     1
102
RTVSPropertyOp36
 70
     1
102
RTVSPropertyOp37
 70
     1
102
RTVSPropertyOp38
 70
     1
102
RTVSPropertyOp39
 70
     1
102
RTVSPropertyOp40
 70
     1
102
RTVSPropertyOp41
 70
     1
102
RTVSPropertyOp42
 70
     1
102
RTVSPropertyOp43
 70
     1
102
RTVSPropertyOp44
 70
     1
102
RTVSPropertyOp45
 70
     1
102
RTVSPropertyOp46
 70
     1
102
RTVSPropertyOp47
 70
     1
102
RTVSPropertyOp48
 70
     1
102
RTVSPropertyOp49
 70
     1
102
RTVSPropertyOp50
 70
     1
102
RTVSPropertyOp51
 70
     0
102
RTVSPropertyOp52
 70
     0
102
RTVSPropertyOp53
 70
     1
102
RTVSPropertyOp54
 70
     1
102
RTVSPropertyOp55
 70
     1
102
RTVSPropertyOp56
 70
     1
102
RTVSPropertyOp57
 70
     1
102
RTVSPropertyOp58
 70
     1
102
RTVSPropertyOp59
 70
     1
102
RTVSPropertyOp60
 70
     1
102
RTVSPropertyOp61
 70
     1
102
RTVSPropertyOp62
 70
     1
  0
XRECORD
  5
99650
102
{ACAD_REACTORS
330
9964F
102
}
330
9964F
100
AcDbXrecord
280
     1
102
RTVSPost2010Prop28
280
     0
102
RTVSPost2010PropOp28
 70
     1
102
RTVSPost2010Prop29
280
     1
102
RTVSPost2010PropOp29
 70
     1
102
RTVSPost2010Prop30
280
     1
102
RTVSPost2010PropOp30
 70
     1
102
RTVSPost2010Prop31
280
     0
102
RTVSPost2010PropOp31
 70
     1
102
RTVSPost2010Prop32
280
     0
102
RTVSPost2010PropOp32
 70
     1
102
RTVSPost2010Prop33
280
     0
102
RTVSPost2010PropOp33
 70
     1
102
RTVSPost2010Prop34
280
     0
102
RTVSPost2010PropOp34
 70
     1
102
RTVSPost2010Prop35
280
     0
102
RTVSPost2010PropOp35
 70
     1
102
RTVSPost2010Prop36
280
     0
102
RTVSPost2010PropOp36
 70
     1
102
RTVSPost2010Prop37
 90
       50
102
RTVSPost2010PropOp37
 70
     1
102
RTVSPost2010Prop38
140
0.0
102
RTVSPost2010PropOp38
 70
     1
102
RTVSPost2010Prop39
140
1.0
102
RTVSPost2010PropOp39
 70
     1
102
RTVSPost2010Prop40
 90
        0
102
RTVSPost2010PropOp40
 70
     1
102
RTVSPost2010Prop41ColorIndex
 90
       18
102
RTVSPost2010Prop41ColorRGB
 90
        0
102
RTVSPost2010PropOp41
 70
     1
102
RTVSPost2010Prop42
 90
       50
102
RTVSPost2010PropOp42
 70
     1
102
RTVSPost2010Prop43
 90
        3
102
RTVSPost2010PropOp43
 70
     1
102
RTVSPost2010Prop44ColorIndex
 90
        5
102
RTVSPost2010Prop44ColorRGB
 90
      255
102
RTVSPost2010PropOp44
 70
     1
102
RTVSPost2010Prop45
280
     0
102
RTVSPost2010PropOp45
 70
     1
102
RTVSPost2010Prop46
 90
       50
102
RTVSPost2010PropOp46
 70
     1
102
RTVSPost2010Prop47
 90
       50
102
RTVSPost2010PropOp47
 70
     1
102
RTVSPost2010Prop48
 90
       50
102
RTVSPost2010PropOp48
 70
     1
102
RTVSPost2010Prop49
280
     0
102
RTVSPost2010PropOp49
 70
     1
102
RTVSPost2010Prop50
 90
       50
102
RTVSPost2010PropOp50
 70
     1
102
RTVSPost2010Prop51ColorIndex
 90
      256
102
RTVSPost2010Prop51ColorRGB
 90
-16777216
102
RTVSPost2010PropOp51
 70
     0
102
RTVSPost2010Prop52
140
1.0
102
RTVSPost2010PropOp52
 70
     0
102
RTVSPost2010Prop53
 90
        2
102
RTVSPost2010PropOp53
 70
     1
102
RTVSPost2010Prop54
  1
strokes_ogs.tif
102
RTVSPost2010PropOp54
 70
     1
102
RTVSPost2010Prop55
280
     0
102
RTVSPost2010PropOp55
 70
     1
102
RTVSPost2010Prop56
140
1.0
102
RTVSPost2010PropOp56
 70
     1
102
RTVSPost2010Prop57
140
1.0
102
RTVSPost2010PropOp57
 70
     1
102
RTVSPropertyOp0
 70
     1
102
RTVSPropertyOp1
 70
     1
102
RTVSPropertyOp2
 70
     1
102
RTVSPropertyOp3
 70
     1
102
RTVSPropertyOp4
 70
     1
102
RTVSPropertyOp5
 70
     1
102
RTVSPropertyOp6
 70
     1
102
RTVSPropertyOp7
 70
     1
102
RTVSPropertyOp8
 70
     1
102
RTVSPropertyOp9
 70
     1
102
RTVSPropertyOp10
 70
     1
102
RTVSPropertyOp11
 70
     1
102
RTVSPropertyOp12
 70
     1
102
RTVSPropertyOp13
 70
     1
102
RTVSPropertyOp14
 70
     1
102
RTVSPropertyOp15
 70
     1
102
RTVSPropertyOp16
 70
     1
102
RTVSPropertyOp17
 70
     1
102
RTVSPropertyOp18
 70
     1
102
RTVSPropertyOp19
 70
     1
102
RTVSPropertyOp20
 70
     1
102
RTVSPropertyOp21
 70
     1
102
RTVSPropertyOp22
 70
     1
102
RTVSPropertyOp23
 70
     1
102
RTVSPropertyOp24
 70
     1
102
RTVSPropertyOp25
 70
     1
102
RTVSPropertyOp26
 70
     1
102
RTVSPropertyOp27
 70
     1
102
RTVSPropertyOp28
 70
     1
102
RTVSPropertyOp29
 70
     1
102
RTVSPropertyOp30
 70
     1
102
RTVSPropertyOp31
 70
     1
102
RTVSPropertyOp32
 70
     1
102
RTVSPropertyOp33
 70
     1
102
RTVSPropertyOp34
 70
     1
102
RTVSPropertyOp35
 70
     1
102
RTVSPropertyOp36
 70
     1
102
RTVSPropertyOp37
 70
     1
102
RTVSPropertyOp38
 70
     1
102
RTVSPropertyOp39
 70
     1
102
RTVSPropertyOp40
 70
     1
102
RTVSPropertyOp41
 70
     1
102
RTVSPropertyOp42
 70
     1
102
RTVSPropertyOp43
 70
     1
102
RTVSPropertyOp44
 70
     1
102
RTVSPropertyOp45
 70
     1
102
RTVSPropertyOp46
 70
     1
102
RTVSPropertyOp47
 70
     1
102
RTVSPropertyOp48
 70
     1
102
RTVSPropertyOp49
 70
     1
102
RTVSPropertyOp50
 70
     1
102
RTVSPropertyOp51
 70
     0
102
RTVSPropertyOp52
 70
     0
102
RTVSPropertyOp53
 70
     1
102
RTVSPropertyOp54
 70
     1
102
RTVSPropertyOp55
 70
     1
102
RTVSPropertyOp56
 70
     1
102
RTVSPropertyOp57
 70
     1
102
RTVSPropertyOp58
 70
     1
102
RTVSPropertyOp59
 70
     1
102
RTVSPropertyOp60
 70
     1
102
RTVSPropertyOp61
 70
     1
102
RTVSPropertyOp62
 70
     1
  0
XRECORD
  5
99652
102
{ACAD_REACTORS
330
99651
102
}
330
99651
100
AcDbXrecord
280
     1
102
RTVSPost2010Prop28
280
     0
102
RTVSPost2010PropOp28
 70
     1
102
RTVSPost2010Prop29
280
     1
102
RTVSPost2010PropOp29
 70
     1
102
RTVSPost2010Prop30
280
     1
102
RTVSPost2010PropOp30
 70
     1
102
RTVSPost2010Prop31
280
     0
102
RTVSPost2010PropOp31
 70
     1
102
RTVSPost2010Prop32
280
     0
102
RTVSPost2010PropOp32
 70
     1
102
RTVSPost2010Prop33
280
     0
102
RTVSPost2010PropOp33
 70
     1
102
RTVSPost2010Prop34
280
     0
102
RTVSPost2010PropOp34
 70
     1
102
RTVSPost2010Prop35
280
     0
102
RTVSPost2010PropOp35
 70
     1
102
RTVSPost2010Prop36
280
     0
102
RTVSPost2010PropOp36
 70
     1
102
RTVSPost2010Prop37
 90
       50
102
RTVSPost2010PropOp37
 70
     1
102
RTVSPost2010Prop38
140
0.0
102
RTVSPost2010PropOp38
 70
     1
102
RTVSPost2010Prop39
140
1.0
102
RTVSPost2010PropOp39
 70
     1
102
RTVSPost2010Prop40
 90
        0
102
RTVSPost2010PropOp40
 70
     1
102
RTVSPost2010Prop41ColorIndex
 90
       18
102
RTVSPost2010Prop41ColorRGB
 90
        0
102
RTVSPost2010PropOp41
 70
     1
102
RTVSPost2010Prop42
 90
       50
102
RTVSPost2010PropOp42
 70
     1
102
RTVSPost2010Prop43
 90
        3
102
RTVSPost2010PropOp43
 70
     1
102
RTVSPost2010Prop44ColorIndex
 90
        5
102
RTVSPost2010Prop44ColorRGB
 90
      255
102
RTVSPost2010PropOp44
 70
     1
102
RTVSPost2010Prop45
280
     0
102
RTVSPost2010PropOp45
 70
     1
102
RTVSPost2010Prop46
 90
       50
102
RTVSPost2010PropOp46
 70
     1
102
RTVSPost2010Prop47
 90
       50
102
RTVSPost2010PropOp47
 70
     1
102
RTVSPost2010Prop48
 90
       50
102
RTVSPost2010PropOp48
 70
     1
102
RTVSPost2010Prop49
280
     0
102
RTVSPost2010PropOp49
 70
     1
102
RTVSPost2010Prop50
 90
       50
102
RTVSPost2010PropOp50
 70
     1
102
RTVSPost2010Prop51ColorIndex
 90
      256
102
RTVSPost2010Prop51ColorRGB
 90
-16777216
102
RTVSPost2010PropOp51
 70
     0
102
RTVSPost2010Prop52
140
1.0
102
RTVSPost2010PropOp52
 70
     0
102
RTVSPost2010Prop53
 90
        2
102
RTVSPost2010PropOp53
 70
     1
102
RTVSPost2010Prop54
  1
strokes_ogs.tif
102
RTVSPost2010PropOp54
 70
     1
102
RTVSPost2010Prop55
280
     0
102
RTVSPost2010PropOp55
 70
     1
102
RTVSPost2010Prop56
140
1.0
102
RTVSPost2010PropOp56
 70
     1
102
RTVSPost2010Prop57
140
1.0
102
RTVSPost2010PropOp57
 70
     1
102
RTVSPropertyOp0
 70
     1
102
RTVSPropertyOp1
 70
     1
102
RTVSPropertyOp2
 70
     1
102
RTVSPropertyOp3
 70
     1
102
RTVSPropertyOp4
 70
     1
102
RTVSPropertyOp5
 70
     1
102
RTVSPropertyOp6
 70
     1
102
RTVSPropertyOp7
 70
     1
102
RTVSPropertyOp8
 70
     1
102
RTVSPropertyOp9
 70
     1
102
RTVSPropertyOp10
 70
     1
102
RTVSPropertyOp11
 70
     1
102
RTVSPropertyOp12
 70
     1
102
RTVSPropertyOp13
 70
     1
102
RTVSPropertyOp14
 70
     1
102
RTVSPropertyOp15
 70
     1
102
RTVSPropertyOp16
 70
     1
102
RTVSPropertyOp17
 70
     1
102
RTVSPropertyOp18
 70
     1
102
RTVSPropertyOp19
 70
     1
102
RTVSPropertyOp20
 70
     1
102
RTVSPropertyOp21
 70
     1
102
RTVSPropertyOp22
 70
     1
102
RTVSPropertyOp23
 70
     1
102
RTVSPropertyOp24
 70
     1
102
RTVSPropertyOp25
 70
     1
102
RTVSPropertyOp26
 70
     1
102
RTVSPropertyOp27
 70
     1
102
RTVSPropertyOp28
 70
     1
102
RTVSPropertyOp29
 70
     1
102
RTVSPropertyOp30
 70
     1
102
RTVSPropertyOp31
 70
     1
102
RTVSPropertyOp32
 70
     1
102
RTVSPropertyOp33
 70
     1
102
RTVSPropertyOp34
 70
     1
102
RTVSPropertyOp35
 70
     1
102
RTVSPropertyOp36
 70
     1
102
RTVSPropertyOp37
 70
     1
102
RTVSPropertyOp38
 70
     1
102
RTVSPropertyOp39
 70
     1
102
RTVSPropertyOp40
 70
     1
102
RTVSPropertyOp41
 70
     1
102
RTVSPropertyOp42
 70
     1
102
RTVSPropertyOp43
 70
     1
102
RTVSPropertyOp44
 70
     1
102
RTVSPropertyOp45
 70
     1
102
RTVSPropertyOp46
 70
     1
102
RTVSPropertyOp47
 70
     1
102
RTVSPropertyOp48
 70
     1
102
RTVSPropertyOp49
 70
     1
102
RTVSPropertyOp50
 70
     1
102
RTVSPropertyOp51
 70
     0
102
RTVSPropertyOp52
 70
     0
102
RTVSPropertyOp53
 70
     1
102
RTVSPropertyOp54
 70
     1
102
RTVSPropertyOp55
 70
     1
102
RTVSPropertyOp56
 70
     1
102
RTVSPropertyOp57
 70
     1
102
RTVSPropertyOp58
 70
     1
102
RTVSPropertyOp59
 70
     1
102
RTVSPropertyOp60
 70
     1
102
RTVSPropertyOp61
 70
     1
102
RTVSPropertyOp62
 70
     1
  0
XRECORD
  5
99643
102
{ACAD_REACTORS
330
99642
102
}
330
99642
100
AcDbXrecord
280
     1
102
RTVSPost2010Prop28
280
     0
102
RTVSPost2010PropOp28
 70
     1
102
RTVSPost2010Prop29
280
     1
102
RTVSPost2010PropOp29
 70
     1
102
RTVSPost2010Prop30
280
     1
102
RTVSPost2010PropOp30
 70
     1
102
RTVSPost2010Prop31
280
     0
102
RTVSPost2010PropOp31
 70
     1
102
RTVSPost2010Prop32
280
     0
102
RTVSPost2010PropOp32
 70
     1
102
RTVSPost2010Prop33
280
     0
102
RTVSPost2010PropOp33
 70
     1
102
RTVSPost2010Prop34
280
     0
102
RTVSPost2010PropOp34
 70
     1
102
RTVSPost2010Prop35
280
     0
102
RTVSPost2010PropOp35
 70
     1
102
RTVSPost2010Prop36
280
     0
102
RTVSPost2010PropOp36
 70
     1
102
RTVSPost2010Prop37
 90
       50
102
RTVSPost2010PropOp37
 70
     1
102
RTVSPost2010Prop38
140
0.0
102
RTVSPost2010PropOp38
 70
     1
102
RTVSPost2010Prop39
140
1.0
102
RTVSPost2010PropOp39
 70
     1
102
RTVSPost2010Prop40
 90
        0
102
RTVSPost2010PropOp40
 70
     1
102
RTVSPost2010Prop41ColorIndex
 90
       18
102
RTVSPost2010Prop41ColorRGB
 90
        0
102
RTVSPost2010PropOp41
 70
     1
102
RTVSPost2010Prop42
 90
       50
102
RTVSPost2010PropOp42
 70
     1
102
RTVSPost2010Prop43
 90
        3
102
RTVSPost2010PropOp43
 70
     1
102
RTVSPost2010Prop44ColorIndex
 90
        5
102
RTVSPost2010Prop44ColorRGB
 90
      255
102
RTVSPost2010PropOp44
 70
     1
102
RTVSPost2010Prop45
280
     0
102
RTVSPost2010PropOp45
 70
     1
102
RTVSPost2010Prop46
 90
       50
102
RTVSPost2010PropOp46
 70
     1
102
RTVSPost2010Prop47
 90
       50
102
RTVSPost2010PropOp47
 70
     1
102
RTVSPost2010Prop48
 90
       50
102
RTVSPost2010PropOp48
 70
     1
102
RTVSPost2010Prop49
280
     0
102
RTVSPost2010PropOp49
 70
     1
102
RTVSPost2010Prop50
 90
       50
102
RTVSPost2010PropOp50
 70
     1
102
RTVSPost2010Prop51ColorIndex
 90
      256
102
RTVSPost2010Prop51ColorRGB
 90
-16777216
102
RTVSPost2010PropOp51
 70
     0
102
RTVSPost2010Prop52
140
1.0
102
RTVSPost2010PropOp52
 70
     0
102
RTVSPost2010Prop53
 90
        2
102
RTVSPost2010PropOp53
 70
     1
102
RTVSPost2010Prop54
  1
strokes_ogs.tif
102
RTVSPost2010PropOp54
 70
     1
102
RTVSPost2010Prop55
280
     0
102
RTVSPost2010PropOp55
 70
     1
102
RTVSPost2010Prop56
140
1.0
102
RTVSPost2010PropOp56
 70
     1
102
RTVSPost2010Prop57
140
1.0
102
RTVSPost2010PropOp57
 70
     1
102
RTVSPropertyOp0
 70
     1
102
RTVSPropertyOp1
 70
     1
102
RTVSPropertyOp2
 70
     1
102
RTVSPropertyOp3
 70
     1
102
RTVSPropertyOp4
 70
     1
102
RTVSPropertyOp5
 70
     1
102
RTVSPropertyOp6
 70
     1
102
RTVSPropertyOp7
 70
     1
102
RTVSPropertyOp8
 70
     1
102
RTVSPropertyOp9
 70
     1
102
RTVSPropertyOp10
 70
     1
102
RTVSPropertyOp11
 70
     1
102
RTVSPropertyOp12
 70
     1
102
RTVSPropertyOp13
 70
     1
102
RTVSPropertyOp14
 70
     1
102
RTVSPropertyOp15
 70
     1
102
RTVSPropertyOp16
 70
     1
102
RTVSPropertyOp17
 70
     1
102
RTVSPropertyOp18
 70
     1
102
RTVSPropertyOp19
 70
     1
102
RTVSPropertyOp20
 70
     1
102
RTVSPropertyOp21
 70
     1
102
RTVSPropertyOp22
 70
     1
102
RTVSPropertyOp23
 70
     1
102
RTVSPropertyOp24
 70
     1
102
RTVSPropertyOp25
 70
     1
102
RTVSPropertyOp26
 70
     1
102
RTVSPropertyOp27
 70
     1
102
RTVSPropertyOp28
 70
     1
102
RTVSPropertyOp29
 70
     1
102
RTVSPropertyOp30
 70
     1
102
RTVSPropertyOp31
 70
     1
102
RTVSPropertyOp32
 70
     1
102
RTVSPropertyOp33
 70
     1
102
RTVSPropertyOp34
 70
     1
102
RTVSPropertyOp35
 70
     1
102
RTVSPropertyOp36
 70
     1
102
RTVSPropertyOp37
 70
     1
102
RTVSPropertyOp38
 70
     1
102
RTVSPropertyOp39
 70
     1
102
RTVSPropertyOp40
 70
     1
102
RTVSPropertyOp41
 70
     1
102
RTVSPropertyOp42
 70
     1
102
RTVSPropertyOp43
 70
     1
102
RTVSPropertyOp44
 70
     1
102
RTVSPropertyOp45
 70
     1
102
RTVSPropertyOp46
 70
     1
102
RTVSPropertyOp47
 70
     1
102
RTVSPropertyOp48
 70
     1
102
RTVSPropertyOp49
 70
     1
102
RTVSPropertyOp50
 70
     1
102
RTVSPropertyOp51
 70
     0
102
RTVSPropertyOp52
 70
     0
102
RTVSPropertyOp53
 70
     1
102
RTVSPropertyOp54
 70
     1
102
RTVSPropertyOp55
 70
     1
102
RTVSPropertyOp56
 70
     1
102
RTVSPropertyOp57
 70
     1
102
RTVSPropertyOp58
 70
     1
102
RTVSPropertyOp59
 70
     1
102
RTVSPropertyOp60
 70
     1
102
RTVSPropertyOp61
 70
     1
102
RTVSPropertyOp62
 70
     1
  0
XRECORD
  5
9964C
102
{ACAD_REACTORS
330
9964B
102
}
330
9964B
100
AcDbXrecord
280
     1
102
RTVSPost2010Prop28
280
     0
102
RTVSPost2010PropOp28
 70
     1
102
RTVSPost2010Prop29
280
     1
102
RTVSPost2010PropOp29
 70
     1
102
RTVSPost2010Prop30
280
     1
102
RTVSPost2010PropOp30
 70
     1
102
RTVSPost2010Prop31
280
     0
102
RTVSPost2010PropOp31
 70
     1
102
RTVSPost2010Prop32
280
     0
102
RTVSPost2010PropOp32
 70
     1
102
RTVSPost2010Prop33
280
     0
102
RTVSPost2010PropOp33
 70
     1
102
RTVSPost2010Prop34
280
     0
102
RTVSPost2010PropOp34
 70
     1
102
RTVSPost2010Prop35
280
     0
102
RTVSPost2010PropOp35
 70
     1
102
RTVSPost2010Prop36
280
     0
102
RTVSPost2010PropOp36
 70
     1
102
RTVSPost2010Prop37
 90
       50
102
RTVSPost2010PropOp37
 70
     1
102
RTVSPost2010Prop38
140
0.0
102
RTVSPost2010PropOp38
 70
     1
102
RTVSPost2010Prop39
140
1.0
102
RTVSPost2010PropOp39
 70
     1
102
RTVSPost2010Prop40
 90
        0
102
RTVSPost2010PropOp40
 70
     1
102
RTVSPost2010Prop41ColorIndex
 90
       18
102
RTVSPost2010Prop41ColorRGB
 90
        0
102
RTVSPost2010PropOp41
 70
     1
102
RTVSPost2010Prop42
 90
       50
102
RTVSPost2010PropOp42
 70
     1
102
RTVSPost2010Prop43
 90
        3
102
RTVSPost2010PropOp43
 70
     1
102
RTVSPost2010Prop44ColorIndex
 90
        5
102
RTVSPost2010Prop44ColorRGB
 90
      255
102
RTVSPost2010PropOp44
 70
     1
102
RTVSPost2010Prop45
280
     0
102
RTVSPost2010PropOp45
 70
     1
102
RTVSPost2010Prop46
 90
       50
102
RTVSPost2010PropOp46
 70
     1
102
RTVSPost2010Prop47
 90
       50
102
RTVSPost2010PropOp47
 70
     1
102
RTVSPost2010Prop48
 90
       50
102
RTVSPost2010PropOp48
 70
     1
102
RTVSPost2010Prop49
280
     0
102
RTVSPost2010PropOp49
 70
     1
102
RTVSPost2010Prop50
 90
       50
102
RTVSPost2010PropOp50
 70
     1
102
RTVSPost2010Prop51ColorIndex
 90
      256
102
RTVSPost2010Prop51ColorRGB
 90
-16777216
102
RTVSPost2010PropOp51
 70
     0
102
RTVSPost2010Prop52
140
1.0
102
RTVSPost2010PropOp52
 70
     0
102
RTVSPost2010Prop53
 90
        2
102
RTVSPost2010PropOp53
 70
     1
102
RTVSPost2010Prop54
  1
strokes_ogs.tif
102
RTVSPost2010PropOp54
 70
     1
102
RTVSPost2010Prop55
280
     0
102
RTVSPost2010PropOp55
 70
     1
102
RTVSPost2010Prop56
140
1.0
102
RTVSPost2010PropOp56
 70
     1
102
RTVSPost2010Prop57
140
1.0
102
RTVSPost2010PropOp57
 70
     1
102
RTVSPropertyOp0
 70
     1
102
RTVSPropertyOp1
 70
     1
102
RTVSPropertyOp2
 70
     1
102
RTVSPropertyOp3
 70
     1
102
RTVSPropertyOp4
 70
     1
102
RTVSPropertyOp5
 70
     1
102
RTVSPropertyOp6
 70
     1
102
RTVSPropertyOp7
 70
     1
102
RTVSPropertyOp8
 70
     1
102
RTVSPropertyOp9
 70
     1
102
RTVSPropertyOp10
 70
     1
102
RTVSPropertyOp11
 70
     1
102
RTVSPropertyOp12
 70
     1
102
RTVSPropertyOp13
 70
     1
102
RTVSPropertyOp14
 70
     1
102
RTVSPropertyOp15
 70
     1
102
RTVSPropertyOp16
 70
     1
102
RTVSPropertyOp17
 70
     1
102
RTVSPropertyOp18
 70
     1
102
RTVSPropertyOp19
 70
     1
102
RTVSPropertyOp20
 70
     1
102
RTVSPropertyOp21
 70
     1
102
RTVSPropertyOp22
 70
     1
102
RTVSPropertyOp23
 70
     1
102
RTVSPropertyOp24
 70
     1
102
RTVSPropertyOp25
 70
     1
102
RTVSPropertyOp26
 70
     1
102
RTVSPropertyOp27
 70
     1
102
RTVSPropertyOp28
 70
     1
102
RTVSPropertyOp29
 70
     1
102
RTVSPropertyOp30
 70
     1
102
RTVSPropertyOp31
 70
     1
102
RTVSPropertyOp32
 70
     1
102
RTVSPropertyOp33
 70
     1
102
RTVSPropertyOp34
 70
     1
102
RTVSPropertyOp35
 70
     1
102
RTVSPropertyOp36
 70
     1
102
RTVSPropertyOp37
 70
     1
102
RTVSPropertyOp38
 70
     1
102
RTVSPropertyOp39
 70
     1
102
RTVSPropertyOp40
 70
     1
102
RTVSPropertyOp41
 70
     1
102
RTVSPropertyOp42
 70
     1
102
RTVSPropertyOp43
 70
     1
102
RTVSPropertyOp44
 70
     1
102
RTVSPropertyOp45
 70
     1
102
RTVSPropertyOp46
 70
     1
102
RTVSPropertyOp47
 70
     1
102
RTVSPropertyOp48
 70
     1
102
RTVSPropertyOp49
 70
     1
102
RTVSPropertyOp50
 70
     1
102
RTVSPropertyOp51
 70
     0
102
RTVSPropertyOp52
 70
     0
102
RTVSPropertyOp53
 70
     1
102
RTVSPropertyOp54
 70
     1
102
RTVSPropertyOp55
 70
     1
102
RTVSPropertyOp56
 70
     1
102
RTVSPropertyOp57
 70
     1
102
RTVSPropertyOp58
 70
     1
102
RTVSPropertyOp59
 70
     1
102
RTVSPropertyOp60
 70
     1
102
RTVSPropertyOp61
 70
     1
102
RTVSPropertyOp62
 70
     1
  0
XRECORD
  5
99654
102
{ACAD_REACTORS
330
99653
102
}
330
99653
100
AcDbXrecord
280
     1
102
RTVSPost2010Prop28
280
     0
102
RTVSPost2010PropOp28
 70
     1
102
RTVSPost2010Prop29
280
     1
102
RTVSPost2010PropOp29
 70
     1
102
RTVSPost2010Prop30
280
     1
102
RTVSPost2010PropOp30
 70
     1
102
RTVSPost2010Prop31
280
     0
102
RTVSPost2010PropOp31
 70
     1
102
RTVSPost2010Prop32
280
     0
102
RTVSPost2010PropOp32
 70
     1
102
RTVSPost2010Prop33
280
     0
102
RTVSPost2010PropOp33
 70
     1
102
RTVSPost2010Prop34
280
     0
102
RTVSPost2010PropOp34
 70
     1
102
RTVSPost2010Prop35
280
     0
102
RTVSPost2010PropOp35
 70
     1
102
RTVSPost2010Prop36
280
     0
102
RTVSPost2010PropOp36
 70
     1
102
RTVSPost2010Prop37
 90
       50
102
RTVSPost2010PropOp37
 70
     1
102
RTVSPost2010Prop38
140
0.0
102
RTVSPost2010PropOp38
 70
     1
102
RTVSPost2010Prop39
140
1.0
102
RTVSPost2010PropOp39
 70
     1
102
RTVSPost2010Prop40
 90
        0
102
RTVSPost2010PropOp40
 70
     1
102
RTVSPost2010Prop41ColorIndex
 90
       18
102
RTVSPost2010Prop41ColorRGB
 90
        0
102
RTVSPost2010PropOp41
 70
     1
102
RTVSPost2010Prop42
 90
       50
102
RTVSPost2010PropOp42
 70
     1
102
RTVSPost2010Prop43
 90
        3
102
RTVSPost2010PropOp43
 70
     1
102
RTVSPost2010Prop44ColorIndex
 90
        5
102
RTVSPost2010Prop44ColorRGB
 90
      255
102
RTVSPost2010PropOp44
 70
     1
102
RTVSPost2010Prop45
280
     0
102
RTVSPost2010PropOp45
 70
     1
102
RTVSPost2010Prop46
 90
       50
102
RTVSPost2010PropOp46
 70
     1
102
RTVSPost2010Prop47
 90
       50
102
RTVSPost2010PropOp47
 70
     1
102
RTVSPost2010Prop48
 90
       50
102
RTVSPost2010PropOp48
 70
     1
102
RTVSPost2010Prop49
280
     0
102
RTVSPost2010PropOp49
 70
     1
102
RTVSPost2010Prop50
 90
       50
102
RTVSPost2010PropOp50
 70
     1
102
RTVSPost2010Prop51ColorIndex
 90
      256
102
RTVSPost2010Prop51ColorRGB
 90
-16777216
102
RTVSPost2010PropOp51
 70
     0
102
RTVSPost2010Prop52
140
1.0
102
RTVSPost2010PropOp52
 70
     0
102
RTVSPost2010Prop53
 90
        2
102
RTVSPost2010PropOp53
 70
     1
102
RTVSPost2010Prop54
  1
strokes_ogs.tif
102
RTVSPost2010PropOp54
 70
     1
102
RTVSPost2010Prop55
280
     0
102
RTVSPost2010PropOp55
 70
     1
102
RTVSPost2010Prop56
140
1.0
102
RTVSPost2010PropOp56
 70
     1
102
RTVSPost2010Prop57
140
1.0
102
RTVSPost2010PropOp57
 70
     1
102
RTVSPropertyOp0
 70
     1
102
RTVSPropertyOp1
 70
     1
102
RTVSPropertyOp2
 70
     1
102
RTVSPropertyOp3
 70
     1
102
RTVSPropertyOp4
 70
     1
102
RTVSPropertyOp5
 70
     1
102
RTVSPropertyOp6
 70
     1
102
RTVSPropertyOp7
 70
     1
102
RTVSPropertyOp8
 70
     1
102
RTVSPropertyOp9
 70
     1
102
RTVSPropertyOp10
 70
     1
102
RTVSPropertyOp11
 70
     1
102
RTVSPropertyOp12
 70
     1
102
RTVSPropertyOp13
 70
     1
102
RTVSPropertyOp14
 70
     1
102
RTVSPropertyOp15
 70
     1
102
RTVSPropertyOp16
 70
     1
102
RTVSPropertyOp17
 70
     1
102
RTVSPropertyOp18
 70
     1
102
RTVSPropertyOp19
 70
     1
102
RTVSPropertyOp20
 70
     1
102
RTVSPropertyOp21
 70
     1
102
RTVSPropertyOp22
 70
     1
102
RTVSPropertyOp23
 70
     1
102
RTVSPropertyOp24
 70
     1
102
RTVSPropertyOp25
 70
     1
102
RTVSPropertyOp26
 70
     1
102
RTVSPropertyOp27
 70
     1
102
RTVSPropertyOp28
 70
     1
102
RTVSPropertyOp29
 70
     1
102
RTVSPropertyOp30
 70
     1
102
RTVSPropertyOp31
 70
     1
102
RTVSPropertyOp32
 70
     1
102
RTVSPropertyOp33
 70
     1
102
RTVSPropertyOp34
 70
     1
102
RTVSPropertyOp35
 70
     1
102
RTVSPropertyOp36
 70
     1
102
RTVSPropertyOp37
 70
     1
102
RTVSPropertyOp38
 70
     1
102
RTVSPropertyOp39
 70
     1
102
RTVSPropertyOp40
 70
     1
102
RTVSPropertyOp41
 70
     1
102
RTVSPropertyOp42
 70
     1
102
RTVSPropertyOp43
 70
     1
102
RTVSPropertyOp44
 70
     1
102
RTVSPropertyOp45
 70
     1
102
RTVSPropertyOp46
 70
     1
102
RTVSPropertyOp47
 70
     1
102
RTVSPropertyOp48
 70
     1
102
RTVSPropertyOp49
 70
     1
102
RTVSPropertyOp50
 70
     1
102
RTVSPropertyOp51
 70
     0
102
RTVSPropertyOp52
 70
     0
102
RTVSPropertyOp53
 70
     1
102
RTVSPropertyOp54
 70
     1
102
RTVSPropertyOp55
 70
     1
102
RTVSPropertyOp56
 70
     1
102
RTVSPropertyOp57
 70
     1
102
RTVSPropertyOp58
 70
     1
102
RTVSPropertyOp59
 70
     1
102
RTVSPropertyOp60
 70
     1
102
RTVSPropertyOp61
 70
     1
102
RTVSPropertyOp62
 70
     1
  0
ENDSEC
  0
EOF
