  0
SECTION
  2
HEADER
  9
$ACADVER
  1
AC1015
  9
$ACADMAINTVER
 70
    20
  9
$DWGCODEPAGE
  3
ANSI_932
  9
$INSBASE
 10
0.0
 20
0.0
 30
0.0
  9
$EXTMIN
 10
-1911.780306533322
 20
-946.6098904316142
 30
0.0
  9
$EXTMAX
 10
908.3883148727672
 20
576.372394731758
 30
0.0
  9
$LIMMIN
 10
-4267.152221060483
 20
-2696.083210198413
  9
$LIMMAX
 10
7190.717422586465
 20
5141.155363923066
  9
$ORTHOMODE
 70
     0
  9
$REGENMODE
 70
     1
  9
$FILLMODE
 70
     1
  9
$QTEXTMODE
 70
     0
  9
$MIRRTEXT
 70
     0
  9
$LTSCALE
 40
20.0
  9
$ATTMODE
 70
     1
  9
$TEXTSIZE
 40
53.0
  9
$TRACEWID
 40
0.05
  9
$TEXTSTYLE
  7
kaigai_standard_1
  9
$CLAYER
  8
NOTE
  9
$CELTYPE
  6
BYLAYER
  9
$CECOLOR
 62
   256
  9
$CELTSCALE
 40
1.0
  9
$DISPSILH
 70
     0
  9
$DIMSCALE
 40
1.0
  9
$DIMASZ
 40
30.0
  9
$DIMEXO
 40
20.0
  9
$DIMDLI
 40
80.0
  9
$DIMRND
 40
0.0
  9
$DIMDLE
 40
0.0
  9
$DIMEXE
 40
20.0
  9
$DIMTP
 40
0.0
  9
$DIMTM
 40
0.0
  9
$DIMTXT
 40
40.0
  9
$DIMCEN
 40
0.09
  9
$DIMTSZ
 40
0.0
  9
$DIMTOL
 70
     0
  9
$DIMLIM
 70
     0
  9
$DIMTIH
 70
     0
  9
$DIMTOH
 70
     0
  9
$DIMSE1
 70
     0
  9
$DIMSE2
 70
     0
  9
$DIMTAD
 70
     1
  9
$DIMZIN
 70
     8
  9
$DIMBLK
  1
Small
  9
$DIMASO
 70
     1
  9
$DIMSHO
 70
     0
  9
$DIMPOST
  1

  9
$DIMAPOST
  1

  9
$DIMALT
 70
     0
  9
$DIMALTD
 70
     2
  9
$DIMALTF
 40
25.4
  9
$DIMLFAC
 40
1.0
  9
$DIMTOFL
 70
     1
  9
$DIMTVP
 40
0.0
  9
$DIMTIX
 70
     0
  9
$DIMSOXD
 70
     0
  9
$DIMSAH
 70
     0
  9
$DIMBLK1
  1

  9
$DIMBLK2
  1

  9
$DIMSTYLE
  2
kaigai_CADSYMBOL
  9
$DIMCLRD
 70
     0
  9
$DIMCLRE
 70
     0
  9
$DIMCLRT
 70
     0
  9
$DIMTFAC
 40
1.0
  9
$DIMGAP
 40
20.0
  9
$DIMJUST
 70
     0
  9
$DIMSD1
 70
     0
  9
$DIMSD2
 70
     0
  9
$DIMTOLJ
 70
     1
  9
$DIMTZIN
 70
     0
  9
$DIMALTZ
 70
     0
  9
$DIMALTTZ
 70
     0
  9
$DIMUPT
 70
     0
  9
$DIMDEC
 70
     1
  9
$DIMTDEC
 70
     1
  9
$DIMALTU
 70
     2
  9
$DIMALTTD
 70
     2
  9
$DIMTXSTY
  7
STANDARD
  9
$DIMAUNIT
 70
     0
  9
$DIMADEC
 70
     0
  9
$DIMALTRND
 40
0.0
  9
$DIMAZIN
 70
     2
  9
$DIMDSEP
 70
    46
  9
$DIMATFIT
 70
     3
  9
$DIMFRAC
 70
     0
  9
$DIMLDRBLK
  1
Open30
  9
$DIMLUNIT
 70
     2
  9
$DIMLWD
 70
    -2
  9
$DIMLWE
 70
    -2
  9
$DIMTMOVE
 70
     0
  9
$LUNITS
 70
     2
  9
$LUPREC
 70
     4
  9
$SKETCHINC
 40
0.1
  9
$FILLETRAD
 40
0.0
  9
$AUNITS
 70
     1
  9
$AUPREC
 70
     3
  9
$MENU
  1
ACAD
  9
$ELEVATION
 40
0.0
  9
$PELEVATION
 40
0.0
  9
$THICKNESS
 40
0.0
  9
$LIMCHECK
 70
     0
  9
$CHAMFERA
 40
0.0
  9
$CHAMFERB
 40
0.0
  9
$CHAMFERC
 40
0.0
  9
$CHAMFERD
 40
0.0
  9
$SKPOLY
 70
     0
  9
$TDCREATE
 40
2455902.607164352
  9
$TDUCREATE
 40
2455902.232169063
  9
$TDUPDATE
 40
2460202.471215278
  9
$TDUUPDATE
 40
2460202.096215278
  9
$TDINDWG
 40
1.6462453819
  9
$TDUSRTIMER
 40
1.6462417708
  9
$USRTIMER
 70
     1
  9
$ANGBASE
 50
0.0
  9
$ANGDIR
 70
     0
  9
$PDMODE
 70
     3
  9
$PDSIZE
 40
-2.0
  9
$PLINEWID
 40
0.0
  9
$SPLFRAME
 70
     0
  9
$SPLINETYPE
 70
     6
  9
$SPLINESEGS
 70
     8
  9
$HANDSEED
  5
9960B
  9
$SURFTAB1
 70
     6
  9
$SURFTAB2
 70
     6
  9
$SURFTYPE
 70
     6
  9
$SURFU
 70
     6
  9
$SURFV
 70
     6
  9
$UCSBASE
  2

  9
$UCSNAME
  2

  9
$UCSORG
 10
0.0
 20
0.0
 30
0.0
  9
$UCSXDIR
 10
1.0
 20
0.0
 30
0.0
  9
$UCSYDIR
 10
0.0
 20
1.0
 30
0.0
  9
$UCSORTHOREF
  2

  9
$UCSORTHOVIEW
 70
     0
  9
$UCSORGTOP
 10
0.0
 20
0.0
 30
0.0
  9
$UCSORGBOTTOM
 10
0.0
 20
0.0
 30
0.0
  9
$UCSORGLEFT
 10
0.0
 20
0.0
 30
0.0
  9
$UCSORGRIGHT
 10
0.0
 20
0.0
 30
0.0
  9
$UCSORGFRONT
 10
0.0
 20
0.0
 30
0.0
  9
$UCSORGBACK
 10
0.0
 20
0.0
 30
0.0
  9
$PUCSBASE
  2

  9
$PUCSNAME
  2

  9
$PUCSORG
 10
0.0
 20
0.0
 30
0.0
  9
$PUCSXDIR
 10
1.0
 20
0.0
 30
0.0
  9
$PUCSYDIR
 10
0.0
 20
1.0
 30
0.0
  9
$PUCSORTHOREF
  2

  9
$PUCSORTHOVIEW
 70
     0
  9
$PUCSORGTOP
 10
0.0
 20
0.0
 30
0.0
  9
$PUCSORGBOTTOM
 10
0.0
 20
0.0
 30
0.0
  9
$PUCSORGLEFT
 10
0.0
 20
0.0
 30
0.0
  9
$PUCSORGRIGHT
 10
0.0
 20
0.0
 30
0.0
  9
$PUCSORGFRONT
 10
0.0
 20
0.0
 30
0.0
  9
$PUCSORGBACK
 10
0.0
 20
0.0
 30
0.0
  9
$USERI1
 70
     0
  9
$USERI2
 70
     0
  9
$USERI3
 70
     0
  9
$USERI4
 70
     0
  9
$USERI5
 70
     0
  9
$USERR1
 40
20.0
  9
$USERR2
 40
0.0
  9
$USERR3
 40
0.0
  9
$USERR4
 40
0.0
  9
$USERR5
 40
0.0
  9
$WORLDVIEW
 70
     1
  9
$SHADEDGE
 70
     3
  9
$SHADEDIF
 70
    70
  9
$TILEMODE
 70
     1
  9
$MAXACTVP
 70
    48
  9
$PINSBASE
 10
0.0
 20
0.0
 30
0.0
  9
$PLIMCHECK
 70
     0
  9
$PEXTMIN
 10
1.000000000000000E+20
 20
1.000000000000000E+20
 30
1.000000000000000E+20
  9
$PEXTMAX
 10
-1.000000000000000E+20
 20
-1.000000000000000E+20
 30
-1.000000000000000E+20
  9
$PLIMMIN
 10
0.0
 20
0.0
  9
$PLIMMAX
 10
12.0
 20
9.0
  9
$UNITMODE
 70
     0
  9
$VISRETAIN
 70
     1
  9
$PLINEGEN
 70
     0
  9
$PSLTSCALE
 70
     1
  9
$TREEDEPTH
 70
  3020
  9
$CMLSTYLE
  2
STANDARD
  9
$CMLJUST
 70
     0
  9
$CMLSCALE
 40
1.0
  9
$PROXYGRAPHICS
 70
     1
  9
$MEASUREMENT
 70
     0
  9
$CELWEIGHT
370
    -1
  9
$ENDCAPS
280
     0
  9
$JOINSTYLE
280
     0
  9
$LWDISPLAY
290
     0
  9
$INSUNITS
 70
     0
  9
$HYPERLINKBASE
  1

  9
$STYLESHEET
  1
MONOCHROME.CTB
  9
$XEDIT
290
     1
  9
$CEPSNTYPE
380
     0
  9
$PSTYLEMODE
290
     1
  9
$FINGERPRINTGUID
  2
{E0B14F79-3871-45BD-B89A-A0F693FE2771}
  9
$VERSIONGUID
  2
{52ABB40D-9DCD-704B-BCC9-8CEE22E32705}
  9
$EXTNAMES
290
     1
  9
$PSVPSCALE
 40
0.0
  9
$OLESTARTUP
290
     0
  0
ENDSEC
  0
SECTION
  2
CLASSES
  0
CLASS
  1
ACDBDICTIONARYWDFLT
  2
AcDbDictionaryWithDefault
  3
ObjectDBX Classes
 90
        0
280
     0
281
     0
  0
CLASS
  1
ACDBPLACEHOLDER
  2
AcDbPlaceHolder
  3
ObjectDBX Classes
 90
        0
280
     0
281
     0
  0
CLASS
  1
LAYOUT
  2
AcDbLayout
  3
ObjectDBX Classes
 90
        0
280
     0
281
     0
  0
CLASS
  1
DICTIONARYVAR
  2
AcDbDictionaryVar
  3
ObjectDBX Classes
 90
        0
280
     0
281
     0
  0
CLASS
  1
SORTENTSTABLE
  2
AcDbSortentsTable
  3
ObjectDBX Classes
 90
        0
280
     0
281
     0
  0
CLASS
  1
MATERIAL
  2
AcDbMaterial
  3
ObjectDBX Classes
 90
     1153
280
     0
281
     0
  0
CLASS
  1
VISUALSTYLE
  2
AcDbVisualStyle
  3
ObjectDBX Classes
 90
     4095
280
     0
281
     0
  0
CLASS
  1
TABLESTYLE
  2
AcDbTableStyle
  3
ObjectDBX Classes
 90
     4095
280
     0
281
     0
  0
CLASS
  1
SCALE
  2
AcDbScale
  3
ObjectDBX Classes
 90
     1153
280
     0
281
     0
  0
CLASS
  1
MLEADERSTYLE
  2
AcDbMLeaderStyle
  3
ACDB_MLEADERSTYLE_CLASS
 90
     4095
280
     0
281
     0
  0
CLASS
  1
CELLSTYLEMAP
  2
AcDbCellStyleMap
  3
ObjectDBX Classes
 90
     1152
280
     0
281
     0
  0
CLASS
  1
ACARRAYJIGENTITY
  2
AcArrayJigEntity
  3
ACAD_ARRAY
 90
    32897
280
     0
281
     1
  0
CLASS
  1
ACDBASSOCNETWORK
  2
AcDbAssocNetwork
  3
ObjectDBX Classes
 90
    33793
280
     0
281
     0
  0
CLASS
  1
ACDBASSOCACTION
  2
AcDbAssocAction
  3
ObjectDBX Classes
 90
    33793
280
     0
281
     0
  0
CLASS
  1
ACDBASSOCARRAYACTIONBODY
  2
AcDbAssocArrayActionBody
  3
ObjectDBX Classes
 90
    33793
280
     0
281
     0
  0
CLASS
  1
ACDBASSOCVERTEXACTIONPARAM
  2
AcDbAssocVertexActionParam
  3
ObjectDBX Classes
 90
    33793
280
     0
281
     0
  0
CLASS
  1
ACDBASSOCDEPENDENCY
  2
AcDbAssocDependency
  3
ObjectDBX Classes
 90
    33793
280
     0
281
     0
  0
CLASS
  1
ACDBASSOCARRAYRECTANGULARPARAMETERS
  2
AcDbAssocArrayRectangularParameters
  3
ObjectDBX Classes
 90
    33793
280
     0
281
     0
  0
CLASS
  1
ACAD_EVALUATION_GRAPH
  2
AcDbEvalGraph
  3
ObjectDBX Classes
 90
    33921
280
     0
281
     0
  0
CLASS
  1
ACAECUSTOBJ
  2
AcAeEditorObj
  3
AcAeEditorObj
 90
    33792
280
     0
281
     0
  0
CLASS
  1
ACDB_DYNAMICBLOCKPURGEPREVENTER_VERSION
  2
AcDbDynamicBlockPurgePreventer
  3
ObjectDBX Classes
 90
    33921
280
     0
281
     0
  0
CLASS
  1
ACDBSECTIONVIEWSTYLE
  2
AcDbSectionViewStyle
  3
ObjectDBX Classes
 90
     1025
280
     0
281
     0
  0
CLASS
  1
ACDBDETAILVIEWSTYLE
  2
AcDbDetailViewStyle
  3
ObjectDBX Classes
 90
     1025
280
     0
281
     0
  0
ENDSEC
  0
SECTION
  2
TABLES
  0
TABLE
  2
VPORT
  5
8
102
{ACAD_XDICTIONARY
360
70D15
102
}
330
0
100
AcDbSymbolTable
 70
     1
  0
VPORT
  5
513CD
330
8
100
AcDbSymbolTableRecord
100
AcDbViewportTableRecord
  2
*Active
 70
     0
 10
0.0
 20
0.0
 11
1.0
 21
1.0
 12
-265.5389559298271
 22
-185.0001921948078
 13
0.0
 23
0.0
 14
50.0
 24
50.0
 15
100.0
 25
100.0
 16
0.0
 26
0.0
 36
1.0
 17
0.0
 27
0.0
 37
0.0
 40
1537.549300361214
 41
2.151432469304229
 42
50.0
 43
0.0
 44
0.0
 50
0.0
 51
0.0
 71
     0
 72
  1000
 73
     1
 74
     0
 75
     0
 76
     0
 77
     0
 78
     0
281
     0
 65
     1
110
0.0
120
0.0
130
0.0
111
1.0
121
0.0
131
0.0
112
0.0
122
1.0
132
0.0
 79
     0
146
0.0
1001
ACAD_NAV_VCDISPLAY
1070
     3
  0
ENDTAB
  0
TABLE
  2
LTYPE
  5
5
330
0
100
AcDbSymbolTable
 70
     3
  0
LTYPE
  5
12
330
5
100
AcDbSymbolTableRecord
100
AcDbLinetypeTableRecord
  2
BYBLOCK
 70
     0
  3

 72
    65
 73
     0
 40
0.0
  0
LTYPE
  5
13
330
5
100
AcDbSymbolTableRecord
100
AcDbLinetypeTableRecord
  2
BYLAYER
 70
     0
  3

 72
    65
 73
     0
 40
0.0
  0
LTYPE
  5
14
330
5
100
AcDbSymbolTableRecord
100
AcDbLinetypeTableRecord
  2
CONTINUOUS
 70
     0
  3
実線
 72
    65
 73
     0
 40
0.0
  0
LTYPE
  5
1F
330
5
100
AcDbSymbolTableRecord
100
AcDbLinetypeTableRecord
  2
DASHDOT
 70
     0
  3
____ _ ____ _ ____ _ ____ _ ____ _ ____ _ ____
 72
    65
 73
     4
 40
5.5
 49
4.0
 74
     0
 49
-0.6
 74
     0
 49
0.3
 74
     0
 49
-0.6
 74
     0
  0
ENDTAB
  0
TABLE
  2
LAYER
  5
2
102
{ACAD_XDICTIONARY
360
5148D
102
}
330
0
100
AcDbSymbolTable
 70
    12
  0
LAYER
  5
E
102
{ACAD_XDICTIONARY
360
5144C
102
}
330
2
100
AcDbSymbolTableRecord
100
AcDbLayerTableRecord
  2
0
 70
     0
 62
     7
  6
CONTINUOUS
370
    -3
390
21F0
  0
LAYER
  5
25
102
{ACAD_XDICTIONARY
360
5144E
102
}
330
2
100
AcDbSymbolTableRecord
100
AcDbLayerTableRecord
  2
OUTLINE
 70
     0
 62
     3
  6
CONTINUOUS
370
    -3
390
21F0
  0
LAYER
  5
26
102
{ACAD_XDICTIONARY
360
51450
102
}
330
2
100
AcDbSymbolTableRecord
100
AcDbLayerTableRecord
  2
DETAIL
 70
     0
 62
     5
  6
CONTINUOUS
370
    -3
390
21F0
  0
LAYER
  5
27
102
{ACAD_XDICTIONARY
360
51452
102
}
330
2
100
AcDbSymbolTableRecord
100
AcDbLayerTableRecord
  2
BASIS
 70
     0
 62
     6
  6
DASHDOT
370
    -3
390
21F0
  0
LAYER
  5
28
102
{ACAD_XDICTIONARY
360
51454
102
}
330
2
100
AcDbSymbolTableRecord
100
AcDbLayerTableRecord
  2
SIZE
 70
     0
 62
    30
  6
CONTINUOUS
370
    -3
390
21F0
  0
LAYER
  5
29
102
{ACAD_XDICTIONARY
360
51456
102
}
330
2
100
AcDbSymbolTableRecord
100
AcDbLayerTableRecord
  2
NOTE
 70
     0
 62
     4
  6
CONTINUOUS
370
    -3
390
21F0
  0
LAYER
  5
2A
330
2
100
AcDbSymbolTableRecord
100
AcDbLayerTableRecord
  2
DEFPOINTS
 70
     0
 62
     7
  6
CONTINUOUS
290
     0
370
    -3
390
21F0
  0
LAYER
  5
2B
102
{ACAD_XDICTIONARY
360
51458
102
}
330
2
100
AcDbSymbolTableRecord
100
AcDbLayerTableRecord
  2
FIX
 70
     0
 62
    11
  6
CONTINUOUS
370
    -3
390
21F0
  0
LAYER
  5
2C
102
{ACAD_XDICTIONARY
360
5145A
102
}
330
2
100
AcDbSymbolTableRecord
100
AcDbLayerTableRecord
  2
ARRANGE
 70
     0
 62
     1
  6
CONTINUOUS
370
    -3
390
21F0
  0
LAYER
  5
2D
102
{ACAD_XDICTIONARY
360
5145C
102
}
330
2
100
AcDbSymbolTableRecord
100
AcDbLayerTableRecord
  2
ETC
 70
     0
 62
    61
  6
CONTINUOUS
370
    -3
390
21F0
  0
LAYER
  5
85433
102
{ACAD_XDICTIONARY
360
85434
102
}
330
2
100
AcDbSymbolTableRecord
100
AcDbLayerTableRecord
  2
SERVICESPACE
 70
     0
 62
     2
  6
DASHDOT
370
    -3
390
21F0
  0
LAYER
  5
85435
102
{ACAD_XDICTIONARY
360
85436
102
}
330
2
100
AcDbSymbolTableRecord
100
AcDbLayerTableRecord
  2
SYMBOLLINE
 70
     0
 62
    15
  6
CONTINUOUS
370
    -3
390
21F0
  0
ENDTAB
  0
TABLE
  2
STYLE
  5
3
330
0
100
AcDbSymbolTable
 70
     6
  0
STYLE
  5
F
330
3
100
AcDbSymbolTableRecord
100
AcDbTextStyleTableRecord
  2
STANDARD
 70
     0
 40
0.0
 41
0.9
 50
0.0
 71
     0
 42
64.0
  3
SIMPLEX
  4
BIGFONT
  0
STYLE
  5
30
330
3
100
AcDbSymbolTableRecord
100
AcDbTextStyleTableRecord
  2
STANDARD1
 70
     0
 40
60.0
 41
0.7
 50
0.0
 71
     0
 42
60.0
  3
MONOTXT.shx
  4
BIGFONT.shx
  0
STYLE
  5
51425
330
3
100
AcDbSymbolTableRecord
100
AcDbTextStyleTableRecord
  2
STANDARD_MODELNAME
 70
     0
 40
80.0
 41
0.8
 50
0.0
 71
     0
 42
64.0
  3
MONOTXT.shx
  4
BIGFONT.shx
  0
STYLE
  5
6FACE
330
3
100
AcDbSymbolTableRecord
100
AcDbTextStyleTableRecord
  2
kaigai_standard_1
 70
     0
 40
53.0
 41
0.51
 50
0.0
 71
     0
 42
53.0
  3
MONOTXT.shx
  4
BIGFONT.shx
  0
STYLE
  5
73585
330
3
100
AcDbSymbolTableRecord
100
AcDbTextStyleTableRecord
  2
ZU_SHPTB00001
 70
     0
 40
0.0
 41
1.0
 50
0.0
 71
     0
 42
0.0
  3
monotxt
  4
bigfont
  0
STYLE
  5
9924D
330
3
100
AcDbSymbolTableRecord
100
AcDbTextStyleTableRecord
  2
note
 70
     0
 40
0.0
 41
0.7
 50
0.0
 71
     0
 42
64.0
  3
SIMPLEX.shx
  4
BIGFONT.shx
  0
ENDTAB
  0
TABLE
  2
VIEW
  5
6
330
0
100
AcDbSymbolTable
 70
     1
  0
VIEW
  5
31
330
6
100
AcDbSymbolTableRecord
100
AcDbViewTableRecord
  2
ALL
 70
     0
 40
9000.0
 10
241.506647
 20
0.0
 41
12483.01
 11
0.0
 21
0.0
 31
1.0
 12
0.0
 22
0.0
 32
0.0
 42
50.0
 43
0.0
 44
0.0
 50
0.0
 71
     0
281
     0
 72
     0
  0
ENDTAB
  0
TABLE
  2
UCS
  5
7
330
0
100
AcDbSymbolTable
 70
     0
  0
ENDTAB
  0
TABLE
  2
APPID
  5
9
330
0
100
AcDbSymbolTable
 70
    13
  0
APPID
  5
10
330
9
100
AcDbSymbolTableRecord
100
AcDbRegAppTableRecord
  2
ACAD
 70
     0
  0
APPID
  5
51420
330
9
100
AcDbSymbolTableRecord
100
AcDbRegAppTableRecord
  2
ACAD_MLEADERVER
 70
     0
  0
APPID
  5
51424
330
9
100
AcDbSymbolTableRecord
100
AcDbRegAppTableRecord
  2
AcadAnnoPO
 70
     0
  0
APPID
  5
6B6C8
330
9
100
AcDbSymbolTableRecord
100
AcDbRegAppTableRecord
  2
ACAD_PSEXT
 70
     0
  0
APPID
  5
6CFAF
330
9
100
AcDbSymbolTableRecord
100
AcDbRegAppTableRecord
  2
ACAD_EXEMPT_FROM_CAD_STANDARDS
 70
     0
  0
APPID
  5
6E4A4
330
9
100
AcDbSymbolTableRecord
100
AcDbRegAppTableRecord
  2
ACAD_DSTYLE_DIMJAG
 70
     0
  0
APPID
  5
6E4A5
330
9
100
AcDbSymbolTableRecord
100
AcDbRegAppTableRecord
  2
ACAD_DSTYLE_DIMTALN
 70
     0
  0
APPID
  5
6EF6C
330
9
100
AcDbSymbolTableRecord
100
AcDbRegAppTableRecord
  2
ACAD_DSTYLE_DIMBREAK
 70
     0
  0
APPID
  5
70D0F
330
9
100
AcDbSymbolTableRecord
100
AcDbRegAppTableRecord
  2
ACAD_NAV_VCDISPLAY
 70
     0
  0
APPID
  5
990C9
330
9
100
AcDbSymbolTableRecord
100
AcDbRegAppTableRecord
  2
ACAUTHENVIRON
 70
     0
  0
APPID
  5
990CD
330
9
100
AcDbSymbolTableRecord
100
AcDbRegAppTableRecord
  2
AcDbDynamicBlockTrueName
 70
     0
  0
APPID
  5
990CE
330
9
100
AcDbSymbolTableRecord
100
AcDbRegAppTableRecord
  2
AcDbDynamicBlockGUID
 70
     0
  0
APPID
  5
9924E
330
9
100
AcDbSymbolTableRecord
100
AcDbRegAppTableRecord
  2
AcLayerTools
 70
     0
  0
ENDTAB
  0
TABLE
  2
DIMSTYLE
  5
A
330
0
100
AcDbSymbolTable
 70
     3
100
AcDbDimStyleTable
 71
     2
340
6EF6D
340
138
  0
DIMSTYLE
105
138
330
A
100
AcDbSymbolTableRecord
100
AcDbDimStyleTableRecord
  2
STANDARD
 70
     0
 73
     0
 74
     0
 77
     1
140
40.0
147
15.0
340
F
1001
ACAD_DSTYLE_DIMJAG
1070
   388
1040
1.5
1001
ACAD_DSTYLE_DIMTALN
1070
   392
1070
     0
  0
DIMSTYLE
105
6EF6D
330
A
100
AcDbSymbolTableRecord
100
AcDbDimStyleTableRecord
  2
kaigai_CADSYMBOL
 70
     0
 41
30.0
 42
20.0
 43
80.0
 44
20.0
 73
     0
 74
     0
 77
     1
 78
     8
 79
     2
140
40.0
147
20.0
172
     1
271
     1
272
     1
340
F
341
4C0C3
342
4C0BF
1001
ACAD_DSTYLE_DIMBREAK
1070
   391
1040
0.125
1001
ACAD_DSTYLE_DIMJAG
1070
   388
1040
1.5
1001
ACAD_DSTYLE_DIMTALN
1070
   392
1070
     0
  0
DIMSTYLE
105
7FE04
330
A
100
AcDbSymbolTableRecord
100
AcDbDimStyleTableRecord
  2
CADSYMBOL
 70
     0
 41
30.0
 42
20.0
 43
80.0
 44
20.0
 73
     0
 74
     0
 77
     1
 78
     8
 79
     2
140
60.0
147
20.0
172
     1
271
     1
272
     1
340
F
341
4C0C3
342
4C0BF
  0
ENDTAB
  0
TABLE
  2
BLOCK_RECORD
  5
1
330
0
100
AcDbSymbolTable
 70
     3
  0
BLOCK_RECORD
  5
18
102
{ACAD_XDICTIONARY
360
28B3
102
}
330
1
100
AcDbSymbolTableRecord
100
AcDbBlockTableRecord
  2
*MODEL_SPACE
340
21F3
  0
BLOCK_RECORD
  5
15
102
{ACAD_XDICTIONARY
360
29B6
102
}
330
1
100
AcDbSymbolTableRecord
100
AcDbBlockTableRecord
  2
*PAPER_SPACE
340
21F4
  0
BLOCK_RECORD
  5
4C0BF
330
1
100
AcDbSymbolTableRecord
100
AcDbBlockTableRecord
  2
_Small
340
0
  0
BLOCK_RECORD
  5
4C0C3
102
{ACAD_XDICTIONARY
360
990CA
102
}
330
1
100
AcDbSymbolTableRecord
100
AcDbBlockTableRecord
  2
_Open30
340
0
1001
AcDbDynamicBlockGUID
1000
{CF3FF556-EE00-416E-9104-4A9DDFC40C99}
  0
BLOCK_RECORD
  5
9924F
102
{ACAD_XDICTIONARY
360
993E4
102
}
330
1
100
AcDbSymbolTableRecord
100
AcDbBlockTableRecord
  2
block
340
0
  0
ENDTAB
  0
ENDSEC
  0
SECTION
  2
BLOCKS
  0
BLOCK
  5
19
330
18
100
AcDbEntity
  8
0
100
AcDbBlockBegin
  2
*MODEL_SPACE
 70
     0
 10
0.0
 20
0.0
 30
0.0
  3
*MODEL_SPACE
  1

  0
ENDBLK
  5
1A
330
18
100
AcDbEntity
  8
0
100
AcDbBlockEnd
  0
BLOCK
  5
16
330
15
100
AcDbEntity
 67
     1
  8
0
100
AcDbBlockBegin
  2
*PAPER_SPACE
 70
     0
 10
0.0
 20
0.0
 30
0.0
  3
*PAPER_SPACE
  1

  0
ENDBLK
  5
17
330
15
100
AcDbEntity
 67
     1
  8
0
100
AcDbBlockEnd
  0
BLOCK
  5
4C0C1
330
4C0BF
100
AcDbEntity
  8
0
100
AcDbBlockBegin
  2
_Small
 70
     0
 10
0.0
 20
0.0
 30
0.0
  3
_Small
  1

  0
CIRCLE
  5
4C0C0
330
4C0BF
100
AcDbEntity
  8
0
  6
ByBlock
 62
     0
370
    -2
100
AcDbCircle
 10
0.0
 20
0.0
 30
0.0
 40
0.25
  0
ENDBLK
  5
4C0C2
330
4C0BF
100
AcDbEntity
  8
0
100
AcDbBlockEnd
  0
BLOCK
  5
4C0C7
330
4C0C3
100
AcDbEntity
  8
0
100
AcDbBlockBegin
  2
_Open30
 70
     0
 10
0.0
 20
0.0
 30
0.0
  3
_Open30
  1

  0
LINE
  5
990C6
330
4C0C3
100
AcDbEntity
  8
NOTE
100
AcDbLine
 10
-1.0
 20
0.26794919
 30
0.0
 11
0.0
 21
0.0
 31
0.0
  0
LINE
  5
990C7
330
4C0C3
100
AcDbEntity
  8
NOTE
100
AcDbLine
 10
0.0
 20
0.0
 30
0.0
 11
-1.0
 21
-0.26794919
 31
0.0
  0
LINE
  5
990C8
330
4C0C3
100
AcDbEntity
  8
NOTE
100
AcDbLine
 10
0.0
 20
0.0
 30
0.0
 11
-1.0
 21
0.0
 31
0.0
  0
ENDBLK
  5
4C0C8
330
4C0C3
100
AcDbEntity
  8
0
100
AcDbBlockEnd
  0
BLOCK
  5
993E6
330
9924F
100
AcDbEntity
  8
0
100
AcDbBlockBegin
  2
block
 70
     0
 10
0.0
 20
0.0
 30
0.0
  3
block
  1

  0
LINE
  5
99250
330
9924F
100
AcDbEntity
  8
DETAIL
100
AcDbLine
 10
-450.0000000000018
 20
0.0000000000004547
 30
0.0
 11
-0.000000000001819
 21
0.0000000000004547
 31
0.0
  0
LINE
  5
99251
330
9924F
100
AcDbEntity
  8
DETAIL
100
AcDbLine
 10
-429.0000000000018
 20
-17.99999999999954
 30
0.0
 11
-0.000000000001819
 21
-17.99999999999954
 31
0.0
  0
LINE
  5
99252
330
9924F
100
AcDbEntity
  8
DETAIL
100
AcDbLine
 10
-429.0000000000018
 20
-227.9999999999995
 30
0.0
 11
-0.000000000001819
 21
-227.9999999999995
 31
0.0
  0
LINE
  5
99253
330
9924F
100
AcDbEntity
  8
DETAIL
100
AcDbLine
 10
-450.0000000000018
 20
-237.2390450899982
 30
0.0
 11
-490.0000000000018
 21
-237.2390450899982
 31
0.0
  0
LINE
  5
99254
330
9924F
100
AcDbEntity
  8
DETAIL
100
AcDbLine
 10
-490.0000000000018
 20
-237.2390450899979
 30
0.0
 11
-490.0000000000018
 21
-197.2499717331807
 31
0.0
  0
LINE
  5
99255
330
9924F
100
AcDbEntity
  8
DETAIL
100
AcDbLine
 10
-450.0000000000018
 20
-249.9999999999843
 30
0.0
 11
-0.000000000001819
 21
-249.9999999999843
 31
0.0
  0
LINE
  5
99256
330
9924F
100
AcDbEntity
  8
DETAIL
100
AcDbLine
 10
-450.0000000000018
 20
0.0000000000003411
 30
0.0
 11
-450.0000000000018
 21
-249.9999999999843
 31
0.0
  0
LINE
  5
99257
330
9924F
100
AcDbEntity
  8
DETAIL
100
AcDbLine
 10
-429.0000000000018
 20
-17.99999999999943
 30
0.0
 11
-429.0000000000018
 21
-227.9999999999995
 31
0.0
  0
LINE
  5
99258
330
9924F
100
AcDbEntity
  8
NOTE
100
AcDbLine
 10
-507.99781467136
 20
-30.12252827872283
 30
0.0
 11
-507.99781467136
 21
-51.85507210270919
 31
0.0
  0
LINE
  5
99259
330
9924F
100
AcDbEntity
  8
NOTE
100
AcDbLine
 10
-518.8640865833531
 20
-40.98880019071599
 30
0.0
 11
-497.1315427593672
 21
-40.98880019071599
 31
0.0
  0
LINE
  5
9925A
330
9924F
100
AcDbEntity
  8
NOTE
100
AcDbLine
 10
-490.0000000000018
 20
-206.3782364995961
 30
0.0
 11
-490.0000000000018
 21
-228.1107803235825
 31
0.0
  0
LINE
  5
9925B
330
9924F
100
AcDbEntity
  8
NOTE
100
AcDbLine
 10
-500.8662719119893
 20
-216.9999999999841
 30
0.0
 11
-479.1337280880034
 21
-216.9999999999841
 31
0.0
  0
LINE
  5
9925C
330
9924F
100
AcDbEntity
  8
NOTE
100
AcDbLine
 10
-490.0000000000018
 20
-216.9999999999841
 30
0.0
 11
-458.7586992678133
 21
-202.6357806145879
 31
0.0
  0
LINE
  5
9925D
330
9924F
100
AcDbEntity
  8
NOTE
100
AcDbLine
 10
-490.0000000000018
 20
-216.9999999999841
 30
0.0
 11
-470.1263500202058
 21
-188.9395704510714
 31
0.0
  0
LINE
  5
9925E
330
9924F
100
AcDbEntity
  8
NOTE
100
AcDbLine
 10
-415.1565895643051
 20
-155.7851159357694
 30
0.0
 11
-490.0000000000018
 21
-216.9999999999841
 31
0.0
  0
LINE
  5
9925F
330
9924F
100
AcDbEntity
  8
NOTE
100
AcDbLine
 10
-477.0000000000018
 20
-4.155187315475586
 30
0.0
 11
-477.0000000000018
 21
-25.88773113946195
 31
0.0
  0
LINE
  5
99260
330
9924F
100
AcDbEntity
  8
NOTE
100
AcDbLine
 10
-487.8662719119946
 20
-15.02145922746876
 30
0.0
 11
-466.1337280880088
 21
-15.02145922746876
 31
0.0
  0
LINE
  5
99261
330
9924F
100
AcDbEntity
  8
NOTE
100
AcDbLine
 10
-400.0000000000018
 20
-231.3634875954394
 30
0.0
 11
-400.0000000000018
 21
-238.6365124045596
 31
0.0
  0
LINE
  5
99262
330
9924F
100
AcDbEntity
  8
NOTE
100
AcDbLine
 10
-403.6365124045623
 20
-234.9999999999996
 30
0.0
 11
-396.3634875954412
 21
-234.9999999999996
 31
0.0
  0
CIRCLE
  5
99263
330
9924F
100
AcDbEntity
  8
DETAIL
100
AcDbCircle
 10
-400.0000000000018
 20
-234.9999999999996
 30
0.0
 40
1.45
  0
LINE
  5
99264
330
9924F
100
AcDbEntity
  8
NOTE
100
AcDbLine
 10
-444.0000000000018
 20
-119.3634875954394
 30
0.0
 11
-444.0000000000018
 21
-126.6365124045596
 31
0.0
  0
LINE
  5
99265
330
9924F
100
AcDbEntity
  8
NOTE
100
AcDbLine
 10
-447.6365124045623
 20
-122.9999999999995
 30
0.0
 11
-440.3634875954412
 21
-122.9999999999995
 31
0.0
  0
CIRCLE
  5
99266
330
9924F
100
AcDbEntity
  8
DETAIL
100
AcDbCircle
 10
-444.0000000000018
 20
-122.9999999999995
 30
0.0
 40
1.45
  0
LINE
  5
99267
330
9924F
100
AcDbEntity
  8
DETAIL
100
AcDbLine
 10
499.9999999999982
 20
-15.02145922746876
 30
0.0
 11
499.9999999999982
 21
-26.99262451584161
 31
0.0
  0
LINE
  5
99268
330
9924F
100
AcDbEntity
  8
DETAIL
100
AcDbLine
 10
497.5006829151952
 20
-17.69516496038647
 30
0.0
 11
497.5006829151952
 21
-26.99262451584161
 31
0.0
  0
LINE
  5
99269
330
9924F
100
AcDbEntity
  8
DETAIL
100
AcDbLine
 10
497.5006829151952
 20
-26.99262451584161
 30
0.0
 11
499.9999999999982
 21
-26.99262451584161
 31
0.0
  0
LINE
  5
9926A
330
9924F
100
AcDbEntity
  8
DETAIL
100
AcDbLine
 10
449.9999999999963
 20
-17.49521959359072
 30
0.0
 11
497.3007375484138
 21
-17.4952195935906
 31
0.0
  0
LINE
  5
9926B
330
9924F
100
AcDbEntity
  8
DETAIL
100
AcDbLine
 10
449.9999999999963
 20
-15.02145922746888
 30
0.0
 11
499.9999999999982
 21
-15.02145922746876
 31
0.0
  0
LINE
  5
9926C
330
9924F
100
AcDbEntity
  8
DETAIL
100
AcDbLine
 10
449.9999999999982
 20
0.0000000000004547
 30
0.0
 11
-0.000000000001819
 21
0.0000000000004547
 31
0.0
  0
LINE
  5
9926D
330
9924F
100
AcDbEntity
  8
DETAIL
100
AcDbLine
 10
428.9999999999982
 20
-17.99999999999954
 30
0.0
 11
-0.000000000001819
 21
-17.99999999999954
 31
0.0
  0
LINE
  5
9926E
330
9924F
100
AcDbEntity
  8
DETAIL
100
AcDbLine
 10
428.9999999999982
 20
-227.9999999999995
 30
0.0
 11
-0.000000000001819
 21
-227.9999999999995
 31
0.0
  0
ARC
  5
9926F
330
9924F
100
AcDbEntity
  8
DETAIL
100
AcDbCircle
 10
497.3007375484138
 20
-17.69516496038647
 30
0.0
 40
0.1999453667838173
100
AcDbArc
 50
0.0
 51
90.0
  0
LINE
  5
99270
330
9924F
100
AcDbEntity
  8
DETAIL
100
AcDbLine
 10
449.9999999999982
 20
-249.9999999999843
 30
0.0
 11
-0.000000000001819
 21
-249.9999999999843
 31
0.0
  0
LINE
  5
99271
330
9924F
100
AcDbEntity
  8
DETAIL
100
AcDbLine
 10
449.9999999999982
 20
0.0000000000003411
 30
0.0
 11
449.9999999999982
 21
-249.9999999999843
 31
0.0
  0
LINE
  5
99272
330
9924F
100
AcDbEntity
  8
DETAIL
100
AcDbLine
 10
428.9999999999982
 20
-17.99999999999943
 30
0.0
 11
428.9999999999982
 21
-227.9999999999995
 31
0.0
  0
LINE
  5
99273
330
9924F
100
AcDbEntity
  8
NOTE
100
AcDbLine
 10
476.999999999998
 20
-4.155187315475586
 30
0.0
 11
476.999999999998
 21
-25.88773113946195
 31
0.0
  0
LINE
  5
99274
330
9924F
100
AcDbEntity
  8
NOTE
100
AcDbLine
 10
487.8662719119911
 20
-15.02145922746876
 30
0.0
 11
466.1337280880052
 21
-15.02145922746876
 31
0.0
  0
LINE
  5
99275
330
9924F
100
AcDbEntity
  8
NOTE
100
AcDbLine
 10
389.9999999999982
 20
-7.363487595439551
 30
0.0
 11
389.9999999999982
 21
-14.63651240455976
 31
0.0
  0
LINE
  5
99276
330
9924F
100
AcDbEntity
  8
NOTE
100
AcDbLine
 10
393.6365124045588
 20
-10.99999999999966
 30
0.0
 11
386.3634875954376
 21
-10.99999999999966
 31
0.0
  0
CIRCLE
  5
99277
330
9924F
100
AcDbEntity
  8
DETAIL
100
AcDbCircle
 10
389.9999999999982
 20
-10.99999999999966
 30
0.0
 40
1.45
  0
LINE
  5
99278
330
9924F
100
AcDbEntity
  8
NOTE
100
AcDbLine
 10
389.9999999999982
 20
-231.3634875954394
 30
0.0
 11
389.9999999999982
 21
-238.6365124045596
 31
0.0
  0
LINE
  5
99279
330
9924F
100
AcDbEntity
  8
NOTE
100
AcDbLine
 10
393.6365124045588
 20
-234.9999999999996
 30
0.0
 11
386.3634875954376
 21
-234.9999999999996
 31
0.0
  0
CIRCLE
  5
9927A
330
9924F
100
AcDbEntity
  8
DETAIL
100
AcDbCircle
 10
389.9999999999982
 20
-234.9999999999996
 30
0.0
 40
1.45
  0
LINE
  5
9927B
330
9924F
100
AcDbEntity
  8
NOTE
100
AcDbLine
 10
443.999999999998
 20
-119.3634875954394
 30
0.0
 11
443.999999999998
 21
-126.6365124045596
 31
0.0
  0
LINE
  5
9927C
330
9924F
100
AcDbEntity
  8
NOTE
100
AcDbLine
 10
447.6365124045587
 20
-122.9999999999995
 30
0.0
 11
440.3634875954374
 21
-122.9999999999995
 31
0.0
  0
CIRCLE
  5
9927D
330
9924F
100
AcDbEntity
  8
DETAIL
100
AcDbCircle
 10
443.999999999998
 20
-122.9999999999995
 30
0.0
 40
1.45
  0
CIRCLE
  5
9927E
330
9924F
100
AcDbEntity
  8
FIX
100
AcDbCircle
 10
-477.0000000000018
 20
-15.02145922746876
 30
0.0
 40
9.947006128806801
  0
CIRCLE
  5
9927F
330
9924F
100
AcDbEntity
  8
FIX
100
AcDbCircle
 10
476.999999999998
 20
-14.99999999998408
 30
0.0
 40
9.947006128806801
  0
LINE
  5
99280
330
9924F
100
AcDbEntity
  8
SIZE
100
AcDbLine
 10
465.0000000000018
 20
0.0000000000004636
 30
0.0
 11
575.3073438570427
 21
0.0000000000004814
 31
0.0
  0
LINE
  5
99281
330
9924F
100
AcDbEntity
  8
SIZE
100
AcDbLine
 10
502.8662719119948
 20
-15.02145922746876
 30
0.0
 11
575.3073438570427
 21
-15.02145922746875
 31
0.0
  0
LINE
  5
99282
330
9924F
100
AcDbEntity
  8
SIZE
100
AcDbLine
 10
570.3073438570426
 20
-15.02145922746875
 30
0.0
 11
570.3073438570426
 21
-35.02145922746875
 31
0.0
  0
LINE
  5
99283
330
9924F
100
AcDbEntity
  8
SIZE
100
AcDbLine
 10
570.3073438570426
 20
0.0000000000004814
 30
0.0
 11
570.3073438570426
 21
108.5714285714329
 31
0.0
  0
LINE
  5
99284
330
9924F
100
AcDbEntity
  8
SIZE
100
AcDbLine
 10
570.3073438570426
 20
-15.02145922746875
 30
0.0
 11
570.3073438570426
 21
0.0000000000004814
 31
0.0
  0
CIRCLE
  5
99285
330
9924F
100
AcDbEntity
  8
SIZE
100
AcDbCircle
 10
570.3073438570426
 20
-15.02145922746875
 30
0.0
 40
5.0
  0
CIRCLE
  5
99286
330
9924F
100
AcDbEntity
  8
SIZE
100
AcDbCircle
 10
570.3073438570426
 20
0.0000000000004814
 30
0.0
 40
5.0
  0
TEXT
  5
99287
330
9924F
100
AcDbEntity
  8
SIZE
100
AcDbText
 10
555.3073438570407
 20
55.0000000000024
 30
0.0
 40
30.0
  1
15
 50
90.0
 41
0.9
100
AcDbText
  0
LINE
  5
99288
330
9924F
100
AcDbEntity
  8
NOTE
100
AcDbLine
 10
476.9944553664389
 20
-15.00072868278403
 30
0.0
 11
491.5241762112854
 21
16.16394494235874
 31
0.0
  0
LINE
  5
99289
330
9924F
100
AcDbEntity
  8
NOTE
100
AcDbLine
 10
476.9944553664389
 20
-15.00072868278403
 30
0.0
 11
473.9952254163291
 21
19.25353075594012
 31
0.0
  0
LINE
  5
9928A
330
9924F
100
AcDbEntity
  8
NOTE
100
AcDbLine
 10
552.9473925726741
 20
398.4973002814458
 30
0.0
 11
476.9944553664389
 21
-15.00072868278403
 31
0.0
  0
LINE
  5
9928B
330
9924F
100
AcDbEntity
  8
SIZE
100
AcDbLine
 10
-465.0
 20
0.0000000000003464
 30
0.0
 11
-555.8486124123674
 21
0.0000000000003322
 31
0.0
  0
LINE
  5
9928C
330
9924F
100
AcDbEntity
  8
SIZE
100
AcDbLine
 10
-533.8640865833513
 20
-40.98880019071602
 30
0.0
 11
-555.8486124123674
 21
-40.98880019071602
 31
0.0
  0
LINE
  5
9928D
330
9924F
100
AcDbEntity
  8
SIZE
100
AcDbLine
 10
-550.8486124123674
 20
-40.98880019071602
 30
0.0
 11
-550.8486124123674
 21
0.0000000000003322
 31
0.0
  0
LINE
  5
9928E
330
9924F
100
AcDbEntity
  8
SIZE
100
AcDbLine
 10
-550.8486124123674
 20
0.0000000000003322
 30
0.0
 11
-550.8486124123674
 21
118.8467663136104
 31
0.0
  0
CIRCLE
  5
9928F
330
9924F
100
AcDbEntity
  8
SIZE
100
AcDbCircle
 10
-550.8486124123674
 20
-40.98880019071602
 30
0.0
 40
5.0
  0
CIRCLE
  5
99290
330
9924F
100
AcDbEntity
  8
SIZE
100
AcDbCircle
 10
-550.8486124123674
 20
0.0000000000003322
 30
0.0
 40
5.0
  0
TEXT
  5
99291
330
9924F
100
AcDbEntity
  8
SIZE
100
AcDbText
 10
-565.8486124123681
 20
71.70390917075166
 30
0.0
 40
30.0
  1
41
 50
90.0
 41
0.9
100
AcDbText
  0
LINE
  5
99292
330
9924F
100
AcDbEntity
  8
SIZE
100
AcDbLine
 10
-465.0
 20
0.0000000000004601
 30
0.0
 11
-837.5869839327725
 21
0.0000000000003997
 31
0.0
  0
LINE
  5
99293
330
9924F
100
AcDbEntity
  8
SIZE
100
AcDbLine
 10
-515.8662719119875
 20
-216.9999999999842
 30
0.0
 11
-837.5869839327725
 21
-216.9999999999843
 31
0.0
  0
LINE
  5
99294
330
9924F
100
AcDbEntity
  8
SIZE
100
AcDbLine
 10
-832.5869839327722
 20
0.0000000000003997
 30
0.0
 11
-832.5869839327722
 21
-216.9999999999843
 31
0.0
  0
CIRCLE
  5
99295
330
9924F
100
AcDbEntity
  8
SIZE
100
AcDbCircle
 10
-832.5869839327722
 20
0.0000000000003997
 30
0.0
 40
5.0
  0
CIRCLE
  5
99296
330
9924F
100
AcDbEntity
  8
SIZE
100
AcDbCircle
 10
-832.5869839327722
 20
-216.9999999999843
 30
0.0
 40
5.0
  0
TEXT
  5
99297
330
9924F
100
AcDbEntity
  8
SIZE
100
AcDbText
 10
-847.5869839327732
 20
-140.6428571428476
 30
0.0
 40
30.0
  1
217
 50
90.0
 41
0.9
100
AcDbText
  0
LINE
  5
99298
330
9924F
100
AcDbEntity
  8
SIZE
100
AcDbLine
 10
465.0000000000018
 20
0.0000000000003499
 30
0.0
 11
733.5902241016137
 21
0.0000000000003926
 31
0.0
  0
LINE
  5
99299
330
9924F
100
AcDbEntity
  8
SIZE
100
AcDbLine
 10
465.0000000000018
 20
-249.9999999999844
 30
0.0
 11
733.5902241016137
 21
-249.9999999999844
 31
0.0
  0
LINE
  5
9929A
330
9924F
100
AcDbEntity
  8
SIZE
100
AcDbLine
 10
728.5902241016137
 20
0.0000000000003926
 30
0.0
 11
728.5902241016137
 21
-249.9999999999844
 31
0.0
  0
CIRCLE
  5
9929B
330
9924F
100
AcDbEntity
  8
SIZE
100
AcDbCircle
 10
728.5902241016137
 20
0.0000000000003926
 30
0.0
 40
5.0
  0
CIRCLE
  5
9929C
330
9924F
100
AcDbEntity
  8
SIZE
100
AcDbCircle
 10
728.5902241016137
 20
-249.9999999999844
 30
0.0
 40
5.0
  0
TEXT
  5
9929D
330
9924F
100
AcDbEntity
  8
SIZE
100
AcDbText
 10
713.5902241016119
 20
-159.7142857142796
 30
0.0
 40
30.0
  1
250
 50
90.0
 41
0.9
100
AcDbText
  0
LINE
  5
9929E
330
9924F
100
AcDbEntity
  8
SIZE
100
AcDbLine
 10
-500.0000000000018
 20
-0.0214592274687675
 30
0.0
 11
-500.0000000000018
 21
389.0456839755288
 31
0.0
  0
LINE
  5
9929F
330
9924F
100
AcDbEntity
  8
SIZE
100
AcDbLine
 10
-477.0000000000018
 20
9.925546901338066
 30
0.0
 11
-477.0000000000018
 21
389.0456839755288
 31
0.0
  0
LINE
  5
992A0
330
9924F
100
AcDbEntity
  8
SIZE
100
AcDbLine
 10
-477.0000000000018
 20
384.0456839755288
 30
0.0
 11
-457.0000000000018
 21
384.0456839755288
 31
0.0
  0
LINE
  5
992A1
330
9924F
100
AcDbEntity
  8
SIZE
100
AcDbLine
 10
-500.0000000000018
 20
384.0456839755288
 30
0.0
 11
-613.7142857142871
 21
384.0456839755288
 31
0.0
  0
LINE
  5
992A2
330
9924F
100
AcDbEntity
  8
SIZE
100
AcDbLine
 10
-477.0000000000018
 20
384.0456839755288
 30
0.0
 11
-500.0000000000018
 21
384.0456839755288
 31
0.0
  0
CIRCLE
  5
992A3
330
9924F
100
AcDbEntity
  8
SIZE
100
AcDbCircle
 10
-477.0000000000018
 20
384.0456839755288
 30
0.0
 40
5.0
  0
CIRCLE
  5
992A4
330
9924F
100
AcDbEntity
  8
SIZE
100
AcDbCircle
 10
-500.0000000000018
 20
384.0456839755288
 30
0.0
 40
5.0
  0
TEXT
  5
992A5
330
9924F
100
AcDbEntity
  8
SIZE
100
AcDbText
 10
-598.714285714288
 20
399.0456839755288
 30
0.0
 40
30.0
  1
23
 41
0.9
100
AcDbText
  0
LINE
  5
992A6
330
9924F
100
AcDbEntity
  8
SIZE
100
AcDbLine
 10
-477.0000000000018
 20
10.84481268452441
 30
0.0
 11
-477.0000000000018
 21
389.0456839755288
 31
0.0
  0
LINE
  5
992A7
330
9924F
100
AcDbEntity
  8
SIZE
100
AcDbLine
 10
476.999999999998
 20
10.84481268452441
 30
0.0
 11
476.999999999998
 21
389.0456839755288
 31
0.0
  0
LINE
  5
992A8
330
9924F
100
AcDbEntity
  8
SIZE
100
AcDbLine
 10
-477.0000000000018
 20
384.0456839755288
 30
0.0
 11
476.999999999998
 21
384.0456839755288
 31
0.0
  0
CIRCLE
  5
992A9
330
9924F
100
AcDbEntity
  8
SIZE
100
AcDbCircle
 10
-477.0000000000018
 20
384.0456839755288
 30
0.0
 40
5.0
  0
CIRCLE
  5
992AA
330
9924F
100
AcDbEntity
  8
SIZE
100
AcDbCircle
 10
476.999999999998
 20
384.0456839755288
 30
0.0
 40
5.0
  0
TEXT
  5
992AB
330
9924F
100
AcDbEntity
  8
SIZE
100
AcDbText
 10
-269.4857142857163
 20
401.9028268326716
 30
0.0
 40
30.0
  1
954(Suspension bolt pitch)
 41
0.9
100
AcDbText
  0
LINE
  5
992AC
330
9924F
100
AcDbEntity
  8
SIZE
100
AcDbLine
 10
-500.0000000000018
 20
-0.0214592274687675
 30
0.0
 11
-500.0000000000018
 21
478.4004013530874
 31
0.0
  0
LINE
  5
992AD
330
9924F
100
AcDbEntity
  8
SIZE
100
AcDbLine
 10
499.9999999999982
 20
-0.0214592274687675
 30
0.0
 11
499.9999999999982
 21
478.4004013530874
 31
0.0
  0
LINE
  5
992AE
330
9924F
100
AcDbEntity
  8
SIZE
100
AcDbLine
 10
-500.0000000000018
 20
473.4004013530874
 30
0.0
 11
499.9999999999982
 21
473.4004013530874
 31
0.0
  0
CIRCLE
  5
992AF
330
9924F
100
AcDbEntity
  8
SIZE
100
AcDbCircle
 10
-500.0000000000018
 20
473.4004013530874
 30
0.0
 40
5.0
  0
CIRCLE
  5
992B0
330
9924F
100
AcDbEntity
  8
SIZE
100
AcDbCircle
 10
499.9999999999982
 20
473.4004013530874
 30
0.0
 40
5.0
  0
TEXT
  5
992B1
330
9924F
100
AcDbEntity
  8
SIZE
100
AcDbText
 10
-45.00000000000182
 20
488.4004013530875
 30
0.0
 40
30.0
  1
1000
 41
0.9
100
AcDbText
  0
LINE
  5
992B2
330
9924F
100
AcDbEntity
  8
SIZE
100
AcDbLine
 10
-507.99781467136
 20
-66.85507210270919
 30
0.0
 11
-507.99781467136
 21
-100.374998084334
 31
0.0
  0
LINE
  5
992B3
330
9924F
100
AcDbEntity
  8
SIZE
100
AcDbLine
 10
-450.0
 20
-72.81045944301934
 30
0.0
 11
-450.0
 21
-100.374998084334
 31
0.0
  0
LINE
  5
992B4
330
9924F
100
AcDbEntity
  8
SIZE
100
AcDbLine
 10
-507.99781467136
 20
-95.37499808433405
 30
0.0
 11
-450.0
 21
-95.37499808433405
 31
0.0
  0
LINE
  5
992B5
330
9924F
100
AcDbEntity
  8
SIZE
100
AcDbLine
 10
-450.0
 20
-95.37499808433405
 30
0.0
 11
-356.2857142857148
 21
-95.37499808433405
 31
0.0
  0
CIRCLE
  5
992B6
330
9924F
100
AcDbEntity
  8
SIZE
100
AcDbCircle
 10
-507.99781467136
 20
-95.37499808433405
 30
0.0
 40
5.0
  0
CIRCLE
  5
992B7
330
9924F
100
AcDbEntity
  8
SIZE
100
AcDbCircle
 10
-450.0
 20
-95.37499808433405
 30
0.0
 40
5.0
  0
TEXT
  5
992B8
330
9924F
100
AcDbEntity
  8
SIZE
100
AcDbText
 10
-415.0
 20
-80.37499808433405
 30
0.0
 40
30.0
  1
58
 41
0.9
100
AcDbText
  0
LINE
  5
992B9
330
9924F
100
AcDbEntity
  8
SIZE
100
AcDbLine
 10
-450.0000000000018
 20
-264.9999999999843
 30
0.0
 11
-450.0000000000018
 21
-334.906432244813
 31
0.0
  0
LINE
  5
992BA
330
9924F
100
AcDbEntity
  8
SIZE
100
AcDbLine
 10
-490.0000000000018
 20
-252.2390450899982
 30
0.0
 11
-490.0000000000018
 21
-334.906432244813
 31
0.0
  0
LINE
  5
992BB
330
9924F
100
AcDbEntity
  8
SIZE
100
AcDbLine
 10
-490.0000000000018
 20
-329.906432244813
 30
0.0
 11
-450.0000000000018
 21
-329.906432244813
 31
0.0
  0
LINE
  5
992BC
330
9924F
100
AcDbEntity
  8
SIZE
100
AcDbLine
 10
-450.0000000000018
 20
-329.906432244813
 30
0.0
 11
-356.2857142857165
 21
-329.906432244813
 31
0.0
  0
CIRCLE
  5
992BD
330
9924F
100
AcDbEntity
  8
SIZE
100
AcDbCircle
 10
-490.0000000000018
 20
-329.906432244813
 30
0.0
 40
5.0
  0
CIRCLE
  5
992BE
330
9924F
100
AcDbEntity
  8
SIZE
100
AcDbCircle
 10
-450.0000000000018
 20
-329.906432244813
 30
0.0
 40
5.0
  0
TEXT
  5
992BF
330
9924F
100
AcDbEntity
  8
SIZE
100
AcDbText
 10
-415.0000000000018
 20
-314.906432244813
 30
0.0
 40
30.0
  1
40
 41
0.9
100
AcDbText
  0
LINE
  5
992C0
330
9924F
100
AcDbEntity
  8
SIZE
100
AcDbLine
 10
-429.0000000000018
 20
-2.999999999999431
 30
0.0
 11
-429.0000000000018
 21
220.5540921780021
 31
0.0
  0
LINE
  5
992C1
330
9924F
100
AcDbEntity
  8
SIZE
100
AcDbLine
 10
-450.0000000000018
 20
15.00000000000034
 30
0.0
 11
-450.0000000000018
 21
220.5540921780021
 31
0.0
  0
LINE
  5
992C2
330
9924F
100
AcDbEntity
  8
SIZE
100
AcDbLine
 10
-429.0000000000018
 20
215.554092178002
 30
0.0
 11
-409.0000000000018
 21
215.554092178002
 31
0.0
  0
LINE
  5
992C3
330
9924F
100
AcDbEntity
  8
SIZE
100
AcDbLine
 10
-450.0000000000018
 20
215.554092178002
 30
0.0
 11
-470.0000000000017
 21
215.554092178002
 31
0.0
  0
LINE
  5
992C4
330
9924F
100
AcDbEntity
  8
SIZE
100
AcDbLine
 10
-439.5000000000018
 20
215.554092178002
 30
0.0
 11
-426.7500000000018
 21
258.0540921780021
 31
0.0
  0
LINE
  5
992C5
330
9924F
100
AcDbEntity
  8
SIZE
100
AcDbLine
 10
-426.7500000000018
 20
258.0540921780021
 30
0.0
 11
-364.6071428571449
 21
258.0540921780021
 31
0.0
  0
TEXT
  5
992C6
330
9924F
100
AcDbEntity
  8
SIZE
100
AcDbText
 10
-411.7500000000018
 20
273.0540921780021
 30
0.0
 40
30.0
  1
21
 41
0.9
100
AcDbText
  0
LINE
  5
992C7
330
9924F
100
AcDbEntity
  8
SIZE
100
AcDbLine
 10
-429.0000000000018
 20
215.554092178002
 30
0.0
 11
-450.0000000000018
 21
215.554092178002
 31
0.0
  0
LINE
  5
992C8
330
9924F
100
AcDbEntity
  8
SIZE
100
AcDbLine
 10
-429.0000000000018
 20
215.554092178002
 30
0.0
 11
-450.0000000000018
 21
215.554092178002
 31
0.0
  0
CIRCLE
  5
992C9
330
9924F
100
AcDbEntity
  8
SIZE
100
AcDbCircle
 10
-429.0000000000018
 20
215.554092178002
 30
0.0
 40
5.0
  0
CIRCLE
  5
992CA
330
9924F
100
AcDbEntity
  8
SIZE
100
AcDbCircle
 10
-450.0000000000018
 20
215.554092178002
 30
0.0
 40
5.0
  0
TEXT
  5
992CB
330
9924F
100
AcDbEntity
  8
NOTE
100
AcDbText
 10
-769.4847523281952
 20
336.1845598707187
 30
0.0
 40
30.0
  1
Drain pipe
 50
0.0000025044816619
 41
0.6
  7
STANDARD1
100
AcDbText
  0
TEXT
  5
992CC
330
9924F
100
AcDbEntity
  8
NOTE
100
AcDbText
 10
-409.7551475157323
 20
-145.8097706925396
 30
0.0
 40
26.24081511270206
  1
Drain pipe(O.D.%%C32)
 50
0.0000025044816576
 41
0.6
  7
STANDARD1
100
AcDbText
  0
TEXT
  5
992CD
330
9924F
100
AcDbEntity
  8
NOTE
100
AcDbText
 10
-421.6521141728098
 20
-187.0453817162281
 30
0.0
 40
26.24081511270206
  1
(Spontaneous draining)
 50
0.0000025044816576
 41
0.6
  7
STANDARD1
100
AcDbText
  0
LINE
  5
992CE
330
9924F
100
AcDbEntity
  8
NOTE
100
AcDbLine
 10
-415.1565895643051
 20
-155.7851159357694
 30
0.0
 11
-128.3656587272471
 21
-155.7851159357694
 31
0.0
  0
TEXT
  5
992CF
330
9924F
100
AcDbEntity
  8
NOTE
100
AcDbText
 10
547.5979464516113
 20
495.658116901427
 30
0.0
 40
30.0
  1
Suspension bolt hole
 50
0.0000025044752157
 41
0.6
  7
STANDARD1
100
AcDbText
  0
LINE
  5
992D0
330
9924F
100
AcDbEntity
  8
NOTE
100
AcDbLine
 10
552.9473925726741
 20
398.4973002814458
 30
0.0
 11
908.3883148727672
 21
398.4973323285976
 31
0.0
  0
TEXT
  5
992D1
330
9924F
100
AcDbEntity
  8
NOTE
100
AcDbText
 10
542.3962061711371
 20
447.2340795284008
 30
0.0
 40
30.0
  1
 4-14X30 Slot
 50
0.0000025044752157
 41
0.6
  7
STANDARD1
100
AcDbText
  0
TEXT
  5
992D2
330
9924F
100
AcDbEntity
  8
NOTE
100
AcDbText
 10
554.7309192242336
 20
408.4004588217003
 30
0.0
 40
30.0
  1
(Use M10 screw)
 50
0.0000025044752157
 41
0.6
  7
STANDARD1
100
AcDbText
  0
LINE
  5
992D3
330
9924F
100
AcDbEntity
  8
OUTLINE
100
AcDbLine
 10
449.9999999999982
 20
0.0000000000003411
 30
0.0
 11
449.9999999999982
 21
-249.9999999999843
 31
0.0
  0
LINE
  5
992D4
330
9924F
100
AcDbEntity
  8
OUTLINE
100
AcDbLine
 10
449.9999999999982
 20
-249.9999999999843
 30
0.0
 11
-450.0000000000018
 21
-249.9999999999843
 31
0.0
  0
LINE
  5
992D5
330
9924F
100
AcDbEntity
  8
OUTLINE
100
AcDbLine
 10
-450.0000000000018
 20
-249.9999999999843
 30
0.0
 11
-450.0000000000018
 21
0.0000000000004547
 31
0.0
  0
LINE
  5
992D6
330
9924F
100
AcDbEntity
  8
OUTLINE
100
AcDbLine
 10
-450.0000000000018
 20
0.0000000000004672
 30
0.0
 11
449.9999999999982
 21
0.0000000000003268
 31
0.0
  0
TEXT
  5
992D7
330
9924F
100
AcDbEntity
  8
ETC
100
AcDbText
 10
-1911.780303391855
 20
516.3723541619498
 30
0.0
 40
60.0
  1
PEFY-M40VMA-A1_3
 50
0.0000029998804485
 41
0.8
100
AcDbText
  0
LINE
  5
992D8
330
9924F
100
AcDbEntity
  8
BASIS
100
AcDbLine
 10
0.0
 20
29.41240878975509
 30
0.0
 11
0.0
 21
-282.6696284795064
 31
0.0
  0
CIRCLE
  5
992D9
330
9924F
100
AcDbEntity
  8
ARRANGE
100
AcDbCircle
 10
0.0
 20
0.0
 30
0.0
 40
19.125
  0
LINE
  5
992DA
330
9924F
100
AcDbEntity
  8
ARRANGE
100
AcDbLine
 10
21.26587376331372
 20
-21.04700008888813
 30
0.0
 11
-21.26587376331736
 21
21.04700008888813
 31
0.0
  0
LINE
  5
992DB
330
9924F
100
AcDbEntity
  8
ARRANGE
100
AcDbLine
 10
21.23459940696193
 20
21.07855278914394
 30
0.0
 11
-21.23459940696557
 21
-21.07855278914303
 31
0.0
  0
LINE
  5
992DC
330
9924F
100
AcDbEntity
  8
SIZE
100
AcDbLine
 10
465.0000000000018
 20
0.0000000000003499
 30
0.0
 11
648.5572356911652
 21
0.0000000000003801
 31
0.0
  0
LINE
  5
992DD
330
9924F
100
AcDbEntity
  8
SIZE
100
AcDbLine
 10
418.6365124045622
 20
-10.99999999999965
 30
0.0
 11
648.5572356911652
 21
-10.99999999999962
 31
0.0
  0
LINE
  5
992DE
330
9924F
100
AcDbEntity
  8
SIZE
100
AcDbLine
 10
643.5572356911652
 20
-10.99999999999962
 30
0.0
 11
643.5572356911652
 21
-30.99999999999962
 31
0.0
  0
LINE
  5
992DF
330
9924F
100
AcDbEntity
  8
SIZE
100
AcDbLine
 10
643.5572356911652
 20
0.0000000000003784
 30
0.0
 11
643.5572356911652
 21
97.00000000000423
 31
0.0
  0
LINE
  5
992E0
330
9924F
100
AcDbEntity
  8
SIZE
100
AcDbLine
 10
643.5572356911652
 20
-10.99999999999962
 30
0.0
 11
643.5572356911652
 21
0.0000000000003784
 31
0.0
  0
CIRCLE
  5
992E1
330
9924F
100
AcDbEntity
  8
SIZE
100
AcDbCircle
 10
643.5572356911652
 20
-10.99999999999962
 30
0.0
 40
5.0
  0
CIRCLE
  5
992E2
330
9924F
100
AcDbEntity
  8
SIZE
100
AcDbCircle
 10
643.5572356911652
 20
0.0000000000003784
 30
0.0
 40
5.0
  0
TEXT
  5
992E3
330
9924F
100
AcDbEntity
  8
SIZE
100
AcDbText
 10
628.5572356911634
 20
55.0000000000023
 30
0.0
 40
30.0
  1
11
 50
90.0
 41
0.9
100
AcDbText
  0
LINE
  5
992E4
330
9924F
100
AcDbEntity
  8
SIZE
100
AcDbLine
 10
408.6365124045624
 20
-10.99999999999965
 30
0.0
 11
648.5572356911634
 21
-10.99999999999961
 31
0.0
  0
LINE
  5
992E5
330
9924F
100
AcDbEntity
  8
SIZE
100
AcDbLine
 10
462.6365124045624
 20
-122.9999999999996
 30
0.0
 11
648.5572356911634
 21
-122.9999999999995
 31
0.0
  0
LINE
  5
992E6
330
9924F
100
AcDbEntity
  8
SIZE
100
AcDbLine
 10
643.5572356911634
 20
-10.99999999999961
 30
0.0
 11
643.5572356911634
 21
-122.9999999999995
 31
0.0
  0
CIRCLE
  5
992E7
330
9924F
100
AcDbEntity
  8
SIZE
100
AcDbCircle
 10
643.5572356911634
 20
-10.99999999999961
 30
0.0
 40
5.0
  0
CIRCLE
  5
992E8
330
9924F
100
AcDbEntity
  8
SIZE
100
AcDbCircle
 10
643.5572356911634
 20
-122.9999999999995
 30
0.0
 40
5.0
  0
TEXT
  5
992E9
330
9924F
100
AcDbEntity
  8
SIZE
100
AcDbText
 10
628.5572356911615
 20
-96.57142857143007
 30
0.0
 40
30.0
  1
112
 50
90.0
 41
0.9
100
AcDbText
  0
LINE
  5
992EA
330
9924F
100
AcDbEntity
  8
SIZE
100
AcDbLine
 10
462.6365124045624
 20
-122.9999999999996
 30
0.0
 11
648.5572356911634
 21
-122.9999999999995
 31
0.0
  0
LINE
  5
992EB
330
9924F
100
AcDbEntity
  8
SIZE
100
AcDbLine
 10
408.6365124045624
 20
-234.9999999999996
 30
0.0
 11
648.5572356911634
 21
-234.9999999999996
 31
0.0
  0
LINE
  5
992EC
330
9924F
100
AcDbEntity
  8
SIZE
100
AcDbLine
 10
643.5572356911634
 20
-122.9999999999995
 30
0.0
 11
643.5572356911634
 21
-234.9999999999996
 31
0.0
  0
CIRCLE
  5
992ED
330
9924F
100
AcDbEntity
  8
SIZE
100
AcDbCircle
 10
643.5572356911634
 20
-122.9999999999995
 30
0.0
 40
5.0
  0
CIRCLE
  5
992EE
330
9924F
100
AcDbEntity
  8
SIZE
100
AcDbCircle
 10
643.5572356911634
 20
-234.9999999999996
 30
0.0
 40
5.0
  0
TEXT
  5
992EF
330
9924F
100
AcDbEntity
  8
SIZE
100
AcDbText
 10
628.5572356911615
 20
-208.5714285714301
 30
0.0
 40
30.0
  1
112
 50
90.0
 41
0.9
100
AcDbText
  0
LINE
  5
992F0
330
9924F
100
AcDbEntity
  8
SIZE
100
AcDbLine
 10
-450.0000000000018
 20
15.00000000000034
 30
0.0
 11
-450.0000000000018
 21
322.6410946494113
 31
0.0
  0
LINE
  5
992F1
330
9924F
100
AcDbEntity
  8
SIZE
100
AcDbLine
 10
449.9999999999982
 20
15.00000000000034
 30
0.0
 11
449.9999999999982
 21
322.6410946494113
 31
0.0
  0
LINE
  5
992F2
330
9924F
100
AcDbEntity
  8
SIZE
100
AcDbLine
 10
-450.0000000000018
 20
317.6410946494113
 30
0.0
 11
449.9999999999982
 21
317.6410946494113
 31
0.0
  0
CIRCLE
  5
992F3
330
9924F
100
AcDbEntity
  8
SIZE
100
AcDbCircle
 10
-450.0000000000018
 20
317.6410946494113
 30
0.0
 40
5.0
  0
CIRCLE
  5
992F4
330
9924F
100
AcDbEntity
  8
SIZE
100
AcDbCircle
 10
449.9999999999982
 20
317.6410946494113
 30
0.0
 40
5.0
  0
TEXT
  5
992F5
330
9924F
100
AcDbEntity
  8
SIZE
100
AcDbText
 10
-34.71428571428714
 20
332.6410946494113
 30
0.0
 40
30.0
  1
900
 41
0.9
100
AcDbText
  0
LINE
  5
992F6
330
9924F
100
AcDbEntity
  8
SIZE
100
AcDbLine
 10
-429.0000000000018
 20
-2.999999999999431
 30
0.0
 11
-429.0000000000018
 21
220.5540921780021
 31
0.0
  0
LINE
  5
992F7
330
9924F
100
AcDbEntity
  8
SIZE
100
AcDbLine
 10
428.9999999999982
 20
-2.999999999999431
 30
0.0
 11
428.9999999999982
 21
220.5540921780021
 31
0.0
  0
LINE
  5
992F8
330
9924F
100
AcDbEntity
  8
SIZE
100
AcDbLine
 10
-429.0000000000018
 20
215.554092178002
 30
0.0
 11
428.9999999999982
 21
215.554092178002
 31
0.0
  0
CIRCLE
  5
992F9
330
9924F
100
AcDbEntity
  8
SIZE
100
AcDbCircle
 10
-429.0000000000018
 20
215.554092178002
 30
0.0
 40
5.0
  0
CIRCLE
  5
992FA
330
9924F
100
AcDbEntity
  8
SIZE
100
AcDbCircle
 10
428.9999999999982
 20
215.554092178002
 30
0.0
 40
5.0
  0
TEXT
  5
992FB
330
9924F
100
AcDbEntity
  8
SIZE
100
AcDbText
 10
-34.71428571428714
 20
230.5540921780021
 30
0.0
 40
30.0
  1
858
 41
0.9
100
AcDbText
  0
LINE
  5
992FC
330
9924F
100
AcDbEntity
  8
NOTE
100
AcDbLine
 10
-390.0000000000018
 20
-7.363487595439551
 30
0.0
 11
-390.0000000000018
 21
-14.63651240455976
 31
0.0
  0
LINE
  5
992FD
330
9924F
100
AcDbEntity
  8
NOTE
100
AcDbLine
 10
-393.6365124045624
 20
-10.99999999999966
 30
0.0
 11
-386.3634875954413
 21
-10.99999999999966
 31
0.0
  0
CIRCLE
  5
992FE
330
9924F
100
AcDbEntity
  8
DETAIL
100
AcDbCircle
 10
-390.0000000000018
 20
-10.99999999999966
 30
0.0
 40
1.45
  0
LINE
  5
992FF
330
9924F
100
AcDbEntity
  8
NOTE
100
AcDbLine
 10
-390.0000000000018
 20
-10.99999999999954
 30
0.0
 11
-357.4365771713401
 21
-22.04414612691016
 31
0.0
  0
LINE
  5
99300
330
9924F
100
AcDbEntity
  8
NOTE
100
AcDbLine
 10
-390.0000000000018
 20
-10.99999999999954
 30
0.0
 11
-367.3213220362541
 21
-36.84622285374644
 31
0.0
  0
LINE
  5
99301
330
9924F
100
AcDbEntity
  8
NOTE
100
AcDbLine
 10
-285.1830998973838
 20
-79.91091516147481
 30
0.0
 11
-390.0000000000018
 21
-10.99999999999954
 31
0.0
  0
LINE
  5
99302
330
9924F
100
AcDbEntity
  8
NOTE
100
AcDbLine
 10
-285.1830998973838
 20
-79.91091516147481
 30
0.0
 11
-157.6275606856925
 21
-79.91091516147481
 31
0.0
  0
TEXT
  5
99303
330
9924F
100
AcDbEntity
  8
NOTE
100
AcDbText
 10
-266.4117381722044
 20
-72.50350565497409
 30
0.0
 40
30.0
  1
10-%%C2.9
 50
0.0000025044752157
 41
0.6
  7
STANDARD1
100
AcDbText
  0
LINE
  5
99304
330
9924F
100
AcDbEntity
  8
NOTE
100
AcDbLine
 10
-285.1830998973838
 20
-79.91091516147481
 30
0.0
 11
-123.4975087152488
 21
-79.91091516147481
 31
0.0
  0
LINE
  5
99305
330
9924F
100
AcDbEntity
  8
NOTE
100
AcDbLine
 10
-129.9999999999982
 20
-7.363487595439534
 30
0.0
 11
-129.9999999999982
 21
-14.63651240455975
 31
0.0
  0
LINE
  5
99306
330
9924F
100
AcDbEntity
  8
NOTE
100
AcDbLine
 10
-133.6365124045587
 20
-10.99999999999964
 30
0.0
 11
-126.3634875954376
 21
-10.99999999999964
 31
0.0
  0
CIRCLE
  5
99307
330
9924F
100
AcDbEntity
  8
DETAIL
100
AcDbCircle
 10
-129.9999999999982
 20
-10.99999999999964
 30
0.0
 40
1.45
  0
LINE
  5
99308
330
9924F
100
AcDbEntity
  8
NOTE
100
AcDbLine
 10
-129.9999999999982
 20
-231.3634875954394
 30
0.0
 11
-129.9999999999982
 21
-238.6365124045596
 31
0.0
  0
LINE
  5
99309
330
9924F
100
AcDbEntity
  8
NOTE
100
AcDbLine
 10
-133.6365124045587
 20
-234.9999999999995
 30
0.0
 11
-126.3634875954376
 21
-234.9999999999995
 31
0.0
  0
CIRCLE
  5
9930A
330
9924F
100
AcDbEntity
  8
DETAIL
100
AcDbCircle
 10
-129.9999999999982
 20
-234.9999999999995
 30
0.0
 40
1.45
  0
LINE
  5
9930B
330
9924F
100
AcDbEntity
  8
SIZE
100
AcDbLine
 10
-129.9999999999982
 20
7.636512404560447
 30
0.0
 11
-129.9999999999982
 21
64.90339283482604
 31
0.0
  0
LINE
  5
9930C
330
9924F
100
AcDbEntity
  8
SIZE
100
AcDbLine
 10
-389.9999999999982
 20
7.636512404560447
 30
0.0
 11
-389.9999999999982
 21
64.90339283482604
 31
0.0
  0
LINE
  5
9930D
330
9924F
100
AcDbEntity
  8
SIZE
100
AcDbLine
 10
-129.9999999999982
 20
59.90339283482605
 30
0.0
 11
-389.9999999999982
 21
59.90339283482605
 31
0.0
  0
CIRCLE
  5
9930E
330
9924F
100
AcDbEntity
  8
SIZE
100
AcDbCircle
 10
-129.9999999999982
 20
59.90339283482605
 30
0.0
 40
5.0
  0
CIRCLE
  5
9930F
330
9924F
100
AcDbEntity
  8
SIZE
100
AcDbCircle
 10
-389.9999999999982
 20
59.90339283482605
 30
0.0
 40
5.0
  0
TEXT
  5
99310
330
9924F
100
AcDbEntity
  8
SIZE
100
AcDbText
 10
-294.7142857142835
 20
74.90339283482605
 30
0.0
 40
30.0
  1
260
 41
0.9
100
AcDbText
  0
LINE
  5
99311
330
9924F
100
AcDbEntity
  8
SIZE
100
AcDbLine
 10
389.9999999999982
 20
7.636512404560447
 30
0.0
 11
389.9999999999982
 21
111.9891186877055
 31
0.0
  0
LINE
  5
99312
330
9924F
100
AcDbEntity
  8
SIZE
100
AcDbLine
 10
-390.0000000000018
 20
7.636512404560544
 30
0.0
 11
-390.0000000000018
 21
111.9891186877055
 31
0.0
  0
LINE
  5
99313
330
9924F
100
AcDbEntity
  8
SIZE
100
AcDbLine
 10
389.9999999999982
 20
106.9891186877055
 30
0.0
 11
-390.0000000000018
 21
106.9891186877055
 31
0.0
  0
CIRCLE
  5
99314
330
9924F
100
AcDbEntity
  8
SIZE
100
AcDbCircle
 10
389.9999999999982
 20
106.9891186877055
 30
0.0
 40
5.0
  0
CIRCLE
  5
99315
330
9924F
100
AcDbEntity
  8
SIZE
100
AcDbCircle
 10
-390.0000000000018
 20
106.9891186877055
 30
0.0
 40
5.0
  0
TEXT
  5
99316
330
9924F
100
AcDbEntity
  8
SIZE
100
AcDbText
 10
-115.7142857142871
 20
121.9891186877055
 30
0.0
 40
30.0
  1
260X3=780
 41
0.9
100
AcDbText
  0
LINE
  5
99317
330
9924F
100
AcDbEntity
  8
SIZE
100
AcDbLine
 10
-390.0000000000018
 20
7.636512404560544
 30
0.0
 11
-390.0000000000018
 21
111.9891186877055
 31
0.0
  0
LINE
  5
99318
330
9924F
100
AcDbEntity
  8
SIZE
100
AcDbLine
 10
-444.0000000000018
 20
-104.3634875954394
 30
0.0
 11
-444.0000000000018
 21
111.9891186877055
 31
0.0
  0
LINE
  5
99319
330
9924F
100
AcDbEntity
  8
SIZE
100
AcDbLine
 10
-390.0000000000018
 20
106.9891186877055
 30
0.0
 11
-444.0000000000018
 21
106.9891186877055
 31
0.0
  0
LINE
  5
9931A
330
9924F
100
AcDbEntity
  8
SIZE
100
AcDbLine
 10
-417.0000000000018
 20
106.9891186877055
 30
0.0
 11
-311.0699835408177
 21
148.6958813106127
 31
0.0
  0
LINE
  5
9931B
330
9924F
100
AcDbEntity
  8
SIZE
100
AcDbLine
 10
-311.0699835408177
 20
148.6958813106127
 30
0.0
 11
-236.0699835408177
 21
148.6958813106127
 31
0.0
  0
TEXT
  5
9931C
330
9924F
100
AcDbEntity
  8
SIZE
100
AcDbText
 10
-296.0699835408177
 20
163.6958813106128
 30
0.0
 40
30.0
  1
54
 41
0.9
100
AcDbText
  0
CIRCLE
  5
9931D
330
9924F
100
AcDbEntity
  8
SIZE
100
AcDbCircle
 10
-390.0000000000018
 20
106.9891186877055
 30
0.0
 40
5.0
  0
CIRCLE
  5
9931E
330
9924F
100
AcDbEntity
  8
SIZE
100
AcDbCircle
 10
-444.0000000000018
 20
106.9891186877055
 30
0.0
 40
5.0
  0
LINE
  5
9931F
330
9924F
100
AcDbEntity
  8
SIZE
100
AcDbLine
 10
-444.0000000000018
 20
-104.3634875954394
 30
0.0
 11
-444.0000000000018
 21
111.9891186877055
 31
0.0
  0
LINE
  5
99320
330
9924F
100
AcDbEntity
  8
SIZE
100
AcDbLine
 10
-450.0000000000018
 20
15.00000000000047
 30
0.0
 11
-450.0000000000018
 21
111.9891186877055
 31
0.0
  0
LINE
  5
99321
330
9924F
100
AcDbEntity
  8
SIZE
100
AcDbLine
 10
-444.0000000000018
 20
106.9891186877055
 30
0.0
 11
-424.0000000000017
 21
106.9891186877055
 31
0.0
  0
LINE
  5
99322
330
9924F
100
AcDbEntity
  8
SIZE
100
AcDbLine
 10
-450.0000000000018
 20
106.9891186877055
 30
0.0
 11
-470.0000000000017
 21
106.9891186877055
 31
0.0
  0
LINE
  5
99323
330
9924F
100
AcDbEntity
  8
SIZE
100
AcDbLine
 10
-447.0000000000018
 20
106.9891186877055
 30
0.0
 11
-402.9954686065265
 21
153.9968352745879
 31
0.0
  0
LINE
  5
99324
330
9924F
100
AcDbEntity
  8
SIZE
100
AcDbLine
 10
-402.9954686065265
 20
153.9968352745879
 30
0.0
 11
-356.2811828922413
 21
153.9968352745879
 31
0.0
  0
TEXT
  5
99325
330
9924F
100
AcDbEntity
  8
SIZE
100
AcDbText
 10
-387.9954686065266
 20
168.9968352745879
 30
0.0
 40
30.0
  1
6
 41
0.9
100
AcDbText
  0
LINE
  5
99326
330
9924F
100
AcDbEntity
  8
SIZE
100
AcDbLine
 10
-444.0000000000018
 20
106.9891186877055
 30
0.0
 11
-450.0000000000018
 21
106.9891186877055
 31
0.0
  0
LINE
  5
99327
330
9924F
100
AcDbEntity
  8
SIZE
100
AcDbLine
 10
-444.0000000000018
 20
106.9891186877055
 30
0.0
 11
-450.0000000000018
 21
106.9891186877055
 31
0.0
  0
CIRCLE
  5
99328
330
9924F
100
AcDbEntity
  8
SIZE
100
AcDbCircle
 10
-444.0000000000018
 20
106.9891186877055
 30
0.0
 40
5.0
  0
CIRCLE
  5
99329
330
9924F
100
AcDbEntity
  8
SIZE
100
AcDbCircle
 10
-450.0000000000018
 20
106.9891186877055
 30
0.0
 40
5.0
  0
LINE
  5
9932A
330
9924F
100
AcDbEntity
  8
SIZE
100
AcDbLine
 10
390.0000000000018
 20
7.636512404560544
 30
0.0
 11
390.0000000000018
 21
111.9891186877055
 31
0.0
  0
LINE
  5
9932B
330
9924F
100
AcDbEntity
  8
SIZE
100
AcDbLine
 10
444.0000000000018
 20
-104.3634875954394
 30
0.0
 11
444.0000000000018
 21
111.9891186877055
 31
0.0
  0
LINE
  5
9932C
330
9924F
100
AcDbEntity
  8
SIZE
100
AcDbLine
 10
390.0000000000018
 20
106.9891186877055
 30
0.0
 11
444.0000000000018
 21
106.9891186877055
 31
0.0
  0
LINE
  5
9932D
330
9924F
100
AcDbEntity
  8
SIZE
100
AcDbLine
 10
417.0000000000018
 20
106.9891186877055
 30
0.0
 11
311.0699835408177
 21
148.6958813106127
 31
0.0
  0
LINE
  5
9932E
330
9924F
100
AcDbEntity
  8
SIZE
100
AcDbLine
 10
311.0699835408177
 20
148.6958813106127
 30
0.0
 11
236.0699835408177
 21
148.6958813106127
 31
0.0
  0
TEXT
  5
9932F
330
9924F
100
AcDbEntity
  8
SIZE
100
AcDbText
 10
251.0699835408177
 20
163.6958813106128
 30
0.0
 40
30.0
  1
54
 41
0.9
100
AcDbText
  0
CIRCLE
  5
99330
330
9924F
100
AcDbEntity
  8
SIZE
100
AcDbCircle
 10
390.0000000000018
 20
106.9891186877055
 30
0.0
 40
5.0
  0
CIRCLE
  5
99331
330
9924F
100
AcDbEntity
  8
SIZE
100
AcDbCircle
 10
444.0000000000018
 20
106.9891186877055
 30
0.0
 40
5.0
  0
LINE
  5
99332
330
9924F
100
AcDbEntity
  8
NOTE
100
AcDbLine
 10
129.9999999999982
 20
-7.363487595439549
 30
0.0
 11
129.9999999999982
 21
-14.63651240455976
 31
0.0
  0
LINE
  5
99333
330
9924F
100
AcDbEntity
  8
NOTE
100
AcDbLine
 10
133.6365124045587
 20
-10.99999999999965
 30
0.0
 11
126.3634875954376
 21
-10.99999999999965
 31
0.0
  0
CIRCLE
  5
99334
330
9924F
100
AcDbEntity
  8
DETAIL
100
AcDbCircle
 10
129.9999999999982
 20
-10.99999999999966
 30
0.0
 40
1.45
  0
LINE
  5
99335
330
9924F
100
AcDbEntity
  8
NOTE
100
AcDbLine
 10
129.9999999999982
 20
-231.3634875954394
 30
0.0
 11
129.9999999999982
 21
-238.6365124045596
 31
0.0
  0
LINE
  5
99336
330
9924F
100
AcDbEntity
  8
NOTE
100
AcDbLine
 10
133.6365124045587
 20
-234.9999999999996
 30
0.0
 11
126.3634875954376
 21
-234.9999999999996
 31
0.0
  0
CIRCLE
  5
99337
330
9924F
100
AcDbEntity
  8
DETAIL
100
AcDbCircle
 10
129.9999999999982
 20
-234.9999999999996
 30
0.0
 40
1.45
  0
LINE
  5
99338
330
9924F
100
AcDbEntity
  8
SERVICESPACE
100
AcDbLine
 10
449.9999999999982
 20
-669.9999999999878
 30
0.0
 11
449.9999999999982
 21
-649.9999999999878
 31
0.0
  0
LINE
  5
99339
330
9924F
100
AcDbEntity
  8
SERVICESPACE
100
AcDbLine
 10
-599.9999803815606
 20
-669.9999999999842
 30
0.0
 11
449.9999999999982
 21
-669.9999999999878
 31
0.0
  0
LINE
  5
9933A
330
9924F
100
AcDbEntity
  8
SERVICESPACE
100
AcDbLine
 10
-1049.999980381561
 20
-669.9999999999842
 30
0.0
 11
-599.9999803815606
 21
-669.9999999999842
 31
0.0
  0
LINE
  5
9933B
330
9924F
100
AcDbEntity
  8
SERVICESPACE
100
AcDbLine
 10
-1049.999980381561
 20
-649.9999999999843
 30
0.0
 11
449.9999999999982
 21
-649.9999999999878
 31
0.0
  0
LINE
  5
9933C
330
9924F
100
AcDbEntity
  8
SERVICESPACE
100
AcDbLine
 10
-1049.999980381561
 20
-649.9999999999843
 30
0.0
 11
-1049.999980381561
 21
-669.9999999999842
 31
0.0
  0
LINE
  5
9933D
330
9924F
100
AcDbEntity
  8
SERVICESPACE
100
AcDbLine
 10
-599.9999803815606
 20
-649.9999999999843
 30
0.0
 11
-599.9999803815606
 21
-669.9999999999842
 31
0.0
  0
LINE
  5
9933E
330
9924F
100
AcDbEntity
  8
SERVICESPACE
100
AcDbLine
 10
-599.9999803815606
 20
-649.9999999999843
 30
0.0
 11
-1049.999980381561
 21
-669.9999999999842
 31
0.0
  0
LINE
  5
9933F
330
9924F
100
AcDbEntity
  8
SERVICESPACE
100
AcDbLine
 10
-599.9999803815606
 20
-669.9999999999842
 30
0.0
 11
-1049.999980381561
 21
-649.9999999999843
 31
0.0
  0
LINE
  5
99340
330
9924F
100
AcDbEntity
  8
SERVICESPACE
100
AcDbLine
 10
249.9999999999982
 20
-649.9999999999876
 30
0.0
 11
249.9999999999982
 21
-669.9999999999873
 31
0.0
  0
LINE
  5
99341
330
9924F
100
AcDbEntity
  8
SERVICESPACE
100
AcDbLine
 10
-200.0000000000018
 20
-649.9999999999864
 30
0.0
 11
-200.0000000000018
 21
-669.9999999999858
 31
0.0
  0
LINE
  5
99342
330
9924F
100
AcDbEntity
  8
SERVICESPACE
100
AcDbLine
 10
-200.0000000000018
 20
-649.9999999999864
 30
0.0
 11
249.9999999999982
 21
-669.9999999999873
 31
0.0
  0
LINE
  5
99343
330
9924F
100
AcDbEntity
  8
SERVICESPACE
100
AcDbLine
 10
249.9999999999982
 20
-649.9999999999876
 30
0.0
 11
-200.0000000000018
 21
-669.9999999999858
 31
0.0
  0
LINE
  5
99344
330
9924F
100
AcDbEntity
  8
SIZE
100
AcDbLine
 10
-599.9999803815606
 20
-684.9999999999843
 30
0.0
 11
-599.9999803815606
 21
-890.0088428860087
 31
0.0
  0
LINE
  5
99345
330
9924F
100
AcDbEntity
  8
SIZE
100
AcDbLine
 10
-1049.999980381561
 20
-684.9999999999843
 30
0.0
 11
-1049.999980381561
 21
-890.0088428860087
 31
0.0
  0
LINE
  5
99346
330
9924F
100
AcDbEntity
  8
SIZE
100
AcDbLine
 10
-599.9999803815606
 20
-885.0088428860088
 30
0.0
 11
-1049.999980381561
 21
-885.0088428860088
 31
0.0
  0
CIRCLE
  5
99347
330
9924F
100
AcDbEntity
  8
SIZE
100
AcDbCircle
 10
-599.9999803815606
 20
-885.0088428860088
 30
0.0
 40
5.0
  0
CIRCLE
  5
99348
330
9924F
100
AcDbEntity
  8
SIZE
100
AcDbCircle
 10
-1049.999980381561
 20
-885.0088428860088
 30
0.0
 40
5.0
  0
TEXT
  5
99349
330
9924F
100
AcDbEntity
  8
SIZE
100
AcDbText
 10
-859.7142660958461
 20
-870.0088428860087
 30
0.0
 40
30.0
  1
450
 41
0.9
100
AcDbText
  0
LINE
  5
9934A
330
9924F
100
AcDbEntity
  8
SIZE
100
AcDbLine
 10
249.9999999999982
 20
-684.9999999999872
 30
0.0
 11
249.9999999999982
 21
-890.0088428860087
 31
0.0
  0
LINE
  5
9934B
330
9924F
100
AcDbEntity
  8
SIZE
100
AcDbLine
 10
-200.0000000000018
 20
-684.9999999999856
 30
0.0
 11
-200.0000000000018
 21
-890.0088428860087
 31
0.0
  0
LINE
  5
9934C
330
9924F
100
AcDbEntity
  8
SIZE
100
AcDbLine
 10
249.9999999999982
 20
-885.0088428860088
 30
0.0
 11
-200.0000000000018
 21
-885.0088428860088
 31
0.0
  0
CIRCLE
  5
9934D
330
9924F
100
AcDbEntity
  8
SIZE
100
AcDbCircle
 10
249.9999999999982
 20
-885.0088428860088
 30
0.0
 40
5.0
  0
CIRCLE
  5
9934E
330
9924F
100
AcDbEntity
  8
SIZE
100
AcDbCircle
 10
-200.0000000000018
 20
-885.0088428860088
 30
0.0
 40
5.0
  0
TEXT
  5
9934F
330
9924F
100
AcDbEntity
  8
SIZE
100
AcDbText
 10
-9.714285714287143
 20
-870.0088428860087
 30
0.0
 40
30.0
  1
450
 41
0.9
100
AcDbText
  0
LINE
  5
99350
330
9924F
100
AcDbEntity
  8
SIZE
100
AcDbLine
 10
387.8195474869235
 20
-549.9999999999845
 30
0.0
 11
733.5902241016137
 21
-549.9999999999845
 31
0.0
  0
LINE
  5
99351
330
9924F
100
AcDbEntity
  8
SIZE
100
AcDbLine
 10
465.0000000000018
 20
-249.9999999999844
 30
0.0
 11
733.5902241016137
 21
-249.9999999999844
 31
0.0
  0
LINE
  5
99352
330
9924F
100
AcDbEntity
  8
SIZE
100
AcDbLine
 10
728.5902241016137
 20
-549.9999999999845
 30
0.0
 11
728.5902241016137
 21
-249.9999999999844
 31
0.0
  0
CIRCLE
  5
99353
330
9924F
100
AcDbEntity
  8
SIZE
100
AcDbCircle
 10
728.5902241016137
 20
-549.9999999999845
 30
0.0
 40
5.0
  0
CIRCLE
  5
99354
330
9924F
100
AcDbEntity
  8
SIZE
100
AcDbCircle
 10
728.5902241016137
 20
-249.9999999999844
 30
0.0
 40
5.0
  0
TEXT
  5
99355
330
9924F
100
AcDbEntity
  8
SIZE
100
AcDbText
 10
713.5902241016119
 20
-511.214285714272
 30
0.0
 40
30.0
  1
Min.300mm
 50
90.0
 41
0.9
100
AcDbText
  0
LINE
  5
99356
330
9924F
100
AcDbEntity
  8
OUTLINE
100
AcDbLine
 10
332.8195520033751
 20
-549.9999999999841
 30
0.0
 11
332.8195520033751
 21
-589.9999999999843
 31
0.0
  0
LINE
  5
99357
330
9924F
100
AcDbEntity
  8
OUTLINE
100
AcDbLine
 10
332.8195520033751
 20
-589.9999999999843
 30
0.0
 11
372.8195520033751
 21
-589.9999999999843
 31
0.0
  0
LINE
  5
99358
330
9924F
100
AcDbEntity
  8
OUTLINE
100
AcDbLine
 10
372.8195520033751
 20
-589.9999999999843
 30
0.0
 11
372.8195520033751
 21
-549.9999999999841
 31
0.0
  0
LINE
  5
99359
330
9924F
100
AcDbEntity
  8
OUTLINE
100
AcDbLine
 10
372.8195520033751
 20
-549.9999999999841
 30
0.0
 11
332.8195520033751
 21
-549.9999999999841
 31
0.0
  0
LINE
  5
9935A
330
9924F
100
AcDbEntity
  8
OUTLINE
100
AcDbLine
 10
372.8195520033751
 20
-589.9999999999843
 30
0.0
 11
332.8195520033751
 21
-549.9999999999841
 31
0.0
  0
LINE
  5
9935B
330
9924F
100
AcDbEntity
  8
OUTLINE
100
AcDbLine
 10
332.8195520033751
 20
-589.9999999999843
 30
0.0
 11
372.8195520033751
 21
-549.9999999999841
 31
0.0
  0
LINE
  5
9935C
330
9924F
100
AcDbEntity
  8
OUTLINE
100
AcDbLine
 10
-458.4253619372666
 20
-549.9999999999841
 30
0.0
 11
-458.4253619372666
 21
-589.9999999999843
 31
0.0
  0
LINE
  5
9935D
330
9924F
100
AcDbEntity
  8
OUTLINE
100
AcDbLine
 10
-458.4253619372666
 20
-589.9999999999843
 30
0.0
 11
-418.4253619372666
 21
-589.9999999999843
 31
0.0
  0
LINE
  5
9935E
330
9924F
100
AcDbEntity
  8
OUTLINE
100
AcDbLine
 10
-418.4253619372666
 20
-589.9999999999843
 30
0.0
 11
-418.4253619372666
 21
-549.9999999999841
 31
0.0
  0
LINE
  5
9935F
330
9924F
100
AcDbEntity
  8
OUTLINE
100
AcDbLine
 10
-418.4253619372666
 20
-549.9999999999841
 30
0.0
 11
-458.4253619372666
 21
-549.9999999999841
 31
0.0
  0
LINE
  5
99360
330
9924F
100
AcDbEntity
  8
OUTLINE
100
AcDbLine
 10
-418.4253619372666
 20
-589.9999999999843
 30
0.0
 11
-458.4253619372666
 21
-549.9999999999841
 31
0.0
  0
LINE
  5
99361
330
9924F
100
AcDbEntity
  8
OUTLINE
100
AcDbLine
 10
-458.4253619372666
 20
-589.9999999999843
 30
0.0
 11
-418.4253619372666
 21
-549.9999999999841
 31
0.0
  0
TEXT
  5
99362
330
9924F
100
AcDbEntity
  8
NOTE
100
AcDbText
 10
-1036.112998415919
 20
-745.4760420321435
 30
0.0
 40
35.0
  1
Access door 1
 50
359.999999316757
 41
0.7
  7
STANDARD1
100
AcDbText
  0
LINE
  5
99363
330
9924F
100
AcDbEntity
  8
NOTE
100
AcDbLine
 10
-663.7225198383638
 20
-669.9999999999842
 30
0.0
 11
-693.6147571188056
 21
-686.9942290310589
 31
0.0
  0
LINE
  5
99364
330
9924F
100
AcDbEntity
  8
NOTE
100
AcDbLine
 10
-663.7225198383638
 20
-669.9999999999842
 30
0.0
 11
-681.1128417514374
 21
-699.6635529521967
 31
0.0
  0
LINE
  5
99365
330
9924F
100
AcDbEntity
  8
NOTE
100
AcDbLine
 10
-749.9222174906861
 20
-753.8452122924114
 30
0.0
 11
-663.7225198383638
 21
-669.9999999999842
 31
0.0
  0
LINE
  5
99366
330
9924F
100
AcDbEntity
  8
NOTE
100
AcDbLine
 10
-749.9222174906861
 20
-753.8452122924114
 30
0.0
 11
-1043.590076730272
 21
-753.8452122924114
 31
0.0
  0
TEXT
  5
99367
330
9924F
100
AcDbEntity
  8
NOTE
100
AcDbText
 10
409.4212955850015
 20
-738.8668559016513
 30
0.0
 40
35.0
  1
Ceiling surface
 50
359.999999316757
 41
0.7
  7
STANDARD1
100
AcDbText
  0
LINE
  5
99368
330
9924F
100
AcDbEntity
  8
NOTE
100
AcDbLine
 10
356.9241601353279
 20
-669.9999999999842
 30
0.0
 11
366.1320236402626
 21
-703.1295173472885
 31
0.0
  0
LINE
  5
99369
330
9924F
100
AcDbEntity
  8
NOTE
100
AcDbLine
 10
356.9241601353279
 20
-669.9999999999842
 30
0.0
 11
381.4631628697572
 21
-694.0870715278537
 31
0.0
  0
LINE
  5
9936A
330
9924F
100
AcDbEntity
  8
NOTE
100
AcDbLine
 10
402.825574758187
 20
-749.1195798674214
 30
0.0
 11
356.9241601353279
 21
-669.9999999999842
 31
0.0
  0
LINE
  5
9936B
330
9924F
100
AcDbEntity
  8
NOTE
100
AcDbLine
 10
769.0786893435942
 20
-749.1195798674214
 30
0.0
 11
402.825574758187
 21
-749.1195798674214
 31
0.0
  0
TEXT
  5
9936C
330
9924F
100
AcDbEntity
  8
NOTE
100
AcDbText
 10
-1036.547063005438
 20
-805.5546098931809
 30
0.0
 40
35.0
  1
(450X450)
 50
0.0000025044752157
 41
0.6
  7
STANDARD1
100
AcDbText
  0
LINE
  5
9936D
330
9924F
100
AcDbEntity
  8
NOTE
100
AcDbLine
 10
-385.1278997717664
 20
-538.0878315195345
 30
0.0
 11
-418.8758431297864
 21
-551.2797745310993
 31
0.0
  0
LINE
  5
9936E
330
9924F
100
AcDbEntity
  8
NOTE
100
AcDbLine
 10
-418.8758431297864
 20
-551.2797745310993
 30
0.0
 11
-396.2452382336678
 21
-522.981245181462
 31
0.0
  0
LINE
  5
9936F
330
9924F
100
AcDbEntity
  8
NOTE
100
AcDbLine
 10
-418.8758431297864
 20
-551.2797745310993
 30
0.0
 11
-390.6865690027172
 21
-530.5345383504982
 31
0.0
  0
LINE
  5
99370
330
9924F
100
AcDbEntity
  8
NOTE
100
AcDbLine
 10
-390.6865690027172
 20
-530.5345383504982
 30
0.0
 11
-285.3996699639073
 21
-453.0511105248153
 31
0.0
1001
ACAD
1000
DSTYLE
1002
{
1070
    41
1040
35.0
1070
   271
1070
     0
1070
   341
1005
4C0C3
1002
}
  0
LINE
  5
99371
330
9924F
100
AcDbEntity
  8
NOTE
100
AcDbLine
 10
-285.3996699639073
 20
-453.0511105248153
 30
0.0
 11
2.179753139726926
 21
-453.0511105248153
 31
0.0
1001
ACAD
1000
DSTYLE
1002
{
1070
    41
1040
35.0
1070
   271
1070
     0
1070
   341
1005
4C0C3
1002
}
  0
TEXT
  5
99372
330
9924F
100
AcDbEntity
  8
NOTE
100
AcDbText
 10
-282.8211850490379
 20
-437.7808389344065
 30
0.0
 40
35.0
  1
Ceiling beam
 50
359.999999316757
 41
0.7
  7
STANDARD1
100
AcDbText
  0
LINE
  5
99373
330
9924F
100
AcDbEntity
  8
NOTE
100
AcDbLine
 10
-111.1370947553659
 20
-705.7306291835669
 30
0.0
 11
-117.1598166866806
 21
-669.9999999999858
 31
0.0
  0
LINE
  5
99374
330
9924F
100
AcDbEntity
  8
NOTE
100
AcDbLine
 10
-117.1598166866806
 20
-669.9999999999858
 30
0.0
 11
-94.07867202915712
 21
-697.9322717052196
 31
0.0
  0
LINE
  5
99375
330
9924F
100
AcDbEntity
  8
NOTE
100
AcDbLine
 10
-117.1598166866806
 20
-669.9999999999858
 30
0.0
 11
-102.6078833922611
 21
-701.8314504443933
 31
0.0
  0
LINE
  5
99376
330
9924F
100
AcDbEntity
  8
NOTE
100
AcDbLine
 10
-102.6078833922611
 20
-701.8314504443933
 30
0.0
 11
-78.82948868398125
 21
-753.8452122924114
 31
0.0
1001
ACAD
1000
DSTYLE
1002
{
1070
   341
1005
4C0C3
1070
    41
1040
35.0
1070
   271
1070
     0
1002
}
  0
LINE
  5
99377
330
9924F
100
AcDbEntity
  8
NOTE
100
AcDbLine
 10
-78.82948868398125
 20
-753.8452122924114
 30
0.0
 11
226.0750219525817
 21
-753.8452122924118
 31
0.0
1001
ACAD
1000
DSTYLE
1002
{
1070
   341
1005
4C0C3
1070
    41
1040
35.0
1070
   271
1070
     0
1002
}
  0
TEXT
  5
99378
330
9924F
100
AcDbEntity
  8
NOTE
100
AcDbText
 10
-68.99872053268516
 20
-744.7783803649379
 30
0.0
 40
35.0
  1
Access door 2
 50
359.999999316757
 41
0.7
  7
STANDARD1
100
AcDbText
  0
TEXT
  5
99379
330
9924F
100
AcDbEntity
  8
NOTE
100
AcDbText
 10
-32.09374236313124
 20
-803.9824011714644
 30
0.0
 40
35.0
  1
(450X450)
 50
0.0000025044752157
 41
0.6
  7
STANDARD1
100
AcDbText
  0
LINE
  5
9937A
330
9924F
100
AcDbEntity
  8
SIZE
100
AcDbLine
 10
-599.9999803815606
 20
-684.9999999999843
 30
0.0
 11
-599.9999803815606
 21
-890.0088428860087
 31
0.0
  0
LINE
  5
9937B
330
9924F
100
AcDbEntity
  8
SIZE
100
AcDbLine
 10
-450.0000000000018
 20
-264.9999999999843
 30
0.0
 11
-450.0000000000018
 21
-890.0088428860087
 31
0.0
  0
LINE
  5
9937C
330
9924F
100
AcDbEntity
  8
SIZE
100
AcDbLine
 10
-599.9999803815606
 20
-885.0088428860088
 30
0.0
 11
-450.0000000000018
 21
-885.0088428860088
 31
0.0
  0
LINE
  5
9937D
330
9924F
100
AcDbEntity
  8
SIZE
100
AcDbLine
 10
-524.9999901907813
 20
-885.0088428860088
 30
0.0
 11
-490.5231628115853
 21
-946.6098904316142
 31
0.0
  0
LINE
  5
9937E
330
9924F
100
AcDbEntity
  8
SIZE
100
AcDbLine
 10
-490.5231628115853
 20
-946.6098904316142
 30
0.0
 11
-285.6660199544421
 21
-946.6098904316142
 31
0.0
  0
TEXT
  5
9937F
330
9924F
100
AcDbEntity
  8
SIZE
100
AcDbText
 10
-475.5231628115851
 20
-931.6098904316143
 30
0.0
 40
30.0
  1
100~200
 41
0.9
100
AcDbText
  0
CIRCLE
  5
99380
330
9924F
100
AcDbEntity
  8
SIZE
100
AcDbCircle
 10
-599.9999803815606
 20
-885.0088428860088
 30
0.0
 40
5.0
  0
CIRCLE
  5
99381
330
9924F
100
AcDbEntity
  8
SIZE
100
AcDbCircle
 10
-450.0000000000018
 20
-885.0088428860088
 30
0.0
 40
5.0
  0
LINE
  5
99382
330
9924F
100
AcDbEntity
  8
SIZE
100
AcDbLine
 10
249.9999999999973
 20
-684.9999999999872
 30
0.0
 11
249.9999999999973
 21
-890.0088428860087
 31
0.0
  0
LINE
  5
99383
330
9924F
100
AcDbEntity
  8
SIZE
100
AcDbLine
 10
449.9999999999982
 20
-264.9999999999843
 30
0.0
 11
449.9999999999982
 21
-890.0088428860087
 31
0.0
  0
LINE
  5
99384
330
9924F
100
AcDbEntity
  8
SIZE
100
AcDbLine
 10
249.9999999999973
 20
-885.0088428860088
 30
0.0
 11
449.9999999999982
 21
-885.0088428860088
 31
0.0
  0
LINE
  5
99385
330
9924F
100
AcDbEntity
  8
SIZE
100
AcDbLine
 10
449.9999999999982
 20
-885.0088428860088
 30
0.0
 11
674.8571428571413
 21
-885.0088428860088
 31
0.0
  0
CIRCLE
  5
99386
330
9924F
100
AcDbEntity
  8
SIZE
100
AcDbCircle
 10
249.9999999999973
 20
-885.0088428860088
 30
0.0
 40
5.0
  0
CIRCLE
  5
99387
330
9924F
100
AcDbEntity
  8
SIZE
100
AcDbCircle
 10
449.9999999999982
 20
-885.0088428860088
 30
0.0
 40
5.0
  0
TEXT
  5
99388
330
9924F
100
AcDbEntity
  8
SIZE
100
AcDbText
 10
484.999999999998
 20
-870.0088428860087
 30
0.0
 40
30.0
  1
150~250
 41
0.9
100
AcDbText
  0
LINE
  5
99389
330
9924F
100
AcDbEntity
  8
NOTE
100
AcDbLine
 10
-523.0
 20
-106.8798402021117
 30
0.0
 11
-523.0
 21
-137.5054088295716
 31
0.0
  0
LINE
  5
9938A
330
9924F
100
AcDbEntity
  8
NOTE
100
AcDbLine
 10
-533.866271911993
 20
-122.1926245158416
 30
0.0
 11
-512.1337280880069
 21
-122.1926245158416
 31
0.0
  0
LINE
  5
9938B
330
9924F
100
AcDbEntity
  8
NOTE
100
AcDbLine
 10
-549.9999999999982
 20
-138.8023067249276
 30
0.0
 11
-550.0000000000018
 21
-171.2370542458237
 31
0.0
  0
LINE
  5
9938C
330
9924F
100
AcDbEntity
  8
NOTE
100
AcDbLine
 10
-560.8662719119928
 20
-155.0196804853757
 30
0.0
 11
-539.1337280880069
 21
-155.0196804853757
 31
0.0
  0
LINE
  5
9938D
330
9924F
100
AcDbEntity
  8
SIZE
100
AcDbLine
 10
-465.0
 20
0.0000000000004601
 30
0.0
 11
-755.6449818234822
 21
0.0000000000004139
 31
0.0
  0
LINE
  5
9938E
330
9924F
100
AcDbEntity
  8
SIZE
100
AcDbLine
 10
-548.8662719119911
 20
-122.1926245158417
 30
0.0
 11
-755.6449818234822
 21
-122.1926245158417
 31
0.0
  0
LINE
  5
9938F
330
9924F
100
AcDbEntity
  8
SIZE
100
AcDbLine
 10
-750.6449818234822
 20
0.0000000000004139
 30
0.0
 11
-750.6449818234822
 21
-122.1926245158417
 31
0.0
  0
CIRCLE
  5
99390
330
9924F
100
AcDbEntity
  8
SIZE
100
AcDbCircle
 10
-750.6449818234822
 20
0.0000000000004139
 30
0.0
 40
5.0
  0
CIRCLE
  5
99391
330
9924F
100
AcDbEntity
  8
SIZE
100
AcDbCircle
 10
-750.6449818234822
 20
-122.1926245158417
 30
0.0
 40
5.0
  0
TEXT
  5
99392
330
9924F
100
AcDbEntity
  8
SIZE
100
AcDbText
 10
-765.6449818234833
 20
-93.23916940077779
 30
0.0
 40
30.0
  1
122
 50
90.0
 41
0.9
100
AcDbText
  0
LINE
  5
99393
330
9924F
100
AcDbEntity
  8
SIZE
100
AcDbLine
 10
-548.8662719119911
 20
-122.1926245158417
 30
0.0
 11
-755.6449818234832
 21
-122.1926245158417
 31
0.0
  0
LINE
  5
99394
330
9924F
100
AcDbEntity
  8
SIZE
100
AcDbLine
 10
-575.8662719119911
 20
-155.0196804853757
 30
0.0
 11
-755.6449818234832
 21
-155.0196804853758
 31
0.0
  0
LINE
  5
99395
330
9924F
100
AcDbEntity
  8
SIZE
100
AcDbLine
 10
-750.6449818234832
 20
-122.1926245158417
 30
0.0
 11
-750.6449818234832
 21
-155.0196804853758
 31
0.0
  0
LINE
  5
99396
330
9924F
100
AcDbEntity
  8
SIZE
100
AcDbLine
 10
-750.6449818234832
 20
-155.0196804853758
 30
0.0
 11
-750.6449818234832
 21
-299.4629712299842
 31
0.0
  0
CIRCLE
  5
99397
330
9924F
100
AcDbEntity
  8
SIZE
100
AcDbCircle
 10
-750.6449818234832
 20
-122.1926245158417
 30
0.0
 40
5.0
  0
CIRCLE
  5
99398
330
9924F
100
AcDbEntity
  8
SIZE
100
AcDbCircle
 10
-750.6449818234832
 20
-155.0196804853758
 30
0.0
 40
5.0
  0
TEXT
  5
99399
330
9924F
100
AcDbEntity
  8
SIZE
100
AcDbText
 10
-765.6449818234841
 20
-284.4629712299856
 30
0.0
 40
30.0
  1
33
 50
90.0
 41
0.9
100
AcDbText
  0
LINE
  5
9939A
330
9924F
100
AcDbEntity
  8
SIZE
100
AcDbLine
 10
-450.0000000000018
 20
-264.9999999999843
 30
0.0
 11
-450.0000000000018
 21
-403.8736985382959
 31
0.0
  0
LINE
  5
9939B
330
9924F
100
AcDbEntity
  8
SIZE
100
AcDbLine
 10
-523.0
 20
-152.5054088295716
 30
0.0
 11
-523.0
 21
-403.8736985382959
 31
0.0
  0
LINE
  5
9939C
330
9924F
100
AcDbEntity
  8
SIZE
100
AcDbLine
 10
-450.0000000000018
 20
-398.8736985382959
 30
0.0
 11
-523.0
 21
-398.8736985382959
 31
0.0
  0
CIRCLE
  5
9939D
330
9924F
100
AcDbEntity
  8
SIZE
100
AcDbCircle
 10
-450.0000000000018
 20
-398.8736985382959
 30
0.0
 40
5.0
  0
CIRCLE
  5
9939E
330
9924F
100
AcDbEntity
  8
SIZE
100
AcDbCircle
 10
-523.0
 20
-398.8736985382959
 30
0.0
 40
5.0
  0
TEXT
  5
9939F
330
9924F
100
AcDbEntity
  8
SIZE
100
AcDbText
 10
-508.357142857144
 20
-383.8736985382959
 30
0.0
 40
30.0
  1
73
 41
0.9
100
AcDbText
  0
LINE
  5
993A0
330
9924F
100
AcDbEntity
  8
NOTE
100
AcDbLine
 10
-542.7942754589203
 20
-85.81871231862203
 30
0.0
 11
-523.0
 21
-122.1926245158416
 31
0.0
  0
LINE
  5
993A1
330
9924F
100
AcDbEntity
  8
NOTE
100
AcDbLine
 10
-523.0
 20
-122.1926245158416
 30
0.0
 11
-558.3293013975361
 21
-100.5890300872122
 31
0.0
  0
LINE
  5
993A2
330
9924F
100
AcDbEntity
  8
NOTE
100
AcDbLine
 10
-523.0
 20
-122.1926245158416
 30
0.0
 11
-550.5617884282282
 21
-93.20387120291711
 31
0.0
  0
LINE
  5
993A3
330
9924F
100
AcDbEntity
  8
NOTE
100
AcDbLine
 10
-550.5617884282282
 20
-93.20387120291716
 30
0.0
 11
-814.6862223931837
 21
184.5951576976956
 31
0.0
1001
ACAD
1000
DSTYLE
1002
{
1070
    41
1040
40.0
1070
    90
1070
     1
1070
   345
1005
12
1070
   346
1005
12
1070
   347
1005
12
1002
}
  0
LINE
  5
993A4
330
9924F
100
AcDbEntity
  8
NOTE
100
AcDbLine
 10
-814.6862223931837
 20
184.5951576976956
 30
0.0
 11
-1416.636783380805
 21
184.5951576976956
 31
0.0
1001
ACAD
1000
DSTYLE
1002
{
1070
    41
1040
40.0
1070
    90
1070
     1
1070
   345
1005
12
1070
   346
1005
12
1070
   347
1005
12
1002
}
  0
LINE
  5
993A5
330
9924F
100
AcDbEntity
  8
NOTE
100
AcDbLine
 10
-587.0197422572082
 20
-173.5780616832203
 30
0.0
 11
-550.0
 21
-155.0196804853757
 31
0.0
  0
LINE
  5
993A6
330
9924F
100
AcDbEntity
  8
NOTE
100
AcDbLine
 10
-550.0
 20
-155.0196804853757
 30
0.0
 11
-572.7808467942541
 21
-189.6015810810826
 31
0.0
  0
LINE
  5
993A7
330
9924F
100
AcDbEntity
  8
NOTE
100
AcDbLine
 10
-550.0
 20
-155.0196804853757
 30
0.0
 11
-579.9002945257316
 21
-181.5898213821515
 31
0.0
  0
LINE
  5
993A8
330
9924F
100
AcDbEntity
  8
NOTE
100
AcDbLine
 10
-579.9002945257316
 20
-181.5898213821515
 30
0.0
 11
-823.7945787309236
 21
-398.3203117682399
 31
0.0
1001
ACAD
1000
DSTYLE
1002
{
1070
    41
1040
40.0
1070
    90
1070
     1
1070
   345
1005
12
1070
   346
1005
12
1070
   347
1005
12
1002
}
  0
LINE
  5
993A9
330
9924F
100
AcDbEntity
  8
NOTE
100
AcDbLine
 10
-823.7945787309236
 20
-398.3203117682399
 30
0.0
 11
-1356.941962430808
 21
-398.3203117682399
 31
0.0
1001
ACAD
1000
DSTYLE
1002
{
1070
    41
1040
40.0
1070
    90
1070
     1
1070
   345
1005
12
1070
   346
1005
12
1070
   347
1005
12
1002
}
  0
TEXT
  5
993AA
330
9924F
100
AcDbEntity
  8
NOTE
100
AcDbText
 10
-769.4847523281952
 20
285.5466378825974
 30
0.0
 40
30.0
  1
 (O.D.%%C32)
 50
0.0000025044816619
 41
0.6
  7
STANDARD1
100
AcDbText
  0
LINE
  5
993AB
330
9924F
100
AcDbEntity
  8
NOTE
100
AcDbLine
 10
-506.5160474550657
 20
0.3957282636844042
 30
0.0
 11
-507.99781467136
 21
-40.98880019069532
 31
0.0
  0
LINE
  5
993AC
330
9924F
100
AcDbEntity
  8
NOTE
100
AcDbLine
 10
-507.99781467136
 20
-40.98880019069532
 30
0.0
 11
-527.4068306807929
 21
-4.407863529365528
 31
0.0
  0
LINE
  5
993AD
330
9924F
100
AcDbEntity
  8
NOTE
100
AcDbLine
 10
-507.99781467136
 20
-40.98880019069532
 30
0.0
 11
-516.9614390679298
 21
-2.006067632840561
 31
0.0
  0
LINE
  5
993AE
330
9924F
100
AcDbEntity
  8
NOTE
100
AcDbLine
 10
-516.9614390679288
 20
-2.006067632840554
 30
0.0
 11
-593.2326965682777
 21
329.697036094414
 31
0.0
1001
ACAD
1000
DSTYLE
1002
{
1070
    41
1040
40.0
1070
   147
1040
15.0
1070
    77
1070
     0
1070
    90
1070
     1
1070
   345
1005
12
1070
   346
1005
12
1070
   347
1005
12
1002
}
  0
LINE
  5
993AF
330
9924F
100
AcDbEntity
  8
NOTE
100
AcDbLine
 10
-593.2326965682777
 20
329.697036094414
 30
0.0
 11
-791.6184577970143
 21
329.697036094414
 31
0.0
1001
ACAD
1000
DSTYLE
1002
{
1070
    41
1040
40.0
1070
   147
1040
15.0
1070
    77
1070
     0
1070
    90
1070
     1
1070
   345
1005
12
1070
   346
1005
12
1070
   347
1005
12
1002
}
  0
LINE
  5
993B0
330
9924F
100
AcDbEntity
  8
DETAIL
100
AcDbLine
 10
-500.0000000000018
 20
-15.02145922746861
 30
0.0
 11
-500.0000000000018
 21
-26.99262451584146
 31
0.0
  0
LINE
  5
993B1
330
9924F
100
AcDbEntity
  8
DETAIL
100
AcDbLine
 10
-497.5006829151989
 20
-17.69516496038631
 30
0.0
 11
-497.5006829151989
 21
-26.99262451584146
 31
0.0
  0
LINE
  5
993B2
330
9924F
100
AcDbEntity
  8
DETAIL
100
AcDbLine
 10
-497.5006829151989
 20
-26.99262451584146
 30
0.0
 11
-500.0000000000018
 21
-26.99262451584146
 31
0.0
  0
LINE
  5
993B3
330
9924F
100
AcDbEntity
  8
DETAIL
100
AcDbLine
 10
-450.0
 20
-17.49521959359056
 30
0.0
 11
-497.3007375484176
 21
-17.49521959359045
 31
0.0
  0
LINE
  5
993B4
330
9924F
100
AcDbEntity
  8
DETAIL
100
AcDbLine
 10
-450.0
 20
-15.02145922746873
 30
0.0
 11
-500.0000000000018
 21
-15.02145922746861
 31
0.0
  0
ARC
  5
993B5
330
9924F
100
AcDbEntity
  8
DETAIL
100
AcDbCircle
 10
-497.3007375484176
 20
-17.69516496038631
 30
0.0
 40
0.1999453667838173
100
AcDbArc
 50
90.0
 51
180.0
  0
LINE
  5
993B6
330
9924F
100
AcDbEntity
  8
DETAIL
100
AcDbLine
 10
-450.0000000000018
 20
-237.239045089998
 30
0.0
 11
-490.0000000000018
 21
-237.239045089998
 31
0.0
  0
LINE
  5
993B7
330
9924F
100
AcDbEntity
  8
DETAIL
100
AcDbLine
 10
-490.0000000000018
 20
-237.2390450899978
 30
0.0
 11
-490.0000000000018
 21
-197.2499717331805
 31
0.0
  0
LINE
  5
993B8
330
9924F
100
AcDbEntity
  8
DETAIL
100
AcDbLine
 10
-450.0
 20
-197.2499717331805
 30
0.0
 11
-490.0000000000018
 21
-197.2499717331805
 31
0.0
  0
LINE
  5
993B9
330
9924F
100
AcDbEntity
  8
DETAIL
100
AcDbLine
 10
-507.99781467136
 20
-56.48456611647198
 30
0.0
 11
-507.99781467136
 21
-25.49303426495972
 31
0.0
  0
LINE
  5
993BA
330
9924F
100
AcDbEntity
  8
DETAIL
100
AcDbLine
 10
-483.0046438233603
 20
-56.98442953343256
 30
0.0
 11
-483.0046438233603
 21
-24.74323913952613
 31
0.0
  0
LINE
  5
993BB
330
9924F
100
AcDbEntity
  8
DETAIL
100
AcDbLine
 10
-450.0
 20
-24.16714093899209
 30
0.0
 11
-483.0046438233603
 21
-24.74323913952613
 31
0.0
  0
ARC
  5
993BC
330
9924F
100
AcDbEntity
  8
DETAIL
100
AcDbCircle
 10
-507.4979512543996
 20
-56.48456611647198
 30
0.0
 40
0.4998634169600062
100
AcDbArc
 50
180.0
 51
270.0
  0
ARC
  5
993BD
330
9924F
100
AcDbEntity
  8
DETAIL
100
AcDbCircle
 10
-507.4979512543996
 20
-25.49303426495972
 30
0.0
 40
0.4998634169600655
100
AcDbArc
 50
90.0
 51
180.0
  0
LINE
  5
993BE
330
9924F
100
AcDbEntity
  8
DETAIL
100
AcDbLine
 10
-483.0046438233603
 20
-24.99317084799914
 30
0.0
 11
-497.5006829151989
 21
-24.99317084799914
 31
0.0
  0
LINE
  5
993BF
330
9924F
100
AcDbEntity
  8
DETAIL
100
AcDbLine
 10
-500.0000000000018
 20
-24.99317084799914
 30
0.0
 11
-507.4979512543996
 21
-24.99317084799914
 31
0.0
  0
LINE
  5
993C0
330
9924F
100
AcDbEntity
  8
DETAIL
100
AcDbLine
 10
-450.0000000000026
 20
-56.98442953343256
 30
0.0
 11
-507.4979512543996
 21
-56.98442953343256
 31
0.0
  0
LINE
  5
993C1
330
9924F
100
AcDbEntity
  8
DETAIL
100
AcDbLine
 10
-550.0
 20
-145.9926245158409
 30
0.0
 11
-550.0
 21
-164.3926245158423
 31
0.0
  0
LINE
  5
993C2
330
9924F
100
AcDbEntity
  8
DETAIL
100
AcDbLine
 10
-534.5029437252015
 20
-145.9926245158409
 30
0.0
 11
-534.5029437252015
 21
-164.3926245158423
 31
0.0
  0
LINE
  5
993C3
330
9924F
100
AcDbEntity
  8
DETAIL
100
AcDbLine
 10
-533.2429437252011
 20
-147.2526245158411
 30
0.0
 11
-533.2429437252011
 21
-163.1326245158421
 31
0.0
  0
LINE
  5
993C4
330
9924F
100
AcDbEntity
  8
DETAIL
100
AcDbLine
 10
-523.0
 20
-116.6826245158414
 30
0.0
 11
-523.0
 21
-127.7026245158418
 31
0.0
  0
LINE
  5
993C5
330
9924F
100
AcDbEntity
  8
DETAIL
100
AcDbLine
 10
-512.7100505064008
 20
-116.6826245158414
 30
0.0
 11
-512.7100505064008
 21
-127.7026245158418
 31
0.0
  0
LINE
  5
993C6
330
9924F
100
AcDbEntity
  8
DETAIL
100
AcDbLine
 10
-511.9600505064008
 20
-117.4326245158414
 30
0.0
 11
-511.9600505064008
 21
-126.9526245158418
 31
0.0
  0
LINE
  5
993C7
330
9924F
100
AcDbEntity
  8
DETAIL
100
AcDbLine
 10
-480.0
 20
-155.292624515842
 30
0.0
 11
-480.0
 21
-173.1924686104417
 31
0.0
  0
LINE
  5
993C8
330
9924F
100
AcDbEntity
  8
DETAIL
100
AcDbLine
 10
-480.0
 20
-122.292624515842
 30
0.0
 11
-480.0
 21
-155.0926245158413
 31
0.0
  0
LINE
  5
993C9
330
9924F
100
AcDbEntity
  8
DETAIL
100
AcDbLine
 10
-480.0
 20
-107.1926262075418
 30
0.0
 11
-480.0
 21
-122.0926245158413
 31
0.0
  0
LINE
  5
993CA
330
9924F
100
AcDbEntity
  8
DETAIL
100
AcDbLine
 10
-534.5029437252015
 20
-145.9926245158409
 30
0.0
 11
-533.2429437252011
 21
-147.2526245158411
 31
0.0
  0
LINE
  5
993CB
330
9924F
100
AcDbEntity
  8
DETAIL
100
AcDbLine
 10
-512.7100505064008
 20
-116.6826245158414
 30
0.0
 11
-511.9600505064008
 21
-117.4326245158414
 31
0.0
  0
LINE
  5
993CC
330
9924F
100
AcDbEntity
  8
DETAIL
100
AcDbLine
 10
-450.0000000000018
 20
-173.1926245158416
 30
0.0
 11
-480.0
 21
-173.1926245158416
 31
0.0
  0
LINE
  5
993CD
330
9924F
100
AcDbEntity
  8
DETAIL
100
AcDbLine
 10
-550.0
 20
-164.3926245158423
 30
0.0
 11
-534.5029437252015
 21
-164.3926245158423
 31
0.0
  0
LINE
  5
993CE
330
9924F
100
AcDbEntity
  8
DETAIL
100
AcDbLine
 10
-533.2429437252011
 20
-163.1326245158421
 30
0.0
 11
-480.0
 21
-163.1326245158421
 31
0.0
  0
LINE
  5
993CF
330
9924F
100
AcDbEntity
  8
DETAIL
100
AcDbLine
 10
-533.2429437252011
 20
-147.2526245158411
 30
0.0
 11
-480.0
 21
-147.2526245158411
 31
0.0
  0
LINE
  5
993D0
330
9924F
100
AcDbEntity
  8
DETAIL
100
AcDbLine
 10
-550.0
 20
-145.9926245158409
 30
0.0
 11
-534.5029437252015
 21
-145.9926245158409
 31
0.0
  0
LINE
  5
993D1
330
9924F
100
AcDbEntity
  8
DETAIL
100
AcDbLine
 10
-450.0000000000018
 20
-137.1926245158421
 30
0.0
 11
-480.0
 21
-137.1926245158416
 31
0.0
  0
LINE
  5
993D2
330
9924F
100
AcDbEntity
  8
DETAIL
100
AcDbLine
 10
-523.0
 20
-127.7026245158418
 30
0.0
 11
-512.7100505064008
 21
-127.7026245158418
 31
0.0
  0
LINE
  5
993D3
330
9924F
100
AcDbEntity
  8
DETAIL
100
AcDbLine
 10
-511.9600505064008
 20
-126.9526245158418
 30
0.0
 11
-480.0
 21
-126.9526245158418
 31
0.0
  0
LINE
  5
993D4
330
9924F
100
AcDbEntity
  8
DETAIL
100
AcDbLine
 10
-450.0000000000018
 20
-122.2926245158424
 30
0.0
 11
-480.0
 21
-122.292624515842
 31
0.0
  0
LINE
  5
993D5
330
9924F
100
AcDbEntity
  8
DETAIL
100
AcDbLine
 10
-480.0
 20
-117.4326245158414
 30
0.0
 11
-511.9600505064008
 21
-117.4326245158414
 31
0.0
  0
LINE
  5
993D6
330
9924F
100
AcDbEntity
  8
DETAIL
100
AcDbLine
 10
-523.0
 20
-116.6826245158414
 30
0.0
 11
-512.7100505064008
 21
-116.6826245158414
 31
0.0
  0
LINE
  5
993D7
330
9924F
100
AcDbEntity
  8
DETAIL
100
AcDbLine
 10
-450.0000000000018
 20
-107.1926245158421
 30
0.0
 11
-480.0
 21
-107.1926245158416
 31
0.0
  0
LINE
  5
993D8
330
9924F
100
AcDbEntity
  8
DETAIL
100
AcDbLine
 10
-534.5029437252015
 20
-164.3926245158423
 30
0.0
 11
-533.2429437252011
 21
-163.1326245158421
 31
0.0
  0
LINE
  5
993D9
330
9924F
100
AcDbEntity
  8
DETAIL
100
AcDbLine
 10
-512.7100505064008
 20
-127.7026245158418
 30
0.0
 11
-511.9600505064008
 21
-126.9526245158418
 31
0.0
  0
LINE
  5
993DA
330
9924F
100
AcDbEntity
  8
SIZE
100
AcDbLine
 10
-550.0000000000018
 20
-186.2370542458236
 30
0.0
 11
-550.0000000000018
 21
-480.7371688740943
 31
0.0
  0
LINE
  5
993DB
330
9924F
100
AcDbEntity
  8
SIZE
100
AcDbLine
 10
-450.0000000000018
 20
-264.9999999999843
 30
0.0
 11
-450.0000000000018
 21
-480.7371688740943
 31
0.0
  0
LINE
  5
993DC
330
9924F
100
AcDbEntity
  8
SIZE
100
AcDbLine
 10
-550.0000000000018
 20
-475.7371688740943
 30
0.0
 11
-450.0000000000018
 21
-475.7371688740943
 31
0.0
  0
CIRCLE
  5
993DD
330
9924F
100
AcDbEntity
  8
SIZE
100
AcDbCircle
 10
-550.0000000000018
 20
-475.7371688740943
 30
0.0
 40
5.0
  0
CIRCLE
  5
993DE
330
9924F
100
AcDbEntity
  8
SIZE
100
AcDbCircle
 10
-450.0000000000018
 20
-475.7371688740943
 30
0.0
 40
5.0
  0
TEXT
  5
993DF
330
9924F
100
AcDbEntity
  8
SIZE
100
AcDbText
 10
-532.1428571428587
 20
-460.7371688740943
 30
0.0
 40
30.0
  1
100
 41
0.9
100
AcDbText
  0
TEXT
  5
993E0
330
9924F
100
AcDbEntity
  8
NOTE
100
AcDbText
 10
-1408.737783942664
 20
208.2674030940824
 30
0.0
 40
30.0
  1
Brazing connection (liquid) %%C6.35
 41
0.6
  7
STANDARD1
100
AcDbText
  0
TEXT
  5
993E1
330
9924F
100
AcDbEntity
  8
NOTE
100
AcDbText
 10
-1347.978126967499
 20
-339.6904369059041
 30
0.0
 40
30.0
  1
Refrigerant piping
 41
0.6
  7
STANDARD1
100
AcDbText
  0
TEXT
  5
993E2
330
9924F
100
AcDbEntity
  8
NOTE
100
AcDbText
 10
-1349.113984787573
 20
-381.4855304728638
 30
0.0
 40
30.0
  1
Brazing connection (gas) %%C12.7
 41
0.6
  7
STANDARD1
100
AcDbText
  0
TEXT
  5
993E3
330
9924F
100
AcDbEntity
  8
NOTE
100
AcDbText
 10
-1408.730384388405
 20
256.8388230735497
 30
0.0
 40
30.0
  1
Refrigerant piping
 41
0.6
  7
STANDARD1
100
AcDbText
  0
ENDBLK
  5
993E7
330
9924F
100
AcDbEntity
  8
0
100
AcDbBlockEnd
  0
ENDSEC
  0
SECTION
  2
ENTITIES
  0
LINE
  5
993EA
330
18
100
AcDbEntity
  8
DETAIL
100
AcDbLine
 10
-450.0000000000018
 20
0.0000000000004547
 30
0.0
 11
-0.000000000001819
 21
0.0000000000004547
 31
0.0
  0
LINE
  5
993EB
330
18
100
AcDbEntity
  8
DETAIL
100
AcDbLine
 10
-429.0000000000018
 20
-17.99999999999954
 30
0.0
 11
-0.000000000001819
 21
-17.99999999999954
 31
0.0
  0
LINE
  5
993EC
330
18
100
AcDbEntity
  8
DETAIL
100
AcDbLine
 10
-429.0000000000018
 20
-227.9999999999995
 30
0.0
 11
-0.000000000001819
 21
-227.9999999999995
 31
0.0
  0
LINE
  5
993ED
330
18
100
AcDbEntity
  8
DETAIL
100
AcDbLine
 10
-450.0000000000018
 20
-237.2390450899982
 30
0.0
 11
-490.0000000000018
 21
-237.2390450899982
 31
0.0
  0
LINE
  5
993EE
330
18
100
AcDbEntity
  8
DETAIL
100
AcDbLine
 10
-490.0000000000018
 20
-237.2390450899979
 30
0.0
 11
-490.0000000000018
 21
-197.2499717331807
 31
0.0
  0
LINE
  5
993EF
330
18
100
AcDbEntity
  8
DETAIL
100
AcDbLine
 10
-450.0000000000018
 20
-249.9999999999843
 30
0.0
 11
-0.000000000001819
 21
-249.9999999999843
 31
0.0
  0
LINE
  5
993F0
330
18
100
AcDbEntity
  8
DETAIL
100
AcDbLine
 10
-450.0000000000018
 20
0.0000000000003411
 30
0.0
 11
-450.0000000000018
 21
-249.9999999999843
 31
0.0
  0
LINE
  5
993F1
330
18
100
AcDbEntity
  8
DETAIL
100
AcDbLine
 10
-429.0000000000018
 20
-17.99999999999943
 30
0.0
 11
-429.0000000000018
 21
-227.9999999999995
 31
0.0
  0
LINE
  5
993F2
330
18
100
AcDbEntity
  8
NOTE
100
AcDbLine
 10
-507.99781467136
 20
-30.12252827872283
 30
0.0
 11
-507.99781467136
 21
-51.85507210270919
 31
0.0
  0
LINE
  5
993F3
330
18
100
AcDbEntity
  8
NOTE
100
AcDbLine
 10
-518.8640865833531
 20
-40.98880019071599
 30
0.0
 11
-497.1315427593672
 21
-40.98880019071599
 31
0.0
  0
LINE
  5
993F4
330
18
100
AcDbEntity
  8
NOTE
100
AcDbLine
 10
-490.0000000000018
 20
-206.3782364995961
 30
0.0
 11
-490.0000000000018
 21
-228.1107803235825
 31
0.0
  0
LINE
  5
993F5
330
18
100
AcDbEntity
  8
NOTE
100
AcDbLine
 10
-500.8662719119893
 20
-216.9999999999841
 30
0.0
 11
-479.1337280880034
 21
-216.9999999999841
 31
0.0
  0
LINE
  5
993F6
330
18
100
AcDbEntity
  8
NOTE
100
AcDbLine
 10
-490.0000000000018
 20
-216.9999999999841
 30
0.0
 11
-458.7586992678133
 21
-202.6357806145879
 31
0.0
  0
LINE
  5
993F7
330
18
100
AcDbEntity
  8
NOTE
100
AcDbLine
 10
-490.0000000000018
 20
-216.9999999999841
 30
0.0
 11
-470.1263500202058
 21
-188.9395704510714
 31
0.0
  0
LINE
  5
993F8
330
18
100
AcDbEntity
  8
NOTE
100
AcDbLine
 10
-415.1565895643051
 20
-155.7851159357694
 30
0.0
 11
-490.0000000000018
 21
-216.9999999999841
 31
0.0
  0
LINE
  5
993F9
330
18
100
AcDbEntity
  8
NOTE
100
AcDbLine
 10
-477.0000000000018
 20
-4.155187315475586
 30
0.0
 11
-477.0000000000018
 21
-25.88773113946195
 31
0.0
  0
LINE
  5
993FA
330
18
100
AcDbEntity
  8
NOTE
100
AcDbLine
 10
-487.8662719119946
 20
-15.02145922746876
 30
0.0
 11
-466.1337280880088
 21
-15.02145922746876
 31
0.0
  0
LINE
  5
993FB
330
18
100
AcDbEntity
  8
NOTE
100
AcDbLine
 10
-400.0000000000018
 20
-231.3634875954394
 30
0.0
 11
-400.0000000000018
 21
-238.6365124045596
 31
0.0
  0
LINE
  5
993FC
330
18
100
AcDbEntity
  8
NOTE
100
AcDbLine
 10
-403.6365124045623
 20
-234.9999999999996
 30
0.0
 11
-396.3634875954412
 21
-234.9999999999996
 31
0.0
  0
CIRCLE
  5
993FD
330
18
100
AcDbEntity
  8
DETAIL
100
AcDbCircle
 10
-400.0000000000018
 20
-234.9999999999996
 30
0.0
 40
1.45
  0
LINE
  5
993FE
330
18
100
AcDbEntity
  8
NOTE
100
AcDbLine
 10
-444.0000000000018
 20
-119.3634875954394
 30
0.0
 11
-444.0000000000018
 21
-126.6365124045596
 31
0.0
  0
LINE
  5
993FF
330
18
100
AcDbEntity
  8
NOTE
100
AcDbLine
 10
-447.6365124045623
 20
-122.9999999999995
 30
0.0
 11
-440.3634875954412
 21
-122.9999999999995
 31
0.0
  0
CIRCLE
  5
99400
330
18
100
AcDbEntity
  8
DETAIL
100
AcDbCircle
 10
-444.0000000000018
 20
-122.9999999999995
 30
0.0
 40
1.45
  0
LINE
  5
99401
330
18
100
AcDbEntity
  8
DETAIL
100
AcDbLine
 10
499.9999999999982
 20
-15.02145922746876
 30
0.0
 11
499.9999999999982
 21
-26.99262451584161
 31
0.0
  0
LINE
  5
99402
330
18
100
AcDbEntity
  8
DETAIL
100
AcDbLine
 10
497.5006829151952
 20
-17.69516496038647
 30
0.0
 11
497.5006829151952
 21
-26.99262451584161
 31
0.0
  0
LINE
  5
99403
330
18
100
AcDbEntity
  8
DETAIL
100
AcDbLine
 10
497.5006829151952
 20
-26.99262451584161
 30
0.0
 11
499.9999999999982
 21
-26.99262451584161
 31
0.0
  0
LINE
  5
99404
330
18
100
AcDbEntity
  8
DETAIL
100
AcDbLine
 10
449.9999999999963
 20
-17.49521959359072
 30
0.0
 11
497.3007375484138
 21
-17.4952195935906
 31
0.0
  0
LINE
  5
99405
330
18
100
AcDbEntity
  8
DETAIL
100
AcDbLine
 10
449.9999999999963
 20
-15.02145922746888
 30
0.0
 11
499.9999999999982
 21
-15.02145922746876
 31
0.0
  0
LINE
  5
99406
330
18
100
AcDbEntity
  8
DETAIL
100
AcDbLine
 10
449.9999999999982
 20
0.0000000000004547
 30
0.0
 11
-0.000000000001819
 21
0.0000000000004547
 31
0.0
  0
LINE
  5
99407
330
18
100
AcDbEntity
  8
DETAIL
100
AcDbLine
 10
428.9999999999982
 20
-17.99999999999954
 30
0.0
 11
-0.000000000001819
 21
-17.99999999999954
 31
0.0
  0
LINE
  5
99408
330
18
100
AcDbEntity
  8
DETAIL
100
AcDbLine
 10
428.9999999999982
 20
-227.9999999999995
 30
0.0
 11
-0.000000000001819
 21
-227.9999999999995
 31
0.0
  0
ARC
  5
99409
330
18
100
AcDbEntity
  8
DETAIL
100
AcDbCircle
 10
497.3007375484138
 20
-17.69516496038647
 30
0.0
 40
0.1999453667838173
100
AcDbArc
 50
0.0
 51
90.0
  0
LINE
  5
9940A
330
18
100
AcDbEntity
  8
DETAIL
100
AcDbLine
 10
449.9999999999982
 20
-249.9999999999843
 30
0.0
 11
-0.000000000001819
 21
-249.9999999999843
 31
0.0
  0
LINE
  5
9940B
330
18
100
AcDbEntity
  8
DETAIL
100
AcDbLine
 10
449.9999999999982
 20
0.0000000000003411
 30
0.0
 11
449.9999999999982
 21
-249.9999999999843
 31
0.0
  0
LINE
  5
9940C
330
18
100
AcDbEntity
  8
DETAIL
100
AcDbLine
 10
428.9999999999982
 20
-17.99999999999943
 30
0.0
 11
428.9999999999982
 21
-227.9999999999995
 31
0.0
  0
LINE
  5
9940D
330
18
100
AcDbEntity
  8
NOTE
100
AcDbLine
 10
476.999999999998
 20
-4.155187315475586
 30
0.0
 11
476.999999999998
 21
-25.88773113946195
 31
0.0
  0
LINE
  5
9940E
330
18
100
AcDbEntity
  8
NOTE
100
AcDbLine
 10
487.8662719119911
 20
-15.02145922746876
 30
0.0
 11
466.1337280880052
 21
-15.02145922746876
 31
0.0
  0
LINE
  5
9940F
330
18
100
AcDbEntity
  8
NOTE
100
AcDbLine
 10
389.9999999999982
 20
-7.363487595439551
 30
0.0
 11
389.9999999999982
 21
-14.63651240455976
 31
0.0
  0
LINE
  5
99410
330
18
100
AcDbEntity
  8
NOTE
100
AcDbLine
 10
393.6365124045588
 20
-10.99999999999966
 30
0.0
 11
386.3634875954376
 21
-10.99999999999966
 31
0.0
  0
CIRCLE
  5
99411
330
18
100
AcDbEntity
  8
DETAIL
100
AcDbCircle
 10
389.9999999999982
 20
-10.99999999999966
 30
0.0
 40
1.45
  0
LINE
  5
99412
330
18
100
AcDbEntity
  8
NOTE
100
AcDbLine
 10
389.9999999999982
 20
-231.3634875954394
 30
0.0
 11
389.9999999999982
 21
-238.6365124045596
 31
0.0
  0
LINE
  5
99413
330
18
100
AcDbEntity
  8
NOTE
100
AcDbLine
 10
393.6365124045588
 20
-234.9999999999996
 30
0.0
 11
386.3634875954376
 21
-234.9999999999996
 31
0.0
  0
CIRCLE
  5
99414
330
18
100
AcDbEntity
  8
DETAIL
100
AcDbCircle
 10
389.9999999999982
 20
-234.9999999999996
 30
0.0
 40
1.45
  0
LINE
  5
99415
330
18
100
AcDbEntity
  8
NOTE
100
AcDbLine
 10
443.999999999998
 20
-119.3634875954394
 30
0.0
 11
443.999999999998
 21
-126.6365124045596
 31
0.0
  0
LINE
  5
99416
330
18
100
AcDbEntity
  8
NOTE
100
AcDbLine
 10
447.6365124045587
 20
-122.9999999999995
 30
0.0
 11
440.3634875954374
 21
-122.9999999999995
 31
0.0
  0
CIRCLE
  5
99417
330
18
100
AcDbEntity
  8
DETAIL
100
AcDbCircle
 10
443.999999999998
 20
-122.9999999999995
 30
0.0
 40
1.45
  0
CIRCLE
  5
99418
330
18
100
AcDbEntity
  8
FIX
100
AcDbCircle
 10
-477.0000000000018
 20
-15.02145922746876
 30
0.0
 40
9.947006128806801
  0
CIRCLE
  5
99419
330
18
100
AcDbEntity
  8
FIX
100
AcDbCircle
 10
476.999999999998
 20
-14.99999999998408
 30
0.0
 40
9.947006128806801
  0
LINE
  5
9941A
330
18
100
AcDbEntity
  8
SIZE
100
AcDbLine
 10
465.0000000000018
 20
0.0000000000004636
 30
0.0
 11
575.3073438570427
 21
0.0000000000004814
 31
0.0
  0
LINE
  5
9941B
330
18
100
AcDbEntity
  8
SIZE
100
AcDbLine
 10
502.8662719119948
 20
-15.02145922746876
 30
0.0
 11
575.3073438570427
 21
-15.02145922746875
 31
0.0
  0
LINE
  5
9941C
330
18
100
AcDbEntity
  8
SIZE
100
AcDbLine
 10
570.3073438570426
 20
-15.02145922746875
 30
0.0
 11
570.3073438570426
 21
-35.02145922746875
 31
0.0
  0
LINE
  5
9941D
330
18
100
AcDbEntity
  8
SIZE
100
AcDbLine
 10
570.3073438570426
 20
0.0000000000004814
 30
0.0
 11
570.3073438570426
 21
108.5714285714329
 31
0.0
  0
LINE
  5
9941E
330
18
100
AcDbEntity
  8
SIZE
100
AcDbLine
 10
570.3073438570426
 20
-15.02145922746875
 30
0.0
 11
570.3073438570426
 21
0.0000000000004814
 31
0.0
  0
CIRCLE
  5
9941F
330
18
100
AcDbEntity
  8
SIZE
100
AcDbCircle
 10
570.3073438570426
 20
-15.02145922746875
 30
0.0
 40
5.0
  0
CIRCLE
  5
99420
330
18
100
AcDbEntity
  8
SIZE
100
AcDbCircle
 10
570.3073438570426
 20
0.0000000000004814
 30
0.0
 40
5.0
  0
TEXT
  5
99421
330
18
100
AcDbEntity
  8
SIZE
100
AcDbText
 10
555.3073438570407
 20
55.0000000000024
 30
0.0
 40
30.0
  1
15
 50
90.0
 41
0.9
100
AcDbText
  0
LINE
  5
99422
330
18
100
AcDbEntity
  8
NOTE
100
AcDbLine
 10
476.9944553664389
 20
-15.00072868278403
 30
0.0
 11
491.5241762112854
 21
16.16394494235874
 31
0.0
  0
LINE
  5
99423
330
18
100
AcDbEntity
  8
NOTE
100
AcDbLine
 10
476.9944553664389
 20
-15.00072868278403
 30
0.0
 11
473.9952254163291
 21
19.25353075594012
 31
0.0
  0
LINE
  5
99424
330
18
100
AcDbEntity
  8
NOTE
100
AcDbLine
 10
552.9473925726741
 20
398.4973002814458
 30
0.0
 11
476.9944553664389
 21
-15.00072868278403
 31
0.0
  0
LINE
  5
99425
330
18
100
AcDbEntity
  8
SIZE
100
AcDbLine
 10
-465.0
 20
0.0000000000003464
 30
0.0
 11
-555.8486124123674
 21
0.0000000000003322
 31
0.0
  0
LINE
  5
99426
330
18
100
AcDbEntity
  8
SIZE
100
AcDbLine
 10
-533.8640865833513
 20
-40.98880019071602
 30
0.0
 11
-555.8486124123674
 21
-40.98880019071602
 31
0.0
  0
LINE
  5
99427
330
18
100
AcDbEntity
  8
SIZE
100
AcDbLine
 10
-550.8486124123674
 20
-40.98880019071602
 30
0.0
 11
-550.8486124123674
 21
0.0000000000003322
 31
0.0
  0
LINE
  5
99428
330
18
100
AcDbEntity
  8
SIZE
100
AcDbLine
 10
-550.8486124123674
 20
0.0000000000003322
 30
0.0
 11
-550.8486124123674
 21
118.8467663136104
 31
0.0
  0
CIRCLE
  5
99429
330
18
100
AcDbEntity
  8
SIZE
100
AcDbCircle
 10
-550.8486124123674
 20
-40.98880019071602
 30
0.0
 40
5.0
  0
CIRCLE
  5
9942A
330
18
100
AcDbEntity
  8
SIZE
100
AcDbCircle
 10
-550.8486124123674
 20
0.0000000000003322
 30
0.0
 40
5.0
  0
TEXT
  5
9942B
330
18
100
AcDbEntity
  8
SIZE
100
AcDbText
 10
-565.8486124123681
 20
71.70390917075166
 30
0.0
 40
30.0
  1
41
 50
90.0
 41
0.9
100
AcDbText
  0
LINE
  5
9942C
330
18
100
AcDbEntity
  8
SIZE
100
AcDbLine
 10
-465.0
 20
0.0000000000004601
 30
0.0
 11
-837.5869839327725
 21
0.0000000000003997
 31
0.0
  0
LINE
  5
9942D
330
18
100
AcDbEntity
  8
SIZE
100
AcDbLine
 10
-515.8662719119875
 20
-216.9999999999842
 30
0.0
 11
-837.5869839327725
 21
-216.9999999999843
 31
0.0
  0
LINE
  5
9942E
330
18
100
AcDbEntity
  8
SIZE
100
AcDbLine
 10
-832.5869839327722
 20
0.0000000000003997
 30
0.0
 11
-832.5869839327722
 21
-216.9999999999843
 31
0.0
  0
CIRCLE
  5
9942F
330
18
100
AcDbEntity
  8
SIZE
100
AcDbCircle
 10
-832.5869839327722
 20
0.0000000000003997
 30
0.0
 40
5.0
  0
CIRCLE
  5
99430
330
18
100
AcDbEntity
  8
SIZE
100
AcDbCircle
 10
-832.5869839327722
 20
-216.9999999999843
 30
0.0
 40
5.0
  0
TEXT
  5
99431
330
18
100
AcDbEntity
  8
SIZE
100
AcDbText
 10
-847.5869839327732
 20
-140.6428571428476
 30
0.0
 40
30.0
  1
217
 50
90.0
 41
0.9
100
AcDbText
  0
LINE
  5
99432
330
18
100
AcDbEntity
  8
SIZE
100
AcDbLine
 10
465.0000000000018
 20
0.0000000000003499
 30
0.0
 11
733.5902241016137
 21
0.0000000000003926
 31
0.0
  0
LINE
  5
99433
330
18
100
AcDbEntity
  8
SIZE
100
AcDbLine
 10
465.0000000000018
 20
-249.9999999999844
 30
0.0
 11
733.5902241016137
 21
-249.9999999999844
 31
0.0
  0
LINE
  5
99434
330
18
100
AcDbEntity
  8
SIZE
100
AcDbLine
 10
728.5902241016137
 20
0.0000000000003926
 30
0.0
 11
728.5902241016137
 21
-249.9999999999844
 31
0.0
  0
CIRCLE
  5
99435
330
18
100
AcDbEntity
  8
SIZE
100
AcDbCircle
 10
728.5902241016137
 20
0.0000000000003926
 30
0.0
 40
5.0
  0
CIRCLE
  5
99436
330
18
100
AcDbEntity
  8
SIZE
100
AcDbCircle
 10
728.5902241016137
 20
-249.9999999999844
 30
0.0
 40
5.0
  0
TEXT
  5
99437
330
18
100
AcDbEntity
  8
SIZE
100
AcDbText
 10
713.5902241016119
 20
-159.7142857142796
 30
0.0
 40
30.0
  1
250
 50
90.0
 41
0.9
100
AcDbText
  0
LINE
  5
99438
330
18
100
AcDbEntity
  8
SIZE
100
AcDbLine
 10
-500.0000000000018
 20
-0.0214592274687675
 30
0.0
 11
-500.0000000000018
 21
389.0456839755288
 31
0.0
  0
LINE
  5
99439
330
18
100
AcDbEntity
  8
SIZE
100
AcDbLine
 10
-477.0000000000018
 20
9.925546901338066
 30
0.0
 11
-477.0000000000018
 21
389.0456839755288
 31
0.0
  0
LINE
  5
9943A
330
18
100
AcDbEntity
  8
SIZE
100
AcDbLine
 10
-477.0000000000018
 20
384.0456839755288
 30
0.0
 11
-457.0000000000018
 21
384.0456839755288
 31
0.0
  0
LINE
  5
9943B
330
18
100
AcDbEntity
  8
SIZE
100
AcDbLine
 10
-500.0000000000018
 20
384.0456839755288
 30
0.0
 11
-613.7142857142871
 21
384.0456839755288
 31
0.0
  0
LINE
  5
9943C
330
18
100
AcDbEntity
  8
SIZE
100
AcDbLine
 10
-477.0000000000018
 20
384.0456839755288
 30
0.0
 11
-500.0000000000018
 21
384.0456839755288
 31
0.0
  0
CIRCLE
  5
9943D
330
18
100
AcDbEntity
  8
SIZE
100
AcDbCircle
 10
-477.0000000000018
 20
384.0456839755288
 30
0.0
 40
5.0
  0
CIRCLE
  5
9943E
330
18
100
AcDbEntity
  8
SIZE
100
AcDbCircle
 10
-500.0000000000018
 20
384.0456839755288
 30
0.0
 40
5.0
  0
TEXT
  5
9943F
330
18
100
AcDbEntity
  8
SIZE
100
AcDbText
 10
-598.714285714288
 20
399.0456839755288
 30
0.0
 40
30.0
  1
23
 41
0.9
100
AcDbText
  0
LINE
  5
99440
330
18
100
AcDbEntity
  8
SIZE
100
AcDbLine
 10
-477.0000000000018
 20
10.84481268452441
 30
0.0
 11
-477.0000000000018
 21
389.0456839755288
 31
0.0
  0
LINE
  5
99441
330
18
100
AcDbEntity
  8
SIZE
100
AcDbLine
 10
476.999999999998
 20
10.84481268452441
 30
0.0
 11
476.999999999998
 21
389.0456839755288
 31
0.0
  0
LINE
  5
99442
330
18
100
AcDbEntity
  8
SIZE
100
AcDbLine
 10
-477.0000000000018
 20
384.0456839755288
 30
0.0
 11
476.999999999998
 21
384.0456839755288
 31
0.0
  0
CIRCLE
  5
99443
330
18
100
AcDbEntity
  8
SIZE
100
AcDbCircle
 10
-477.0000000000018
 20
384.0456839755288
 30
0.0
 40
5.0
  0
CIRCLE
  5
99444
330
18
100
AcDbEntity
  8
SIZE
100
AcDbCircle
 10
476.999999999998
 20
384.0456839755288
 30
0.0
 40
5.0
  0
TEXT
  5
99445
330
18
100
AcDbEntity
  8
SIZE
100
AcDbText
 10
-269.4857142857163
 20
401.9028268326716
 30
0.0
 40
30.0
  1
954(Suspension bolt pitch)
 41
0.9
100
AcDbText
  0
LINE
  5
99446
330
18
100
AcDbEntity
  8
SIZE
100
AcDbLine
 10
-500.0000000000018
 20
-0.0214592274687675
 30
0.0
 11
-500.0000000000018
 21
478.4004013530874
 31
0.0
  0
LINE
  5
99447
330
18
100
AcDbEntity
  8
SIZE
100
AcDbLine
 10
499.9999999999982
 20
-0.0214592274687675
 30
0.0
 11
499.9999999999982
 21
478.4004013530874
 31
0.0
  0
LINE
  5
99448
330
18
100
AcDbEntity
  8
SIZE
100
AcDbLine
 10
-500.0000000000018
 20
473.4004013530874
 30
0.0
 11
499.9999999999982
 21
473.4004013530874
 31
0.0
  0
CIRCLE
  5
99449
330
18
100
AcDbEntity
  8
SIZE
100
AcDbCircle
 10
-500.0000000000018
 20
473.4004013530874
 30
0.0
 40
5.0
  0
CIRCLE
  5
9944A
330
18
100
AcDbEntity
  8
SIZE
100
AcDbCircle
 10
499.9999999999982
 20
473.4004013530874
 30
0.0
 40
5.0
  0
TEXT
  5
9944B
330
18
100
AcDbEntity
  8
SIZE
100
AcDbText
 10
-45.00000000000182
 20
488.4004013530875
 30
0.0
 40
30.0
  1
1000
 41
0.9
100
AcDbText
  0
LINE
  5
9944C
330
18
100
AcDbEntity
  8
SIZE
100
AcDbLine
 10
-507.99781467136
 20
-66.85507210270919
 30
0.0
 11
-507.99781467136
 21
-100.374998084334
 31
0.0
  0
LINE
  5
9944D
330
18
100
AcDbEntity
  8
SIZE
100
AcDbLine
 10
-450.0
 20
-72.81045944301934
 30
0.0
 11
-450.0
 21
-100.374998084334
 31
0.0
  0
LINE
  5
9944E
330
18
100
AcDbEntity
  8
SIZE
100
AcDbLine
 10
-507.99781467136
 20
-95.37499808433405
 30
0.0
 11
-450.0
 21
-95.37499808433405
 31
0.0
  0
LINE
  5
9944F
330
18
100
AcDbEntity
  8
SIZE
100
AcDbLine
 10
-450.0
 20
-95.37499808433405
 30
0.0
 11
-356.2857142857148
 21
-95.37499808433405
 31
0.0
  0
CIRCLE
  5
99450
330
18
100
AcDbEntity
  8
SIZE
100
AcDbCircle
 10
-507.99781467136
 20
-95.37499808433405
 30
0.0
 40
5.0
  0
CIRCLE
  5
99451
330
18
100
AcDbEntity
  8
SIZE
100
AcDbCircle
 10
-450.0
 20
-95.37499808433405
 30
0.0
 40
5.0
  0
TEXT
  5
99452
330
18
100
AcDbEntity
  8
SIZE
100
AcDbText
 10
-415.0
 20
-80.37499808433405
 30
0.0
 40
30.0
  1
58
 41
0.9
100
AcDbText
  0
LINE
  5
99453
330
18
100
AcDbEntity
  8
SIZE
100
AcDbLine
 10
-450.0000000000018
 20
-264.9999999999843
 30
0.0
 11
-450.0000000000018
 21
-334.906432244813
 31
0.0
  0
LINE
  5
99454
330
18
100
AcDbEntity
  8
SIZE
100
AcDbLine
 10
-490.0000000000018
 20
-252.2390450899982
 30
0.0
 11
-490.0000000000018
 21
-334.906432244813
 31
0.0
  0
LINE
  5
99455
330
18
100
AcDbEntity
  8
SIZE
100
AcDbLine
 10
-490.0000000000018
 20
-329.906432244813
 30
0.0
 11
-450.0000000000018
 21
-329.906432244813
 31
0.0
  0
LINE
  5
99456
330
18
100
AcDbEntity
  8
SIZE
100
AcDbLine
 10
-450.0000000000018
 20
-329.906432244813
 30
0.0
 11
-356.2857142857165
 21
-329.906432244813
 31
0.0
  0
CIRCLE
  5
99457
330
18
100
AcDbEntity
  8
SIZE
100
AcDbCircle
 10
-490.0000000000018
 20
-329.906432244813
 30
0.0
 40
5.0
  0
CIRCLE
  5
99458
330
18
100
AcDbEntity
  8
SIZE
100
AcDbCircle
 10
-450.0000000000018
 20
-329.906432244813
 30
0.0
 40
5.0
  0
TEXT
  5
99459
330
18
100
AcDbEntity
  8
SIZE
100
AcDbText
 10
-415.0000000000018
 20
-314.906432244813
 30
0.0
 40
30.0
  1
40
 41
0.9
100
AcDbText
  0
LINE
  5
9945A
330
18
100
AcDbEntity
  8
SIZE
100
AcDbLine
 10
-429.0000000000018
 20
-2.999999999999431
 30
0.0
 11
-429.0000000000018
 21
220.5540921780021
 31
0.0
  0
LINE
  5
9945B
330
18
100
AcDbEntity
  8
SIZE
100
AcDbLine
 10
-450.0000000000018
 20
15.00000000000034
 30
0.0
 11
-450.0000000000018
 21
220.5540921780021
 31
0.0
  0
LINE
  5
9945C
330
18
100
AcDbEntity
  8
SIZE
100
AcDbLine
 10
-429.0000000000018
 20
215.554092178002
 30
0.0
 11
-409.0000000000018
 21
215.554092178002
 31
0.0
  0
LINE
  5
9945D
330
18
100
AcDbEntity
  8
SIZE
100
AcDbLine
 10
-450.0000000000018
 20
215.554092178002
 30
0.0
 11
-470.0000000000017
 21
215.554092178002
 31
0.0
  0
LINE
  5
9945E
330
18
100
AcDbEntity
  8
SIZE
100
AcDbLine
 10
-439.5000000000018
 20
215.554092178002
 30
0.0
 11
-426.7500000000018
 21
258.0540921780021
 31
0.0
  0
LINE
  5
9945F
330
18
100
AcDbEntity
  8
SIZE
100
AcDbLine
 10
-426.7500000000018
 20
258.0540921780021
 30
0.0
 11
-364.6071428571449
 21
258.0540921780021
 31
0.0
  0
TEXT
  5
99460
330
18
100
AcDbEntity
  8
SIZE
100
AcDbText
 10
-411.7500000000018
 20
273.0540921780021
 30
0.0
 40
30.0
  1
21
 41
0.9
100
AcDbText
  0
LINE
  5
99461
330
18
100
AcDbEntity
  8
SIZE
100
AcDbLine
 10
-429.0000000000018
 20
215.554092178002
 30
0.0
 11
-450.0000000000018
 21
215.554092178002
 31
0.0
  0
LINE
  5
99462
330
18
100
AcDbEntity
  8
SIZE
100
AcDbLine
 10
-429.0000000000018
 20
215.554092178002
 30
0.0
 11
-450.0000000000018
 21
215.554092178002
 31
0.0
  0
CIRCLE
  5
99463
330
18
100
AcDbEntity
  8
SIZE
100
AcDbCircle
 10
-429.0000000000018
 20
215.554092178002
 30
0.0
 40
5.0
  0
CIRCLE
  5
99464
330
18
100
AcDbEntity
  8
SIZE
100
AcDbCircle
 10
-450.0000000000018
 20
215.554092178002
 30
0.0
 40
5.0
  0
TEXT
  5
99465
330
18
100
AcDbEntity
  8
NOTE
100
AcDbText
 10
-769.4847523281952
 20
336.1845598707187
 30
0.0
 40
30.0
  1
Drain pipe
 50
0.0000025044816619
 41
0.6
  7
STANDARD1
100
AcDbText
  0
TEXT
  5
99466
330
18
100
AcDbEntity
  8
NOTE
100
AcDbText
 10
-409.7551475157323
 20
-145.8097706925396
 30
0.0
 40
26.24081511270206
  1
Drain pipe(O.D.%%C32)
 50
0.0000025044816576
 41
0.6
  7
STANDARD1
100
AcDbText
  0
TEXT
  5
99467
330
18
100
AcDbEntity
  8
NOTE
100
AcDbText
 10
-421.6521141728098
 20
-187.0453817162281
 30
0.0
 40
26.24081511270206
  1
(Spontaneous draining)
 50
0.0000025044816576
 41
0.6
  7
STANDARD1
100
AcDbText
  0
LINE
  5
99468
330
18
100
AcDbEntity
  8
NOTE
100
AcDbLine
 10
-415.1565895643051
 20
-155.7851159357694
 30
0.0
 11
-128.3656587272471
 21
-155.7851159357694
 31
0.0
  0
TEXT
  5
99469
330
18
100
AcDbEntity
  8
NOTE
100
AcDbText
 10
547.5979464516113
 20
495.658116901427
 30
0.0
 40
30.0
  1
Suspension bolt hole
 50
0.0000025044752157
 41
0.6
  7
STANDARD1
100
AcDbText
  0
LINE
  5
9946A
330
18
100
AcDbEntity
  8
NOTE
100
AcDbLine
 10
552.9473925726741
 20
398.4973002814458
 30
0.0
 11
908.3883148727672
 21
398.4973323285976
 31
0.0
  0
TEXT
  5
9946B
330
18
100
AcDbEntity
  8
NOTE
100
AcDbText
 10
542.3962061711371
 20
447.2340795284008
 30
0.0
 40
30.0
  1
 4-14X30 Slot
 50
0.0000025044752157
 41
0.6
  7
STANDARD1
100
AcDbText
  0
TEXT
  5
9946C
330
18
100
AcDbEntity
  8
NOTE
100
AcDbText
 10
554.7309192242336
 20
408.4004588217003
 30
0.0
 40
30.0
  1
(Use M10 screw)
 50
0.0000025044752157
 41
0.6
  7
STANDARD1
100
AcDbText
  0
LINE
  5
9946D
330
18
100
AcDbEntity
  8
OUTLINE
100
AcDbLine
 10
449.9999999999982
 20
0.0000000000003411
 30
0.0
 11
449.9999999999982
 21
-249.9999999999843
 31
0.0
  0
LINE
  5
9946E
330
18
100
AcDbEntity
  8
OUTLINE
100
AcDbLine
 10
449.9999999999982
 20
-249.9999999999843
 30
0.0
 11
-450.0000000000018
 21
-249.9999999999843
 31
0.0
  0
LINE
  5
9946F
330
18
100
AcDbEntity
  8
OUTLINE
100
AcDbLine
 10
-450.0000000000018
 20
-249.9999999999843
 30
0.0
 11
-450.0000000000018
 21
0.0000000000004547
 31
0.0
  0
LINE
  5
99470
330
18
100
AcDbEntity
  8
OUTLINE
100
AcDbLine
 10
-450.0000000000018
 20
0.0000000000004672
 30
0.0
 11
449.9999999999982
 21
0.0000000000003268
 31
0.0
  0
TEXT
  5
99471
330
18
100
AcDbEntity
  8
ETC
100
AcDbText
 10
-1911.780303391855
 20
516.3723541619498
 30
0.0
 40
60.0
  1
PEFY-MS40VMA-A_3
 50
0.0000029998804485
 41
0.8
100
AcDbText
  0
LINE
  5
99472
330
18
100
AcDbEntity
  8
BASIS
100
AcDbLine
 10
0.0
 20
29.41240878975509
 30
0.0
 11
0.0
 21
-282.6696284795064
 31
0.0
  0
CIRCLE
  5
99473
330
18
100
AcDbEntity
  8
ARRANGE
100
AcDbCircle
 10
0.0
 20
0.0
 30
0.0
 40
19.125
  0
LINE
  5
99474
330
18
100
AcDbEntity
  8
ARRANGE
100
AcDbLine
 10
21.26587376331372
 20
-21.04700008888813
 30
0.0
 11
-21.26587376331736
 21
21.04700008888813
 31
0.0
  0
LINE
  5
99475
330
18
100
AcDbEntity
  8
ARRANGE
100
AcDbLine
 10
21.23459940696193
 20
21.07855278914394
 30
0.0
 11
-21.23459940696557
 21
-21.07855278914303
 31
0.0
  0
LINE
  5
99476
330
18
100
AcDbEntity
  8
SIZE
100
AcDbLine
 10
465.0000000000018
 20
0.0000000000003499
 30
0.0
 11
648.5572356911652
 21
0.0000000000003801
 31
0.0
  0
LINE
  5
99477
330
18
100
AcDbEntity
  8
SIZE
100
AcDbLine
 10
418.6365124045622
 20
-10.99999999999965
 30
0.0
 11
648.5572356911652
 21
-10.99999999999962
 31
0.0
  0
LINE
  5
99478
330
18
100
AcDbEntity
  8
SIZE
100
AcDbLine
 10
643.5572356911652
 20
-10.99999999999962
 30
0.0
 11
643.5572356911652
 21
-30.99999999999962
 31
0.0
  0
LINE
  5
99479
330
18
100
AcDbEntity
  8
SIZE
100
AcDbLine
 10
643.5572356911652
 20
0.0000000000003784
 30
0.0
 11
643.5572356911652
 21
97.00000000000423
 31
0.0
  0
LINE
  5
9947A
330
18
100
AcDbEntity
  8
SIZE
100
AcDbLine
 10
643.5572356911652
 20
-10.99999999999962
 30
0.0
 11
643.5572356911652
 21
0.0000000000003784
 31
0.0
  0
CIRCLE
  5
9947B
330
18
100
AcDbEntity
  8
SIZE
100
AcDbCircle
 10
643.5572356911652
 20
-10.99999999999962
 30
0.0
 40
5.0
  0
CIRCLE
  5
9947C
330
18
100
AcDbEntity
  8
SIZE
100
AcDbCircle
 10
643.5572356911652
 20
0.0000000000003784
 30
0.0
 40
5.0
  0
TEXT
  5
9947D
330
18
100
AcDbEntity
  8
SIZE
100
AcDbText
 10
628.5572356911634
 20
55.0000000000023
 30
0.0
 40
30.0
  1
11
 50
90.0
 41
0.9
100
AcDbText
  0
LINE
  5
9947E
330
18
100
AcDbEntity
  8
SIZE
100
AcDbLine
 10
408.6365124045624
 20
-10.99999999999965
 30
0.0
 11
648.5572356911634
 21
-10.99999999999961
 31
0.0
  0
LINE
  5
9947F
330
18
100
AcDbEntity
  8
SIZE
100
AcDbLine
 10
462.6365124045624
 20
-122.9999999999996
 30
0.0
 11
648.5572356911634
 21
-122.9999999999995
 31
0.0
  0
LINE
  5
99480
330
18
100
AcDbEntity
  8
SIZE
100
AcDbLine
 10
643.5572356911634
 20
-10.99999999999961
 30
0.0
 11
643.5572356911634
 21
-122.9999999999995
 31
0.0
  0
CIRCLE
  5
99481
330
18
100
AcDbEntity
  8
SIZE
100
AcDbCircle
 10
643.5572356911634
 20
-10.99999999999961
 30
0.0
 40
5.0
  0
CIRCLE
  5
99482
330
18
100
AcDbEntity
  8
SIZE
100
AcDbCircle
 10
643.5572356911634
 20
-122.9999999999995
 30
0.0
 40
5.0
  0
TEXT
  5
99483
330
18
100
AcDbEntity
  8
SIZE
100
AcDbText
 10
628.5572356911615
 20
-96.57142857143007
 30
0.0
 40
30.0
  1
112
 50
90.0
 41
0.9
100
AcDbText
  0
LINE
  5
99484
330
18
100
AcDbEntity
  8
SIZE
100
AcDbLine
 10
462.6365124045624
 20
-122.9999999999996
 30
0.0
 11
648.5572356911634
 21
-122.9999999999995
 31
0.0
  0
LINE
  5
99485
330
18
100
AcDbEntity
  8
SIZE
100
AcDbLine
 10
408.6365124045624
 20
-234.9999999999996
 30
0.0
 11
648.5572356911634
 21
-234.9999999999996
 31
0.0
  0
LINE
  5
99486
330
18
100
AcDbEntity
  8
SIZE
100
AcDbLine
 10
643.5572356911634
 20
-122.9999999999995
 30
0.0
 11
643.5572356911634
 21
-234.9999999999996
 31
0.0
  0
CIRCLE
  5
99487
330
18
100
AcDbEntity
  8
SIZE
100
AcDbCircle
 10
643.5572356911634
 20
-122.9999999999995
 30
0.0
 40
5.0
  0
CIRCLE
  5
99488
330
18
100
AcDbEntity
  8
SIZE
100
AcDbCircle
 10
643.5572356911634
 20
-234.9999999999996
 30
0.0
 40
5.0
  0
TEXT
  5
99489
330
18
100
AcDbEntity
  8
SIZE
100
AcDbText
 10
628.5572356911615
 20
-208.5714285714301
 30
0.0
 40
30.0
  1
112
 50
90.0
 41
0.9
100
AcDbText
  0
LINE
  5
9948A
330
18
100
AcDbEntity
  8
SIZE
100
AcDbLine
 10
-450.0000000000018
 20
15.00000000000034
 30
0.0
 11
-450.0000000000018
 21
322.6410946494113
 31
0.0
  0
LINE
  5
9948B
330
18
100
AcDbEntity
  8
SIZE
100
AcDbLine
 10
449.9999999999982
 20
15.00000000000034
 30
0.0
 11
449.9999999999982
 21
322.6410946494113
 31
0.0
  0
LINE
  5
9948C
330
18
100
AcDbEntity
  8
SIZE
100
AcDbLine
 10
-450.0000000000018
 20
317.6410946494113
 30
0.0
 11
449.9999999999982
 21
317.6410946494113
 31
0.0
  0
CIRCLE
  5
9948D
330
18
100
AcDbEntity
  8
SIZE
100
AcDbCircle
 10
-450.0000000000018
 20
317.6410946494113
 30
0.0
 40
5.0
  0
CIRCLE
  5
9948E
330
18
100
AcDbEntity
  8
SIZE
100
AcDbCircle
 10
449.9999999999982
 20
317.6410946494113
 30
0.0
 40
5.0
  0
TEXT
  5
9948F
330
18
100
AcDbEntity
  8
SIZE
100
AcDbText
 10
-34.71428571428714
 20
332.6410946494113
 30
0.0
 40
30.0
  1
900
 41
0.9
100
AcDbText
  0
LINE
  5
99490
330
18
100
AcDbEntity
  8
SIZE
100
AcDbLine
 10
-429.0000000000018
 20
-2.999999999999431
 30
0.0
 11
-429.0000000000018
 21
220.5540921780021
 31
0.0
  0
LINE
  5
99491
330
18
100
AcDbEntity
  8
SIZE
100
AcDbLine
 10
428.9999999999982
 20
-2.999999999999431
 30
0.0
 11
428.9999999999982
 21
220.5540921780021
 31
0.0
  0
LINE
  5
99492
330
18
100
AcDbEntity
  8
SIZE
100
AcDbLine
 10
-429.0000000000018
 20
215.554092178002
 30
0.0
 11
428.9999999999982
 21
215.554092178002
 31
0.0
  0
CIRCLE
  5
99493
330
18
100
AcDbEntity
  8
SIZE
100
AcDbCircle
 10
-429.0000000000018
 20
215.554092178002
 30
0.0
 40
5.0
  0
CIRCLE
  5
99494
330
18
100
AcDbEntity
  8
SIZE
100
AcDbCircle
 10
428.9999999999982
 20
215.554092178002
 30
0.0
 40
5.0
  0
TEXT
  5
99495
330
18
100
AcDbEntity
  8
SIZE
100
AcDbText
 10
-34.71428571428714
 20
230.5540921780021
 30
0.0
 40
30.0
  1
858
 41
0.9
100
AcDbText
  0
LINE
  5
99496
330
18
100
AcDbEntity
  8
NOTE
100
AcDbLine
 10
-390.0000000000018
 20
-7.363487595439551
 30
0.0
 11
-390.0000000000018
 21
-14.63651240455976
 31
0.0
  0
LINE
  5
99497
330
18
100
AcDbEntity
  8
NOTE
100
AcDbLine
 10
-393.6365124045624
 20
-10.99999999999966
 30
0.0
 11
-386.3634875954413
 21
-10.99999999999966
 31
0.0
  0
CIRCLE
  5
99498
330
18
100
AcDbEntity
  8
DETAIL
100
AcDbCircle
 10
-390.0000000000018
 20
-10.99999999999966
 30
0.0
 40
1.45
  0
LINE
  5
99499
330
18
100
AcDbEntity
  8
NOTE
100
AcDbLine
 10
-390.0000000000018
 20
-10.99999999999954
 30
0.0
 11
-357.4365771713401
 21
-22.04414612691016
 31
0.0
  0
LINE
  5
9949A
330
18
100
AcDbEntity
  8
NOTE
100
AcDbLine
 10
-390.0000000000018
 20
-10.99999999999954
 30
0.0
 11
-367.3213220362541
 21
-36.84622285374644
 31
0.0
  0
LINE
  5
9949B
330
18
100
AcDbEntity
  8
NOTE
100
AcDbLine
 10
-285.1830998973838
 20
-79.91091516147481
 30
0.0
 11
-390.0000000000018
 21
-10.99999999999954
 31
0.0
  0
LINE
  5
9949C
330
18
100
AcDbEntity
  8
NOTE
100
AcDbLine
 10
-285.1830998973838
 20
-79.91091516147481
 30
0.0
 11
-157.6275606856925
 21
-79.91091516147481
 31
0.0
  0
TEXT
  5
9949D
330
18
100
AcDbEntity
  8
NOTE
100
AcDbText
 10
-266.4117381722044
 20
-72.50350565497409
 30
0.0
 40
30.0
  1
10-%%C2.9
 50
0.0000025044752157
 41
0.6
  7
STANDARD1
100
AcDbText
  0
LINE
  5
9949E
330
18
100
AcDbEntity
  8
NOTE
100
AcDbLine
 10
-285.1830998973838
 20
-79.91091516147481
 30
0.0
 11
-123.4975087152488
 21
-79.91091516147481
 31
0.0
  0
LINE
  5
9949F
330
18
100
AcDbEntity
  8
NOTE
100
AcDbLine
 10
-129.9999999999982
 20
-7.363487595439534
 30
0.0
 11
-129.9999999999982
 21
-14.63651240455975
 31
0.0
  0
LINE
  5
994A0
330
18
100
AcDbEntity
  8
NOTE
100
AcDbLine
 10
-133.6365124045587
 20
-10.99999999999964
 30
0.0
 11
-126.3634875954376
 21
-10.99999999999964
 31
0.0
  0
CIRCLE
  5
994A1
330
18
100
AcDbEntity
  8
DETAIL
100
AcDbCircle
 10
-129.9999999999982
 20
-10.99999999999964
 30
0.0
 40
1.45
  0
LINE
  5
994A2
330
18
100
AcDbEntity
  8
NOTE
100
AcDbLine
 10
-129.9999999999982
 20
-231.3634875954394
 30
0.0
 11
-129.9999999999982
 21
-238.6365124045596
 31
0.0
  0
LINE
  5
994A3
330
18
100
AcDbEntity
  8
NOTE
100
AcDbLine
 10
-133.6365124045587
 20
-234.9999999999995
 30
0.0
 11
-126.3634875954376
 21
-234.9999999999995
 31
0.0
  0
CIRCLE
  5
994A4
330
18
100
AcDbEntity
  8
DETAIL
100
AcDbCircle
 10
-129.9999999999982
 20
-234.9999999999995
 30
0.0
 40
1.45
  0
LINE
  5
994A5
330
18
100
AcDbEntity
  8
SIZE
100
AcDbLine
 10
-129.9999999999982
 20
7.636512404560447
 30
0.0
 11
-129.9999999999982
 21
64.90339283482604
 31
0.0
  0
LINE
  5
994A6
330
18
100
AcDbEntity
  8
SIZE
100
AcDbLine
 10
-389.9999999999982
 20
7.636512404560447
 30
0.0
 11
-389.9999999999982
 21
64.90339283482604
 31
0.0
  0
LINE
  5
994A7
330
18
100
AcDbEntity
  8
SIZE
100
AcDbLine
 10
-129.9999999999982
 20
59.90339283482605
 30
0.0
 11
-389.9999999999982
 21
59.90339283482605
 31
0.0
  0
CIRCLE
  5
994A8
330
18
100
AcDbEntity
  8
SIZE
100
AcDbCircle
 10
-129.9999999999982
 20
59.90339283482605
 30
0.0
 40
5.0
  0
CIRCLE
  5
994A9
330
18
100
AcDbEntity
  8
SIZE
100
AcDbCircle
 10
-389.9999999999982
 20
59.90339283482605
 30
0.0
 40
5.0
  0
TEXT
  5
994AA
330
18
100
AcDbEntity
  8
SIZE
100
AcDbText
 10
-294.7142857142835
 20
74.90339283482605
 30
0.0
 40
30.0
  1
260
 41
0.9
100
AcDbText
  0
LINE
  5
994AB
330
18
100
AcDbEntity
  8
SIZE
100
AcDbLine
 10
389.9999999999982
 20
7.636512404560447
 30
0.0
 11
389.9999999999982
 21
111.9891186877055
 31
0.0
  0
LINE
  5
994AC
330
18
100
AcDbEntity
  8
SIZE
100
AcDbLine
 10
-390.0000000000018
 20
7.636512404560544
 30
0.0
 11
-390.0000000000018
 21
111.9891186877055
 31
0.0
  0
LINE
  5
994AD
330
18
100
AcDbEntity
  8
SIZE
100
AcDbLine
 10
389.9999999999982
 20
106.9891186877055
 30
0.0
 11
-390.0000000000018
 21
106.9891186877055
 31
0.0
  0
CIRCLE
  5
994AE
330
18
100
AcDbEntity
  8
SIZE
100
AcDbCircle
 10
389.9999999999982
 20
106.9891186877055
 30
0.0
 40
5.0
  0
CIRCLE
  5
994AF
330
18
100
AcDbEntity
  8
SIZE
100
AcDbCircle
 10
-390.0000000000018
 20
106.9891186877055
 30
0.0
 40
5.0
  0
TEXT
  5
994B0
330
18
100
AcDbEntity
  8
SIZE
100
AcDbText
 10
-115.7142857142871
 20
121.9891186877055
 30
0.0
 40
30.0
  1
260X3=780
 41
0.9
100
AcDbText
  0
LINE
  5
994B1
330
18
100
AcDbEntity
  8
SIZE
100
AcDbLine
 10
-390.0000000000018
 20
7.636512404560544
 30
0.0
 11
-390.0000000000018
 21
111.9891186877055
 31
0.0
  0
LINE
  5
994B2
330
18
100
AcDbEntity
  8
SIZE
100
AcDbLine
 10
-444.0000000000018
 20
-104.3634875954394
 30
0.0
 11
-444.0000000000018
 21
111.9891186877055
 31
0.0
  0
LINE
  5
994B3
330
18
100
AcDbEntity
  8
SIZE
100
AcDbLine
 10
-390.0000000000018
 20
106.9891186877055
 30
0.0
 11
-444.0000000000018
 21
106.9891186877055
 31
0.0
  0
LINE
  5
994B4
330
18
100
AcDbEntity
  8
SIZE
100
AcDbLine
 10
-417.0000000000018
 20
106.9891186877055
 30
0.0
 11
-311.0699835408177
 21
148.6958813106127
 31
0.0
  0
LINE
  5
994B5
330
18
100
AcDbEntity
  8
SIZE
100
AcDbLine
 10
-311.0699835408177
 20
148.6958813106127
 30
0.0
 11
-236.0699835408177
 21
148.6958813106127
 31
0.0
  0
TEXT
  5
994B6
330
18
100
AcDbEntity
  8
SIZE
100
AcDbText
 10
-296.0699835408177
 20
163.6958813106128
 30
0.0
 40
30.0
  1
54
 41
0.9
100
AcDbText
  0
CIRCLE
  5
994B7
330
18
100
AcDbEntity
  8
SIZE
100
AcDbCircle
 10
-390.0000000000018
 20
106.9891186877055
 30
0.0
 40
5.0
  0
CIRCLE
  5
994B8
330
18
100
AcDbEntity
  8
SIZE
100
AcDbCircle
 10
-444.0000000000018
 20
106.9891186877055
 30
0.0
 40
5.0
  0
LINE
  5
994B9
330
18
100
AcDbEntity
  8
SIZE
100
AcDbLine
 10
-444.0000000000018
 20
-104.3634875954394
 30
0.0
 11
-444.0000000000018
 21
111.9891186877055
 31
0.0
  0
LINE
  5
994BA
330
18
100
AcDbEntity
  8
SIZE
100
AcDbLine
 10
-450.0000000000018
 20
15.00000000000047
 30
0.0
 11
-450.0000000000018
 21
111.9891186877055
 31
0.0
  0
LINE
  5
994BB
330
18
100
AcDbEntity
  8
SIZE
100
AcDbLine
 10
-444.0000000000018
 20
106.9891186877055
 30
0.0
 11
-424.0000000000017
 21
106.9891186877055
 31
0.0
  0
LINE
  5
994BC
330
18
100
AcDbEntity
  8
SIZE
100
AcDbLine
 10
-450.0000000000018
 20
106.9891186877055
 30
0.0
 11
-470.0000000000017
 21
106.9891186877055
 31
0.0
  0
LINE
  5
994BD
330
18
100
AcDbEntity
  8
SIZE
100
AcDbLine
 10
-447.0000000000018
 20
106.9891186877055
 30
0.0
 11
-402.9954686065265
 21
153.9968352745879
 31
0.0
  0
LINE
  5
994BE
330
18
100
AcDbEntity
  8
SIZE
100
AcDbLine
 10
-402.9954686065265
 20
153.9968352745879
 30
0.0
 11
-356.2811828922413
 21
153.9968352745879
 31
0.0
  0
TEXT
  5
994BF
330
18
100
AcDbEntity
  8
SIZE
100
AcDbText
 10
-387.9954686065266
 20
168.9968352745879
 30
0.0
 40
30.0
  1
6
 41
0.9
100
AcDbText
  0
LINE
  5
994C0
330
18
100
AcDbEntity
  8
SIZE
100
AcDbLine
 10
-444.0000000000018
 20
106.9891186877055
 30
0.0
 11
-450.0000000000018
 21
106.9891186877055
 31
0.0
  0
LINE
  5
994C1
330
18
100
AcDbEntity
  8
SIZE
100
AcDbLine
 10
-444.0000000000018
 20
106.9891186877055
 30
0.0
 11
-450.0000000000018
 21
106.9891186877055
 31
0.0
  0
CIRCLE
  5
994C2
330
18
100
AcDbEntity
  8
SIZE
100
AcDbCircle
 10
-444.0000000000018
 20
106.9891186877055
 30
0.0
 40
5.0
  0
CIRCLE
  5
994C3
330
18
100
AcDbEntity
  8
SIZE
100
AcDbCircle
 10
-450.0000000000018
 20
106.9891186877055
 30
0.0
 40
5.0
  0
LINE
  5
994C4
330
18
100
AcDbEntity
  8
SIZE
100
AcDbLine
 10
390.0000000000018
 20
7.636512404560544
 30
0.0
 11
390.0000000000018
 21
111.9891186877055
 31
0.0
  0
LINE
  5
994C5
330
18
100
AcDbEntity
  8
SIZE
100
AcDbLine
 10
444.0000000000018
 20
-104.3634875954394
 30
0.0
 11
444.0000000000018
 21
111.9891186877055
 31
0.0
  0
LINE
  5
994C6
330
18
100
AcDbEntity
  8
SIZE
100
AcDbLine
 10
390.0000000000018
 20
106.9891186877055
 30
0.0
 11
444.0000000000018
 21
106.9891186877055
 31
0.0
  0
LINE
  5
994C7
330
18
100
AcDbEntity
  8
SIZE
100
AcDbLine
 10
417.0000000000018
 20
106.9891186877055
 30
0.0
 11
311.0699835408177
 21
148.6958813106127
 31
0.0
  0
LINE
  5
994C8
330
18
100
AcDbEntity
  8
SIZE
100
AcDbLine
 10
311.0699835408177
 20
148.6958813106127
 30
0.0
 11
236.0699835408177
 21
148.6958813106127
 31
0.0
  0
TEXT
  5
994C9
330
18
100
AcDbEntity
  8
SIZE
100
AcDbText
 10
251.0699835408177
 20
163.6958813106128
 30
0.0
 40
30.0
  1
54
 41
0.9
100
AcDbText
  0
CIRCLE
  5
994CA
330
18
100
AcDbEntity
  8
SIZE
100
AcDbCircle
 10
390.0000000000018
 20
106.9891186877055
 30
0.0
 40
5.0
  0
CIRCLE
  5
994CB
330
18
100
AcDbEntity
  8
SIZE
100
AcDbCircle
 10
444.0000000000018
 20
106.9891186877055
 30
0.0
 40
5.0
  0
LINE
  5
994CC
330
18
100
AcDbEntity
  8
NOTE
100
AcDbLine
 10
129.9999999999982
 20
-7.363487595439549
 30
0.0
 11
129.9999999999982
 21
-14.63651240455976
 31
0.0
  0
LINE
  5
994CD
330
18
100
AcDbEntity
  8
NOTE
100
AcDbLine
 10
133.6365124045587
 20
-10.99999999999965
 30
0.0
 11
126.3634875954376
 21
-10.99999999999965
 31
0.0
  0
CIRCLE
  5
994CE
330
18
100
AcDbEntity
  8
DETAIL
100
AcDbCircle
 10
129.9999999999982
 20
-10.99999999999966
 30
0.0
 40
1.45
  0
LINE
  5
994CF
330
18
100
AcDbEntity
  8
NOTE
100
AcDbLine
 10
129.9999999999982
 20
-231.3634875954394
 30
0.0
 11
129.9999999999982
 21
-238.6365124045596
 31
0.0
  0
LINE
  5
994D0
330
18
100
AcDbEntity
  8
NOTE
100
AcDbLine
 10
133.6365124045587
 20
-234.9999999999996
 30
0.0
 11
126.3634875954376
 21
-234.9999999999996
 31
0.0
  0
CIRCLE
  5
994D1
330
18
100
AcDbEntity
  8
DETAIL
100
AcDbCircle
 10
129.9999999999982
 20
-234.9999999999996
 30
0.0
 40
1.45
  0
LINE
  5
994D2
330
18
100
AcDbEntity
  8
SERVICESPACE
100
AcDbLine
 10
449.9999999999982
 20
-669.9999999999878
 30
0.0
 11
449.9999999999982
 21
-649.9999999999878
 31
0.0
  0
LINE
  5
994D3
330
18
100
AcDbEntity
  8
SERVICESPACE
100
AcDbLine
 10
-599.9999803815606
 20
-669.9999999999842
 30
0.0
 11
449.9999999999982
 21
-669.9999999999878
 31
0.0
  0
LINE
  5
994D4
330
18
100
AcDbEntity
  8
SERVICESPACE
100
AcDbLine
 10
-1049.999980381561
 20
-669.9999999999842
 30
0.0
 11
-599.9999803815606
 21
-669.9999999999842
 31
0.0
  0
LINE
  5
994D5
330
18
100
AcDbEntity
  8
SERVICESPACE
100
AcDbLine
 10
-1049.999980381561
 20
-649.9999999999843
 30
0.0
 11
449.9999999999982
 21
-649.9999999999878
 31
0.0
  0
LINE
  5
994D6
330
18
100
AcDbEntity
  8
SERVICESPACE
100
AcDbLine
 10
-1049.999980381561
 20
-649.9999999999843
 30
0.0
 11
-1049.999980381561
 21
-669.9999999999842
 31
0.0
  0
LINE
  5
994D7
330
18
100
AcDbEntity
  8
SERVICESPACE
100
AcDbLine
 10
-599.9999803815606
 20
-649.9999999999843
 30
0.0
 11
-599.9999803815606
 21
-669.9999999999842
 31
0.0
  0
LINE
  5
994D8
330
18
100
AcDbEntity
  8
SERVICESPACE
100
AcDbLine
 10
-599.9999803815606
 20
-649.9999999999843
 30
0.0
 11
-1049.999980381561
 21
-669.9999999999842
 31
0.0
  0
LINE
  5
994D9
330
18
100
AcDbEntity
  8
SERVICESPACE
100
AcDbLine
 10
-599.9999803815606
 20
-669.9999999999842
 30
0.0
 11
-1049.999980381561
 21
-649.9999999999843
 31
0.0
  0
LINE
  5
994DA
330
18
100
AcDbEntity
  8
SERVICESPACE
100
AcDbLine
 10
249.9999999999982
 20
-649.9999999999876
 30
0.0
 11
249.9999999999982
 21
-669.9999999999873
 31
0.0
  0
LINE
  5
994DB
330
18
100
AcDbEntity
  8
SERVICESPACE
100
AcDbLine
 10
-200.0000000000018
 20
-649.9999999999864
 30
0.0
 11
-200.0000000000018
 21
-669.9999999999858
 31
0.0
  0
LINE
  5
994DC
330
18
100
AcDbEntity
  8
SERVICESPACE
100
AcDbLine
 10
-200.0000000000018
 20
-649.9999999999864
 30
0.0
 11
249.9999999999982
 21
-669.9999999999873
 31
0.0
  0
LINE
  5
994DD
330
18
100
AcDbEntity
  8
SERVICESPACE
100
AcDbLine
 10
249.9999999999982
 20
-649.9999999999876
 30
0.0
 11
-200.0000000000018
 21
-669.9999999999858
 31
0.0
  0
LINE
  5
994DE
330
18
100
AcDbEntity
  8
SIZE
100
AcDbLine
 10
-599.9999803815606
 20
-684.9999999999843
 30
0.0
 11
-599.9999803815606
 21
-890.0088428860087
 31
0.0
  0
LINE
  5
994DF
330
18
100
AcDbEntity
  8
SIZE
100
AcDbLine
 10
-1049.999980381561
 20
-684.9999999999843
 30
0.0
 11
-1049.999980381561
 21
-890.0088428860087
 31
0.0
  0
LINE
  5
994E0
330
18
100
AcDbEntity
  8
SIZE
100
AcDbLine
 10
-599.9999803815606
 20
-885.0088428860088
 30
0.0
 11
-1049.999980381561
 21
-885.0088428860088
 31
0.0
  0
CIRCLE
  5
994E1
330
18
100
AcDbEntity
  8
SIZE
100
AcDbCircle
 10
-599.9999803815606
 20
-885.0088428860088
 30
0.0
 40
5.0
  0
CIRCLE
  5
994E2
330
18
100
AcDbEntity
  8
SIZE
100
AcDbCircle
 10
-1049.999980381561
 20
-885.0088428860088
 30
0.0
 40
5.0
  0
TEXT
  5
994E3
330
18
100
AcDbEntity
  8
SIZE
100
AcDbText
 10
-859.7142660958461
 20
-870.0088428860087
 30
0.0
 40
30.0
  1
450
 41
0.9
100
AcDbText
  0
LINE
  5
994E4
330
18
100
AcDbEntity
  8
SIZE
100
AcDbLine
 10
249.9999999999982
 20
-684.9999999999872
 30
0.0
 11
249.9999999999982
 21
-890.0088428860087
 31
0.0
  0
LINE
  5
994E5
330
18
100
AcDbEntity
  8
SIZE
100
AcDbLine
 10
-200.0000000000018
 20
-684.9999999999856
 30
0.0
 11
-200.0000000000018
 21
-890.0088428860087
 31
0.0
  0
LINE
  5
994E6
330
18
100
AcDbEntity
  8
SIZE
100
AcDbLine
 10
249.9999999999982
 20
-885.0088428860088
 30
0.0
 11
-200.0000000000018
 21
-885.0088428860088
 31
0.0
  0
CIRCLE
  5
994E7
330
18
100
AcDbEntity
  8
SIZE
100
AcDbCircle
 10
249.9999999999982
 20
-885.0088428860088
 30
0.0
 40
5.0
  0
CIRCLE
  5
994E8
330
18
100
AcDbEntity
  8
SIZE
100
AcDbCircle
 10
-200.0000000000018
 20
-885.0088428860088
 30
0.0
 40
5.0
  0
TEXT
  5
994E9
330
18
100
AcDbEntity
  8
SIZE
100
AcDbText
 10
-9.714285714287143
 20
-870.0088428860087
 30
0.0
 40
30.0
  1
450
 41
0.9
100
AcDbText
  0
LINE
  5
994EA
330
18
100
AcDbEntity
  8
SIZE
100
AcDbLine
 10
387.8195474869235
 20
-549.9999999999845
 30
0.0
 11
733.5902241016137
 21
-549.9999999999845
 31
0.0
  0
LINE
  5
994EB
330
18
100
AcDbEntity
  8
SIZE
100
AcDbLine
 10
465.0000000000018
 20
-249.9999999999844
 30
0.0
 11
733.5902241016137
 21
-249.9999999999844
 31
0.0
  0
LINE
  5
994EC
330
18
100
AcDbEntity
  8
SIZE
100
AcDbLine
 10
728.5902241016137
 20
-549.9999999999845
 30
0.0
 11
728.5902241016137
 21
-249.9999999999844
 31
0.0
  0
CIRCLE
  5
994ED
330
18
100
AcDbEntity
  8
SIZE
100
AcDbCircle
 10
728.5902241016137
 20
-549.9999999999845
 30
0.0
 40
5.0
  0
CIRCLE
  5
994EE
330
18
100
AcDbEntity
  8
SIZE
100
AcDbCircle
 10
728.5902241016137
 20
-249.9999999999844
 30
0.0
 40
5.0
  0
TEXT
  5
994EF
330
18
100
AcDbEntity
  8
SIZE
100
AcDbText
 10
713.5902241016119
 20
-511.214285714272
 30
0.0
 40
30.0
  1
Min.300mm
 50
90.0
 41
0.9
100
AcDbText
  0
LINE
  5
994F0
330
18
100
AcDbEntity
  8
OUTLINE
100
AcDbLine
 10
332.8195520033751
 20
-549.9999999999841
 30
0.0
 11
332.8195520033751
 21
-589.9999999999843
 31
0.0
  0
LINE
  5
994F1
330
18
100
AcDbEntity
  8
OUTLINE
100
AcDbLine
 10
332.8195520033751
 20
-589.9999999999843
 30
0.0
 11
372.8195520033751
 21
-589.9999999999843
 31
0.0
  0
LINE
  5
994F2
330
18
100
AcDbEntity
  8
OUTLINE
100
AcDbLine
 10
372.8195520033751
 20
-589.9999999999843
 30
0.0
 11
372.8195520033751
 21
-549.9999999999841
 31
0.0
  0
LINE
  5
994F3
330
18
100
AcDbEntity
  8
OUTLINE
100
AcDbLine
 10
372.8195520033751
 20
-549.9999999999841
 30
0.0
 11
332.8195520033751
 21
-549.9999999999841
 31
0.0
  0
LINE
  5
994F4
330
18
100
AcDbEntity
  8
OUTLINE
100
AcDbLine
 10
372.8195520033751
 20
-589.9999999999843
 30
0.0
 11
332.8195520033751
 21
-549.9999999999841
 31
0.0
  0
LINE
  5
994F5
330
18
100
AcDbEntity
  8
OUTLINE
100
AcDbLine
 10
332.8195520033751
 20
-589.9999999999843
 30
0.0
 11
372.8195520033751
 21
-549.9999999999841
 31
0.0
  0
LINE
  5
994F6
330
18
100
AcDbEntity
  8
OUTLINE
100
AcDbLine
 10
-458.4253619372666
 20
-549.9999999999841
 30
0.0
 11
-458.4253619372666
 21
-589.9999999999843
 31
0.0
  0
LINE
  5
994F7
330
18
100
AcDbEntity
  8
OUTLINE
100
AcDbLine
 10
-458.4253619372666
 20
-589.9999999999843
 30
0.0
 11
-418.4253619372666
 21
-589.9999999999843
 31
0.0
  0
LINE
  5
994F8
330
18
100
AcDbEntity
  8
OUTLINE
100
AcDbLine
 10
-418.4253619372666
 20
-589.9999999999843
 30
0.0
 11
-418.4253619372666
 21
-549.9999999999841
 31
0.0
  0
LINE
  5
994F9
330
18
100
AcDbEntity
  8
OUTLINE
100
AcDbLine
 10
-418.4253619372666
 20
-549.9999999999841
 30
0.0
 11
-458.4253619372666
 21
-549.9999999999841
 31
0.0
  0
LINE
  5
994FA
330
18
100
AcDbEntity
  8
OUTLINE
100
AcDbLine
 10
-418.4253619372666
 20
-589.9999999999843
 30
0.0
 11
-458.4253619372666
 21
-549.9999999999841
 31
0.0
  0
LINE
  5
994FB
330
18
100
AcDbEntity
  8
OUTLINE
100
AcDbLine
 10
-458.4253619372666
 20
-589.9999999999843
 30
0.0
 11
-418.4253619372666
 21
-549.9999999999841
 31
0.0
  0
TEXT
  5
994FC
330
18
100
AcDbEntity
  8
NOTE
100
AcDbText
 10
-1036.112998415919
 20
-745.4760420321435
 30
0.0
 40
35.0
  1
Access door 1
 50
359.999999316757
 41
0.7
  7
STANDARD1
100
AcDbText
  0
LINE
  5
994FD
330
18
100
AcDbEntity
  8
NOTE
100
AcDbLine
 10
-663.7225198383638
 20
-669.9999999999842
 30
0.0
 11
-693.6147571188056
 21
-686.9942290310589
 31
0.0
  0
LINE
  5
994FE
330
18
100
AcDbEntity
  8
NOTE
100
AcDbLine
 10
-663.7225198383638
 20
-669.9999999999842
 30
0.0
 11
-681.1128417514374
 21
-699.6635529521967
 31
0.0
  0
LINE
  5
994FF
330
18
100
AcDbEntity
  8
NOTE
100
AcDbLine
 10
-749.9222174906861
 20
-753.8452122924114
 30
0.0
 11
-663.7225198383638
 21
-669.9999999999842
 31
0.0
  0
LINE
  5
99500
330
18
100
AcDbEntity
  8
NOTE
100
AcDbLine
 10
-749.9222174906861
 20
-753.8452122924114
 30
0.0
 11
-1043.590076730272
 21
-753.8452122924114
 31
0.0
  0
TEXT
  5
99501
330
18
100
AcDbEntity
  8
NOTE
100
AcDbText
 10
409.4212955850015
 20
-738.8668559016513
 30
0.0
 40
35.0
  1
Ceiling surface
 50
359.999999316757
 41
0.7
  7
STANDARD1
100
AcDbText
  0
LINE
  5
99502
330
18
100
AcDbEntity
  8
NOTE
100
AcDbLine
 10
356.9241601353279
 20
-669.9999999999842
 30
0.0
 11
366.1320236402626
 21
-703.1295173472885
 31
0.0
  0
LINE
  5
99503
330
18
100
AcDbEntity
  8
NOTE
100
AcDbLine
 10
356.9241601353279
 20
-669.9999999999842
 30
0.0
 11
381.4631628697572
 21
-694.0870715278537
 31
0.0
  0
LINE
  5
99504
330
18
100
AcDbEntity
  8
NOTE
100
AcDbLine
 10
402.825574758187
 20
-749.1195798674214
 30
0.0
 11
356.9241601353279
 21
-669.9999999999842
 31
0.0
  0
LINE
  5
99505
330
18
100
AcDbEntity
  8
NOTE
100
AcDbLine
 10
769.0786893435942
 20
-749.1195798674214
 30
0.0
 11
402.825574758187
 21
-749.1195798674214
 31
0.0
  0
TEXT
  5
99506
330
18
100
AcDbEntity
  8
NOTE
100
AcDbText
 10
-1036.547063005438
 20
-805.5546098931809
 30
0.0
 40
35.0
  1
(450X450)
 50
0.0000025044752157
 41
0.6
  7
STANDARD1
100
AcDbText
  0
LINE
  5
99507
330
18
100
AcDbEntity
  8
NOTE
100
AcDbLine
 10
-385.1278997717664
 20
-538.0878315195345
 30
0.0
 11
-418.8758431297864
 21
-551.2797745310993
 31
0.0
  0
LINE
  5
99508
330
18
100
AcDbEntity
  8
NOTE
100
AcDbLine
 10
-418.8758431297864
 20
-551.2797745310993
 30
0.0
 11
-396.2452382336678
 21
-522.981245181462
 31
0.0
  0
LINE
  5
99509
330
18
100
AcDbEntity
  8
NOTE
100
AcDbLine
 10
-418.8758431297864
 20
-551.2797745310993
 30
0.0
 11
-390.6865690027172
 21
-530.5345383504982
 31
0.0
  0
LINE
  5
9950A
330
18
100
AcDbEntity
  8
NOTE
100
AcDbLine
 10
-390.6865690027172
 20
-530.5345383504982
 30
0.0
 11
-285.3996699639073
 21
-453.0511105248153
 31
0.0
1001
ACAD
1000
DSTYLE
1002
{
1070
    41
1040
35.0
1070
   271
1070
     0
1070
   341
1005
4C0C3
1002
}
  0
LINE
  5
9950B
330
18
100
AcDbEntity
  8
NOTE
100
AcDbLine
 10
-285.3996699639073
 20
-453.0511105248153
 30
0.0
 11
2.179753139726926
 21
-453.0511105248153
 31
0.0
1001
ACAD
1000
DSTYLE
1002
{
1070
    41
1040
35.0
1070
   271
1070
     0
1070
   341
1005
4C0C3
1002
}
  0
TEXT
  5
9950C
330
18
100
AcDbEntity
  8
NOTE
100
AcDbText
 10
-282.8211850490379
 20
-437.7808389344065
 30
0.0
 40
35.0
  1
Ceiling beam
 50
359.999999316757
 41
0.7
  7
STANDARD1
100
AcDbText
  0
LINE
  5
9950D
330
18
100
AcDbEntity
  8
NOTE
100
AcDbLine
 10
-111.1370947553659
 20
-705.7306291835669
 30
0.0
 11
-117.1598166866806
 21
-669.9999999999858
 31
0.0
  0
LINE
  5
9950E
330
18
100
AcDbEntity
  8
NOTE
100
AcDbLine
 10
-117.1598166866806
 20
-669.9999999999858
 30
0.0
 11
-94.07867202915712
 21
-697.9322717052196
 31
0.0
  0
LINE
  5
9950F
330
18
100
AcDbEntity
  8
NOTE
100
AcDbLine
 10
-117.1598166866806
 20
-669.9999999999858
 30
0.0
 11
-102.6078833922611
 21
-701.8314504443933
 31
0.0
  0
LINE
  5
99510
330
18
100
AcDbEntity
  8
NOTE
100
AcDbLine
 10
-102.6078833922611
 20
-701.8314504443933
 30
0.0
 11
-78.82948868398125
 21
-753.8452122924114
 31
0.0
1001
ACAD
1000
DSTYLE
1002
{
1070
   341
1005
4C0C3
1070
    41
1040
35.0
1070
   271
1070
     0
1002
}
  0
LINE
  5
99511
330
18
100
AcDbEntity
  8
NOTE
100
AcDbLine
 10
-78.82948868398125
 20
-753.8452122924114
 30
0.0
 11
226.0750219525817
 21
-753.8452122924118
 31
0.0
1001
ACAD
1000
DSTYLE
1002
{
1070
   341
1005
4C0C3
1070
    41
1040
35.0
1070
   271
1070
     0
1002
}
  0
TEXT
  5
99512
330
18
100
AcDbEntity
  8
NOTE
100
AcDbText
 10
-68.99872053268516
 20
-744.7783803649379
 30
0.0
 40
35.0
  1
Access door 2
 50
359.999999316757
 41
0.7
  7
STANDARD1
100
AcDbText
  0
TEXT
  5
99513
330
18
100
AcDbEntity
  8
NOTE
100
AcDbText
 10
-32.09374236313124
 20
-803.9824011714644
 30
0.0
 40
35.0
  1
(450X450)
 50
0.0000025044752157
 41
0.6
  7
STANDARD1
100
AcDbText
  0
LINE
  5
99514
330
18
100
AcDbEntity
  8
SIZE
100
AcDbLine
 10
-599.9999803815606
 20
-684.9999999999843
 30
0.0
 11
-599.9999803815606
 21
-890.0088428860087
 31
0.0
  0
LINE
  5
99515
330
18
100
AcDbEntity
  8
SIZE
100
AcDbLine
 10
-450.0000000000018
 20
-264.9999999999843
 30
0.0
 11
-450.0000000000018
 21
-890.0088428860087
 31
0.0
  0
LINE
  5
99516
330
18
100
AcDbEntity
  8
SIZE
100
AcDbLine
 10
-599.9999803815606
 20
-885.0088428860088
 30
0.0
 11
-450.0000000000018
 21
-885.0088428860088
 31
0.0
  0
LINE
  5
99517
330
18
100
AcDbEntity
  8
SIZE
100
AcDbLine
 10
-524.9999901907813
 20
-885.0088428860088
 30
0.0
 11
-490.5231628115853
 21
-946.6098904316142
 31
0.0
  0
LINE
  5
99518
330
18
100
AcDbEntity
  8
SIZE
100
AcDbLine
 10
-490.5231628115853
 20
-946.6098904316142
 30
0.0
 11
-285.6660199544421
 21
-946.6098904316142
 31
0.0
  0
TEXT
  5
99519
330
18
100
AcDbEntity
  8
SIZE
100
AcDbText
 10
-475.5231628115851
 20
-931.6098904316143
 30
0.0
 40
30.0
  1
100~200
 41
0.9
100
AcDbText
  0
CIRCLE
  5
9951A
330
18
100
AcDbEntity
  8
SIZE
100
AcDbCircle
 10
-599.9999803815606
 20
-885.0088428860088
 30
0.0
 40
5.0
  0
CIRCLE
  5
9951B
330
18
100
AcDbEntity
  8
SIZE
100
AcDbCircle
 10
-450.0000000000018
 20
-885.0088428860088
 30
0.0
 40
5.0
  0
LINE
  5
9951C
330
18
100
AcDbEntity
  8
SIZE
100
AcDbLine
 10
249.9999999999973
 20
-684.9999999999872
 30
0.0
 11
249.9999999999973
 21
-890.0088428860087
 31
0.0
  0
LINE
  5
9951D
330
18
100
AcDbEntity
  8
SIZE
100
AcDbLine
 10
449.9999999999982
 20
-264.9999999999843
 30
0.0
 11
449.9999999999982
 21
-890.0088428860087
 31
0.0
  0
LINE
  5
9951E
330
18
100
AcDbEntity
  8
SIZE
100
AcDbLine
 10
249.9999999999973
 20
-885.0088428860088
 30
0.0
 11
449.9999999999982
 21
-885.0088428860088
 31
0.0
  0
LINE
  5
9951F
330
18
100
AcDbEntity
  8
SIZE
100
AcDbLine
 10
449.9999999999982
 20
-885.0088428860088
 30
0.0
 11
674.8571428571413
 21
-885.0088428860088
 31
0.0
  0
CIRCLE
  5
99520
330
18
100
AcDbEntity
  8
SIZE
100
AcDbCircle
 10
249.9999999999973
 20
-885.0088428860088
 30
0.0
 40
5.0
  0
CIRCLE
  5
99521
330
18
100
AcDbEntity
  8
SIZE
100
AcDbCircle
 10
449.9999999999982
 20
-885.0088428860088
 30
0.0
 40
5.0
  0
TEXT
  5
99522
330
18
100
AcDbEntity
  8
SIZE
100
AcDbText
 10
484.999999999998
 20
-870.0088428860087
 30
0.0
 40
30.0
  1
150~250
 41
0.9
100
AcDbText
  0
LINE
  5
99523
330
18
100
AcDbEntity
  8
NOTE
100
AcDbLine
 10
-523.0
 20
-106.8798402021117
 30
0.0
 11
-523.0
 21
-137.5054088295716
 31
0.0
  0
LINE
  5
99524
330
18
100
AcDbEntity
  8
NOTE
100
AcDbLine
 10
-533.866271911993
 20
-122.1926245158416
 30
0.0
 11
-512.1337280880069
 21
-122.1926245158416
 31
0.0
  0
LINE
  5
99525
330
18
100
AcDbEntity
  8
NOTE
100
AcDbLine
 10
-549.9999999999982
 20
-138.8023067249276
 30
0.0
 11
-550.0000000000018
 21
-171.2370542458237
 31
0.0
  0
LINE
  5
99526
330
18
100
AcDbEntity
  8
NOTE
100
AcDbLine
 10
-560.8662719119928
 20
-155.0196804853757
 30
0.0
 11
-539.1337280880069
 21
-155.0196804853757
 31
0.0
  0
LINE
  5
99527
330
18
100
AcDbEntity
  8
SIZE
100
AcDbLine
 10
-465.0
 20
0.0000000000004601
 30
0.0
 11
-755.6449818234822
 21
0.0000000000004139
 31
0.0
  0
LINE
  5
99528
330
18
100
AcDbEntity
  8
SIZE
100
AcDbLine
 10
-548.8662719119911
 20
-122.1926245158417
 30
0.0
 11
-755.6449818234822
 21
-122.1926245158417
 31
0.0
  0
LINE
  5
99529
330
18
100
AcDbEntity
  8
SIZE
100
AcDbLine
 10
-750.6449818234822
 20
0.0000000000004139
 30
0.0
 11
-750.6449818234822
 21
-122.1926245158417
 31
0.0
  0
CIRCLE
  5
9952A
330
18
100
AcDbEntity
  8
SIZE
100
AcDbCircle
 10
-750.6449818234822
 20
0.0000000000004139
 30
0.0
 40
5.0
  0
CIRCLE
  5
9952B
330
18
100
AcDbEntity
  8
SIZE
100
AcDbCircle
 10
-750.6449818234822
 20
-122.1926245158417
 30
0.0
 40
5.0
  0
TEXT
  5
9952C
330
18
100
AcDbEntity
  8
SIZE
100
AcDbText
 10
-765.6449818234833
 20
-93.23916940077779
 30
0.0
 40
30.0
  1
122
 50
90.0
 41
0.9
100
AcDbText
  0
LINE
  5
9952D
330
18
100
AcDbEntity
  8
SIZE
100
AcDbLine
 10
-548.8662719119911
 20
-122.1926245158417
 30
0.0
 11
-755.6449818234832
 21
-122.1926245158417
 31
0.0
  0
LINE
  5
9952E
330
18
100
AcDbEntity
  8
SIZE
100
AcDbLine
 10
-575.8662719119911
 20
-155.0196804853757
 30
0.0
 11
-755.6449818234832
 21
-155.0196804853758
 31
0.0
  0
LINE
  5
9952F
330
18
100
AcDbEntity
  8
SIZE
100
AcDbLine
 10
-750.6449818234832
 20
-122.1926245158417
 30
0.0
 11
-750.6449818234832
 21
-155.0196804853758
 31
0.0
  0
LINE
  5
99530
330
18
100
AcDbEntity
  8
SIZE
100
AcDbLine
 10
-750.6449818234832
 20
-155.0196804853758
 30
0.0
 11
-750.6449818234832
 21
-299.4629712299842
 31
0.0
  0
CIRCLE
  5
99531
330
18
100
AcDbEntity
  8
SIZE
100
AcDbCircle
 10
-750.6449818234832
 20
-122.1926245158417
 30
0.0
 40
5.0
  0
CIRCLE
  5
99532
330
18
100
AcDbEntity
  8
SIZE
100
AcDbCircle
 10
-750.6449818234832
 20
-155.0196804853758
 30
0.0
 40
5.0
  0
TEXT
  5
99533
330
18
100
AcDbEntity
  8
SIZE
100
AcDbText
 10
-765.6449818234841
 20
-284.4629712299856
 30
0.0
 40
30.0
  1
33
 50
90.0
 41
0.9
100
AcDbText
  0
LINE
  5
99534
330
18
100
AcDbEntity
  8
SIZE
100
AcDbLine
 10
-450.0000000000018
 20
-264.9999999999843
 30
0.0
 11
-450.0000000000018
 21
-403.8736985382959
 31
0.0
  0
LINE
  5
99535
330
18
100
AcDbEntity
  8
SIZE
100
AcDbLine
 10
-523.0
 20
-152.5054088295716
 30
0.0
 11
-523.0
 21
-403.8736985382959
 31
0.0
  0
LINE
  5
99536
330
18
100
AcDbEntity
  8
SIZE
100
AcDbLine
 10
-450.0000000000018
 20
-398.8736985382959
 30
0.0
 11
-523.0
 21
-398.8736985382959
 31
0.0
  0
CIRCLE
  5
99537
330
18
100
AcDbEntity
  8
SIZE
100
AcDbCircle
 10
-450.0000000000018
 20
-398.8736985382959
 30
0.0
 40
5.0
  0
CIRCLE
  5
99538
330
18
100
AcDbEntity
  8
SIZE
100
AcDbCircle
 10
-523.0
 20
-398.8736985382959
 30
0.0
 40
5.0
  0
TEXT
  5
99539
330
18
100
AcDbEntity
  8
SIZE
100
AcDbText
 10
-508.357142857144
 20
-383.8736985382959
 30
0.0
 40
30.0
  1
73
 41
0.9
100
AcDbText
  0
LINE
  5
9953A
330
18
100
AcDbEntity
  8
NOTE
100
AcDbLine
 10
-542.7942754589203
 20
-85.81871231862203
 30
0.0
 11
-523.0
 21
-122.1926245158416
 31
0.0
  0
LINE
  5
9953B
330
18
100
AcDbEntity
  8
NOTE
100
AcDbLine
 10
-523.0
 20
-122.1926245158416
 30
0.0
 11
-558.3293013975361
 21
-100.5890300872122
 31
0.0
  0
LINE
  5
9953C
330
18
100
AcDbEntity
  8
NOTE
100
AcDbLine
 10
-523.0
 20
-122.1926245158416
 30
0.0
 11
-550.5617884282282
 21
-93.20387120291711
 31
0.0
  0
LINE
  5
9953D
330
18
100
AcDbEntity
  8
NOTE
100
AcDbLine
 10
-550.5617884282282
 20
-93.20387120291716
 30
0.0
 11
-814.6862223931837
 21
184.5951576976956
 31
0.0
1001
ACAD
1000
DSTYLE
1002
{
1070
    41
1040
40.0
1070
    90
1070
     1
1070
   345
1005
12
1070
   346
1005
12
1070
   347
1005
12
1002
}
  0
LINE
  5
9953E
330
18
100
AcDbEntity
  8
NOTE
100
AcDbLine
 10
-814.6862223931837
 20
184.5951576976956
 30
0.0
 11
-1416.636783380805
 21
184.5951576976956
 31
0.0
1001
ACAD
1000
DSTYLE
1002
{
1070
    41
1040
40.0
1070
    90
1070
     1
1070
   345
1005
12
1070
   346
1005
12
1070
   347
1005
12
1002
}
  0
LINE
  5
9953F
330
18
100
AcDbEntity
  8
NOTE
100
AcDbLine
 10
-587.0197422572082
 20
-173.5780616832203
 30
0.0
 11
-550.0
 21
-155.0196804853757
 31
0.0
  0
LINE
  5
99540
330
18
100
AcDbEntity
  8
NOTE
100
AcDbLine
 10
-550.0
 20
-155.0196804853757
 30
0.0
 11
-572.7808467942541
 21
-189.6015810810826
 31
0.0
  0
LINE
  5
99541
330
18
100
AcDbEntity
  8
NOTE
100
AcDbLine
 10
-550.0
 20
-155.0196804853757
 30
0.0
 11
-579.9002945257316
 21
-181.5898213821515
 31
0.0
  0
LINE
  5
99542
330
18
100
AcDbEntity
  8
NOTE
100
AcDbLine
 10
-579.9002945257316
 20
-181.5898213821515
 30
0.0
 11
-823.7945787309236
 21
-398.3203117682399
 31
0.0
1001
ACAD
1000
DSTYLE
1002
{
1070
    41
1040
40.0
1070
    90
1070
     1
1070
   345
1005
12
1070
   346
1005
12
1070
   347
1005
12
1002
}
  0
LINE
  5
99543
330
18
100
AcDbEntity
  8
NOTE
100
AcDbLine
 10
-823.7945787309236
 20
-398.3203117682399
 30
0.0
 11
-1356.941962430808
 21
-398.3203117682399
 31
0.0
1001
ACAD
1000
DSTYLE
1002
{
1070
    41
1040
40.0
1070
    90
1070
     1
1070
   345
1005
12
1070
   346
1005
12
1070
   347
1005
12
1002
}
  0
TEXT
  5
99544
330
18
100
AcDbEntity
  8
NOTE
100
AcDbText
 10
-769.4847523281952
 20
285.5466378825974
 30
0.0
 40
30.0
  1
 (O.D.%%C32)
 50
0.0000025044816619
 41
0.6
  7
STANDARD1
100
AcDbText
  0
LINE
  5
99545
330
18
100
AcDbEntity
  8
NOTE
100
AcDbLine
 10
-506.5160474550657
 20
0.3957282636844042
 30
0.0
 11
-507.99781467136
 21
-40.98880019069532
 31
0.0
  0
LINE
  5
99546
330
18
100
AcDbEntity
  8
NOTE
100
AcDbLine
 10
-507.99781467136
 20
-40.98880019069532
 30
0.0
 11
-527.4068306807929
 21
-4.407863529365528
 31
0.0
  0
LINE
  5
99547
330
18
100
AcDbEntity
  8
NOTE
100
AcDbLine
 10
-507.99781467136
 20
-40.98880019069532
 30
0.0
 11
-516.9614390679298
 21
-2.006067632840561
 31
0.0
  0
LINE
  5
99548
330
18
100
AcDbEntity
  8
NOTE
100
AcDbLine
 10
-516.9614390679288
 20
-2.006067632840554
 30
0.0
 11
-593.2326965682777
 21
329.697036094414
 31
0.0
1001
ACAD
1000
DSTYLE
1002
{
1070
    41
1040
40.0
1070
   147
1040
15.0
1070
    77
1070
     0
1070
    90
1070
     1
1070
   345
1005
12
1070
   346
1005
12
1070
   347
1005
12
1002
}
  0
LINE
  5
99549
330
18
100
AcDbEntity
  8
NOTE
100
AcDbLine
 10
-593.2326965682777
 20
329.697036094414
 30
0.0
 11
-791.6184577970143
 21
329.697036094414
 31
0.0
1001
ACAD
1000
DSTYLE
1002
{
1070
    41
1040
40.0
1070
   147
1040
15.0
1070
    77
1070
     0
1070
    90
1070
     1
1070
   345
1005
12
1070
   346
1005
12
1070
   347
1005
12
1002
}
  0
LINE
  5
9954A
330
18
100
AcDbEntity
  8
DETAIL
100
AcDbLine
 10
-500.0000000000018
 20
-15.02145922746861
 30
0.0
 11
-500.0000000000018
 21
-26.99262451584146
 31
0.0
  0
LINE
  5
9954B
330
18
100
AcDbEntity
  8
DETAIL
100
AcDbLine
 10
-497.5006829151989
 20
-17.69516496038631
 30
0.0
 11
-497.5006829151989
 21
-26.99262451584146
 31
0.0
  0
LINE
  5
9954C
330
18
100
AcDbEntity
  8
DETAIL
100
AcDbLine
 10
-497.5006829151989
 20
-26.99262451584146
 30
0.0
 11
-500.0000000000018
 21
-26.99262451584146
 31
0.0
  0
LINE
  5
9954D
330
18
100
AcDbEntity
  8
DETAIL
100
AcDbLine
 10
-450.0
 20
-17.49521959359056
 30
0.0
 11
-497.3007375484176
 21
-17.49521959359045
 31
0.0
  0
LINE
  5
9954E
330
18
100
AcDbEntity
  8
DETAIL
100
AcDbLine
 10
-450.0
 20
-15.02145922746873
 30
0.0
 11
-500.0000000000018
 21
-15.02145922746861
 31
0.0
  0
ARC
  5
9954F
330
18
100
AcDbEntity
  8
DETAIL
100
AcDbCircle
 10
-497.3007375484176
 20
-17.69516496038631
 30
0.0
 40
0.1999453667838173
100
AcDbArc
 50
90.0
 51
180.0
  0
LINE
  5
99550
330
18
100
AcDbEntity
  8
DETAIL
100
AcDbLine
 10
-450.0000000000018
 20
-237.239045089998
 30
0.0
 11
-490.0000000000018
 21
-237.239045089998
 31
0.0
  0
LINE
  5
99551
330
18
100
AcDbEntity
  8
DETAIL
100
AcDbLine
 10
-490.0000000000018
 20
-237.2390450899978
 30
0.0
 11
-490.0000000000018
 21
-197.2499717331805
 31
0.0
  0
LINE
  5
99552
330
18
100
AcDbEntity
  8
DETAIL
100
AcDbLine
 10
-450.0
 20
-197.2499717331805
 30
0.0
 11
-490.0000000000018
 21
-197.2499717331805
 31
0.0
  0
LINE
  5
99553
330
18
100
AcDbEntity
  8
DETAIL
100
AcDbLine
 10
-507.99781467136
 20
-56.48456611647198
 30
0.0
 11
-507.99781467136
 21
-25.49303426495972
 31
0.0
  0
LINE
  5
99554
330
18
100
AcDbEntity
  8
DETAIL
100
AcDbLine
 10
-483.0046438233603
 20
-56.98442953343256
 30
0.0
 11
-483.0046438233603
 21
-24.74323913952613
 31
0.0
  0
LINE
  5
99555
330
18
100
AcDbEntity
  8
DETAIL
100
AcDbLine
 10
-450.0
 20
-24.16714093899209
 30
0.0
 11
-483.0046438233603
 21
-24.74323913952613
 31
0.0
  0
ARC
  5
99556
330
18
100
AcDbEntity
  8
DETAIL
100
AcDbCircle
 10
-507.4979512543996
 20
-56.48456611647198
 30
0.0
 40
0.4998634169600062
100
AcDbArc
 50
180.0
 51
270.0
  0
ARC
  5
99557
330
18
100
AcDbEntity
  8
DETAIL
100
AcDbCircle
 10
-507.4979512543996
 20
-25.49303426495972
 30
0.0
 40
0.4998634169600655
100
AcDbArc
 50
90.0
 51
180.0
  0
LINE
  5
99558
330
18
100
AcDbEntity
  8
DETAIL
100
AcDbLine
 10
-483.0046438233603
 20
-24.99317084799914
 30
0.0
 11
-497.5006829151989
 21
-24.99317084799914
 31
0.0
  0
LINE
  5
99559
330
18
100
AcDbEntity
  8
DETAIL
100
AcDbLine
 10
-500.0000000000018
 20
-24.99317084799914
 30
0.0
 11
-507.4979512543996
 21
-24.99317084799914
 31
0.0
  0
LINE
  5
9955A
330
18
100
AcDbEntity
  8
DETAIL
100
AcDbLine
 10
-450.0000000000026
 20
-56.98442953343256
 30
0.0
 11
-507.4979512543996
 21
-56.98442953343256
 31
0.0
  0
LINE
  5
9955B
330
18
100
AcDbEntity
  8
DETAIL
100
AcDbLine
 10
-550.0
 20
-145.9926245158409
 30
0.0
 11
-550.0
 21
-164.3926245158423
 31
0.0
  0
LINE
  5
9955C
330
18
100
AcDbEntity
  8
DETAIL
100
AcDbLine
 10
-534.5029437252015
 20
-145.9926245158409
 30
0.0
 11
-534.5029437252015
 21
-164.3926245158423
 31
0.0
  0
LINE
  5
9955D
330
18
100
AcDbEntity
  8
DETAIL
100
AcDbLine
 10
-533.2429437252011
 20
-147.2526245158411
 30
0.0
 11
-533.2429437252011
 21
-163.1326245158421
 31
0.0
  0
LINE
  5
9955E
330
18
100
AcDbEntity
  8
DETAIL
100
AcDbLine
 10
-523.0
 20
-116.6826245158414
 30
0.0
 11
-523.0
 21
-127.7026245158418
 31
0.0
  0
LINE
  5
9955F
330
18
100
AcDbEntity
  8
DETAIL
100
AcDbLine
 10
-512.7100505064008
 20
-116.6826245158414
 30
0.0
 11
-512.7100505064008
 21
-127.7026245158418
 31
0.0
  0
LINE
  5
99560
330
18
100
AcDbEntity
  8
DETAIL
100
AcDbLine
 10
-511.9600505064008
 20
-117.4326245158414
 30
0.0
 11
-511.9600505064008
 21
-126.9526245158418
 31
0.0
  0
LINE
  5
99561
330
18
100
AcDbEntity
  8
DETAIL
100
AcDbLine
 10
-480.0
 20
-155.292624515842
 30
0.0
 11
-480.0
 21
-173.1924686104417
 31
0.0
  0
LINE
  5
99562
330
18
100
AcDbEntity
  8
DETAIL
100
AcDbLine
 10
-480.0
 20
-122.292624515842
 30
0.0
 11
-480.0
 21
-155.0926245158413
 31
0.0
  0
LINE
  5
99563
330
18
100
AcDbEntity
  8
DETAIL
100
AcDbLine
 10
-480.0
 20
-107.1926262075418
 30
0.0
 11
-480.0
 21
-122.0926245158413
 31
0.0
  0
LINE
  5
99564
330
18
100
AcDbEntity
  8
DETAIL
100
AcDbLine
 10
-534.5029437252015
 20
-145.9926245158409
 30
0.0
 11
-533.2429437252011
 21
-147.2526245158411
 31
0.0
  0
LINE
  5
99565
330
18
100
AcDbEntity
  8
DETAIL
100
AcDbLine
 10
-512.7100505064008
 20
-116.6826245158414
 30
0.0
 11
-511.9600505064008
 21
-117.4326245158414
 31
0.0
  0
LINE
  5
99566
330
18
100
AcDbEntity
  8
DETAIL
100
AcDbLine
 10
-450.0000000000018
 20
-173.1926245158416
 30
0.0
 11
-480.0
 21
-173.1926245158416
 31
0.0
  0
LINE
  5
99567
330
18
100
AcDbEntity
  8
DETAIL
100
AcDbLine
 10
-550.0
 20
-164.3926245158423
 30
0.0
 11
-534.5029437252015
 21
-164.3926245158423
 31
0.0
  0
LINE
  5
99568
330
18
100
AcDbEntity
  8
DETAIL
100
AcDbLine
 10
-533.2429437252011
 20
-163.1326245158421
 30
0.0
 11
-480.0
 21
-163.1326245158421
 31
0.0
  0
LINE
  5
99569
330
18
100
AcDbEntity
  8
DETAIL
100
AcDbLine
 10
-533.2429437252011
 20
-147.2526245158411
 30
0.0
 11
-480.0
 21
-147.2526245158411
 31
0.0
  0
LINE
  5
9956A
330
18
100
AcDbEntity
  8
DETAIL
100
AcDbLine
 10
-550.0
 20
-145.9926245158409
 30
0.0
 11
-534.5029437252015
 21
-145.9926245158409
 31
0.0
  0
LINE
  5
9956B
330
18
100
AcDbEntity
  8
DETAIL
100
AcDbLine
 10
-450.0000000000018
 20
-137.1926245158421
 30
0.0
 11
-480.0
 21
-137.1926245158416
 31
0.0
  0
LINE
  5
9956C
330
18
100
AcDbEntity
  8
DETAIL
100
AcDbLine
 10
-523.0
 20
-127.7026245158418
 30
0.0
 11
-512.7100505064008
 21
-127.7026245158418
 31
0.0
  0
LINE
  5
9956D
330
18
100
AcDbEntity
  8
DETAIL
100
AcDbLine
 10
-511.9600505064008
 20
-126.9526245158418
 30
0.0
 11
-480.0
 21
-126.9526245158418
 31
0.0
  0
LINE
  5
9956E
330
18
100
AcDbEntity
  8
DETAIL
100
AcDbLine
 10
-450.0000000000018
 20
-122.2926245158424
 30
0.0
 11
-480.0
 21
-122.292624515842
 31
0.0
  0
LINE
  5
9956F
330
18
100
AcDbEntity
  8
DETAIL
100
AcDbLine
 10
-480.0
 20
-117.4326245158414
 30
0.0
 11
-511.9600505064008
 21
-117.4326245158414
 31
0.0
  0
LINE
  5
99570
330
18
100
AcDbEntity
  8
DETAIL
100
AcDbLine
 10
-523.0
 20
-116.6826245158414
 30
0.0
 11
-512.7100505064008
 21
-116.6826245158414
 31
0.0
  0
LINE
  5
99571
330
18
100
AcDbEntity
  8
DETAIL
100
AcDbLine
 10
-450.0000000000018
 20
-107.1926245158421
 30
0.0
 11
-480.0
 21
-107.1926245158416
 31
0.0
  0
LINE
  5
99572
330
18
100
AcDbEntity
  8
DETAIL
100
AcDbLine
 10
-534.5029437252015
 20
-164.3926245158423
 30
0.0
 11
-533.2429437252011
 21
-163.1326245158421
 31
0.0
  0
LINE
  5
99573
330
18
100
AcDbEntity
  8
DETAIL
100
AcDbLine
 10
-512.7100505064008
 20
-127.7026245158418
 30
0.0
 11
-511.9600505064008
 21
-126.9526245158418
 31
0.0
  0
LINE
  5
99574
330
18
100
AcDbEntity
  8
SIZE
100
AcDbLine
 10
-550.0000000000018
 20
-186.2370542458236
 30
0.0
 11
-550.0000000000018
 21
-480.7371688740943
 31
0.0
  0
LINE
  5
99575
330
18
100
AcDbEntity
  8
SIZE
100
AcDbLine
 10
-450.0000000000018
 20
-264.9999999999843
 30
0.0
 11
-450.0000000000018
 21
-480.7371688740943
 31
0.0
  0
LINE
  5
99576
330
18
100
AcDbEntity
  8
SIZE
100
AcDbLine
 10
-550.0000000000018
 20
-475.7371688740943
 30
0.0
 11
-450.0000000000018
 21
-475.7371688740943
 31
0.0
  0
CIRCLE
  5
99577
330
18
100
AcDbEntity
  8
SIZE
100
AcDbCircle
 10
-550.0000000000018
 20
-475.7371688740943
 30
0.0
 40
5.0
  0
CIRCLE
  5
99578
330
18
100
AcDbEntity
  8
SIZE
100
AcDbCircle
 10
-450.0000000000018
 20
-475.7371688740943
 30
0.0
 40
5.0
  0
TEXT
  5
99579
330
18
100
AcDbEntity
  8
SIZE
100
AcDbText
 10
-532.1428571428587
 20
-460.7371688740943
 30
0.0
 40
30.0
  1
100
 41
0.9
100
AcDbText
  0
TEXT
  5
9957A
330
18
100
AcDbEntity
  8
NOTE
100
AcDbText
 10
-1408.737783942664
 20
208.2674030940824
 30
0.0
 40
30.0
  1
Brazing connection (liquid) %%C6.35
 41
0.6
  7
STANDARD1
100
AcDbText
  0
TEXT
  5
9957B
330
18
100
AcDbEntity
  8
NOTE
100
AcDbText
 10
-1347.978126967499
 20
-339.6904369059041
 30
0.0
 40
30.0
  1
Refrigerant piping
 41
0.6
  7
STANDARD1
100
AcDbText
  0
TEXT
  5
9957C
330
18
100
AcDbEntity
  8
NOTE
100
AcDbText
 10
-1349.113984787573
 20
-381.4855304728638
 30
0.0
 40
30.0
  1
Brazing connection (gas) %%C12.7
 41
0.6
  7
STANDARD1
100
AcDbText
  0
TEXT
  5
9957D
330
18
100
AcDbEntity
  8
NOTE
100
AcDbText
 10
-1408.730384388405
 20
256.8388230735497
 30
0.0
 40
30.0
  1
Refrigerant piping
 41
0.6
  7
STANDARD1
100
AcDbText
  0
ENDSEC
  0
SECTION
  2
OBJECTS
  0
DICTIONARY
  5
C
330
0
100
AcDbDictionary
281
     1
  3
ACAD_CIP_PREVIOUS_PRODUCT_INFO
350
70D0E
  3
ACAD_COLOR
350
513F9
  3
ACAD_DETAILVIEWSTYLE
350
99248
  3
ACAD_GROUP
350
D
  3
ACAD_LAYOUT
350
21F1
  3
ACAD_MATERIAL
350
513CF
  3
ACAD_MLEADERSTYLE
350
5141E
  3
ACAD_MLINESTYLE
350
1B
  3
ACAD_PLOTSETTINGS
350
21F2
  3
ACAD_PLOTSTYLENAME
350
21EF
  3
ACAD_SCALELIST
350
513FC
  3
ACAD_SECTIONVIEWSTYLE
350
99246
  3
ACAD_TABLESTYLE
350
513FA
  3
ACAD_VISUALSTYLE
350
513E8
  3
AcadDim
350
956CE
  3
ACDB_RECOMPOSE_DATA
350
995CC
  3
AcDbVariableDictionary
350
28B1
  3
DWGPROPS
350
995CD
  0
DICTIONARY
  5
70D15
330
8
100
AcDbDictionary
280
     1
281
     1
  0
DICTIONARY
  5
5148D
330
2
100
AcDbDictionary
280
     1
281
     1
  3
ACAD_LAYERFILTERS
360
6ADDC
  3
ACAD_LAYERSTATES
360
6B6C9
  3
ACLYDICTIONARY
360
6ADDB
  0
DICTIONARY
  5
5144C
330
E
100
AcDbDictionary
280
     1
281
     1
  3
ADSK_XREC_LAYER_RECONCILED
360
5144D
  0
DICTIONARY
  5
5144E
330
25
100
AcDbDictionary
280
     1
281
     1
  3
ADSK_XREC_LAYER_RECONCILED
360
5144F
  0
DICTIONARY
  5
51450
330
26
100
AcDbDictionary
280
     1
281
     1
  3
ADSK_XREC_LAYER_RECONCILED
360
51451
  0
DICTIONARY
  5
51452
330
27
100
AcDbDictionary
280
     1
281
     1
  3
ADSK_XREC_LAYER_RECONCILED
360
51453
  0
DICTIONARY
  5
51454
330
28
100
AcDbDictionary
280
     1
281
     1
  3
ADSK_XREC_LAYER_RECONCILED
360
51455
  0
DICTIONARY
  5
51456
330
29
100
AcDbDictionary
280
     1
281
     1
  3
ADSK_XREC_LAYER_RECONCILED
360
51457
  0
DICTIONARY
  5
51458
330
2B
100
AcDbDictionary
280
     1
281
     1
  3
ADSK_XREC_LAYER_RECONCILED
360
51459
  0
DICTIONARY
  5
5145A
330
2C
100
AcDbDictionary
280
     1
281
     1
  3
ADSK_XREC_LAYER_RECONCILED
360
5145B
  0
DICTIONARY
  5
5145C
330
2D
100
AcDbDictionary
280
     1
281
     1
  3
ADSK_XREC_LAYER_RECONCILED
360
5145D
  0
DICTIONARY
  5
85434
330
85433
100
AcDbDictionary
280
     1
281
     1
  0
DICTIONARY
  5
85436
330
85435
100
AcDbDictionary
280
     1
281
     1
  0
DICTIONARY
  5
28B3
330
18
100
AcDbDictionary
280
     1
281
     1
  3
ACAD_LAYOUTSELFREF
360
2DF14
  3
ACAD_SORTENTS
360
28B4
  0
DICTIONARY
  5
29B6
330
15
100
AcDbDictionary
280
     1
281
     1
  3
ACAD_LAYOUTSELFREF
360
2DF13
  0
DICTIONARY
  5
990CA
330
4C0C3
100
AcDbDictionary
280
     1
281
     1
  0
DICTIONARY
  5
993E4
330
9924F
100
AcDbDictionary
280
     1
281
     1
  3
ACAD_SORTENTS
360
993E5
  0
XRECORD
  5
70D0E
102
{ACAD_REACTORS
330
C
102
}
330
C
100
AcDbXrecord
280
     1
300
ACDLT
300
2018
300
86831ACDLT_2018_0F
  0
DICTIONARY
  5
513F9
102
{ACAD_REACTORS
330
C
102
}
330
C
100
AcDbDictionary
281
     1
  0
DICTIONARY
  5
99248
102
{ACAD_REACTORS
330
C
102
}
330
C
100
AcDbDictionary
281
     1
  3
Imperial24
350
99249
  0
DICTIONARY
  5
D
102
{ACAD_REACTORS
330
C
102
}
330
C
100
AcDbDictionary
281
     1
  0
DICTIONARY
  5
21F1
102
{ACAD_REACTORS
330
C
102
}
330
C
100
AcDbDictionary
281
     1
  3
Model
350
21F3
  3
ﾚｲｱｳﾄ1
350
21F4
  0
DICTIONARY
  5
513CF
102
{ACAD_REACTORS
330
C
102
}
330
C
100
AcDbDictionary
281
     1
  3
ByBlock
350
513D8
  3
ByLayer
350
513D0
  3
Global
350
513E0
  0
DICTIONARY
  5
5141E
102
{ACAD_REACTORS
330
C
102
}
330
C
100
AcDbDictionary
281
     1
  3
Standard
350
5141F
  0
DICTIONARY
  5
1B
102
{ACAD_REACTORS
330
C
102
}
330
C
100
AcDbDictionary
281
     1
  3
STANDARD
350
1C
  0
DICTIONARY
  5
21F2
102
{ACAD_REACTORS
330
C
102
}
330
C
100
AcDbDictionary
281
     1
  0
ACDBDICTIONARYWDFLT
  5
21EF
102
{ACAD_REACTORS
330
C
102
}
330
C
100
AcDbDictionary
281
     1
  3
Normal
350
21F0
100
AcDbDictionaryWithDefault
340
21F0
  0
DICTIONARY
  5
513FC
102
{ACAD_REACTORS
330
C
102
}
330
C
100
AcDbDictionary
281
     1
  3
A0
350
513FD
  3
A1
350
513FE
  3
A2
350
513FF
  3
A3
350
51400
  3
A4
350
51401
  3
A5
350
51402
  3
A6
350
51403
  3
A7
350
51404
  3
A8
350
51405
  3
A9
350
51406
  3
B0
350
51407
  3
B1
350
51408
  3
B2
350
51409
  3
B3
350
5140A
  3
B4
350
5140B
  3
B5
350
5140C
  3
B6
350
5140D
  3
B7
350
5140E
  3
B8
350
5140F
  3
B9
350
51410
  3
C0
350
51411
  3
C1
350
51412
  3
C2
350
51413
  3
C3
350
51414
  3
C4
350
51415
  3
C5
350
51416
  3
C6
350
51417
  3
C7
350
51418
  3
C8
350
51419
  3
C9
350
5141A
  3
D0
350
5141B
  3
D1
350
5141C
  3
D2
350
5141D
  0
DICTIONARY
  5
99246
102
{ACAD_REACTORS
330
C
102
}
330
C
100
AcDbDictionary
281
     1
  3
Imperial24
350
99247
  0
DICTIONARY
  5
513FA
102
{ACAD_REACTORS
330
C
102
}
330
C
100
AcDbDictionary
281
     1
  3
Standard
350
513FB
  0
DICTIONARY
  5
513E8
102
{ACAD_REACTORS
330
C
102
}
330
C
100
AcDbDictionary
281
     1
  3
2dWireframe
350
513EE
  3
3D Hidden
350
513F0
  3
3dWireframe
350
513EF
  3
Basic
350
513ED
  3
Brighten
350
513F4
  3
ColorChange
350
513F8
  3
Conceptual
350
513F1
  3
Dim
350
513F3
  3
EdgeColorOff
350
70D09
  3
Facepattern
350
513F7
  3
Flat
350
513E9
  3
FlatWithEdges
350
513EA
  3
Gouraud
350
513EB
  3
GouraudWithEdges
350
513EC
  3
Hidden
350
70D01
  3
JitterOff
350
70D07
  3
Linepattern
350
513F6
  3
OverhangOff
350
70D08
  3
Realistic
350
513F2
  3
Shaded
350
70D06
  3
Shaded with edges
350
70D05
  3
Shades of Gray
350
70D02
  3
Sketchy
350
70D03
  3
Thicken
350
513F5
  3
Wireframe
350
70D00
  3
X-Ray
350
70D04
  0
XRECORD
  5
956CE
102
{ACAD_REACTORS
330
C
102
}
330
C
100
AcDbXrecord
280
     1
 90
   990106
  3

 60
     0
 61
     0
 62
     1
 63
     3
 64
     0
 65
     0
 66
     0
 67
     3
 68
     1
 69
     0
 70
     0
 71
     0
 72
     0
 40
0.0
170
     0
  0
XRECORD
  5
995CC
102
{ACAD_REACTORS
330
C
102
}
330
C
100
AcDbXrecord
280
     1
 90
        1
330
513FB
  0
DICTIONARY
  5
28B1
102
{ACAD_REACTORS
330
C
102
}
330
C
100
AcDbDictionary
281
     1
  3
CANNOSCALE
350
51480
  3
CMLEADERSTYLE
350
5147E
  3
CTABLESTYLE
350
5147D
  3
CVIEWDETAILSTYLE
350
9957E
  3
CVIEWSECTIONSTYLE
350
9957F
  3
DIMASSOC
350
5135B
  3
INDEXCTL
350
70D55
  3
LIGHTINGUNITS
350
51481
  3
MSLTSCALE
350
5147F
  3
SOLIDHIST
350
70D57
  3
SORTENTS
350
28B2
  3
XCLIPFRAME
350
995CA
  0
XRECORD
  5
995CD
102
{ACAD_REACTORS
330
C
102
}
330
C
100
AcDbXrecord
280
     1
  1
DWGPROPS COOKIE
  2

  3

  4

  6

  7

  8
NU55418
  9

300
=
301
=
302
=
303
=
304
=
305
=
306
=
307
=
308
=
309
=
 40
1.64623380787037
 41
2455902.607164352
 42
2460202.471215278
  1

 90
        0
  0
DICTIONARY
  5
6ADDC
102
{ACAD_REACTORS
330
5148D
102
}
330
5148D
100
AcDbDictionary
281
     1
  0
DICTIONARY
  5
6B6C9
102
{ACAD_REACTORS
330
5148D
102
}
330
5148D
100
AcDbDictionary
281
     1
  0
DICTIONARY
  5
6ADDB
102
{ACAD_REACTORS
330
5148D
102
}
330
5148D
100
AcDbDictionary
281
     1
1001
ACAD
1000
<All
  0
XRECORD
  5
5144D
102
{ACAD_REACTORS
330
5144C
102
}
330
5144C
100
AcDbXrecord
280
     1
290
     1
  0
XRECORD
  5
5144F
102
{ACAD_REACTORS
330
5144E
102
}
330
5144E
100
AcDbXrecord
280
     1
290
     1
  0
XRECORD
  5
51451
102
{ACAD_REACTORS
330
51450
102
}
330
51450
100
AcDbXrecord
280
     1
290
     1
  0
XRECORD
  5
51453
102
{ACAD_REACTORS
330
51452
102
}
330
51452
100
AcDbXrecord
280
     1
290
     1
  0
XRECORD
  5
51455
102
{ACAD_REACTORS
330
51454
102
}
330
51454
100
AcDbXrecord
280
     1
290
     1
  0
XRECORD
  5
51457
102
{ACAD_REACTORS
330
51456
102
}
330
51456
100
AcDbXrecord
280
     1
290
     1
  0
XRECORD
  5
51459
102
{ACAD_REACTORS
330
51458
102
}
330
51458
100
AcDbXrecord
280
     1
290
     1
  0
XRECORD
  5
5145B
102
{ACAD_REACTORS
330
5145A
102
}
330
5145A
100
AcDbXrecord
280
     1
290
     1
  0
XRECORD
  5
5145D
102
{ACAD_REACTORS
330
5145C
102
}
330
5145C
100
AcDbXrecord
280
     1
290
     1
  0
XRECORD
  5
2DF14
102
{ACAD_REACTORS
330
28B3
102
}
330
28B3
100
AcDbXrecord
280
     1
340
18
  0
SORTENTSTABLE
  5
28B4
102
{ACAD_REACTORS
330
28B3
102
}
330
28B3
100
AcDbSortentsTable
330
18
331
99444
  5
99444
331
99405
  5
99405
331
99440
  5
99440
331
99401
  5
99401
331
993FD
  5
993FD
331
9943C
  5
9943C
331
99438
  5
99438
331
993F9
  5
993F9
331
9956E
  5
9956E
331
9956A
  5
9956A
331
99566
  5
99566
331
99562
  5
99562
331
994AC
  5
994AC
331
994A8
  5
994A8
331
994E7
  5
994E7
331
994A4
  5
994A4
331
994E3
  5
994E3
331
994A0
  5
994A0
331
99556
  5
99556
331
99517
  5
99517
331
99552
  5
99552
331
99513
  5
99513
331
9950F
  5
9950F
331
9954E
  5
9954E
331
9954A
  5
9954A
331
9950B
  5
9950B
331
99435
  5
99435
331
99431
  5
99431
331
9942D
  5
9942D
331
9946C
  5
9946C
331
99468
  5
99468
331
99429
  5
99429
331
993F6
  5
993F6
331
993F2
  5
993F2
331
994DF
  5
994DF
331
9949C
  5
9949C
331
99498
  5
99498
331
994DB
  5
994DB
331
994D7
  5
994D7
331
99494
  5
99494
331
994D3
  5
994D3
331
99490
  5
99490
331
99547
  5
99547
331
99504
  5
99504
331
99500
  5
99500
331
99543
  5
99543
331
9953F
  5
9953F
331
994FC
  5
994FC
331
9953B
  5
9953B
331
994F8
  5
994F8
331
99464
  5
99464
331
99425
  5
99425
331
99460
  5
99460
331
99421
  5
99421
331
9941D
  5
9941D
331
9945C
  5
9945C
331
99419
  5
99419
331
99458
  5
99458
331
993EE
  5
993EE
331
993EA
  5
993EA
331
9948D
  5
9948D
331
994CC
  5
994CC
331
994C8
  5
994C8
331
99489
  5
99489
331
994C4
  5
994C4
331
99485
  5
99485
331
994C0
  5
994C0
331
99481
  5
99481
331
99537
  5
99537
331
994F4
  5
994F4
331
994F0
  5
994F0
331
99533
  5
99533
331
994EC
  5
994EC
331
9952F
  5
9952F
331
9952B
  5
9952B
331
994E8
  5
994E8
331
99416
  5
99416
331
99455
  5
99455
331
99412
  5
99412
331
9940E
  5
9940E
331
99451
  5
99451
331
9940A
  5
9940A
331
9944D
  5
9944D
331
99449
  5
99449
331
9957B
  5
9957B
331
99577
  5
99577
331
99573
  5
99573
331
9947D
  5
9947D
331
994BC
  5
994BC
331
994B8
  5
994B8
331
99479
  5
99479
331
994B4
  5
994B4
331
99475
  5
99475
331
994B0
  5
994B0
331
99471
  5
99471
331
99524
  5
99524
331
99520
  5
99520
331
9951C
  5
9951C
331
9955F
  5
9955F
331
9955B
  5
9955B
331
99518
  5
99518
331
99406
  5
99406
331
99445
  5
99445
331
99402
  5
99402
331
99441
  5
99441
331
993FE
  5
993FE
331
993FA
  5
993FA
331
9943D
  5
9943D
331
99439
  5
99439
331
9956F
  5
9956F
331
9956B
  5
9956B
331
99567
  5
99567
331
99563
  5
99563
331
994AD
  5
994AD
331
994A9
  5
994A9
331
994E4
  5
994E4
331
994A5
  5
994A5
331
994E0
  5
994E0
331
994A1
  5
994A1
331
99557
  5
99557
331
99514
  5
99514
331
99553
  5
99553
331
99510
  5
99510
331
9950C
  5
9950C
331
9954F
  5
9954F
331
9954B
  5
9954B
331
99508
  5
99508
331
99436
  5
99436
331
99432
  5
99432
331
9942E
  5
9942E
331
9942A
  5
9942A
331
9946D
  5
9946D
331
99469
  5
99469
331
993F7
  5
993F7
331
993F3
  5
993F3
331
994DC
  5
994DC
331
9949D
  5
9949D
331
99499
  5
99499
331
994D8
  5
994D8
331
994D4
  5
994D4
331
99495
  5
99495
331
994D0
  5
994D0
331
99491
  5
99491
331
99544
  5
99544
331
99505
  5
99505
331
99501
  5
99501
331
99540
  5
99540
331
9953C
  5
9953C
331
994FD
  5
994FD
331
99538
  5
99538
331
99426
  5
99426
331
994F9
  5
994F9
331
99465
  5
99465
331
99422
  5
99422
331
99461
  5
99461
331
9941E
  5
9941E
331
9941A
  5
9941A
331
9945D
  5
9945D
331
99459
  5
99459
331
993EF
  5
993EF
331
993EB
  5
993EB
331
9948E
  5
9948E
331
9948A
  5
9948A
331
994CD
  5
994CD
331
994C9
  5
994C9
331
99486
  5
99486
331
994C5
  5
994C5
331
99482
  5
99482
331
994C1
  5
994C1
331
99534
  5
99534
331
994F5
  5
994F5
331
994F1
  5
994F1
331
99530
  5
99530
331
9952C
  5
9952C
331
994ED
  5
994ED
331
99528
  5
99528
331
99456
  5
99456
331
994E9
  5
994E9
331
99417
  5
99417
331
99452
  5
99452
331
99413
  5
99413
331
9940F
  5
9940F
331
9944E
  5
9944E
331
9944A
  5
9944A
331
9940B
  5
9940B
331
9957C
  5
9957C
331
99578
  5
99578
331
99574
  5
99574
331
99570
  5
99570
331
9947E
  5
9947E
331
9947A
  5
9947A
331
994BD
  5
994BD
331
994B9
  5
994B9
331
99476
  5
99476
331
994B5
  5
994B5
331
99472
  5
99472
331
994B1
  5
994B1
331
99525
  5
99525
331
99521
  5
99521
331
9951D
  5
9951D
331
9955C
  5
9955C
331
99558
  5
99558
331
99446
  5
99446
331
99519
  5
99519
331
99407
  5
99407
331
99442
  5
99442
331
99403
  5
99403
331
993FF
  5
993FF
331
9943E
  5
9943E
331
993FB
  5
993FB
331
9943A
  5
9943A
331
9956C
  5
9956C
331
99568
  5
99568
331
99564
  5
99564
331
99560
  5
99560
331
994AE
  5
994AE
331
994AA
  5
994AA
331
994A6
  5
994A6
331
994E5
  5
994E5
331
994A2
  5
994A2
331
994E1
  5
994E1
331
99554
  5
99554
331
99515
  5
99515
331
99550
  5
99550
331
99511
  5
99511
331
9950D
  5
9950D
331
9954C
  5
9954C
331
99548
  5
99548
331
99509
  5
99509
331
99437
  5
99437
331
99433
  5
99433
331
9946E
  5
9946E
331
9942F
  5
9942F
331
9942B
  5
9942B
331
9946A
  5
9946A
331
993F4
  5
993F4
331
993F0
  5
993F0
331
9949E
  5
9949E
331
9949A
  5
9949A
331
994DD
  5
994DD
331
99496
  5
99496
331
994D9
  5
994D9
331
994D5
  5
994D5
331
99492
  5
99492
331
994D1
  5
994D1
331
99506
  5
99506
331
99545
  5
99545
331
99502
  5
99502
331
994FE
  5
994FE
331
99541
  5
99541
331
9953D
  5
9953D
331
994FA
  5
994FA
331
99466
  5
99466
331
99539
  5
99539
331
99427
  5
99427
331
99462
  5
99462
331
99423
  5
99423
331
9945E
  5
9945E
331
9941F
  5
9941F
331
9941B
  5
9941B
331
9945A
  5
9945A
331
993EC
  5
993EC
331
9948F
  5
9948F
331
994CE
  5
994CE
331
9948B
  5
9948B
331
994CA
  5
994CA
331
994C6
  5
994C6
331
99487
  5
99487
331
994C2
  5
994C2
331
99483
  5
99483
331
994F6
  5
994F6
331
99535
  5
99535
331
994F2
  5
994F2
331
994EE
  5
994EE
331
99531
  5
99531
331
9952D
  5
9952D
331
994EA
  5
994EA
331
99529
  5
99529
331
99457
  5
99457
331
99414
  5
99414
331
99453
  5
99453
331
99410
  5
99410
331
9940C
  5
9940C
331
9944F
  5
9944F
331
9944B
  5
9944B
331
99408
  5
99408
331
9957D
  5
9957D
331
99579
  5
99579
331
99575
  5
99575
331
99571
  5
99571
331
994BE
  5
994BE
331
9947F
  5
9947F
331
9947B
  5
9947B
331
994BA
  5
994BA
331
994B6
  5
994B6
331
99477
  5
99477
331
994B2
  5
994B2
331
99473
  5
99473
331
99526
  5
99526
331
99522
  5
99522
331
9951E
  5
9951E
331
9955D
  5
9955D
331
9951A
  5
9951A
331
99559
  5
99559
331
99447
  5
99447
331
99404
  5
99404
331
99443
  5
99443
331
99400
  5
99400
331
993FC
  5
993FC
331
9943F
  5
9943F
331
9943B
  5
9943B
331
993F8
  5
993F8
331
9956D
  5
9956D
331
99569
  5
99569
331
99565
  5
99565
331
99561
  5
99561
331
994AF
  5
994AF
331
994AB
  5
994AB
331
994E6
  5
994E6
331
994A7
  5
994A7
331
994E2
  5
994E2
331
994A3
  5
994A3
331
99516
  5
99516
331
99555
  5
99555
331
99512
  5
99512
331
9950E
  5
9950E
331
99551
  5
99551
331
9950A
  5
9950A
331
9954D
  5
9954D
331
99549
  5
99549
331
99434
  5
99434
331
99430
  5
99430
331
9942C
  5
9942C
331
9946F
  5
9946F
331
99428
  5
99428
331
9946B
  5
9946B
331
993F5
  5
993F5
331
993F1
  5
993F1
331
994DE
  5
994DE
331
9949F
  5
9949F
331
9949B
  5
9949B
331
994DA
  5
994DA
331
994D6
  5
994D6
331
99497
  5
99497
331
994D2
  5
994D2
331
99493
  5
99493
331
99546
  5
99546
331
99507
  5
99507
331
99503
  5
99503
331
99542
  5
99542
331
994FF
  5
994FF
331
9953E
  5
9953E
331
9953A
  5
9953A
331
994FB
  5
994FB
331
99467
  5
99467
331
99424
  5
99424
331
99463
  5
99463
331
99420
  5
99420
331
9945F
  5
9945F
331
9941C
  5
9941C
331
99418
  5
99418
331
9945B
  5
9945B
331
993ED
  5
993ED
331
9948C
  5
9948C
331
994CF
  5
994CF
331
994CB
  5
994CB
331
99488
  5
99488
331
994C7
  5
994C7
331
99484
  5
99484
331
994C3
  5
994C3
331
99480
  5
99480
331
99536
  5
99536
331
994F7
  5
994F7
331
99532
  5
99532
331
994F3
  5
994F3
331
994EF
  5
994EF
331
9952E
  5
9952E
331
9952A
  5
9952A
331
994EB
  5
994EB
331
99454
  5
99454
331
99415
  5
99415
331
99450
  5
99450
331
99411
  5
99411
331
9940D
  5
9940D
331
9944C
  5
9944C
331
99448
  5
99448
331
99409
  5
99409
331
9957A
  5
9957A
331
99576
  5
99576
331
99572
  5
99572
331
9947C
  5
9947C
331
994BF
  5
994BF
331
99478
  5
99478
331
994BB
  5
994BB
331
994B7
  5
994B7
331
99474
  5
99474
331
994B3
  5
994B3
331
99470
  5
99470
331
99527
  5
99527
331
99523
  5
99523
331
9951F
  5
9951F
331
9955E
  5
9955E
331
9955A
  5
9955A
331
9951B
  5
9951B
  0
XRECORD
  5
2DF13
102
{ACAD_REACTORS
330
29B6
102
}
330
29B6
100
AcDbXrecord
280
     1
340
15
  0
SORTENTSTABLE
  5
993E5
102
{ACAD_REACTORS
330
993E4
102
}
330
993E4
100
AcDbSortentsTable
330
9924F
  0
ACDBDETAILVIEWSTYLE
  5
99249
102
{ACAD_XDICTIONARY
360
99609
102
}
102
{ACAD_REACTORS
330
99248
102
}
330
99248
100
AcDbModelDocViewStyle
 70
     0
  3
Imperial24
290
     0
100
AcDbDetailViewStyle
 70
     0
 71
     0
 90
        3
 71
     1
340
F
 40
0.24
340
0
 40
0.24
300

 40
0.36
280
     3
 71
     2
340
14
 90
       25
 71
     3
340
F
 40
0.24
 90
        1
 40
0.75
 90
        1
300
%<\AcVar ViewType \f "%tc1">% %<\AcVar ViewDetailId>%\PSCALE %<\AcVar ViewScale \f "%sn">%
 71
     4
340
14
 90
       25
340
14
 90
       25
280
     0
  0
LAYOUT
  5
21F3
102
{ACAD_XDICTIONARY
360
995CE
102
}
102
{ACAD_REACTORS
330
21F1
102
}
330
21F1
100
AcDbPlotSettings
  1

  2
EPSON LP-8900
  4
A3
  6
ALL
 40
5.873749732971191
 41
5.873747825622557
 42
5.873748779296875
 43
5.873748779296875
 44
297.0106506347656
 45
419.9466552734373
 46
0.0
 47
0.0
 48
0.0
 49
0.0
140
0.0
141
0.0
142
1.0
143
23.97224744678097
 70
 28336
 72
     1
 73
     0
 74
     1
  7
monochrome.ctb
 75
     0
147
0.0417149039621766
148
1727.082272710941
149
4319.051803274116
100
AcDbLayout
  1
Model
 70
     1
 71
     0
 10
0.0
 20
0.0
 11
12.0
 21
9.0
 12
0.0
 22
0.0
 32
0.0
 14
0.0
 24
0.0
 34
0.0
 15
0.0
 25
0.0
 35
0.0
146
0.0
 13
0.0
 23
0.0
 33
0.0
 16
1.0
 26
0.0
 36
0.0
 17
0.0
 27
1.0
 37
0.0
 76
     0
330
18
331
513CD
  0
LAYOUT
  5
21F4
102
{ACAD_XDICTIONARY
360
995D0
102
}
102
{ACAD_REACTORS
330
21F1
102
}
330
21F1
100
AcDbPlotSettings
  1

  2
DocuCentre 505
  4

  6

 40
0.0
 41
0.0
 42
0.0
 43
0.0
 44
0.0
 45
0.0
 46
0.0
 47
0.0
 48
0.0
 49
0.0
140
0.0
141
0.0
142
1.0
143
1.0
 70
   688
 72
     0
 73
     0
 74
     5
  7
monochrome.ctb
 75
    16
147
1.0
148
0.0
149
0.0
100
AcDbLayout
  1
ﾚｲｱｳﾄ1
 70
     1
 71
     1
 10
0.0
 20
0.0
 11
12.0
 21
9.0
 12
0.0
 22
0.0
 32
0.0
 14
1.000000000000000E+20
 24
1.000000000000000E+20
 34
1.000000000000000E+20
 15
-1.000000000000000E+20
 25
-1.000000000000000E+20
 35
-1.000000000000000E+20
146
0.0
 13
0.0
 23
0.0
 33
0.0
 16
1.0
 26
0.0
 36
0.0
 17
0.0
 27
1.0
 37
0.0
 76
     0
330
15
  0
MATERIAL
  5
513D8
102
{ACAD_XDICTIONARY
360
513D9
102
}
102
{ACAD_REACTORS
330
513CF
102
}
330
513CF
100
AcDbMaterial
  1
ByBlock
 72
     0
 43
0.0208333333333333
 43
0.0
 43
0.0
 43
0.0
 43
0.0
 43
0.0208333333333333
 43
0.0
 43
0.0
 43
0.0
 43
0.0
 43
1.0
 43
0.0
 43
0.0
 43
0.0
 43
0.0
 43
1.0
 77
     0
 47
0.0208333333333333
 47
0.0
 47
0.0
 47
0.0
 47
0.0
 47
0.0208333333333333
 47
0.0
 47
0.0
 47
0.0
 47
0.0
 47
1.0
 47
0.0
 47
0.0
 47
0.0
 47
0.0
 47
1.0
171
     0
 49
0.0208333333333333
 49
0.0
 49
0.0
 49
0.0
 49
0.0
 49
0.0208333333333333
 49
0.0
 49
0.0
 49
0.0
 49
0.0
 49
1.0
 49
0.0
 49
0.0
 49
0.0
 49
0.0
 49
1.0
175
     0
142
0.0208333333333333
142
0.0
142
0.0
142
0.0
142
0.0
142
0.0208333333333333
142
0.0
142
0.0
142
0.0
142
0.0
142
1.0
142
0.0
142
0.0
142
0.0
142
0.0
142
1.0
179
     0
144
0.0208333333333333
144
0.0
144
0.0
144
0.0
144
0.0
144
0.0208333333333333
144
0.0
144
0.0
144
0.0
144
0.0
144
1.0
144
0.0
144
0.0
144
0.0
144
0.0
144
1.0
147
0.0208333333333333
147
0.0
147
0.0
147
0.0
147
0.0
147
0.0208333333333333
147
0.0
147
0.0
147
0.0
147
0.0
147
1.0
147
0.0
147
0.0
147
0.0
147
0.0
147
1.0
  0
MATERIAL
  5
513D0
102
{ACAD_XDICTIONARY
360
513D1
102
}
102
{ACAD_REACTORS
330
513CF
102
}
330
513CF
100
AcDbMaterial
  1
ByLayer
 72
     0
 43
0.0208333333333333
 43
0.0
 43
0.0
 43
0.0
 43
0.0
 43
0.0208333333333333
 43
0.0
 43
0.0
 43
0.0
 43
0.0
 43
1.0
 43
0.0
 43
0.0
 43
0.0
 43
0.0
 43
1.0
 77
     0
 47
0.0208333333333333
 47
0.0
 47
0.0
 47
0.0
 47
0.0
 47
0.0208333333333333
 47
0.0
 47
0.0
 47
0.0
 47
0.0
 47
1.0
 47
0.0
 47
0.0
 47
0.0
 47
0.0
 47
1.0
171
     0
 49
0.0208333333333333
 49
0.0
 49
0.0
 49
0.0
 49
0.0
 49
0.0208333333333333
 49
0.0
 49
0.0
 49
0.0
 49
0.0
 49
1.0
 49
0.0
 49
0.0
 49
0.0
 49
0.0
 49
1.0
175
     0
142
0.0208333333333333
142
0.0
142
0.0
142
0.0
142
0.0
142
0.0208333333333333
142
0.0
142
0.0
142
0.0
142
0.0
142
1.0
142
0.0
142
0.0
142
0.0
142
0.0
142
1.0
179
     0
144
0.0208333333333333
144
0.0
144
0.0
144
0.0
144
0.0
144
0.0208333333333333
144
0.0
144
0.0
144
0.0
144
0.0
144
1.0
144
0.0
144
0.0
144
0.0
144
0.0
144
1.0
147
0.0208333333333333
147
0.0
147
0.0
147
0.0
147
0.0
147
0.0208333333333333
147
0.0
147
0.0
147
0.0
147
0.0
147
1.0
147
0.0
147
0.0
147
0.0
147
0.0
147
1.0
  0
MATERIAL
  5
513E0
102
{ACAD_XDICTIONARY
360
513E1
102
}
102
{ACAD_REACTORS
330
513CF
102
}
330
513CF
100
AcDbMaterial
  1
Global
 72
     0
 43
0.0208333333333333
 43
0.0
 43
0.0
 43
0.0
 43
0.0
 43
0.0208333333333333
 43
0.0
 43
0.0
 43
0.0
 43
0.0
 43
1.0
 43
0.0
 43
0.0
 43
0.0
 43
0.0
 43
1.0
 77
     0
 47
0.0208333333333333
 47
0.0
 47
0.0
 47
0.0
 47
0.0
 47
0.0208333333333333
 47
0.0
 47
0.0
 47
0.0
 47
0.0
 47
1.0
 47
0.0
 47
0.0
 47
0.0
 47
0.0
 47
1.0
171
     0
 49
0.0208333333333333
 49
0.0
 49
0.0
 49
0.0
 49
0.0
 49
0.0208333333333333
 49
0.0
 49
0.0
 49
0.0
 49
0.0
 49
1.0
 49
0.0
 49
0.0
 49
0.0
 49
0.0
 49
1.0
175
     0
142
0.0208333333333333
142
0.0
142
0.0
142
0.0
142
0.0
142
0.0208333333333333
142
0.0
142
0.0
142
0.0
142
0.0
142
1.0
142
0.0
142
0.0
142
0.0
142
0.0
142
1.0
179
     0
144
0.0208333333333333
144
0.0
144
0.0
144
0.0
144
0.0
144
0.0208333333333333
144
0.0
144
0.0
144
0.0
144
0.0
144
1.0
144
0.0
144
0.0
144
0.0
144
0.0
144
1.0
147
0.0208333333333333
147
0.0
147
0.0
147
0.0
147
0.0
147
0.0208333333333333
147
0.0
147
0.0
147
0.0
147
0.0
147
1.0
147
0.0
147
0.0
147
0.0
147
0.0
147
1.0
  0
MLEADERSTYLE
  5
5141F
102
{ACAD_REACTORS
330
5141E
102
}
330
5141E
100
AcDbMLeaderStyle
170
     2
171
     1
172
     0
 90
        2
 40
0.0
 41
0.0
173
     1
 91
-1056964608
340
12
 92
       -2
290
     1
 42
0.09
291
     1
 43
0.36
  3
Standard
 44
0.18
300

342
F
174
     1
178
     6
175
     1
176
     0
 93
-1056964608
 45
0.18
292
     0
297
     0
 46
0.18
 94
-1056964608
 47
1.0
 49
1.0
140
1.0
293
     1
141
0.0
294
     1
177
     0
142
1.0
295
     0
296
     0
143
0.125
1001
ACAD_MLEADERVER
1070
     2
  0
MLINESTYLE
  5
1C
102
{ACAD_REACTORS
330
1B
102
}
330
1B
100
AcDbMlineStyle
  2
STANDARD
 70
     0
  3

 62
   256
 51
90.0
 52
90.0
 71
     2
 49
0.5
 62
   256
  6
BYLAYER
 49
-0.5
 62
   256
  6
BYLAYER
  0
ACDBPLACEHOLDER
  5
21F0
102
{ACAD_REACTORS
330
21EF
102
}
330
21EF
  0
SCALE
  5
513FD
102
{ACAD_REACTORS
330
513FC
102
}
330
513FC
100
AcDbScale
 70
     0
300
1:1
140
1.0
141
1.0
290
     1
  0
SCALE
  5
513FE
102
{ACAD_REACTORS
330
513FC
102
}
330
513FC
100
AcDbScale
 70
     0
300
1:2
140
1.0
141
2.0
290
     0
  0
SCALE
  5
513FF
102
{ACAD_REACTORS
330
513FC
102
}
330
513FC
100
AcDbScale
 70
     0
300
1:4
140
1.0
141
4.0
290
     0
  0
SCALE
  5
51400
102
{ACAD_REACTORS
330
513FC
102
}
330
513FC
100
AcDbScale
 70
     0
300
1:5
140
1.0
141
5.0
290
     0
  0
SCALE
  5
51401
102
{ACAD_REACTORS
330
513FC
102
}
330
513FC
100
AcDbScale
 70
     0
300
1:8
140
1.0
141
8.0
290
     0
  0
SCALE
  5
51402
102
{ACAD_REACTORS
330
513FC
102
}
330
513FC
100
AcDbScale
 70
     0
300
1:10
140
1.0
141
10.0
290
     0
  0
SCALE
  5
51403
102
{ACAD_REACTORS
330
513FC
102
}
330
513FC
100
AcDbScale
 70
     0
300
1:16
140
1.0
141
16.0
290
     0
  0
SCALE
  5
51404
102
{ACAD_REACTORS
330
513FC
102
}
330
513FC
100
AcDbScale
 70
     0
300
1:20
140
1.0
141
20.0
290
     0
  0
SCALE
  5
51405
102
{ACAD_REACTORS
330
513FC
102
}
330
513FC
100
AcDbScale
 70
     0
300
1:30
140
1.0
141
30.0
290
     0
  0
SCALE
  5
51406
102
{ACAD_REACTORS
330
513FC
102
}
330
513FC
100
AcDbScale
 70
     0
300
1:40
140
1.0
141
40.0
290
     0
  0
SCALE
  5
51407
102
{ACAD_REACTORS
330
513FC
102
}
330
513FC
100
AcDbScale
 70
     0
300
1:50
140
1.0
141
50.0
290
     0
  0
SCALE
  5
51408
102
{ACAD_REACTORS
330
513FC
102
}
330
513FC
100
AcDbScale
 70
     0
300
1:100
140
1.0
141
100.0
290
     0
  0
SCALE
  5
51409
102
{ACAD_REACTORS
330
513FC
102
}
330
513FC
100
AcDbScale
 70
     0
300
2:1
140
2.0
141
1.0
290
     0
  0
SCALE
  5
5140A
102
{ACAD_REACTORS
330
513FC
102
}
330
513FC
100
AcDbScale
 70
     0
300
4:1
140
4.0
141
1.0
290
     0
  0
SCALE
  5
5140B
102
{ACAD_REACTORS
330
513FC
102
}
330
513FC
100
AcDbScale
 70
     0
300
8:1
140
8.0
141
1.0
290
     0
  0
SCALE
  5
5140C
102
{ACAD_REACTORS
330
513FC
102
}
330
513FC
100
AcDbScale
 70
     0
300
10:1
140
10.0
141
1.0
290
     0
  0
SCALE
  5
5140D
102
{ACAD_REACTORS
330
513FC
102
}
330
513FC
100
AcDbScale
 70
     0
300
100:1
140
100.0
141
1.0
290
     0
  0
SCALE
  5
5140E
102
{ACAD_REACTORS
330
513FC
102
}
330
513FC
100
AcDbScale
 70
     0
300
1/128" = 1'-0"
140
0.0078125
141
12.0
290
     0
  0
SCALE
  5
5140F
102
{ACAD_REACTORS
330
513FC
102
}
330
513FC
100
AcDbScale
 70
     0
300
1/64" = 1'-0"
140
0.015625
141
12.0
290
     0
  0
SCALE
  5
51410
102
{ACAD_REACTORS
330
513FC
102
}
330
513FC
100
AcDbScale
 70
     0
300
1/32" = 1'-0"
140
0.03125
141
12.0
290
     0
  0
SCALE
  5
51411
102
{ACAD_REACTORS
330
513FC
102
}
330
513FC
100
AcDbScale
 70
     0
300
1/16" = 1'-0"
140
0.0625
141
12.0
290
     0
  0
SCALE
  5
51412
102
{ACAD_REACTORS
330
513FC
102
}
330
513FC
100
AcDbScale
 70
     0
300
3/32" = 1'-0"
140
0.09375
141
12.0
290
     0
  0
SCALE
  5
51413
102
{ACAD_REACTORS
330
513FC
102
}
330
513FC
100
AcDbScale
 70
     0
300
1/8" = 1'-0"
140
0.125
141
12.0
290
     0
  0
SCALE
  5
51414
102
{ACAD_REACTORS
330
513FC
102
}
330
513FC
100
AcDbScale
 70
     0
300
3/16" = 1'-0"
140
0.1875
141
12.0
290
     0
  0
SCALE
  5
51415
102
{ACAD_REACTORS
330
513FC
102
}
330
513FC
100
AcDbScale
 70
     0
300
1/4" = 1'-0"
140
0.25
141
12.0
290
     0
  0
SCALE
  5
51416
102
{ACAD_REACTORS
330
513FC
102
}
330
513FC
100
AcDbScale
 70
     0
300
3/8" = 1'-0"
140
0.375
141
12.0
290
     0
  0
SCALE
  5
51417
102
{ACAD_REACTORS
330
513FC
102
}
330
513FC
100
AcDbScale
 70
     0
300
1/2" = 1'-0"
140
0.5
141
12.0
290
     0
  0
SCALE
  5
51418
102
{ACAD_REACTORS
330
513FC
102
}
330
513FC
100
AcDbScale
 70
     0
300
3/4" = 1'-0"
140
0.75
141
12.0
290
     0
  0
SCALE
  5
51419
102
{ACAD_REACTORS
330
513FC
102
}
330
513FC
100
AcDbScale
 70
     0
300
1" = 1'-0"
140
1.0
141
12.0
290
     0
  0
SCALE
  5
5141A
102
{ACAD_REACTORS
330
513FC
102
}
330
513FC
100
AcDbScale
 70
     0
300
1-1/2" = 1'-0"
140
1.5
141
12.0
290
     0
  0
SCALE
  5
5141B
102
{ACAD_REACTORS
330
513FC
102
}
330
513FC
100
AcDbScale
 70
     0
300
3" = 1'-0"
140
3.0
141
12.0
290
     0
  0
SCALE
  5
5141C
102
{ACAD_REACTORS
330
513FC
102
}
330
513FC
100
AcDbScale
 70
     0
300
6" = 1'-0"
140
6.0
141
12.0
290
     0
  0
SCALE
  5
5141D
102
{ACAD_REACTORS
330
513FC
102
}
330
513FC
100
AcDbScale
 70
     0
300
1'-0" = 1'-0"
140
12.0
141
12.0
290
     0
  0
ACDBSECTIONVIEWSTYLE
  5
99247
102
{ACAD_XDICTIONARY
360
99607
102
}
102
{ACAD_REACTORS
330
99246
102
}
330
99246
100
AcDbModelDocViewStyle
 70
     0
  3
Imperial24
290
     0
100
AcDbSectionViewStyle
 70
     0
 71
     0
 90
       78
 71
     1
340
F
 40
0.24
340
0
340
0
 40
0.24
300
I, O, Q, S, X, Z
 40
0.48
 90
        3
 40
0.18
 90
        1
 71
     2
340
14
 90
       25
340
14
 90
       50
 40
0.24
 40
0.0
 40
0.24
 71
     3
340
F
 40
0.24
 90
        1
 40
0.75
 90
        1
300
%<\AcVar ViewType \f "%tc1">% %<\AcVar ViewSectionStartId>%-%<\AcVar ViewSectionEndId>%\PSCALE %<\AcVar ViewScale \f "%sn">%
 71
     4
300
ANSI31
 40
1.0
 90
        0
290
     0
290
     0
 90
        6
 40
0.0
 40
1.570796326794896
 40
0.2617993877991494
 40
1.308996938995747
 40
-0.2617993877991494
 40
1.832595714594045
  0
TABLESTYLE
  5
513FB
102
{ACAD_XDICTIONARY
360
5147A
102
}
102
{ACAD_REACTORS
330
513FA
102
}
330
513FA
100
AcDbTableStyle
  3
Standard
 70
     0
 71
     0
 40
0.06
 41
0.06
280
     0
281
     0
  7
STANDARD
140
0.18
170
     2
 62
     0
 63
     7
283
     0
274
    -2
284
     1
 64
     0
275
    -2
285
     1
 65
     0
276
    -2
286
     1
 66
     0
277
    -2
287
     1
 67
     0
278
    -2
288
     1
 68
     0
279
    -2
289
     1
 69
     0
  7
STANDARD
140
0.25
170
     5
 62
     0
 63
     7
283
     0
274
    -2
284
     1
 64
     0
275
    -2
285
     1
 65
     0
276
    -2
286
     1
 66
     0
277
    -2
287
     1
 67
     0
278
    -2
288
     1
 68
     0
279
    -2
289
     1
 69
     0
  7
STANDARD
140
0.18
170
     5
 62
     0
 63
     7
283
     0
274
    -2
284
     1
 64
     0
275
    -2
285
     1
 65
     0
276
    -2
286
     1
 66
     0
277
    -2
287
     1
 67
     0
278
    -2
288
     1
 68
     0
279
    -2
289
     1
 69
     0
  0
VISUALSTYLE
  5
513EE
102
{ACAD_XDICTIONARY
360
995DC
102
}
102
{ACAD_REACTORS
330
513E8
102
}
330
513E8
100
AcDbVisualStyle
  2

 70
     4
 71
     0
 72
     2
 73
     0
 90
        0
 40
-0.6
 41
-30.0
 62
     5
 63
     7
 74
     1
 91
        4
 64
     7
 65
   257
 75
     1
175
     1
 42
1.0
 92
        0
 66
   257
 43
1.0
 76
     1
 77
     6
 78
     2
 67
     7
 79
     5
170
     0
171
     0
290
     0
174
     0
 93
        1
 44
0.0
173
     0
291
     0
 45
0.0
1001
ACAD
1000
AcDbSavedByObjectVersion
1070
     0
  0
VISUALSTYLE
  5
513F0
102
{ACAD_XDICTIONARY
360
995E0
102
}
102
{ACAD_REACTORS
330
513E8
102
}
330
513E8
100
AcDbVisualStyle
  2

 70
     6
 71
     1
 72
     2
 73
     2
 90
        0
 40
-0.6
 41
-30.0
 62
     5
 63
     7
 74
     2
 91
        2
 64
     7
 65
   257
 75
     2
175
     1
 42
40.0
 92
        0
 66
   257
 43
1.0
 76
     1
 77
     6
 78
     2
 67
     7
 79
     3
170
     0
171
     0
290
     0
174
     0
 93
        1
 44
0.0
173
     0
291
     0
 45
0.0
1001
ACAD
1000
AcDbSavedByObjectVersion
1070
     0
  0
VISUALSTYLE
  5
513EF
102
{ACAD_XDICTIONARY
360
995DE
102
}
102
{ACAD_REACTORS
330
513E8
102
}
330
513E8
100
AcDbVisualStyle
  2

 70
     5
 71
     0
 72
     2
 73
     0
 90
        0
 40
-0.6
 41
-30.0
 62
     5
 63
     7
 74
     1
 91
        4
 64
     7
 65
   257
 75
     1
175
     1
 42
1.0
 92
        0
 66
   257
 43
1.0
 76
     1
 77
     6
 78
     2
 67
     7
 79
     5
170
     0
171
     0
290
     0
174
     0
 93
        1
 44
0.0
173
     0
291
     0
 45
0.0
1001
ACAD
1000
AcDbSavedByObjectVersion
1070
     0
  0
VISUALSTYLE
  5
513ED
102
{ACAD_XDICTIONARY
360
995DA
102
}
102
{ACAD_REACTORS
330
513E8
102
}
330
513E8
100
AcDbVisualStyle
  2

 70
     7
 71
     1
 72
     0
 73
     1
 90
        0
 40
-0.6
 41
-30.0
 62
     5
 63
     7
 74
     0
 91
        4
 64
     7
 65
   257
 75
     1
175
     1
 42
1.0
 92
        8
 66
     7
 43
1.0
 76
     1
 77
     6
 78
     2
 67
     7
 79
     5
170
     0
171
     0
290
     0
174
     0
 93
        1
 44
0.0
173
     0
291
     1
 45
0.0
1001
ACAD
1000
AcDbSavedByObjectVersion
1070
     0
  0
VISUALSTYLE
  5
513F4
102
{ACAD_XDICTIONARY
360
995E8
102
}
102
{ACAD_REACTORS
330
513E8
102
}
330
513E8
100
AcDbVisualStyle
  2

 70
    12
 71
     2
 72
     2
 73
     0
 90
        0
 40
-0.6
 41
-30.0
 62
     5
 63
     7
 74
     1
 91
        4
 64
     7
 65
   257
 75
     1
175
     1
 42
1.0
 92
        8
 66
     7
 43
1.0
 76
     1
 77
     6
 78
     2
 67
     7
 79
     5
170
     0
171
     0
290
     0
174
     0
 93
        1
 44
50.0
173
     0
291
     1
 45
0.0
1001
ACAD
1000
AcDbSavedByObjectVersion
1070
     0
  0
VISUALSTYLE
  5
513F8
102
{ACAD_XDICTIONARY
360
995F0
102
}
102
{ACAD_REACTORS
330
513E8
102
}
330
513E8
100
AcDbVisualStyle
  2

 70
    16
 71
     2
 72
     2
 73
     3
 90
        0
 40
-0.6
 41
-30.0
 62
     5
 63
     8
 74
     1
 91
        4
 64
     7
 65
   257
 75
     1
175
     1
 42
1.0
 92
        8
 66
     8
 43
1.0
 76
     1
 77
     6
 78
     2
 67
     7
 79
     5
170
     0
171
     0
290
     0
174
     0
 93
        1
 44
0.0
173
     0
291
     1
 45
0.0
1001
ACAD
1000
AcDbSavedByObjectVersion
1070
     0
  0
VISUALSTYLE
  5
513F1
102
{ACAD_XDICTIONARY
360
995E2
102
}
102
{ACAD_REACTORS
330
513E8
102
}
330
513E8
100
AcDbVisualStyle
  2

 70
     9
 71
     3
 72
     2
 73
     0
 90
        0
 40
-0.6
 41
-30.0
 62
     5
 63
     7
 74
     2
 91
        2
 64
     7
 65
   257
 75
     1
175
     1
 42
40.0
 92
        8
 66
     7
 43
1.0
 76
     1
 77
     6
 78
     2
 67
     7
 79
     3
170
     0
171
     0
290
     0
174
     0
 93
        1
 44
0.0
173
     0
291
     0
 45
0.0
1001
ACAD
1000
AcDbSavedByObjectVersion
1070
     0
  0
VISUALSTYLE
  5
513F3
102
{ACAD_XDICTIONARY
360
995E6
102
}
102
{ACAD_REACTORS
330
513E8
102
}
330
513E8
100
AcDbVisualStyle
  2

 70
    11
 71
     2
 72
     2
 73
     0
 90
        0
 40
-0.6
 41
-30.0
 62
     5
 63
     7
 74
     1
 91
        4
 64
     7
 65
   257
 75
     1
175
     1
 42
1.0
 92
        8
 66
     7
 43
1.0
 76
     1
 77
     6
 78
     2
 67
     7
 79
     5
170
     0
171
     0
290
     0
174
     0
 93
        1
 44
-50.0
173
     0
291
     1
 45
0.0
1001
ACAD
1000
AcDbSavedByObjectVersion
1070
     0
  0
VISUALSTYLE
  5
70D09
102
{ACAD_XDICTIONARY
360
99605
102
}
102
{ACAD_REACTORS
330
513E8
102
}
330
513E8
100
AcDbVisualStyle
  2

 70
    22
 71
     2
 72
     2
 73
     0
 90
        0
 40
-0.6
 41
-30.0
 62
     5
 63
     7
 74
     1
 91
        4
 64
     7
 65
   257
 75
     1
175
     1
 42
1.0
 92
        8
 66
     7
 43
1.0
 76
     1
 77
     6
 78
     2
 67
     7
 79
     5
170
     0
171
     0
290
     0
174
     0
 93
        1
 44
0.0
173
     0
291
     1
 45
0.0
1001
ACAD
1000
AcDbSavedByObjectVersion
1070
     0
  0
VISUALSTYLE
  5
513F7
102
{ACAD_XDICTIONARY
360
995EE
102
}
102
{ACAD_REACTORS
330
513E8
102
}
330
513E8
100
AcDbVisualStyle
  2

 70
    15
 71
     2
 72
     2
 73
     0
 90
        0
 40
-0.6
 41
-30.0
 62
     5
 63
     7
 74
     1
 91
        4
 64
     7
 65
   257
 75
     1
175
     1
 42
1.0
 92
        8
 66
     7
 43
1.0
 76
     1
 77
     6
 78
     2
 67
     7
 79
     5
170
     0
171
     0
290
     0
174
     0
 93
        1
 44
0.0
173
     0
291
     1
 45
0.0
1001
ACAD
1000
AcDbSavedByObjectVersion
1070
     0
  0
VISUALSTYLE
  5
513E9
102
{ACAD_XDICTIONARY
360
995D2
102
}
102
{ACAD_REACTORS
330
513E8
102
}
330
513E8
100
AcDbVisualStyle
  2

 70
     0
 71
     2
 72
     1
 73
     1
 90
        2
 40
-0.6
 41
30.0
 62
     5
 63
     7
 74
     0
 91
        4
 64
     7
 65
   257
 75
     1
175
     1
 42
1.0
 92
        8
 66
     7
 43
1.0
 76
     1
 77
     6
 78
     2
 67
     7
 79
     5
170
     0
171
     0
290
     0
174
     0
 93
       13
 44
0.0
173
     0
291
     1
 45
0.0
1001
ACAD
1000
AcDbSavedByObjectVersion
1070
     0
  0
VISUALSTYLE
  5
513EA
102
{ACAD_XDICTIONARY
360
995D4
102
}
102
{ACAD_REACTORS
330
513E8
102
}
330
513E8
100
AcDbVisualStyle
  2

 70
     1
 71
     2
 72
     1
 73
     1
 90
        2
 40
-0.6
 41
30.0
 62
     5
 63
     7
 74
     1
 91
        4
 64
     7
 65
   257
 75
     1
175
     1
 42
1.0
 92
        0
 66
   257
 43
1.0
 76
     1
 77
     6
 78
     2
 67
     7
 79
     5
170
     0
171
     0
290
     0
174
     0
 93
       13
 44
0.0
173
     0
291
     1
 45
0.0
1001
ACAD
1000
AcDbSavedByObjectVersion
1070
     0
  0
VISUALSTYLE
  5
513EB
102
{ACAD_XDICTIONARY
360
995D6
102
}
102
{ACAD_REACTORS
330
513E8
102
}
330
513E8
100
AcDbVisualStyle
  2

 70
     2
 71
     2
 72
     2
 73
     1
 90
        2
 40
-0.6
 41
30.0
 62
     5
 63
     7
 74
     0
 91
        4
 64
     7
 65
   257
 75
     1
175
     1
 42
1.0
 92
        0
 66
     7
 43
1.0
 76
     1
 77
     6
 78
     2
 67
     7
 79
     5
170
     0
171
     0
290
     0
174
     0
 93
       13
 44
0.0
173
     0
291
     1
 45
0.0
1001
ACAD
1000
AcDbSavedByObjectVersion
1070
     0
  0
VISUALSTYLE
  5
513EC
102
{ACAD_XDICTIONARY
360
995D8
102
}
102
{ACAD_REACTORS
330
513E8
102
}
330
513E8
100
AcDbVisualStyle
  2

 70
     3
 71
     2
 72
     2
 73
     1
 90
        2
 40
-0.6
 41
30.0
 62
     5
 63
     7
 74
     1
 91
        4
 64
     7
 65
   257
 75
     1
175
     1
 42
1.0
 92
        0
 66
   257
 43
1.0
 76
     1
 77
     6
 78
     2
 67
     7
 79
     5
170
     0
171
     0
290
     0
174
     0
 93
       13
 44
0.0
173
     0
291
     1
 45
0.0
1001
ACAD
1000
AcDbSavedByObjectVersion
1070
     0
  0
VISUALSTYLE
  5
70D01
102
{ACAD_XDICTIONARY
360
995F5
102
}
102
{ACAD_REACTORS
330
513E8
102
}
330
513E8
100
AcDbVisualStyle
  2

 70
     6
 71
     1
 72
     2
 73
     2
 90
        0
 40
-0.6
 41
-30.0
 62
     5
 63
     7
 74
     2
 91
        2
 64
     7
 65
   257
 75
     2
175
     1
 42
40.0
 92
        0
 66
   257
 43
1.0
 76
     1
 77
     6
 78
     2
 67
     7
 79
     3
170
     0
171
     0
290
     0
174
     0
 93
        1
 44
0.0
173
     0
291
     0
 45
0.0
1001
ACAD
1000
AcDbSavedByObjectVersion
1070
     0
  0
VISUALSTYLE
  5
70D07
102
{ACAD_XDICTIONARY
360
99601
102
}
102
{ACAD_REACTORS
330
513E8
102
}
330
513E8
100
AcDbVisualStyle
  2

 70
    20
 71
     2
 72
     2
 73
     0
 90
        0
 40
-0.6
 41
-30.0
 62
     5
 63
     7
 74
     1
 91
        4
 64
     7
 65
   257
 75
     1
175
     1
 42
1.0
 92
       10
 66
     7
 43
1.0
 76
     1
 77
     6
 78
     2
 67
     7
 79
     5
170
     0
171
     0
290
     0
174
     0
 93
        1
 44
0.0
173
     0
291
     1
 45
0.0
1001
ACAD
1000
AcDbSavedByObjectVersion
1070
     0
  0
VISUALSTYLE
  5
513F6
102
{ACAD_XDICTIONARY
360
995EC
102
}
102
{ACAD_REACTORS
330
513E8
102
}
330
513E8
100
AcDbVisualStyle
  2

 70
    14
 71
     2
 72
     2
 73
     0
 90
        0
 40
-0.6
 41
-30.0
 62
     5
 63
     7
 74
     1
 91
        4
 64
     7
 65
   257
 75
     7
175
     7
 42
1.0
 92
        8
 66
     7
 43
1.0
 76
     1
 77
     6
 78
     2
 67
     7
 79
     5
170
     0
171
     0
290
     0
174
     0
 93
        1
 44
0.0
173
     0
291
     1
 45
0.0
1001
ACAD
1000
AcDbSavedByObjectVersion
1070
     0
  0
VISUALSTYLE
  5
70D08
102
{ACAD_XDICTIONARY
360
99603
102
}
102
{ACAD_REACTORS
330
513E8
102
}
330
513E8
100
AcDbVisualStyle
  2

 70
    21
 71
     2
 72
     2
 73
     0
 90
        0
 40
-0.6
 41
-30.0
 62
     5
 63
     7
 74
     1
 91
        4
 64
     7
 65
   257
 75
     1
175
     1
 42
1.0
 92
        9
 66
     7
 43
1.0
 76
     1
 77
     6
 78
     2
 67
     7
 79
     5
170
     0
171
     0
290
     0
174
     0
 93
        1
 44
0.0
173
     0
291
     1
 45
0.0
1001
ACAD
1000
AcDbSavedByObjectVersion
1070
     0
  0
VISUALSTYLE
  5
513F2
102
{ACAD_XDICTIONARY
360
995E4
102
}
102
{ACAD_REACTORS
330
513E8
102
}
330
513E8
100
AcDbVisualStyle
  2

 70
     8
 71
     2
 72
     2
 73
     0
 90
        0
 40
-0.6
 41
-30.0
 62
     5
 63
     7
 74
     1
 91
        0
 64
     7
 65
   257
 75
     1
175
     1
 42
1.0
 92
        8
 66
     8
 43
1.0
 76
     1
 77
     6
 78
     2
 67
     7
 79
     5
170
     0
171
     0
290
     0
174
     0
 93
       13
 44
0.0
173
     0
291
     0
 45
0.0
1001
ACAD
1000
AcDbSavedByObjectVersion
1070
     0
  0
VISUALSTYLE
  5
70D06
102
{ACAD_XDICTIONARY
360
995FF
102
}
102
{ACAD_REACTORS
330
513E8
102
}
330
513E8
100
AcDbVisualStyle
  2

 70
    27
 71
     2
 72
     2
 73
     1
 90
        2
 40
-0.6
 41
30.0
 62
     5
 63
     7
 74
     0
 91
        4
 64
     7
 65
   257
 75
     1
175
     1
 42
1.0
 92
        8
 66
   257
 43
1.0
 76
     1
 77
     6
 78
     2
 67
     8
 79
     3
170
     0
171
     0
290
     0
174
     0
 93
        5
 44
0.0
173
     0
291
     0
 45
0.0
1001
ACAD
1000
AcDbSavedByObjectVersion
1070
     0
  0
VISUALSTYLE
  5
70D05
102
{ACAD_XDICTIONARY
360
995FD
102
}
102
{ACAD_REACTORS
330
513E8
102
}
330
513E8
100
AcDbVisualStyle
  2

 70
    26
 71
     2
 72
     2
 73
     1
 90
        2
 40
-0.6
 41
30.0
 62
     5
 63
     7
 74
     1
 91
        2
 64
     7
 65
   257
 75
     2
175
     1
 42
1.0
 92
        8
 66
   257
 43
1.0
 76
     1
 77
     6
 78
     2
 67
     7
 79
     3
170
     0
171
     0
290
     0
174
     0
 93
        5
 44
0.0
173
     0
291
     0
 45
0.0
1001
ACAD
1000
AcDbSavedByObjectVersion
1070
     0
  0
VISUALSTYLE
  5
70D02
102
{ACAD_XDICTIONARY
360
995F7
102
}
102
{ACAD_REACTORS
330
513E8
102
}
330
513E8
100
AcDbVisualStyle
  2

 70
    23
 71
     2
 72
     2
 73
     3
 90
        0
 40
-0.6
 41
-30.0
 62
     5
 63
     7
 74
     2
 91
        2
 64
     7
 65
     7
 75
     1
175
     1
 42
40.0
 92
        8
 66
     7
 43
1.0
 76
     1
 77
     6
 78
     2
 67
     7
 79
     3
170
     0
171
     0
290
     0
174
     0
 93
        1
 44
0.0
173
     0
291
     0
 45
0.0
1001
ACAD
1000
AcDbSavedByObjectVersion
1070
     0
  0
VISUALSTYLE
  5
70D03
102
{ACAD_XDICTIONARY
360
995F9
102
}
102
{ACAD_REACTORS
330
513E8
102
}
330
513E8
100
AcDbVisualStyle
  2

 70
    24
 71
     1
 72
     2
 73
     2
 90
        0
 40
-0.6
 41
-30.0
 62
     5
 63
     7
 74
     2
 91
        2
 64
     7
 65
     7
 75
     1
175
     1
 42
40.0
 92
       11
 66
     7
 43
1.0
 76
     1
 77
     6
 78
     2
 67
     7
 79
     6
170
     0
171
     0
290
     0
174
     0
 93
        1
 44
0.0
173
     0
291
     0
 45
0.0
1001
ACAD
1000
AcDbSavedByObjectVersion
1070
     0
  0
VISUALSTYLE
  5
513F5
102
{ACAD_XDICTIONARY
360
995EA
102
}
102
{ACAD_REACTORS
330
513E8
102
}
330
513E8
100
AcDbVisualStyle
  2

 70
    13
 71
     2
 72
     2
 73
     0
 90
        0
 40
-0.6
 41
-30.0
 62
     5
 63
     7
 74
     1
 91
        4
 64
     7
 65
   257
 75
     1
175
     1
 42
1.0
 92
       12
 66
     7
 43
1.0
 76
     1
 77
     6
 78
     2
 67
     7
 79
     5
170
     0
171
     0
290
     0
174
     0
 93
        1
 44
0.0
173
     0
291
     1
 45
0.0
1001
ACAD
1000
AcDbSavedByObjectVersion
1070
     0
  0
VISUALSTYLE
  5
70D00
102
{ACAD_XDICTIONARY
360
995F3
102
}
102
{ACAD_REACTORS
330
513E8
102
}
330
513E8
100
AcDbVisualStyle
  2

 70
     5
 71
     0
 72
     2
 73
     0
 90
        0
 40
-0.6
 41
-30.0
 62
     5
 63
     7
 74
     1
 91
        4
 64
     7
 65
   257
 75
     1
175
     1
 42
1.0
 92
        0
 66
   257
 43
1.0
 76
     1
 77
     6
 78
     2
 67
     7
 79
     3
170
     0
171
     0
290
     0
174
     0
 93
        1
 44
0.0
173
     0
291
     0
 45
0.0
1001
ACAD
1000
AcDbSavedByObjectVersion
1070
     0
  0
VISUALSTYLE
  5
70D04
102
{ACAD_XDICTIONARY
360
995FB
102
}
102
{ACAD_REACTORS
330
513E8
102
}
330
513E8
100
AcDbVisualStyle
  2

 70
    25
 71
     2
 72
     2
 73
     1
 90
        1
 40
0.5
 41
-30.0
 62
     5
 63
     7
 74
     1
 91
        0
 64
     7
 65
   257
 75
     1
175
     1
 42
1.0
 92
        8
 66
     7
 43
1.0
 76
     1
 77
     6
 78
     2
 67
     7
 79
     3
170
     0
171
     0
290
     0
174
     0
 93
       13
 44
0.0
173
     0
291
     0
 45
0.0
1001
ACAD
1000
AcDbSavedByObjectVersion
1070
     0
  0
DICTIONARYVAR
  5
51480
102
{ACAD_REACTORS
330
28B1
102
}
330
28B1
100
DictionaryVariables
280
     0
  1
1:1
  0
DICTIONARYVAR
  5
5147E
102
{ACAD_REACTORS
330
28B1
102
}
330
28B1
100
DictionaryVariables
280
     0
  1
STANDARD
  0
DICTIONARYVAR
  5
5147D
102
{ACAD_REACTORS
330
28B1
102
}
330
28B1
100
DictionaryVariables
280
     0
  1
STANDARD
  0
DICTIONARYVAR
  5
9957E
102
{ACAD_REACTORS
330
28B1
102
}
330
28B1
100
DictionaryVariables
280
     0
  1
Imperial24
  0
DICTIONARYVAR
  5
9957F
102
{ACAD_REACTORS
330
28B1
102
}
330
28B1
100
DictionaryVariables
280
     0
  1
Imperial24
  0
DICTIONARYVAR
  5
5135B
102
{ACAD_REACTORS
330
28B1
102
}
330
28B1
100
DictionaryVariables
280
     0
  1
1
  0
DICTIONARYVAR
  5
70D55
102
{ACAD_REACTORS
330
28B1
102
}
330
28B1
100
DictionaryVariables
280
     0
  1
0
  0
DICTIONARYVAR
  5
51481
102
{ACAD_REACTORS
330
28B1
102
}
330
28B1
100
DictionaryVariables
280
     0
  1
0
  0
DICTIONARYVAR
  5
5147F
102
{ACAD_REACTORS
330
28B1
102
}
330
28B1
100
DictionaryVariables
280
     0
  1
0
  0
DICTIONARYVAR
  5
70D57
102
{ACAD_REACTORS
330
28B1
102
}
330
28B1
100
DictionaryVariables
280
     0
  1
1
  0
DICTIONARYVAR
  5
28B2
102
{ACAD_REACTORS
330
28B1
102
}
330
28B1
100
DictionaryVariables
280
     0
  1
127
  0
DICTIONARYVAR
  5
995CA
102
{ACAD_REACTORS
330
28B1
102
}
330
28B1
100
DictionaryVariables
280
     0
  1
2
  0
DICTIONARY
  5
99609
330
99249
100
AcDbDictionary
280
     1
281
     1
  3
ACAD_XREC_ROUNDTRIP
360
9960A
  0
DICTIONARY
  5
995CE
330
21F3
100
AcDbDictionary
280
     1
281
     1
  3
ACAD_XREC_ROUNDTRIP
360
995CF
  0
DICTIONARY
  5
995D0
330
21F4
100
AcDbDictionary
280
     1
281
     1
  3
ACAD_XREC_ROUNDTRIP
360
995D1
  0
DICTIONARY
  5
513D9
330
513D8
100
AcDbDictionary
280
     1
281
     1
  3
ACAD_XREC_ROUNDTRIP
360
99589
  3
BUMPTILE
360
513DB
  3
DIFFUSETILE
360
513DA
  3
OPACITYTILE
360
513DE
  3
REFLECTIONTILE
360
513DD
  3
REFRACTIONTILE
360
513DF
  3
SPECULARTILE
360
513DC
  0
DICTIONARY
  5
513D1
330
513D0
100
AcDbDictionary
280
     1
281
     1
  3
ACAD_XREC_ROUNDTRIP
360
99588
  3
BUMPTILE
360
513D3
  3
DIFFUSETILE
360
513D2
  3
OPACITYTILE
360
513D6
  3
REFLECTIONTILE
360
513D5
  3
REFRACTIONTILE
360
513D7
  3
SPECULARTILE
360
513D4
  0
DICTIONARY
  5
513E1
330
513E0
100
AcDbDictionary
280
     1
281
     1
  3
ACAD_XREC_ROUNDTRIP
360
9958A
  3
BUMPTILE
360
513E3
  3
DIFFUSETILE
360
513E2
  3
OPACITYTILE
360
513E6
  3
REFLECTIONTILE
360
513E5
  3
REFRACTIONTILE
360
513E7
  3
SPECULARTILE
360
513E4
  0
DICTIONARY
  5
99607
330
99247
100
AcDbDictionary
280
     1
281
     1
  3
ACAD_XREC_ROUNDTRIP
360
99608
  0
DICTIONARY
  5
5147A
330
513FB
100
AcDbDictionary
280
     1
281
     1
  3
ACAD_ROUNDTRIP_2008_TABLESTYLE_CELLSTYLEMAP
360
995CB
  3
ACAD_XREC_ROUNDTRIP
360
995F2
  0
DICTIONARY
  5
995DC
330
513EE
100
AcDbDictionary
280
     1
281
     1
  3
ACAD_XREC_ROUNDTRIP
360
995DD
  0
DICTIONARY
  5
995E0
330
513F0
100
AcDbDictionary
280
     1
281
     1
  3
ACAD_XREC_ROUNDTRIP
360
995E1
  0
DICTIONARY
  5
995DE
330
513EF
100
AcDbDictionary
280
     1
281
     1
  3
ACAD_XREC_ROUNDTRIP
360
995DF
  0
DICTIONARY
  5
995DA
330
513ED
100
AcDbDictionary
280
     1
281
     1
  3
ACAD_XREC_ROUNDTRIP
360
995DB
  0
DICTIONARY
  5
995E8
330
513F4
100
AcDbDictionary
280
     1
281
     1
  3
ACAD_XREC_ROUNDTRIP
360
995E9
  0
DICTIONARY
  5
995F0
330
513F8
100
AcDbDictionary
280
     1
281
     1
  3
ACAD_XREC_ROUNDTRIP
360
995F1
  0
DICTIONARY
  5
995E2
330
513F1
100
AcDbDictionary
280
     1
281
     1
  3
ACAD_XREC_ROUNDTRIP
360
995E3
  0
DICTIONARY
  5
995E6
330
513F3
100
AcDbDictionary
280
     1
281
     1
  3
ACAD_XREC_ROUNDTRIP
360
995E7
  0
DICTIONARY
  5
99605
330
70D09
100
AcDbDictionary
280
     1
281
     1
  3
ACAD_XREC_ROUNDTRIP
360
99606
  0
DICTIONARY
  5
995EE
330
513F7
100
AcDbDictionary
280
     1
281
     1
  3
ACAD_XREC_ROUNDTRIP
360
995EF
  0
DICTIONARY
  5
995D2
330
513E9
100
AcDbDictionary
280
     1
281
     1
  3
ACAD_XREC_ROUNDTRIP
360
995D3
  0
DICTIONARY
  5
995D4
330
513EA
100
AcDbDictionary
280
     1
281
     1
  3
ACAD_XREC_ROUNDTRIP
360
995D5
  0
DICTIONARY
  5
995D6
330
513EB
100
AcDbDictionary
280
     1
281
     1
  3
ACAD_XREC_ROUNDTRIP
360
995D7
  0
DICTIONARY
  5
995D8
330
513EC
100
AcDbDictionary
280
     1
281
     1
  3
ACAD_XREC_ROUNDTRIP
360
995D9
  0
DICTIONARY
  5
995F5
330
70D01
100
AcDbDictionary
280
     1
281
     1
  3
ACAD_XREC_ROUNDTRIP
360
995F6
  0
DICTIONARY
  5
99601
330
70D07
100
AcDbDictionary
280
     1
281
     1
  3
ACAD_XREC_ROUNDTRIP
360
99602
  0
DICTIONARY
  5
995EC
330
513F6
100
AcDbDictionary
280
     1
281
     1
  3
ACAD_XREC_ROUNDTRIP
360
995ED
  0
DICTIONARY
  5
99603
330
70D08
100
AcDbDictionary
280
     1
281
     1
  3
ACAD_XREC_ROUNDTRIP
360
99604
  0
DICTIONARY
  5
995E4
330
513F2
100
AcDbDictionary
280
     1
281
     1
  3
ACAD_XREC_ROUNDTRIP
360
995E5
  0
DICTIONARY
  5
995FF
330
70D06
100
AcDbDictionary
280
     1
281
     1
  3
ACAD_XREC_ROUNDTRIP
360
99600
  0
DICTIONARY
  5
995FD
330
70D05
100
AcDbDictionary
280
     1
281
     1
  3
ACAD_XREC_ROUNDTRIP
360
995FE
  0
DICTIONARY
  5
995F7
330
70D02
100
AcDbDictionary
280
     1
281
     1
  3
ACAD_XREC_ROUNDTRIP
360
995F8
  0
DICTIONARY
  5
995F9
330
70D03
100
AcDbDictionary
280
     1
281
     1
  3
ACAD_XREC_ROUNDTRIP
360
995FA
  0
DICTIONARY
  5
995EA
330
513F5
100
AcDbDictionary
280
     1
281
     1
  3
ACAD_XREC_ROUNDTRIP
360
995EB
  0
DICTIONARY
  5
995F3
330
70D00
100
AcDbDictionary
280
     1
281
     1
  3
ACAD_XREC_ROUNDTRIP
360
995F4
  0
DICTIONARY
  5
995FB
330
70D04
100
AcDbDictionary
280
     1
281
     1
  3
ACAD_XREC_ROUNDTRIP
360
995FC
  0
XRECORD
  5
9960A
102
{ACAD_REACTORS
330
99609
102
}
330
99609
100
AcDbXrecord
280
     1
102
DISPLAYNAME
  1
Imperial24
102
FLAGS
 90
        0
  0
XRECORD
  5
995CF
102
{ACAD_REACTORS
330
995CE
102
}
330
995CE
100
AcDbXrecord
280
     1
102
SHADEPLOT
 70
     0
102
SHADEPLOTRESLEVEL
 70
     2
102
SHADEPLOTCUSTOMDPI
 70
   300
  0
XRECORD
  5
995D1
102
{ACAD_REACTORS
330
995D0
102
}
330
995D0
100
AcDbXrecord
280
     1
102
SHADEPLOT
 70
     0
102
SHADEPLOTRESLEVEL
 70
     2
102
SHADEPLOTCUSTOMDPI
 70
   300
  0
XRECORD
  5
99589
102
{ACAD_REACTORS
330
513D9
102
}
330
513D9
100
AcDbXrecord
280
     1
102
MATERIAL
148
0.0
149
0.0
149
0.0
 93
        0
 94
      127
282
     0
 72
     0
 77
     0
171
     0
175
     0
179
     0
273
     0
  0
XRECORD
  5
513DB
102
{ACAD_REACTORS
330
513D9
102
}
330
513D9
100
AcDbXrecord
280
     1
270
     1
271
     1
  0
XRECORD
  5
513DA
102
{ACAD_REACTORS
330
513D9
102
}
330
513D9
100
AcDbXrecord
280
     1
270
     1
271
     1
  0
XRECORD
  5
513DE
102
{ACAD_REACTORS
330
513D9
102
}
330
513D9
100
AcDbXrecord
280
     1
270
     1
271
     1
  0
XRECORD
  5
513DD
102
{ACAD_REACTORS
330
513D9
102
}
330
513D9
100
AcDbXrecord
280
     1
270
     1
271
     1
  0
XRECORD
  5
513DF
102
{ACAD_REACTORS
330
513D9
102
}
330
513D9
100
AcDbXrecord
280
     1
270
     1
271
     1
  0
XRECORD
  5
513DC
102
{ACAD_REACTORS
330
513D9
102
}
330
513D9
100
AcDbXrecord
280
     1
270
     1
271
     1
  0
XRECORD
  5
99588
102
{ACAD_REACTORS
330
513D1
102
}
330
513D1
100
AcDbXrecord
280
     1
102
MATERIAL
148
0.0
149
0.0
149
0.0
 93
        0
 94
      127
282
     0
 72
     0
 77
     0
171
     0
175
     0
179
     0
273
     0
  0
XRECORD
  5
513D3
102
{ACAD_REACTORS
330
513D1
102
}
330
513D1
100
AcDbXrecord
280
     1
270
     1
271
     1
  0
XRECORD
  5
513D2
102
{ACAD_REACTORS
330
513D1
102
}
330
513D1
100
AcDbXrecord
280
     1
270
     1
271
     1
  0
XRECORD
  5
513D6
102
{ACAD_REACTORS
330
513D1
102
}
330
513D1
100
AcDbXrecord
280
     1
270
     1
271
     1
  0
XRECORD
  5
513D5
102
{ACAD_REACTORS
330
513D1
102
}
330
513D1
100
AcDbXrecord
280
     1
270
     1
271
     1
  0
XRECORD
  5
513D7
102
{ACAD_REACTORS
330
513D1
102
}
330
513D1
100
AcDbXrecord
280
     1
270
     1
271
     1
  0
XRECORD
  5
513D4
102
{ACAD_REACTORS
330
513D1
102
}
330
513D1
100
AcDbXrecord
280
     1
270
     1
271
     1
  0
XRECORD
  5
9958A
102
{ACAD_REACTORS
330
513E1
102
}
330
513E1
100
AcDbXrecord
280
     1
102
MATERIAL
148
0.0
149
0.0
149
0.0
 93
        0
 94
      127
282
     0
 72
     0
 77
     0
171
     0
175
     0
179
     0
273
     0
  0
XRECORD
  5
513E3
102
{ACAD_REACTORS
330
513E1
102
}
330
513E1
100
AcDbXrecord
280
     1
270
     1
271
     1
  0
XRECORD
  5
513E2
102
{ACAD_REACTORS
330
513E1
102
}
330
513E1
100
AcDbXrecord
280
     1
270
     1
271
     1
  0
XRECORD
  5
513E6
102
{ACAD_REACTORS
330
513E1
102
}
330
513E1
100
AcDbXrecord
280
     1
270
     1
271
     1
  0
XRECORD
  5
513E5
102
{ACAD_REACTORS
330
513E1
102
}
330
513E1
100
AcDbXrecord
280
     1
270
     1
271
     1
  0
XRECORD
  5
513E7
102
{ACAD_REACTORS
330
513E1
102
}
330
513E1
100
AcDbXrecord
280
     1
270
     1
271
     1
  0
XRECORD
  5
513E4
102
{ACAD_REACTORS
330
513E1
102
}
330
513E1
100
AcDbXrecord
280
     1
270
     1
271
     1
  0
XRECORD
  5
99608
102
{ACAD_REACTORS
330
99607
102
}
330
99607
100
AcDbXrecord
280
     1
102
DISPLAYNAME
  1
Imperial24
102
FLAGS
 90
        0
  0
CELLSTYLEMAP
  5
995CB
102
{ACAD_REACTORS
330
5147A
102
}
330
5147A
100
AcDbCellStyleMap
 90
        3
300
CELLSTYLE
  1
TABLEFORMAT_BEGIN
 90
        5
170
     1
 91
        0
 92
    32768
 62
   257
 93
        1
300
CONTENTFORMAT
  1
CONTENTFORMAT_BEGIN
 90
        0
 91
        0
 92
      512
 93
        0
300

 40
0.0
140
1.0
 94
        5
 62
     0
340
F
144
0.25
309
CONTENTFORMAT_END
171
     1
301
MARGIN
  1
CELLMARGIN_BEGIN
 40
0.06
 40
0.06
 40
0.06
 40
0.06
 40
0.18
 40
0.18
309
CELLMARGIN_END
 94
        6
 95
        1
302
GRIDFORMAT
  1
GRIDFORMAT_BEGIN
 90
        0
 91
        1
 62
     0
 92
       -2
340
0
 93
        0
 40
0.045
309
GRIDFORMAT_END
 95
        2
302
GRIDFORMAT
  1
GRIDFORMAT_BEGIN
 90
        0
 91
        1
 62
     0
 92
       -2
340
0
 93
        0
 40
0.045
309
GRIDFORMAT_END
 95
        4
302
GRIDFORMAT
  1
GRIDFORMAT_BEGIN
 90
        0
 91
        1
 62
     0
 92
       -2
340
0
 93
        0
 40
0.045
309
GRIDFORMAT_END
 95
        8
302
GRIDFORMAT
  1
GRIDFORMAT_BEGIN
 90
        0
 91
        1
 62
     0
 92
       -2
340
0
 93
        0
 40
0.045
309
GRIDFORMAT_END
 95
       16
302
GRIDFORMAT
  1
GRIDFORMAT_BEGIN
 90
        0
 91
        1
 62
     0
 92
       -2
340
0
 93
        0
 40
0.045
309
GRIDFORMAT_END
 95
       32
302
GRIDFORMAT
  1
GRIDFORMAT_BEGIN
 90
        0
 91
        1
 62
     0
 92
       -2
340
0
 93
        0
 40
0.045
309
GRIDFORMAT_END
309
TABLEFORMAT_END
  1
CELLSTYLE_BEGIN
 90
        1
 91
        1
300
_TITLE
309
CELLSTYLE_END
300
CELLSTYLE
  1
TABLEFORMAT_BEGIN
 90
        5
170
     1
 91
        0
 92
        0
 62
   257
 93
        1
300
CONTENTFORMAT
  1
CONTENTFORMAT_BEGIN
 90
        0
 91
        0
 92
      512
 93
        0
300

 40
0.0
140
1.0
 94
        5
 62
     0
340
F
144
0.18
309
CONTENTFORMAT_END
171
     1
301
MARGIN
  1
CELLMARGIN_BEGIN
 40
0.06
 40
0.06
 40
0.06
 40
0.06
 40
0.18
 40
0.18
309
CELLMARGIN_END
 94
        6
 95
        1
302
GRIDFORMAT
  1
GRIDFORMAT_BEGIN
 90
        0
 91
        1
 62
     0
 92
       -2
340
0
 93
        0
 40
0.045
309
GRIDFORMAT_END
 95
        2
302
GRIDFORMAT
  1
GRIDFORMAT_BEGIN
 90
        0
 91
        1
 62
     0
 92
       -2
340
0
 93
        0
 40
0.045
309
GRIDFORMAT_END
 95
        4
302
GRIDFORMAT
  1
GRIDFORMAT_BEGIN
 90
        0
 91
        1
 62
     0
 92
       -2
340
0
 93
        0
 40
0.045
309
GRIDFORMAT_END
 95
        8
302
GRIDFORMAT
  1
GRIDFORMAT_BEGIN
 90
        0
 91
        1
 62
     0
 92
       -2
340
0
 93
        0
 40
0.045
309
GRIDFORMAT_END
 95
       16
302
GRIDFORMAT
  1
GRIDFORMAT_BEGIN
 90
        0
 91
        1
 62
     0
 92
       -2
340
0
 93
        0
 40
0.045
309
GRIDFORMAT_END
 95
       32
302
GRIDFORMAT
  1
GRIDFORMAT_BEGIN
 90
        0
 91
        1
 62
     0
 92
       -2
340
0
 93
        0
 40
0.045
309
GRIDFORMAT_END
309
TABLEFORMAT_END
  1
CELLSTYLE_BEGIN
 90
        2
 91
        1
300
_HEADER
309
CELLSTYLE_END
300
CELLSTYLE
  1
TABLEFORMAT_BEGIN
 90
        5
170
     1
 91
        0
 92
        0
 62
   257
 93
        1
300
CONTENTFORMAT
  1
CONTENTFORMAT_BEGIN
 90
        0
 91
        0
 92
      512
 93
        0
300

 40
0.0
140
1.0
 94
        2
 62
     0
340
F
144
0.18
309
CONTENTFORMAT_END
171
     1
301
MARGIN
  1
CELLMARGIN_BEGIN
 40
0.06
 40
0.06
 40
0.06
 40
0.06
 40
0.18
 40
0.18
309
CELLMARGIN_END
 94
        6
 95
        1
302
GRIDFORMAT
  1
GRIDFORMAT_BEGIN
 90
        0
 91
        1
 62
     0
 92
       -2
340
0
 93
        0
 40
0.045
309
GRIDFORMAT_END
 95
        2
302
GRIDFORMAT
  1
GRIDFORMAT_BEGIN
 90
        0
 91
        1
 62
     0
 92
       -2
340
0
 93
        0
 40
0.045
309
GRIDFORMAT_END
 95
        4
302
GRIDFORMAT
  1
GRIDFORMAT_BEGIN
 90
        0
 91
        1
 62
     0
 92
       -2
340
0
 93
        0
 40
0.045
309
GRIDFORMAT_END
 95
        8
302
GRIDFORMAT
  1
GRIDFORMAT_BEGIN
 90
        0
 91
        1
 62
     0
 92
       -2
340
0
 93
        0
 40
0.045
309
GRIDFORMAT_END
 95
       16
302
GRIDFORMAT
  1
GRIDFORMAT_BEGIN
 90
        0
 91
        1
 62
     0
 92
       -2
340
0
 93
        0
 40
0.045
309
GRIDFORMAT_END
 95
       32
302
GRIDFORMAT
  1
GRIDFORMAT_BEGIN
 90
        0
 91
        1
 62
     0
 92
       -2
340
0
 93
        0
 40
0.045
309
GRIDFORMAT_END
309
TABLEFORMAT_END
  1
CELLSTYLE_BEGIN
 90
        3
 91
        2
300
_DATA
309
CELLSTYLE_END
  0
XRECORD
  5
995F2
102
{ACAD_REACTORS
330
5147A
102
}
330
5147A
100
AcDbXrecord
280
     1
102
ACAD_ROUNDTRIP_PRE2007_TABLESTYLE
 90
      512
 91
        0
  1

 92
      512
 93
        0
  2

 94
      512
 95
        0
  3

  0
XRECORD
  5
995DD
102
{ACAD_REACTORS
330
995DC
102
}
330
995DC
100
AcDbXrecord
280
     1
102
RTVSPost2010Prop28
280
     1
102
RTVSPost2010PropOp28
 70
     1
102
RTVSPost2010Prop29
280
     1
102
RTVSPost2010PropOp29
 70
     1
102
RTVSPost2010Prop30
280
     0
102
RTVSPost2010PropOp30
 70
     1
102
RTVSPost2010Prop31
280
     0
102
RTVSPost2010PropOp31
 70
     1
102
RTVSPost2010Prop32
280
     0
102
RTVSPost2010PropOp32
 70
     1
102
RTVSPost2010Prop33
280
     0
102
RTVSPost2010PropOp33
 70
     1
102
RTVSPost2010Prop34
280
     0
102
RTVSPost2010PropOp34
 70
     1
102
RTVSPost2010Prop35
280
     0
102
RTVSPost2010PropOp35
 70
     1
102
RTVSPost2010Prop36
280
     0
102
RTVSPost2010PropOp36
 70
     1
102
RTVSPost2010Prop37
 90
       50
102
RTVSPost2010PropOp37
 70
     1
102
RTVSPost2010Prop38
140
0.0
102
RTVSPost2010PropOp38
 70
     1
102
RTVSPost2010Prop39
140
1.0
102
RTVSPost2010PropOp39
 70
     1
102
RTVSPost2010Prop40
 90
        0
102
RTVSPost2010PropOp40
 70
     1
102
RTVSPost2010Prop41ColorIndex
 90
       18
102
RTVSPost2010Prop41ColorRGB
 90
        0
102
RTVSPost2010PropOp41
 70
     1
102
RTVSPost2010Prop42
 90
       50
102
RTVSPost2010PropOp42
 70
     1
102
RTVSPost2010Prop43
 90
        3
102
RTVSPost2010PropOp43
 70
     1
102
RTVSPost2010Prop44ColorIndex
 90
        5
102
RTVSPost2010Prop44ColorRGB
 90
      255
102
RTVSPost2010PropOp44
 70
     1
102
RTVSPost2010Prop45
280
     0
102
RTVSPost2010PropOp45
 70
     1
102
RTVSPost2010Prop46
 90
       50
102
RTVSPost2010PropOp46
 70
     1
102
RTVSPost2010Prop47
 90
       50
102
RTVSPost2010PropOp47
 70
     1
102
RTVSPost2010Prop48
 90
       50
102
RTVSPost2010PropOp48
 70
     1
102
RTVSPost2010Prop49
280
     0
102
RTVSPost2010PropOp49
 70
     1
102
RTVSPost2010Prop50
 90
       50
102
RTVSPost2010PropOp50
 70
     1
102
RTVSPost2010Prop51ColorIndex
 90
      256
102
RTVSPost2010Prop51ColorRGB
 90
-16777216
102
RTVSPost2010PropOp51
 70
     0
102
RTVSPost2010Prop52
140
1.0
102
RTVSPost2010PropOp52
 70
     0
102
RTVSPost2010Prop53
 90
        2
102
RTVSPost2010PropOp53
 70
     1
102
RTVSPost2010Prop54
  1
strokes_ogs.tif
102
RTVSPost2010PropOp54
 70
     1
102
RTVSPost2010Prop55
280
     0
102
RTVSPost2010PropOp55
 70
     1
102
RTVSPost2010Prop56
140
1.0
102
RTVSPost2010PropOp56
 70
     1
102
RTVSPost2010Prop57
140
1.0
102
RTVSPost2010PropOp57
 70
     1
102
RTVSPropertyOp0
 70
     1
102
RTVSPropertyOp1
 70
     1
102
RTVSPropertyOp2
 70
     1
102
RTVSPropertyOp3
 70
     1
102
RTVSPropertyOp4
 70
     1
102
RTVSPropertyOp5
 70
     1
102
RTVSPropertyOp6
 70
     1
102
RTVSPropertyOp7
 70
     1
102
RTVSPropertyOp8
 70
     1
102
RTVSPropertyOp9
 70
     1
102
RTVSPropertyOp10
 70
     1
102
RTVSPropertyOp11
 70
     1
102
RTVSPropertyOp12
 70
     1
102
RTVSPropertyOp13
 70
     1
102
RTVSPropertyOp14
 70
     1
102
RTVSPropertyOp15
 70
     1
102
RTVSPropertyOp16
 70
     1
102
RTVSPropertyOp17
 70
     1
102
RTVSPropertyOp18
 70
     1
102
RTVSPropertyOp19
 70
     1
102
RTVSPropertyOp20
 70
     1
102
RTVSPropertyOp21
 70
     1
102
RTVSPropertyOp22
 70
     1
102
RTVSPropertyOp23
 70
     1
102
RTVSPropertyOp24
 70
     1
102
RTVSPropertyOp25
 70
     1
102
RTVSPropertyOp26
 70
     1
102
RTVSPropertyOp27
 70
     1
102
RTVSPropertyOp28
 70
     1
102
RTVSPropertyOp29
 70
     1
102
RTVSPropertyOp30
 70
     1
102
RTVSPropertyOp31
 70
     1
102
RTVSPropertyOp32
 70
     1
102
RTVSPropertyOp33
 70
     1
102
RTVSPropertyOp34
 70
     1
102
RTVSPropertyOp35
 70
     1
102
RTVSPropertyOp36
 70
     1
102
RTVSPropertyOp37
 70
     1
102
RTVSPropertyOp38
 70
     1
102
RTVSPropertyOp39
 70
     1
102
RTVSPropertyOp40
 70
     1
102
RTVSPropertyOp41
 70
     1
102
RTVSPropertyOp42
 70
     1
102
RTVSPropertyOp43
 70
     1
102
RTVSPropertyOp44
 70
     1
102
RTVSPropertyOp45
 70
     1
102
RTVSPropertyOp46
 70
     1
102
RTVSPropertyOp47
 70
     1
102
RTVSPropertyOp48
 70
     1
102
RTVSPropertyOp49
 70
     1
102
RTVSPropertyOp50
 70
     1
102
RTVSPropertyOp51
 70
     0
102
RTVSPropertyOp52
 70
     0
102
RTVSPropertyOp53
 70
     1
102
RTVSPropertyOp54
 70
     1
102
RTVSPropertyOp55
 70
     1
102
RTVSPropertyOp56
 70
     1
102
RTVSPropertyOp57
 70
     1
102
RTVSPropertyOp58
 70
     1
102
RTVSPropertyOp59
 70
     1
102
RTVSPropertyOp60
 70
     1
102
RTVSPropertyOp61
 70
     1
102
RTVSPropertyOp62
 70
     1
  0
XRECORD
  5
995E1
102
{ACAD_REACTORS
330
995E0
102
}
330
995E0
100
AcDbXrecord
280
     1
102
RTVSPost2010Prop28
280
     0
102
RTVSPost2010PropOp28
 70
     1
102
RTVSPost2010Prop29
280
     1
102
RTVSPost2010PropOp29
 70
     1
102
RTVSPost2010Prop30
280
     1
102
RTVSPost2010PropOp30
 70
     1
102
RTVSPost2010Prop31
280
     0
102
RTVSPost2010PropOp31
 70
     1
102
RTVSPost2010Prop32
280
     0
102
RTVSPost2010PropOp32
 70
     1
102
RTVSPost2010Prop33
280
     0
102
RTVSPost2010PropOp33
 70
     1
102
RTVSPost2010Prop34
280
     0
102
RTVSPost2010PropOp34
 70
     1
102
RTVSPost2010Prop35
280
     0
102
RTVSPost2010PropOp35
 70
     1
102
RTVSPost2010Prop36
280
     0
102
RTVSPost2010PropOp36
 70
     1
102
RTVSPost2010Prop37
 90
       50
102
RTVSPost2010PropOp37
 70
     1
102
RTVSPost2010Prop38
140
0.0
102
RTVSPost2010PropOp38
 70
     1
102
RTVSPost2010Prop39
140
1.0
102
RTVSPost2010PropOp39
 70
     1
102
RTVSPost2010Prop40
 90
        0
102
RTVSPost2010PropOp40
 70
     1
102
RTVSPost2010Prop41ColorIndex
 90
       18
102
RTVSPost2010Prop41ColorRGB
 90
        0
102
RTVSPost2010PropOp41
 70
     1
102
RTVSPost2010Prop42
 90
       50
102
RTVSPost2010PropOp42
 70
     1
102
RTVSPost2010Prop43
 90
        3
102
RTVSPost2010PropOp43
 70
     1
102
RTVSPost2010Prop44ColorIndex
 90
        5
102
RTVSPost2010Prop44ColorRGB
 90
      255
102
RTVSPost2010PropOp44
 70
     1
102
RTVSPost2010Prop45
280
     0
102
RTVSPost2010PropOp45
 70
     1
102
RTVSPost2010Prop46
 90
       50
102
RTVSPost2010PropOp46
 70
     1
102
RTVSPost2010Prop47
 90
       50
102
RTVSPost2010PropOp47
 70
     1
102
RTVSPost2010Prop48
 90
       50
102
RTVSPost2010PropOp48
 70
     1
102
RTVSPost2010Prop49
280
     0
102
RTVSPost2010PropOp49
 70
     1
102
RTVSPost2010Prop50
 90
       50
102
RTVSPost2010PropOp50
 70
     1
102
RTVSPost2010Prop51ColorIndex
 90
      256
102
RTVSPost2010Prop51ColorRGB
 90
-16777216
102
RTVSPost2010PropOp51
 70
     0
102
RTVSPost2010Prop52
140
1.0
102
RTVSPost2010PropOp52
 70
     0
102
RTVSPost2010Prop53
 90
        2
102
RTVSPost2010PropOp53
 70
     1
102
RTVSPost2010Prop54
  1
strokes_ogs.tif
102
RTVSPost2010PropOp54
 70
     1
102
RTVSPost2010Prop55
280
     0
102
RTVSPost2010PropOp55
 70
     1
102
RTVSPost2010Prop56
140
1.0
102
RTVSPost2010PropOp56
 70
     1
102
RTVSPost2010Prop57
140
1.0
102
RTVSPost2010PropOp57
 70
     1
102
RTVSPropertyOp0
 70
     1
102
RTVSPropertyOp1
 70
     1
102
RTVSPropertyOp2
 70
     1
102
RTVSPropertyOp3
 70
     1
102
RTVSPropertyOp4
 70
     1
102
RTVSPropertyOp5
 70
     1
102
RTVSPropertyOp6
 70
     1
102
RTVSPropertyOp7
 70
     1
102
RTVSPropertyOp8
 70
     1
102
RTVSPropertyOp9
 70
     1
102
RTVSPropertyOp10
 70
     1
102
RTVSPropertyOp11
 70
     1
102
RTVSPropertyOp12
 70
     1
102
RTVSPropertyOp13
 70
     1
102
RTVSPropertyOp14
 70
     1
102
RTVSPropertyOp15
 70
     1
102
RTVSPropertyOp16
 70
     1
102
RTVSPropertyOp17
 70
     1
102
RTVSPropertyOp18
 70
     1
102
RTVSPropertyOp19
 70
     1
102
RTVSPropertyOp20
 70
     1
102
RTVSPropertyOp21
 70
     1
102
RTVSPropertyOp22
 70
     1
102
RTVSPropertyOp23
 70
     1
102
RTVSPropertyOp24
 70
     1
102
RTVSPropertyOp25
 70
     1
102
RTVSPropertyOp26
 70
     1
102
RTVSPropertyOp27
 70
     1
102
RTVSPropertyOp28
 70
     1
102
RTVSPropertyOp29
 70
     1
102
RTVSPropertyOp30
 70
     1
102
RTVSPropertyOp31
 70
     1
102
RTVSPropertyOp32
 70
     1
102
RTVSPropertyOp33
 70
     1
102
RTVSPropertyOp34
 70
     1
102
RTVSPropertyOp35
 70
     1
102
RTVSPropertyOp36
 70
     1
102
RTVSPropertyOp37
 70
     1
102
RTVSPropertyOp38
 70
     1
102
RTVSPropertyOp39
 70
     1
102
RTVSPropertyOp40
 70
     1
102
RTVSPropertyOp41
 70
     1
102
RTVSPropertyOp42
 70
     1
102
RTVSPropertyOp43
 70
     1
102
RTVSPropertyOp44
 70
     1
102
RTVSPropertyOp45
 70
     1
102
RTVSPropertyOp46
 70
     1
102
RTVSPropertyOp47
 70
     1
102
RTVSPropertyOp48
 70
     1
102
RTVSPropertyOp49
 70
     1
102
RTVSPropertyOp50
 70
     1
102
RTVSPropertyOp51
 70
     0
102
RTVSPropertyOp52
 70
     0
102
RTVSPropertyOp53
 70
     1
102
RTVSPropertyOp54
 70
     1
102
RTVSPropertyOp55
 70
     1
102
RTVSPropertyOp56
 70
     1
102
RTVSPropertyOp57
 70
     1
102
RTVSPropertyOp58
 70
     1
102
RTVSPropertyOp59
 70
     1
102
RTVSPropertyOp60
 70
     1
102
RTVSPropertyOp61
 70
     1
102
RTVSPropertyOp62
 70
     1
  0
XRECORD
  5
995DF
102
{ACAD_REACTORS
330
995DE
102
}
330
995DE
100
AcDbXrecord
280
     1
102
RTVSPost2010Prop28
280
     0
102
RTVSPost2010PropOp28
 70
     1
102
RTVSPost2010Prop29
280
     1
102
RTVSPost2010PropOp29
 70
     1
102
RTVSPost2010Prop30
280
     1
102
RTVSPost2010PropOp30
 70
     1
102
RTVSPost2010Prop31
280
     0
102
RTVSPost2010PropOp31
 70
     1
102
RTVSPost2010Prop32
280
     0
102
RTVSPost2010PropOp32
 70
     1
102
RTVSPost2010Prop33
280
     0
102
RTVSPost2010PropOp33
 70
     1
102
RTVSPost2010Prop34
280
     0
102
RTVSPost2010PropOp34
 70
     1
102
RTVSPost2010Prop35
280
     0
102
RTVSPost2010PropOp35
 70
     1
102
RTVSPost2010Prop36
280
     0
102
RTVSPost2010PropOp36
 70
     1
102
RTVSPost2010Prop37
 90
       50
102
RTVSPost2010PropOp37
 70
     1
102
RTVSPost2010Prop38
140
0.0
102
RTVSPost2010PropOp38
 70
     1
102
RTVSPost2010Prop39
140
1.0
102
RTVSPost2010PropOp39
 70
     1
102
RTVSPost2010Prop40
 90
        0
102
RTVSPost2010PropOp40
 70
     1
102
RTVSPost2010Prop41ColorIndex
 90
       18
102
RTVSPost2010Prop41ColorRGB
 90
        0
102
RTVSPost2010PropOp41
 70
     1
102
RTVSPost2010Prop42
 90
       50
102
RTVSPost2010PropOp42
 70
     1
102
RTVSPost2010Prop43
 90
        3
102
RTVSPost2010PropOp43
 70
     1
102
RTVSPost2010Prop44ColorIndex
 90
        5
102
RTVSPost2010Prop44ColorRGB
 90
      255
102
RTVSPost2010PropOp44
 70
     1
102
RTVSPost2010Prop45
280
     0
102
RTVSPost2010PropOp45
 70
     1
102
RTVSPost2010Prop46
 90
       50
102
RTVSPost2010PropOp46
 70
     1
102
RTVSPost2010Prop47
 90
       50
102
RTVSPost2010PropOp47
 70
     1
102
RTVSPost2010Prop48
 90
       50
102
RTVSPost2010PropOp48
 70
     1
102
RTVSPost2010Prop49
280
     0
102
RTVSPost2010PropOp49
 70
     1
102
RTVSPost2010Prop50
 90
       50
102
RTVSPost2010PropOp50
 70
     1
102
RTVSPost2010Prop51ColorIndex
 90
      256
102
RTVSPost2010Prop51ColorRGB
 90
-16777216
102
RTVSPost2010PropOp51
 70
     0
102
RTVSPost2010Prop52
140
1.0
102
RTVSPost2010PropOp52
 70
     0
102
RTVSPost2010Prop53
 90
        2
102
RTVSPost2010PropOp53
 70
     1
102
RTVSPost2010Prop54
  1
strokes_ogs.tif
102
RTVSPost2010PropOp54
 70
     1
102
RTVSPost2010Prop55
280
     0
102
RTVSPost2010PropOp55
 70
     1
102
RTVSPost2010Prop56
140
1.0
102
RTVSPost2010PropOp56
 70
     1
102
RTVSPost2010Prop57
140
1.0
102
RTVSPost2010PropOp57
 70
     1
102
RTVSPropertyOp0
 70
     1
102
RTVSPropertyOp1
 70
     1
102
RTVSPropertyOp2
 70
     1
102
RTVSPropertyOp3
 70
     1
102
RTVSPropertyOp4
 70
     1
102
RTVSPropertyOp5
 70
     1
102
RTVSPropertyOp6
 70
     1
102
RTVSPropertyOp7
 70
     1
102
RTVSPropertyOp8
 70
     1
102
RTVSPropertyOp9
 70
     1
102
RTVSPropertyOp10
 70
     1
102
RTVSPropertyOp11
 70
     1
102
RTVSPropertyOp12
 70
     1
102
RTVSPropertyOp13
 70
     1
102
RTVSPropertyOp14
 70
     1
102
RTVSPropertyOp15
 70
     1
102
RTVSPropertyOp16
 70
     1
102
RTVSPropertyOp17
 70
     1
102
RTVSPropertyOp18
 70
     1
102
RTVSPropertyOp19
 70
     1
102
RTVSPropertyOp20
 70
     1
102
RTVSPropertyOp21
 70
     1
102
RTVSPropertyOp22
 70
     1
102
RTVSPropertyOp23
 70
     1
102
RTVSPropertyOp24
 70
     1
102
RTVSPropertyOp25
 70
     1
102
RTVSPropertyOp26
 70
     1
102
RTVSPropertyOp27
 70
     1
102
RTVSPropertyOp28
 70
     1
102
RTVSPropertyOp29
 70
     1
102
RTVSPropertyOp30
 70
     1
102
RTVSPropertyOp31
 70
     1
102
RTVSPropertyOp32
 70
     1
102
RTVSPropertyOp33
 70
     1
102
RTVSPropertyOp34
 70
     1
102
RTVSPropertyOp35
 70
     1
102
RTVSPropertyOp36
 70
     1
102
RTVSPropertyOp37
 70
     1
102
RTVSPropertyOp38
 70
     1
102
RTVSPropertyOp39
 70
     1
102
RTVSPropertyOp40
 70
     1
102
RTVSPropertyOp41
 70
     1
102
RTVSPropertyOp42
 70
     1
102
RTVSPropertyOp43
 70
     1
102
RTVSPropertyOp44
 70
     1
102
RTVSPropertyOp45
 70
     1
102
RTVSPropertyOp46
 70
     1
102
RTVSPropertyOp47
 70
     1
102
RTVSPropertyOp48
 70
     1
102
RTVSPropertyOp49
 70
     1
102
RTVSPropertyOp50
 70
     1
102
RTVSPropertyOp51
 70
     0
102
RTVSPropertyOp52
 70
     0
102
RTVSPropertyOp53
 70
     1
102
RTVSPropertyOp54
 70
     1
102
RTVSPropertyOp55
 70
     1
102
RTVSPropertyOp56
 70
     1
102
RTVSPropertyOp57
 70
     1
102
RTVSPropertyOp58
 70
     1
102
RTVSPropertyOp59
 70
     1
102
RTVSPropertyOp60
 70
     1
102
RTVSPropertyOp61
 70
     1
102
RTVSPropertyOp62
 70
     1
  0
XRECORD
  5
995DB
102
{ACAD_REACTORS
330
995DA
102
}
330
995DA
100
AcDbXrecord
280
     1
102
RTVSPost2010Prop28
280
     0
102
RTVSPost2010PropOp28
 70
     1
102
RTVSPost2010Prop29
280
     1
102
RTVSPost2010PropOp29
 70
     1
102
RTVSPost2010Prop30
280
     1
102
RTVSPost2010PropOp30
 70
     1
102
RTVSPost2010Prop31
280
     0
102
RTVSPost2010PropOp31
 70
     1
102
RTVSPost2010Prop32
280
     0
102
RTVSPost2010PropOp32
 70
     1
102
RTVSPost2010Prop33
280
     0
102
RTVSPost2010PropOp33
 70
     1
102
RTVSPost2010Prop34
280
     0
102
RTVSPost2010PropOp34
 70
     1
102
RTVSPost2010Prop35
280
     0
102
RTVSPost2010PropOp35
 70
     1
102
RTVSPost2010Prop36
280
     0
102
RTVSPost2010PropOp36
 70
     1
102
RTVSPost2010Prop37
 90
       50
102
RTVSPost2010PropOp37
 70
     1
102
RTVSPost2010Prop38
140
0.0
102
RTVSPost2010PropOp38
 70
     1
102
RTVSPost2010Prop39
140
1.0
102
RTVSPost2010PropOp39
 70
     1
102
RTVSPost2010Prop40
 90
        0
102
RTVSPost2010PropOp40
 70
     1
102
RTVSPost2010Prop41ColorIndex
 90
       18
102
RTVSPost2010Prop41ColorRGB
 90
        0
102
RTVSPost2010PropOp41
 70
     1
102
RTVSPost2010Prop42
 90
       50
102
RTVSPost2010PropOp42
 70
     1
102
RTVSPost2010Prop43
 90
        3
102
RTVSPost2010PropOp43
 70
     1
102
RTVSPost2010Prop44ColorIndex
 90
        5
102
RTVSPost2010Prop44ColorRGB
 90
      255
102
RTVSPost2010PropOp44
 70
     1
102
RTVSPost2010Prop45
280
     0
102
RTVSPost2010PropOp45
 70
     1
102
RTVSPost2010Prop46
 90
       50
102
RTVSPost2010PropOp46
 70
     1
102
RTVSPost2010Prop47
 90
       50
102
RTVSPost2010PropOp47
 70
     1
102
RTVSPost2010Prop48
 90
       50
102
RTVSPost2010PropOp48
 70
     1
102
RTVSPost2010Prop49
280
     0
102
RTVSPost2010PropOp49
 70
     1
102
RTVSPost2010Prop50
 90
       50
102
RTVSPost2010PropOp50
 70
     1
102
RTVSPost2010Prop51ColorIndex
 90
      256
102
RTVSPost2010Prop51ColorRGB
 90
-16777216
102
RTVSPost2010PropOp51
 70
     0
102
RTVSPost2010Prop52
140
1.0
102
RTVSPost2010PropOp52
 70
     0
102
RTVSPost2010Prop53
 90
        2
102
RTVSPost2010PropOp53
 70
     1
102
RTVSPost2010Prop54
  1
strokes_ogs.tif
102
RTVSPost2010PropOp54
 70
     1
102
RTVSPost2010Prop55
280
     0
102
RTVSPost2010PropOp55
 70
     1
102
RTVSPost2010Prop56
140
1.0
102
RTVSPost2010PropOp56
 70
     1
102
RTVSPost2010Prop57
140
1.0
102
RTVSPost2010PropOp57
 70
     1
102
RTVSPropertyOp0
 70
     1
102
RTVSPropertyOp1
 70
     1
102
RTVSPropertyOp2
 70
     1
102
RTVSPropertyOp3
 70
     1
102
RTVSPropertyOp4
 70
     1
102
RTVSPropertyOp5
 70
     1
102
RTVSPropertyOp6
 70
     1
102
RTVSPropertyOp7
 70
     1
102
RTVSPropertyOp8
 70
     1
102
RTVSPropertyOp9
 70
     1
102
RTVSPropertyOp10
 70
     1
102
RTVSPropertyOp11
 70
     1
102
RTVSPropertyOp12
 70
     1
102
RTVSPropertyOp13
 70
     1
102
RTVSPropertyOp14
 70
     1
102
RTVSPropertyOp15
 70
     1
102
RTVSPropertyOp16
 70
     1
102
RTVSPropertyOp17
 70
     1
102
RTVSPropertyOp18
 70
     1
102
RTVSPropertyOp19
 70
     1
102
RTVSPropertyOp20
 70
     1
102
RTVSPropertyOp21
 70
     1
102
RTVSPropertyOp22
 70
     1
102
RTVSPropertyOp23
 70
     1
102
RTVSPropertyOp24
 70
     1
102
RTVSPropertyOp25
 70
     1
102
RTVSPropertyOp26
 70
     1
102
RTVSPropertyOp27
 70
     1
102
RTVSPropertyOp28
 70
     1
102
RTVSPropertyOp29
 70
     1
102
RTVSPropertyOp30
 70
     1
102
RTVSPropertyOp31
 70
     1
102
RTVSPropertyOp32
 70
     1
102
RTVSPropertyOp33
 70
     1
102
RTVSPropertyOp34
 70
     1
102
RTVSPropertyOp35
 70
     1
102
RTVSPropertyOp36
 70
     1
102
RTVSPropertyOp37
 70
     1
102
RTVSPropertyOp38
 70
     1
102
RTVSPropertyOp39
 70
     1
102
RTVSPropertyOp40
 70
     1
102
RTVSPropertyOp41
 70
     1
102
RTVSPropertyOp42
 70
     1
102
RTVSPropertyOp43
 70
     1
102
RTVSPropertyOp44
 70
     1
102
RTVSPropertyOp45
 70
     1
102
RTVSPropertyOp46
 70
     1
102
RTVSPropertyOp47
 70
     1
102
RTVSPropertyOp48
 70
     1
102
RTVSPropertyOp49
 70
     1
102
RTVSPropertyOp50
 70
     1
102
RTVSPropertyOp51
 70
     0
102
RTVSPropertyOp52
 70
     0
102
RTVSPropertyOp53
 70
     1
102
RTVSPropertyOp54
 70
     1
102
RTVSPropertyOp55
 70
     1
102
RTVSPropertyOp56
 70
     1
102
RTVSPropertyOp57
 70
     1
102
RTVSPropertyOp58
 70
     1
102
RTVSPropertyOp59
 70
     1
102
RTVSPropertyOp60
 70
     1
102
RTVSPropertyOp61
 70
     1
102
RTVSPropertyOp62
 70
     1
  0
XRECORD
  5
995E9
102
{ACAD_REACTORS
330
995E8
102
}
330
995E8
100
AcDbXrecord
280
     1
102
RTVSPost2010Prop28
280
     0
102
RTVSPost2010PropOp28
 70
     1
102
RTVSPost2010Prop29
280
     1
102
RTVSPost2010PropOp29
 70
     1
102
RTVSPost2010Prop30
280
     1
102
RTVSPost2010PropOp30
 70
     1
102
RTVSPost2010Prop31
280
     0
102
RTVSPost2010PropOp31
 70
     1
102
RTVSPost2010Prop32
280
     0
102
RTVSPost2010PropOp32
 70
     1
102
RTVSPost2010Prop33
280
     0
102
RTVSPost2010PropOp33
 70
     1
102
RTVSPost2010Prop34
280
     0
102
RTVSPost2010PropOp34
 70
     1
102
RTVSPost2010Prop35
280
     0
102
RTVSPost2010PropOp35
 70
     1
102
RTVSPost2010Prop36
280
     0
102
RTVSPost2010PropOp36
 70
     1
102
RTVSPost2010Prop37
 90
       50
102
RTVSPost2010PropOp37
 70
     1
102
RTVSPost2010Prop38
140
0.0
102
RTVSPost2010PropOp38
 70
     1
102
RTVSPost2010Prop39
140
1.0
102
RTVSPost2010PropOp39
 70
     1
102
RTVSPost2010Prop40
 90
        0
102
RTVSPost2010PropOp40
 70
     1
102
RTVSPost2010Prop41ColorIndex
 90
       18
102
RTVSPost2010Prop41ColorRGB
 90
        0
102
RTVSPost2010PropOp41
 70
     1
102
RTVSPost2010Prop42
 90
       50
102
RTVSPost2010PropOp42
 70
     1
102
RTVSPost2010Prop43
 90
        3
102
RTVSPost2010PropOp43
 70
     1
102
RTVSPost2010Prop44ColorIndex
 90
        5
102
RTVSPost2010Prop44ColorRGB
 90
      255
102
RTVSPost2010PropOp44
 70
     1
102
RTVSPost2010Prop45
280
     0
102
RTVSPost2010PropOp45
 70
     1
102
RTVSPost2010Prop46
 90
       50
102
RTVSPost2010PropOp46
 70
     1
102
RTVSPost2010Prop47
 90
       50
102
RTVSPost2010PropOp47
 70
     1
102
RTVSPost2010Prop48
 90
       50
102
RTVSPost2010PropOp48
 70
     1
102
RTVSPost2010Prop49
280
     0
102
RTVSPost2010PropOp49
 70
     1
102
RTVSPost2010Prop50
 90
       50
102
RTVSPost2010PropOp50
 70
     1
102
RTVSPost2010Prop51ColorIndex
 90
      256
102
RTVSPost2010Prop51ColorRGB
 90
-16777216
102
RTVSPost2010PropOp51
 70
     0
102
RTVSPost2010Prop52
140
1.0
102
RTVSPost2010PropOp52
 70
     0
102
RTVSPost2010Prop53
 90
        2
102
RTVSPost2010PropOp53
 70
     1
102
RTVSPost2010Prop54
  1
strokes_ogs.tif
102
RTVSPost2010PropOp54
 70
     1
102
RTVSPost2010Prop55
280
     0
102
RTVSPost2010PropOp55
 70
     1
102
RTVSPost2010Prop56
140
1.0
102
RTVSPost2010PropOp56
 70
     1
102
RTVSPost2010Prop57
140
1.0
102
RTVSPost2010PropOp57
 70
     1
102
RTVSPropertyOp0
 70
     1
102
RTVSPropertyOp1
 70
     1
102
RTVSPropertyOp2
 70
     1
102
RTVSPropertyOp3
 70
     1
102
RTVSPropertyOp4
 70
     1
102
RTVSPropertyOp5
 70
     1
102
RTVSPropertyOp6
 70
     1
102
RTVSPropertyOp7
 70
     1
102
RTVSPropertyOp8
 70
     1
102
RTVSPropertyOp9
 70
     1
102
RTVSPropertyOp10
 70
     1
102
RTVSPropertyOp11
 70
     1
102
RTVSPropertyOp12
 70
     1
102
RTVSPropertyOp13
 70
     1
102
RTVSPropertyOp14
 70
     1
102
RTVSPropertyOp15
 70
     1
102
RTVSPropertyOp16
 70
     1
102
RTVSPropertyOp17
 70
     1
102
RTVSPropertyOp18
 70
     1
102
RTVSPropertyOp19
 70
     1
102
RTVSPropertyOp20
 70
     1
102
RTVSPropertyOp21
 70
     1
102
RTVSPropertyOp22
 70
     1
102
RTVSPropertyOp23
 70
     1
102
RTVSPropertyOp24
 70
     1
102
RTVSPropertyOp25
 70
     1
102
RTVSPropertyOp26
 70
     1
102
RTVSPropertyOp27
 70
     1
102
RTVSPropertyOp28
 70
     1
102
RTVSPropertyOp29
 70
     1
102
RTVSPropertyOp30
 70
     1
102
RTVSPropertyOp31
 70
     1
102
RTVSPropertyOp32
 70
     1
102
RTVSPropertyOp33
 70
     1
102
RTVSPropertyOp34
 70
     1
102
RTVSPropertyOp35
 70
     1
102
RTVSPropertyOp36
 70
     1
102
RTVSPropertyOp37
 70
     1
102
RTVSPropertyOp38
 70
     1
102
RTVSPropertyOp39
 70
     1
102
RTVSPropertyOp40
 70
     1
102
RTVSPropertyOp41
 70
     1
102
RTVSPropertyOp42
 70
     1
102
RTVSPropertyOp43
 70
     1
102
RTVSPropertyOp44
 70
     1
102
RTVSPropertyOp45
 70
     1
102
RTVSPropertyOp46
 70
     1
102
RTVSPropertyOp47
 70
     1
102
RTVSPropertyOp48
 70
     1
102
RTVSPropertyOp49
 70
     1
102
RTVSPropertyOp50
 70
     1
102
RTVSPropertyOp51
 70
     0
102
RTVSPropertyOp52
 70
     0
102
RTVSPropertyOp53
 70
     1
102
RTVSPropertyOp54
 70
     1
102
RTVSPropertyOp55
 70
     1
102
RTVSPropertyOp56
 70
     1
102
RTVSPropertyOp57
 70
     1
102
RTVSPropertyOp58
 70
     1
102
RTVSPropertyOp59
 70
     1
102
RTVSPropertyOp60
 70
     1
102
RTVSPropertyOp61
 70
     1
102
RTVSPropertyOp62
 70
     1
  0
XRECORD
  5
995F1
102
{ACAD_REACTORS
330
995F0
102
}
330
995F0
100
AcDbXrecord
280
     1
102
RTVSPost2010Prop28
280
     0
102
RTVSPost2010PropOp28
 70
     1
102
RTVSPost2010Prop29
280
     1
102
RTVSPost2010PropOp29
 70
     1
102
RTVSPost2010Prop30
280
     1
102
RTVSPost2010PropOp30
 70
     1
102
RTVSPost2010Prop31
280
     0
102
RTVSPost2010PropOp31
 70
     1
102
RTVSPost2010Prop32
280
     0
102
RTVSPost2010PropOp32
 70
     1
102
RTVSPost2010Prop33
280
     0
102
RTVSPost2010PropOp33
 70
     1
102
RTVSPost2010Prop34
280
     0
102
RTVSPost2010PropOp34
 70
     1
102
RTVSPost2010Prop35
280
     0
102
RTVSPost2010PropOp35
 70
     1
102
RTVSPost2010Prop36
280
     0
102
RTVSPost2010PropOp36
 70
     1
102
RTVSPost2010Prop37
 90
       50
102
RTVSPost2010PropOp37
 70
     1
102
RTVSPost2010Prop38
140
0.0
102
RTVSPost2010PropOp38
 70
     1
102
RTVSPost2010Prop39
140
1.0
102
RTVSPost2010PropOp39
 70
     1
102
RTVSPost2010Prop40
 90
        0
102
RTVSPost2010PropOp40
 70
     1
102
RTVSPost2010Prop41ColorIndex
 90
       18
102
RTVSPost2010Prop41ColorRGB
 90
        0
102
RTVSPost2010PropOp41
 70
     1
102
RTVSPost2010Prop42
 90
       50
102
RTVSPost2010PropOp42
 70
     1
102
RTVSPost2010Prop43
 90
        3
102
RTVSPost2010PropOp43
 70
     1
102
RTVSPost2010Prop44ColorIndex
 90
        5
102
RTVSPost2010Prop44ColorRGB
 90
      255
102
RTVSPost2010PropOp44
 70
     1
102
RTVSPost2010Prop45
280
     0
102
RTVSPost2010PropOp45
 70
     1
102
RTVSPost2010Prop46
 90
       50
102
RTVSPost2010PropOp46
 70
     1
102
RTVSPost2010Prop47
 90
       50
102
RTVSPost2010PropOp47
 70
     1
102
RTVSPost2010Prop48
 90
       50
102
RTVSPost2010PropOp48
 70
     1
102
RTVSPost2010Prop49
280
     0
102
RTVSPost2010PropOp49
 70
     1
102
RTVSPost2010Prop50
 90
       50
102
RTVSPost2010PropOp50
 70
     1
102
RTVSPost2010Prop51ColorIndex
 90
      256
102
RTVSPost2010Prop51ColorRGB
 90
-16777216
102
RTVSPost2010PropOp51
 70
     0
102
RTVSPost2010Prop52
140
1.0
102
RTVSPost2010PropOp52
 70
     0
102
RTVSPost2010Prop53
 90
        2
102
RTVSPost2010PropOp53
 70
     1
102
RTVSPost2010Prop54
  1
strokes_ogs.tif
102
RTVSPost2010PropOp54
 70
     1
102
RTVSPost2010Prop55
280
     0
102
RTVSPost2010PropOp55
 70
     1
102
RTVSPost2010Prop56
140
1.0
102
RTVSPost2010PropOp56
 70
     1
102
RTVSPost2010Prop57
140
1.0
102
RTVSPost2010PropOp57
 70
     1
102
RTVSPropertyOp0
 70
     1
102
RTVSPropertyOp1
 70
     1
102
RTVSPropertyOp2
 70
     1
102
RTVSPropertyOp3
 70
     1
102
RTVSPropertyOp4
 70
     1
102
RTVSPropertyOp5
 70
     1
102
RTVSPropertyOp6
 70
     1
102
RTVSPropertyOp7
 70
     1
102
RTVSPropertyOp8
 70
     1
102
RTVSPropertyOp9
 70
     1
102
RTVSPropertyOp10
 70
     1
102
RTVSPropertyOp11
 70
     1
102
RTVSPropertyOp12
 70
     1
102
RTVSPropertyOp13
 70
     1
102
RTVSPropertyOp14
 70
     1
102
RTVSPropertyOp15
 70
     1
102
RTVSPropertyOp16
 70
     1
102
RTVSPropertyOp17
 70
     1
102
RTVSPropertyOp18
 70
     1
102
RTVSPropertyOp19
 70
     1
102
RTVSPropertyOp20
 70
     1
102
RTVSPropertyOp21
 70
     1
102
RTVSPropertyOp22
 70
     1
102
RTVSPropertyOp23
 70
     1
102
RTVSPropertyOp24
 70
     1
102
RTVSPropertyOp25
 70
     1
102
RTVSPropertyOp26
 70
     1
102
RTVSPropertyOp27
 70
     1
102
RTVSPropertyOp28
 70
     1
102
RTVSPropertyOp29
 70
     1
102
RTVSPropertyOp30
 70
     1
102
RTVSPropertyOp31
 70
     1
102
RTVSPropertyOp32
 70
     1
102
RTVSPropertyOp33
 70
     1
102
RTVSPropertyOp34
 70
     1
102
RTVSPropertyOp35
 70
     1
102
RTVSPropertyOp36
 70
     1
102
RTVSPropertyOp37
 70
     1
102
RTVSPropertyOp38
 70
     1
102
RTVSPropertyOp39
 70
     1
102
RTVSPropertyOp40
 70
     1
102
RTVSPropertyOp41
 70
     1
102
RTVSPropertyOp42
 70
     1
102
RTVSPropertyOp43
 70
     1
102
RTVSPropertyOp44
 70
     1
102
RTVSPropertyOp45
 70
     1
102
RTVSPropertyOp46
 70
     1
102
RTVSPropertyOp47
 70
     1
102
RTVSPropertyOp48
 70
     1
102
RTVSPropertyOp49
 70
     1
102
RTVSPropertyOp50
 70
     1
102
RTVSPropertyOp51
 70
     0
102
RTVSPropertyOp52
 70
     0
102
RTVSPropertyOp53
 70
     1
102
RTVSPropertyOp54
 70
     1
102
RTVSPropertyOp55
 70
     1
102
RTVSPropertyOp56
 70
     1
102
RTVSPropertyOp57
 70
     1
102
RTVSPropertyOp58
 70
     1
102
RTVSPropertyOp59
 70
     1
102
RTVSPropertyOp60
 70
     1
102
RTVSPropertyOp61
 70
     1
102
RTVSPropertyOp62
 70
     1
  0
XRECORD
  5
995E3
102
{ACAD_REACTORS
330
995E2
102
}
330
995E2
100
AcDbXrecord
280
     1
102
RTVSPost2010Prop28
280
     0
102
RTVSPost2010PropOp28
 70
     1
102
RTVSPost2010Prop29
280
     1
102
RTVSPost2010PropOp29
 70
     1
102
RTVSPost2010Prop30
280
     1
102
RTVSPost2010PropOp30
 70
     1
102
RTVSPost2010Prop31
280
     0
102
RTVSPost2010PropOp31
 70
     1
102
RTVSPost2010Prop32
280
     0
102
RTVSPost2010PropOp32
 70
     1
102
RTVSPost2010Prop33
280
     0
102
RTVSPost2010PropOp33
 70
     1
102
RTVSPost2010Prop34
280
     0
102
RTVSPost2010PropOp34
 70
     1
102
RTVSPost2010Prop35
280
     0
102
RTVSPost2010PropOp35
 70
     1
102
RTVSPost2010Prop36
280
     0
102
RTVSPost2010PropOp36
 70
     1
102
RTVSPost2010Prop37
 90
       50
102
RTVSPost2010PropOp37
 70
     1
102
RTVSPost2010Prop38
140
0.0
102
RTVSPost2010PropOp38
 70
     1
102
RTVSPost2010Prop39
140
1.0
102
RTVSPost2010PropOp39
 70
     1
102
RTVSPost2010Prop40
 90
        0
102
RTVSPost2010PropOp40
 70
     1
102
RTVSPost2010Prop41ColorIndex
 90
       18
102
RTVSPost2010Prop41ColorRGB
 90
        0
102
RTVSPost2010PropOp41
 70
     1
102
RTVSPost2010Prop42
 90
       50
102
RTVSPost2010PropOp42
 70
     1
102
RTVSPost2010Prop43
 90
        3
102
RTVSPost2010PropOp43
 70
     1
102
RTVSPost2010Prop44ColorIndex
 90
        5
102
RTVSPost2010Prop44ColorRGB
 90
      255
102
RTVSPost2010PropOp44
 70
     1
102
RTVSPost2010Prop45
280
     0
102
RTVSPost2010PropOp45
 70
     1
102
RTVSPost2010Prop46
 90
       50
102
RTVSPost2010PropOp46
 70
     1
102
RTVSPost2010Prop47
 90
       50
102
RTVSPost2010PropOp47
 70
     1
102
RTVSPost2010Prop48
 90
       50
102
RTVSPost2010PropOp48
 70
     1
102
RTVSPost2010Prop49
280
     0
102
RTVSPost2010PropOp49
 70
     1
102
RTVSPost2010Prop50
 90
       50
102
RTVSPost2010PropOp50
 70
     1
102
RTVSPost2010Prop51ColorIndex
 90
      256
102
RTVSPost2010Prop51ColorRGB
 90
-16777216
102
RTVSPost2010PropOp51
 70
     0
102
RTVSPost2010Prop52
140
1.0
102
RTVSPost2010PropOp52
 70
     0
102
RTVSPost2010Prop53
 90
        2
102
RTVSPost2010PropOp53
 70
     1
102
RTVSPost2010Prop54
  1
strokes_ogs.tif
102
RTVSPost2010PropOp54
 70
     1
102
RTVSPost2010Prop55
280
     0
102
RTVSPost2010PropOp55
 70
     1
102
RTVSPost2010Prop56
140
1.0
102
RTVSPost2010PropOp56
 70
     1
102
RTVSPost2010Prop57
140
1.0
102
RTVSPost2010PropOp57
 70
     1
102
RTVSPropertyOp0
 70
     1
102
RTVSPropertyOp1
 70
     1
102
RTVSPropertyOp2
 70
     1
102
RTVSPropertyOp3
 70
     1
102
RTVSPropertyOp4
 70
     1
102
RTVSPropertyOp5
 70
     1
102
RTVSPropertyOp6
 70
     1
102
RTVSPropertyOp7
 70
     1
102
RTVSPropertyOp8
 70
     1
102
RTVSPropertyOp9
 70
     1
102
RTVSPropertyOp10
 70
     1
102
RTVSPropertyOp11
 70
     1
102
RTVSPropertyOp12
 70
     1
102
RTVSPropertyOp13
 70
     1
102
RTVSPropertyOp14
 70
     1
102
RTVSPropertyOp15
 70
     1
102
RTVSPropertyOp16
 70
     1
102
RTVSPropertyOp17
 70
     1
102
RTVSPropertyOp18
 70
     1
102
RTVSPropertyOp19
 70
     1
102
RTVSPropertyOp20
 70
     1
102
RTVSPropertyOp21
 70
     1
102
RTVSPropertyOp22
 70
     1
102
RTVSPropertyOp23
 70
     1
102
RTVSPropertyOp24
 70
     1
102
RTVSPropertyOp25
 70
     1
102
RTVSPropertyOp26
 70
     1
102
RTVSPropertyOp27
 70
     1
102
RTVSPropertyOp28
 70
     1
102
RTVSPropertyOp29
 70
     1
102
RTVSPropertyOp30
 70
     1
102
RTVSPropertyOp31
 70
     1
102
RTVSPropertyOp32
 70
     1
102
RTVSPropertyOp33
 70
     1
102
RTVSPropertyOp34
 70
     1
102
RTVSPropertyOp35
 70
     1
102
RTVSPropertyOp36
 70
     1
102
RTVSPropertyOp37
 70
     1
102
RTVSPropertyOp38
 70
     1
102
RTVSPropertyOp39
 70
     1
102
RTVSPropertyOp40
 70
     1
102
RTVSPropertyOp41
 70
     1
102
RTVSPropertyOp42
 70
     1
102
RTVSPropertyOp43
 70
     1
102
RTVSPropertyOp44
 70
     1
102
RTVSPropertyOp45
 70
     1
102
RTVSPropertyOp46
 70
     1
102
RTVSPropertyOp47
 70
     1
102
RTVSPropertyOp48
 70
     1
102
RTVSPropertyOp49
 70
     1
102
RTVSPropertyOp50
 70
     1
102
RTVSPropertyOp51
 70
     0
102
RTVSPropertyOp52
 70
     0
102
RTVSPropertyOp53
 70
     1
102
RTVSPropertyOp54
 70
     1
102
RTVSPropertyOp55
 70
     1
102
RTVSPropertyOp56
 70
     1
102
RTVSPropertyOp57
 70
     1
102
RTVSPropertyOp58
 70
     1
102
RTVSPropertyOp59
 70
     1
102
RTVSPropertyOp60
 70
     1
102
RTVSPropertyOp61
 70
     1
102
RTVSPropertyOp62
 70
     1
  0
XRECORD
  5
995E7
102
{ACAD_REACTORS
330
995E6
102
}
330
995E6
100
AcDbXrecord
280
     1
102
RTVSPost2010Prop28
280
     0
102
RTVSPost2010PropOp28
 70
     1
102
RTVSPost2010Prop29
280
     1
102
RTVSPost2010PropOp29
 70
     1
102
RTVSPost2010Prop30
280
     1
102
RTVSPost2010PropOp30
 70
     1
102
RTVSPost2010Prop31
280
     0
102
RTVSPost2010PropOp31
 70
     1
102
RTVSPost2010Prop32
280
     0
102
RTVSPost2010PropOp32
 70
     1
102
RTVSPost2010Prop33
280
     0
102
RTVSPost2010PropOp33
 70
     1
102
RTVSPost2010Prop34
280
     0
102
RTVSPost2010PropOp34
 70
     1
102
RTVSPost2010Prop35
280
     0
102
RTVSPost2010PropOp35
 70
     1
102
RTVSPost2010Prop36
280
     0
102
RTVSPost2010PropOp36
 70
     1
102
RTVSPost2010Prop37
 90
       50
102
RTVSPost2010PropOp37
 70
     1
102
RTVSPost2010Prop38
140
0.0
102
RTVSPost2010PropOp38
 70
     1
102
RTVSPost2010Prop39
140
1.0
102
RTVSPost2010PropOp39
 70
     1
102
RTVSPost2010Prop40
 90
        0
102
RTVSPost2010PropOp40
 70
     1
102
RTVSPost2010Prop41ColorIndex
 90
       18
102
RTVSPost2010Prop41ColorRGB
 90
        0
102
RTVSPost2010PropOp41
 70
     1
102
RTVSPost2010Prop42
 90
       50
102
RTVSPost2010PropOp42
 70
     1
102
RTVSPost2010Prop43
 90
        3
102
RTVSPost2010PropOp43
 70
     1
102
RTVSPost2010Prop44ColorIndex
 90
        5
102
RTVSPost2010Prop44ColorRGB
 90
      255
102
RTVSPost2010PropOp44
 70
     1
102
RTVSPost2010Prop45
280
     0
102
RTVSPost2010PropOp45
 70
     1
102
RTVSPost2010Prop46
 90
       50
102
RTVSPost2010PropOp46
 70
     1
102
RTVSPost2010Prop47
 90
       50
102
RTVSPost2010PropOp47
 70
     1
102
RTVSPost2010Prop48
 90
       50
102
RTVSPost2010PropOp48
 70
     1
102
RTVSPost2010Prop49
280
     0
102
RTVSPost2010PropOp49
 70
     1
102
RTVSPost2010Prop50
 90
       50
102
RTVSPost2010PropOp50
 70
     1
102
RTVSPost2010Prop51ColorIndex
 90
      256
102
RTVSPost2010Prop51ColorRGB
 90
-16777216
102
RTVSPost2010PropOp51
 70
     0
102
RTVSPost2010Prop52
140
1.0
102
RTVSPost2010PropOp52
 70
     0
102
RTVSPost2010Prop53
 90
        2
102
RTVSPost2010PropOp53
 70
     1
102
RTVSPost2010Prop54
  1
strokes_ogs.tif
102
RTVSPost2010PropOp54
 70
     1
102
RTVSPost2010Prop55
280
     0
102
RTVSPost2010PropOp55
 70
     1
102
RTVSPost2010Prop56
140
1.0
102
RTVSPost2010PropOp56
 70
     1
102
RTVSPost2010Prop57
140
1.0
102
RTVSPost2010PropOp57
 70
     1
102
RTVSPropertyOp0
 70
     1
102
RTVSPropertyOp1
 70
     1
102
RTVSPropertyOp2
 70
     1
102
RTVSPropertyOp3
 70
     1
102
RTVSPropertyOp4
 70
     1
102
RTVSPropertyOp5
 70
     1
102
RTVSPropertyOp6
 70
     1
102
RTVSPropertyOp7
 70
     1
102
RTVSPropertyOp8
 70
     1
102
RTVSPropertyOp9
 70
     1
102
RTVSPropertyOp10
 70
     1
102
RTVSPropertyOp11
 70
     1
102
RTVSPropertyOp12
 70
     1
102
RTVSPropertyOp13
 70
     1
102
RTVSPropertyOp14
 70
     1
102
RTVSPropertyOp15
 70
     1
102
RTVSPropertyOp16
 70
     1
102
RTVSPropertyOp17
 70
     1
102
RTVSPropertyOp18
 70
     1
102
RTVSPropertyOp19
 70
     1
102
RTVSPropertyOp20
 70
     1
102
RTVSPropertyOp21
 70
     1
102
RTVSPropertyOp22
 70
     1
102
RTVSPropertyOp23
 70
     1
102
RTVSPropertyOp24
 70
     1
102
RTVSPropertyOp25
 70
     1
102
RTVSPropertyOp26
 70
     1
102
RTVSPropertyOp27
 70
     1
102
RTVSPropertyOp28
 70
     1
102
RTVSPropertyOp29
 70
     1
102
RTVSPropertyOp30
 70
     1
102
RTVSPropertyOp31
 70
     1
102
RTVSPropertyOp32
 70
     1
102
RTVSPropertyOp33
 70
     1
102
RTVSPropertyOp34
 70
     1
102
RTVSPropertyOp35
 70
     1
102
RTVSPropertyOp36
 70
     1
102
RTVSPropertyOp37
 70
     1
102
RTVSPropertyOp38
 70
     1
102
RTVSPropertyOp39
 70
     1
102
RTVSPropertyOp40
 70
     1
102
RTVSPropertyOp41
 70
     1
102
RTVSPropertyOp42
 70
     1
102
RTVSPropertyOp43
 70
     1
102
RTVSPropertyOp44
 70
     1
102
RTVSPropertyOp45
 70
     1
102
RTVSPropertyOp46
 70
     1
102
RTVSPropertyOp47
 70
     1
102
RTVSPropertyOp48
 70
     1
102
RTVSPropertyOp49
 70
     1
102
RTVSPropertyOp50
 70
     1
102
RTVSPropertyOp51
 70
     0
102
RTVSPropertyOp52
 70
     0
102
RTVSPropertyOp53
 70
     1
102
RTVSPropertyOp54
 70
     1
102
RTVSPropertyOp55
 70
     1
102
RTVSPropertyOp56
 70
     1
102
RTVSPropertyOp57
 70
     1
102
RTVSPropertyOp58
 70
     1
102
RTVSPropertyOp59
 70
     1
102
RTVSPropertyOp60
 70
     1
102
RTVSPropertyOp61
 70
     1
102
RTVSPropertyOp62
 70
     1
  0
XRECORD
  5
99606
102
{ACAD_REACTORS
330
99605
102
}
330
99605
100
AcDbXrecord
280
     1
102
RTVSPost2010Prop28
280
     0
102
RTVSPost2010PropOp28
 70
     0
102
RTVSPost2010Prop29
280
     1
102
RTVSPost2010PropOp29
 70
     0
102
RTVSPost2010Prop30
280
     1
102
RTVSPost2010PropOp30
 70
     0
102
RTVSPost2010Prop31
280
     0
102
RTVSPost2010PropOp31
 70
     0
102
RTVSPost2010Prop32
280
     0
102
RTVSPost2010PropOp32
 70
     0
102
RTVSPost2010Prop33
280
     0
102
RTVSPost2010PropOp33
 70
     1
102
RTVSPost2010Prop34
280
     0
102
RTVSPost2010PropOp34
 70
     1
102
RTVSPost2010Prop35
280
     0
102
RTVSPost2010PropOp35
 70
     1
102
RTVSPost2010Prop36
280
     0
102
RTVSPost2010PropOp36
 70
     1
102
RTVSPost2010Prop37
 90
       50
102
RTVSPost2010PropOp37
 70
     1
102
RTVSPost2010Prop38
140
0.0
102
RTVSPost2010PropOp38
 70
     1
102
RTVSPost2010Prop39
140
1.0
102
RTVSPost2010PropOp39
 70
     1
102
RTVSPost2010Prop40
 90
        0
102
RTVSPost2010PropOp40
 70
     1
102
RTVSPost2010Prop41ColorIndex
 90
       18
102
RTVSPost2010Prop41ColorRGB
 90
        0
102
RTVSPost2010PropOp41
 70
     1
102
RTVSPost2010Prop42
 90
       50
102
RTVSPost2010PropOp42
 70
     1
102
RTVSPost2010Prop43
 90
        3
102
RTVSPost2010PropOp43
 70
     1
102
RTVSPost2010Prop44ColorIndex
 90
        5
102
RTVSPost2010Prop44ColorRGB
 90
      255
102
RTVSPost2010PropOp44
 70
     1
102
RTVSPost2010Prop45
280
     0
102
RTVSPost2010PropOp45
 70
     1
102
RTVSPost2010Prop46
 90
       50
102
RTVSPost2010PropOp46
 70
     1
102
RTVSPost2010Prop47
 90
       50
102
RTVSPost2010PropOp47
 70
     1
102
RTVSPost2010Prop48
 90
       50
102
RTVSPost2010PropOp48
 70
     1
102
RTVSPost2010Prop49
280
     0
102
RTVSPost2010PropOp49
 70
     1
102
RTVSPost2010Prop50
 90
       50
102
RTVSPost2010PropOp50
 70
     1
102
RTVSPost2010Prop51ColorIndex
 90
      256
102
RTVSPost2010Prop51ColorRGB
 90
-16777216
102
RTVSPost2010PropOp51
 70
     0
102
RTVSPost2010Prop52
140
1.0
102
RTVSPost2010PropOp52
 70
     0
102
RTVSPost2010Prop53
 90
        2
102
RTVSPost2010PropOp53
 70
     1
102
RTVSPost2010Prop54
  1
strokes_ogs.tif
102
RTVSPost2010PropOp54
 70
     1
102
RTVSPost2010Prop55
280
     0
102
RTVSPost2010PropOp55
 70
     1
102
RTVSPost2010Prop56
140
1.0
102
RTVSPost2010PropOp56
 70
     1
102
RTVSPost2010Prop57
140
1.0
102
RTVSPost2010PropOp57
 70
     1
102
RTVSPropertyOp0
 70
     0
102
RTVSPropertyOp1
 70
     0
102
RTVSPropertyOp2
 70
     0
102
RTVSPropertyOp3
 70
     0
102
RTVSPropertyOp4
 70
     0
102
RTVSPropertyOp5
 70
     0
102
RTVSPropertyOp6
 70
     0
102
RTVSPropertyOp7
 70
     0
102
RTVSPropertyOp8
 70
     0
102
RTVSPropertyOp9
 70
     0
102
RTVSPropertyOp10
 70
     0
102
RTVSPropertyOp11
 70
     0
102
RTVSPropertyOp12
 70
     0
102
RTVSPropertyOp13
 70
     0
102
RTVSPropertyOp14
 70
     2
102
RTVSPropertyOp15
 70
     0
102
RTVSPropertyOp16
 70
     0
102
RTVSPropertyOp17
 70
     0
102
RTVSPropertyOp18
 70
     0
102
RTVSPropertyOp19
 70
     0
102
RTVSPropertyOp20
 70
     0
102
RTVSPropertyOp21
 70
     0
102
RTVSPropertyOp22
 70
     0
102
RTVSPropertyOp23
 70
     0
102
RTVSPropertyOp24
 70
     0
102
RTVSPropertyOp25
 70
     0
102
RTVSPropertyOp26
 70
     0
102
RTVSPropertyOp27
 70
     0
102
RTVSPropertyOp28
 70
     0
102
RTVSPropertyOp29
 70
     0
102
RTVSPropertyOp30
 70
     0
102
RTVSPropertyOp31
 70
     0
102
RTVSPropertyOp32
 70
     0
102
RTVSPropertyOp33
 70
     1
102
RTVSPropertyOp34
 70
     1
102
RTVSPropertyOp35
 70
     1
102
RTVSPropertyOp36
 70
     1
102
RTVSPropertyOp37
 70
     1
102
RTVSPropertyOp38
 70
     1
102
RTVSPropertyOp39
 70
     1
102
RTVSPropertyOp40
 70
     1
102
RTVSPropertyOp41
 70
     1
102
RTVSPropertyOp42
 70
     1
102
RTVSPropertyOp43
 70
     1
102
RTVSPropertyOp44
 70
     1
102
RTVSPropertyOp45
 70
     1
102
RTVSPropertyOp46
 70
     1
102
RTVSPropertyOp47
 70
     1
102
RTVSPropertyOp48
 70
     1
102
RTVSPropertyOp49
 70
     1
102
RTVSPropertyOp50
 70
     1
102
RTVSPropertyOp51
 70
     0
102
RTVSPropertyOp52
 70
     0
102
RTVSPropertyOp53
 70
     1
102
RTVSPropertyOp54
 70
     1
102
RTVSPropertyOp55
 70
     1
102
RTVSPropertyOp56
 70
     1
102
RTVSPropertyOp57
 70
     1
102
RTVSPropertyOp58
 70
     1
102
RTVSPropertyOp59
 70
     1
102
RTVSPropertyOp60
 70
     1
102
RTVSPropertyOp61
 70
     1
102
RTVSPropertyOp62
 70
     1
  0
XRECORD
  5
995EF
102
{ACAD_REACTORS
330
995EE
102
}
330
995EE
100
AcDbXrecord
280
     1
102
RTVSPost2010Prop28
280
     0
102
RTVSPost2010PropOp28
 70
     1
102
RTVSPost2010Prop29
280
     1
102
RTVSPost2010PropOp29
 70
     1
102
RTVSPost2010Prop30
280
     1
102
RTVSPost2010PropOp30
 70
     1
102
RTVSPost2010Prop31
280
     0
102
RTVSPost2010PropOp31
 70
     1
102
RTVSPost2010Prop32
280
     0
102
RTVSPost2010PropOp32
 70
     1
102
RTVSPost2010Prop33
280
     0
102
RTVSPost2010PropOp33
 70
     1
102
RTVSPost2010Prop34
280
     0
102
RTVSPost2010PropOp34
 70
     1
102
RTVSPost2010Prop35
280
     0
102
RTVSPost2010PropOp35
 70
     1
102
RTVSPost2010Prop36
280
     0
102
RTVSPost2010PropOp36
 70
     1
102
RTVSPost2010Prop37
 90
       50
102
RTVSPost2010PropOp37
 70
     1
102
RTVSPost2010Prop38
140
0.0
102
RTVSPost2010PropOp38
 70
     1
102
RTVSPost2010Prop39
140
1.0
102
RTVSPost2010PropOp39
 70
     1
102
RTVSPost2010Prop40
 90
        0
102
RTVSPost2010PropOp40
 70
     1
102
RTVSPost2010Prop41ColorIndex
 90
       18
102
RTVSPost2010Prop41ColorRGB
 90
        0
102
RTVSPost2010PropOp41
 70
     1
102
RTVSPost2010Prop42
 90
       50
102
RTVSPost2010PropOp42
 70
     1
102
RTVSPost2010Prop43
 90
        3
102
RTVSPost2010PropOp43
 70
     1
102
RTVSPost2010Prop44ColorIndex
 90
        5
102
RTVSPost2010Prop44ColorRGB
 90
      255
102
RTVSPost2010PropOp44
 70
     1
102
RTVSPost2010Prop45
280
     0
102
RTVSPost2010PropOp45
 70
     1
102
RTVSPost2010Prop46
 90
       50
102
RTVSPost2010PropOp46
 70
     1
102
RTVSPost2010Prop47
 90
       50
102
RTVSPost2010PropOp47
 70
     1
102
RTVSPost2010Prop48
 90
       50
102
RTVSPost2010PropOp48
 70
     1
102
RTVSPost2010Prop49
280
     0
102
RTVSPost2010PropOp49
 70
     1
102
RTVSPost2010Prop50
 90
       50
102
RTVSPost2010PropOp50
 70
     1
102
RTVSPost2010Prop51ColorIndex
 90
      256
102
RTVSPost2010Prop51ColorRGB
 90
-16777216
102
RTVSPost2010PropOp51
 70
     0
102
RTVSPost2010Prop52
140
1.0
102
RTVSPost2010PropOp52
 70
     0
102
RTVSPost2010Prop53
 90
        2
102
RTVSPost2010PropOp53
 70
     1
102
RTVSPost2010Prop54
  1
strokes_ogs.tif
102
RTVSPost2010PropOp54
 70
     1
102
RTVSPost2010Prop55
280
     0
102
RTVSPost2010PropOp55
 70
     1
102
RTVSPost2010Prop56
140
1.0
102
RTVSPost2010PropOp56
 70
     1
102
RTVSPost2010Prop57
140
1.0
102
RTVSPost2010PropOp57
 70
     1
102
RTVSPropertyOp0
 70
     1
102
RTVSPropertyOp1
 70
     1
102
RTVSPropertyOp2
 70
     1
102
RTVSPropertyOp3
 70
     1
102
RTVSPropertyOp4
 70
     1
102
RTVSPropertyOp5
 70
     1
102
RTVSPropertyOp6
 70
     1
102
RTVSPropertyOp7
 70
     1
102
RTVSPropertyOp8
 70
     1
102
RTVSPropertyOp9
 70
     1
102
RTVSPropertyOp10
 70
     1
102
RTVSPropertyOp11
 70
     1
102
RTVSPropertyOp12
 70
     1
102
RTVSPropertyOp13
 70
     1
102
RTVSPropertyOp14
 70
     1
102
RTVSPropertyOp15
 70
     1
102
RTVSPropertyOp16
 70
     1
102
RTVSPropertyOp17
 70
     1
102
RTVSPropertyOp18
 70
     1
102
RTVSPropertyOp19
 70
     1
102
RTVSPropertyOp20
 70
     1
102
RTVSPropertyOp21
 70
     1
102
RTVSPropertyOp22
 70
     1
102
RTVSPropertyOp23
 70
     1
102
RTVSPropertyOp24
 70
     1
102
RTVSPropertyOp25
 70
     1
102
RTVSPropertyOp26
 70
     1
102
RTVSPropertyOp27
 70
     1
102
RTVSPropertyOp28
 70
     1
102
RTVSPropertyOp29
 70
     1
102
RTVSPropertyOp30
 70
     1
102
RTVSPropertyOp31
 70
     1
102
RTVSPropertyOp32
 70
     1
102
RTVSPropertyOp33
 70
     1
102
RTVSPropertyOp34
 70
     1
102
RTVSPropertyOp35
 70
     1
102
RTVSPropertyOp36
 70
     1
102
RTVSPropertyOp37
 70
     1
102
RTVSPropertyOp38
 70
     1
102
RTVSPropertyOp39
 70
     1
102
RTVSPropertyOp40
 70
     1
102
RTVSPropertyOp41
 70
     1
102
RTVSPropertyOp42
 70
     1
102
RTVSPropertyOp43
 70
     1
102
RTVSPropertyOp44
 70
     1
102
RTVSPropertyOp45
 70
     1
102
RTVSPropertyOp46
 70
     1
102
RTVSPropertyOp47
 70
     1
102
RTVSPropertyOp48
 70
     1
102
RTVSPropertyOp49
 70
     1
102
RTVSPropertyOp50
 70
     1
102
RTVSPropertyOp51
 70
     0
102
RTVSPropertyOp52
 70
     0
102
RTVSPropertyOp53
 70
     1
102
RTVSPropertyOp54
 70
     1
102
RTVSPropertyOp55
 70
     1
102
RTVSPropertyOp56
 70
     1
102
RTVSPropertyOp57
 70
     1
102
RTVSPropertyOp58
 70
     1
102
RTVSPropertyOp59
 70
     1
102
RTVSPropertyOp60
 70
     1
102
RTVSPropertyOp61
 70
     1
102
RTVSPropertyOp62
 70
     1
  0
XRECORD
  5
995D3
102
{ACAD_REACTORS
330
995D2
102
}
330
995D2
100
AcDbXrecord
280
     1
102
RTVSPost2010Prop28
280
     0
102
RTVSPost2010PropOp28
 70
     1
102
RTVSPost2010Prop29
280
     1
102
RTVSPost2010PropOp29
 70
     1
102
RTVSPost2010Prop30
280
     1
102
RTVSPost2010PropOp30
 70
     1
102
RTVSPost2010Prop31
280
     0
102
RTVSPost2010PropOp31
 70
     1
102
RTVSPost2010Prop32
280
     0
102
RTVSPost2010PropOp32
 70
     1
102
RTVSPost2010Prop33
280
     0
102
RTVSPost2010PropOp33
 70
     1
102
RTVSPost2010Prop34
280
     0
102
RTVSPost2010PropOp34
 70
     1
102
RTVSPost2010Prop35
280
     0
102
RTVSPost2010PropOp35
 70
     1
102
RTVSPost2010Prop36
280
     0
102
RTVSPost2010PropOp36
 70
     1
102
RTVSPost2010Prop37
 90
       50
102
RTVSPost2010PropOp37
 70
     1
102
RTVSPost2010Prop38
140
0.0
102
RTVSPost2010PropOp38
 70
     1
102
RTVSPost2010Prop39
140
1.0
102
RTVSPost2010PropOp39
 70
     1
102
RTVSPost2010Prop40
 90
        0
102
RTVSPost2010PropOp40
 70
     1
102
RTVSPost2010Prop41ColorIndex
 90
       18
102
RTVSPost2010Prop41ColorRGB
 90
        0
102
RTVSPost2010PropOp41
 70
     1
102
RTVSPost2010Prop42
 90
       50
102
RTVSPost2010PropOp42
 70
     1
102
RTVSPost2010Prop43
 90
        3
102
RTVSPost2010PropOp43
 70
     1
102
RTVSPost2010Prop44ColorIndex
 90
        5
102
RTVSPost2010Prop44ColorRGB
 90
      255
102
RTVSPost2010PropOp44
 70
     1
102
RTVSPost2010Prop45
280
     0
102
RTVSPost2010PropOp45
 70
     1
102
RTVSPost2010Prop46
 90
       50
102
RTVSPost2010PropOp46
 70
     1
102
RTVSPost2010Prop47
 90
       50
102
RTVSPost2010PropOp47
 70
     1
102
RTVSPost2010Prop48
 90
       50
102
RTVSPost2010PropOp48
 70
     1
102
RTVSPost2010Prop49
280
     0
102
RTVSPost2010PropOp49
 70
     1
102
RTVSPost2010Prop50
 90
       50
102
RTVSPost2010PropOp50
 70
     1
102
RTVSPost2010Prop51ColorIndex
 90
      256
102
RTVSPost2010Prop51ColorRGB
 90
-16777216
102
RTVSPost2010PropOp51
 70
     0
102
RTVSPost2010Prop52
140
1.0
102
RTVSPost2010PropOp52
 70
     0
102
RTVSPost2010Prop53
 90
        2
102
RTVSPost2010PropOp53
 70
     1
102
RTVSPost2010Prop54
  1
strokes_ogs.tif
102
RTVSPost2010PropOp54
 70
     1
102
RTVSPost2010Prop55
280
     0
102
RTVSPost2010PropOp55
 70
     1
102
RTVSPost2010Prop56
140
1.0
102
RTVSPost2010PropOp56
 70
     1
102
RTVSPost2010Prop57
140
1.0
102
RTVSPost2010PropOp57
 70
     1
102
RTVSPropertyOp0
 70
     1
102
RTVSPropertyOp1
 70
     1
102
RTVSPropertyOp2
 70
     1
102
RTVSPropertyOp3
 70
     1
102
RTVSPropertyOp4
 70
     1
102
RTVSPropertyOp5
 70
     1
102
RTVSPropertyOp6
 70
     1
102
RTVSPropertyOp7
 70
     1
102
RTVSPropertyOp8
 70
     1
102
RTVSPropertyOp9
 70
     1
102
RTVSPropertyOp10
 70
     1
102
RTVSPropertyOp11
 70
     1
102
RTVSPropertyOp12
 70
     1
102
RTVSPropertyOp13
 70
     1
102
RTVSPropertyOp14
 70
     1
102
RTVSPropertyOp15
 70
     1
102
RTVSPropertyOp16
 70
     1
102
RTVSPropertyOp17
 70
     1
102
RTVSPropertyOp18
 70
     1
102
RTVSPropertyOp19
 70
     1
102
RTVSPropertyOp20
 70
     1
102
RTVSPropertyOp21
 70
     1
102
RTVSPropertyOp22
 70
     1
102
RTVSPropertyOp23
 70
     1
102
RTVSPropertyOp24
 70
     1
102
RTVSPropertyOp25
 70
     1
102
RTVSPropertyOp26
 70
     1
102
RTVSPropertyOp27
 70
     1
102
RTVSPropertyOp28
 70
     1
102
RTVSPropertyOp29
 70
     1
102
RTVSPropertyOp30
 70
     1
102
RTVSPropertyOp31
 70
     1
102
RTVSPropertyOp32
 70
     1
102
RTVSPropertyOp33
 70
     1
102
RTVSPropertyOp34
 70
     1
102
RTVSPropertyOp35
 70
     1
102
RTVSPropertyOp36
 70
     1
102
RTVSPropertyOp37
 70
     1
102
RTVSPropertyOp38
 70
     1
102
RTVSPropertyOp39
 70
     1
102
RTVSPropertyOp40
 70
     1
102
RTVSPropertyOp41
 70
     1
102
RTVSPropertyOp42
 70
     1
102
RTVSPropertyOp43
 70
     1
102
RTVSPropertyOp44
 70
     1
102
RTVSPropertyOp45
 70
     1
102
RTVSPropertyOp46
 70
     1
102
RTVSPropertyOp47
 70
     1
102
RTVSPropertyOp48
 70
     1
102
RTVSPropertyOp49
 70
     1
102
RTVSPropertyOp50
 70
     1
102
RTVSPropertyOp51
 70
     0
102
RTVSPropertyOp52
 70
     0
102
RTVSPropertyOp53
 70
     1
102
RTVSPropertyOp54
 70
     1
102
RTVSPropertyOp55
 70
     1
102
RTVSPropertyOp56
 70
     1
102
RTVSPropertyOp57
 70
     1
102
RTVSPropertyOp58
 70
     1
102
RTVSPropertyOp59
 70
     1
102
RTVSPropertyOp60
 70
     1
102
RTVSPropertyOp61
 70
     1
102
RTVSPropertyOp62
 70
     1
  0
XRECORD
  5
995D5
102
{ACAD_REACTORS
330
995D4
102
}
330
995D4
100
AcDbXrecord
280
     1
102
RTVSPost2010Prop28
280
     0
102
RTVSPost2010PropOp28
 70
     1
102
RTVSPost2010Prop29
280
     1
102
RTVSPost2010PropOp29
 70
     1
102
RTVSPost2010Prop30
280
     1
102
RTVSPost2010PropOp30
 70
     1
102
RTVSPost2010Prop31
280
     0
102
RTVSPost2010PropOp31
 70
     1
102
RTVSPost2010Prop32
280
     0
102
RTVSPost2010PropOp32
 70
     1
102
RTVSPost2010Prop33
280
     0
102
RTVSPost2010PropOp33
 70
     1
102
RTVSPost2010Prop34
280
     0
102
RTVSPost2010PropOp34
 70
     1
102
RTVSPost2010Prop35
280
     0
102
RTVSPost2010PropOp35
 70
     1
102
RTVSPost2010Prop36
280
     0
102
RTVSPost2010PropOp36
 70
     1
102
RTVSPost2010Prop37
 90
       50
102
RTVSPost2010PropOp37
 70
     1
102
RTVSPost2010Prop38
140
0.0
102
RTVSPost2010PropOp38
 70
     1
102
RTVSPost2010Prop39
140
1.0
102
RTVSPost2010PropOp39
 70
     1
102
RTVSPost2010Prop40
 90
        0
102
RTVSPost2010PropOp40
 70
     1
102
RTVSPost2010Prop41ColorIndex
 90
       18
102
RTVSPost2010Prop41ColorRGB
 90
        0
102
RTVSPost2010PropOp41
 70
     1
102
RTVSPost2010Prop42
 90
       50
102
RTVSPost2010PropOp42
 70
     1
102
RTVSPost2010Prop43
 90
        3
102
RTVSPost2010PropOp43
 70
     1
102
RTVSPost2010Prop44ColorIndex
 90
        5
102
RTVSPost2010Prop44ColorRGB
 90
      255
102
RTVSPost2010PropOp44
 70
     1
102
RTVSPost2010Prop45
280
     0
102
RTVSPost2010PropOp45
 70
     1
102
RTVSPost2010Prop46
 90
       50
102
RTVSPost2010PropOp46
 70
     1
102
RTVSPost2010Prop47
 90
       50
102
RTVSPost2010PropOp47
 70
     1
102
RTVSPost2010Prop48
 90
       50
102
RTVSPost2010PropOp48
 70
     1
102
RTVSPost2010Prop49
280
     0
102
RTVSPost2010PropOp49
 70
     1
102
RTVSPost2010Prop50
 90
       50
102
RTVSPost2010PropOp50
 70
     1
102
RTVSPost2010Prop51ColorIndex
 90
      256
102
RTVSPost2010Prop51ColorRGB
 90
-16777216
102
RTVSPost2010PropOp51
 70
     0
102
RTVSPost2010Prop52
140
1.0
102
RTVSPost2010PropOp52
 70
     0
102
RTVSPost2010Prop53
 90
        2
102
RTVSPost2010PropOp53
 70
     1
102
RTVSPost2010Prop54
  1
strokes_ogs.tif
102
RTVSPost2010PropOp54
 70
     1
102
RTVSPost2010Prop55
280
     0
102
RTVSPost2010PropOp55
 70
     1
102
RTVSPost2010Prop56
140
1.0
102
RTVSPost2010PropOp56
 70
     1
102
RTVSPost2010Prop57
140
1.0
102
RTVSPost2010PropOp57
 70
     1
102
RTVSPropertyOp0
 70
     1
102
RTVSPropertyOp1
 70
     1
102
RTVSPropertyOp2
 70
     1
102
RTVSPropertyOp3
 70
     1
102
RTVSPropertyOp4
 70
     1
102
RTVSPropertyOp5
 70
     1
102
RTVSPropertyOp6
 70
     1
102
RTVSPropertyOp7
 70
     1
102
RTVSPropertyOp8
 70
     1
102
RTVSPropertyOp9
 70
     1
102
RTVSPropertyOp10
 70
     1
102
RTVSPropertyOp11
 70
     1
102
RTVSPropertyOp12
 70
     1
102
RTVSPropertyOp13
 70
     1
102
RTVSPropertyOp14
 70
     1
102
RTVSPropertyOp15
 70
     1
102
RTVSPropertyOp16
 70
     1
102
RTVSPropertyOp17
 70
     1
102
RTVSPropertyOp18
 70
     1
102
RTVSPropertyOp19
 70
     1
102
RTVSPropertyOp20
 70
     1
102
RTVSPropertyOp21
 70
     1
102
RTVSPropertyOp22
 70
     1
102
RTVSPropertyOp23
 70
     1
102
RTVSPropertyOp24
 70
     1
102
RTVSPropertyOp25
 70
     1
102
RTVSPropertyOp26
 70
     1
102
RTVSPropertyOp27
 70
     1
102
RTVSPropertyOp28
 70
     1
102
RTVSPropertyOp29
 70
     1
102
RTVSPropertyOp30
 70
     1
102
RTVSPropertyOp31
 70
     1
102
RTVSPropertyOp32
 70
     1
102
RTVSPropertyOp33
 70
     1
102
RTVSPropertyOp34
 70
     1
102
RTVSPropertyOp35
 70
     1
102
RTVSPropertyOp36
 70
     1
102
RTVSPropertyOp37
 70
     1
102
RTVSPropertyOp38
 70
     1
102
RTVSPropertyOp39
 70
     1
102
RTVSPropertyOp40
 70
     1
102
RTVSPropertyOp41
 70
     1
102
RTVSPropertyOp42
 70
     1
102
RTVSPropertyOp43
 70
     1
102
RTVSPropertyOp44
 70
     1
102
RTVSPropertyOp45
 70
     1
102
RTVSPropertyOp46
 70
     1
102
RTVSPropertyOp47
 70
     1
102
RTVSPropertyOp48
 70
     1
102
RTVSPropertyOp49
 70
     1
102
RTVSPropertyOp50
 70
     1
102
RTVSPropertyOp51
 70
     0
102
RTVSPropertyOp52
 70
     0
102
RTVSPropertyOp53
 70
     1
102
RTVSPropertyOp54
 70
     1
102
RTVSPropertyOp55
 70
     1
102
RTVSPropertyOp56
 70
     1
102
RTVSPropertyOp57
 70
     1
102
RTVSPropertyOp58
 70
     1
102
RTVSPropertyOp59
 70
     1
102
RTVSPropertyOp60
 70
     1
102
RTVSPropertyOp61
 70
     1
102
RTVSPropertyOp62
 70
     1
  0
XRECORD
  5
995D7
102
{ACAD_REACTORS
330
995D6
102
}
330
995D6
100
AcDbXrecord
280
     1
102
RTVSPost2010Prop28
280
     0
102
RTVSPost2010PropOp28
 70
     1
102
RTVSPost2010Prop29
280
     1
102
RTVSPost2010PropOp29
 70
     1
102
RTVSPost2010Prop30
280
     1
102
RTVSPost2010PropOp30
 70
     1
102
RTVSPost2010Prop31
280
     0
102
RTVSPost2010PropOp31
 70
     1
102
RTVSPost2010Prop32
280
     0
102
RTVSPost2010PropOp32
 70
     1
102
RTVSPost2010Prop33
280
     0
102
RTVSPost2010PropOp33
 70
     1
102
RTVSPost2010Prop34
280
     0
102
RTVSPost2010PropOp34
 70
     1
102
RTVSPost2010Prop35
280
     0
102
RTVSPost2010PropOp35
 70
     1
102
RTVSPost2010Prop36
280
     0
102
RTVSPost2010PropOp36
 70
     1
102
RTVSPost2010Prop37
 90
       50
102
RTVSPost2010PropOp37
 70
     1
102
RTVSPost2010Prop38
140
0.0
102
RTVSPost2010PropOp38
 70
     1
102
RTVSPost2010Prop39
140
1.0
102
RTVSPost2010PropOp39
 70
     1
102
RTVSPost2010Prop40
 90
        0
102
RTVSPost2010PropOp40
 70
     1
102
RTVSPost2010Prop41ColorIndex
 90
       18
102
RTVSPost2010Prop41ColorRGB
 90
        0
102
RTVSPost2010PropOp41
 70
     1
102
RTVSPost2010Prop42
 90
       50
102
RTVSPost2010PropOp42
 70
     1
102
RTVSPost2010Prop43
 90
        3
102
RTVSPost2010PropOp43
 70
     1
102
RTVSPost2010Prop44ColorIndex
 90
        5
102
RTVSPost2010Prop44ColorRGB
 90
      255
102
RTVSPost2010PropOp44
 70
     1
102
RTVSPost2010Prop45
280
     0
102
RTVSPost2010PropOp45
 70
     1
102
RTVSPost2010Prop46
 90
       50
102
RTVSPost2010PropOp46
 70
     1
102
RTVSPost2010Prop47
 90
       50
102
RTVSPost2010PropOp47
 70
     1
102
RTVSPost2010Prop48
 90
       50
102
RTVSPost2010PropOp48
 70
     1
102
RTVSPost2010Prop49
280
     0
102
RTVSPost2010PropOp49
 70
     1
102
RTVSPost2010Prop50
 90
       50
102
RTVSPost2010PropOp50
 70
     1
102
RTVSPost2010Prop51ColorIndex
 90
      256
102
RTVSPost2010Prop51ColorRGB
 90
-16777216
102
RTVSPost2010PropOp51
 70
     0
102
RTVSPost2010Prop52
140
1.0
102
RTVSPost2010PropOp52
 70
     0
102
RTVSPost2010Prop53
 90
        2
102
RTVSPost2010PropOp53
 70
     1
102
RTVSPost2010Prop54
  1
strokes_ogs.tif
102
RTVSPost2010PropOp54
 70
     1
102
RTVSPost2010Prop55
280
     0
102
RTVSPost2010PropOp55
 70
     1
102
RTVSPost2010Prop56
140
1.0
102
RTVSPost2010PropOp56
 70
     1
102
RTVSPost2010Prop57
140
1.0
102
RTVSPost2010PropOp57
 70
     1
102
RTVSPropertyOp0
 70
     1
102
RTVSPropertyOp1
 70
     1
102
RTVSPropertyOp2
 70
     1
102
RTVSPropertyOp3
 70
     1
102
RTVSPropertyOp4
 70
     1
102
RTVSPropertyOp5
 70
     1
102
RTVSPropertyOp6
 70
     1
102
RTVSPropertyOp7
 70
     1
102
RTVSPropertyOp8
 70
     1
102
RTVSPropertyOp9
 70
     1
102
RTVSPropertyOp10
 70
     1
102
RTVSPropertyOp11
 70
     1
102
RTVSPropertyOp12
 70
     1
102
RTVSPropertyOp13
 70
     1
102
RTVSPropertyOp14
 70
     1
102
RTVSPropertyOp15
 70
     1
102
RTVSPropertyOp16
 70
     1
102
RTVSPropertyOp17
 70
     1
102
RTVSPropertyOp18
 70
     1
102
RTVSPropertyOp19
 70
     1
102
RTVSPropertyOp20
 70
     1
102
RTVSPropertyOp21
 70
     1
102
RTVSPropertyOp22
 70
     1
102
RTVSPropertyOp23
 70
     1
102
RTVSPropertyOp24
 70
     1
102
RTVSPropertyOp25
 70
     1
102
RTVSPropertyOp26
 70
     1
102
RTVSPropertyOp27
 70
     1
102
RTVSPropertyOp28
 70
     1
102
RTVSPropertyOp29
 70
     1
102
RTVSPropertyOp30
 70
     1
102
RTVSPropertyOp31
 70
     1
102
RTVSPropertyOp32
 70
     1
102
RTVSPropertyOp33
 70
     1
102
RTVSPropertyOp34
 70
     1
102
RTVSPropertyOp35
 70
     1
102
RTVSPropertyOp36
 70
     1
102
RTVSPropertyOp37
 70
     1
102
RTVSPropertyOp38
 70
     1
102
RTVSPropertyOp39
 70
     1
102
RTVSPropertyOp40
 70
     1
102
RTVSPropertyOp41
 70
     1
102
RTVSPropertyOp42
 70
     1
102
RTVSPropertyOp43
 70
     1
102
RTVSPropertyOp44
 70
     1
102
RTVSPropertyOp45
 70
     1
102
RTVSPropertyOp46
 70
     1
102
RTVSPropertyOp47
 70
     1
102
RTVSPropertyOp48
 70
     1
102
RTVSPropertyOp49
 70
     1
102
RTVSPropertyOp50
 70
     1
102
RTVSPropertyOp51
 70
     0
102
RTVSPropertyOp52
 70
     0
102
RTVSPropertyOp53
 70
     1
102
RTVSPropertyOp54
 70
     1
102
RTVSPropertyOp55
 70
     1
102
RTVSPropertyOp56
 70
     1
102
RTVSPropertyOp57
 70
     1
102
RTVSPropertyOp58
 70
     1
102
RTVSPropertyOp59
 70
     1
102
RTVSPropertyOp60
 70
     1
102
RTVSPropertyOp61
 70
     1
102
RTVSPropertyOp62
 70
     1
  0
XRECORD
  5
995D9
102
{ACAD_REACTORS
330
995D8
102
}
330
995D8
100
AcDbXrecord
280
     1
102
RTVSPost2010Prop28
280
     0
102
RTVSPost2010PropOp28
 70
     1
102
RTVSPost2010Prop29
280
     1
102
RTVSPost2010PropOp29
 70
     1
102
RTVSPost2010Prop30
280
     1
102
RTVSPost2010PropOp30
 70
     1
102
RTVSPost2010Prop31
280
     0
102
RTVSPost2010PropOp31
 70
     1
102
RTVSPost2010Prop32
280
     0
102
RTVSPost2010PropOp32
 70
     1
102
RTVSPost2010Prop33
280
     0
102
RTVSPost2010PropOp33
 70
     1
102
RTVSPost2010Prop34
280
     0
102
RTVSPost2010PropOp34
 70
     1
102
RTVSPost2010Prop35
280
     0
102
RTVSPost2010PropOp35
 70
     1
102
RTVSPost2010Prop36
280
     0
102
RTVSPost2010PropOp36
 70
     1
102
RTVSPost2010Prop37
 90
       50
102
RTVSPost2010PropOp37
 70
     1
102
RTVSPost2010Prop38
140
0.0
102
RTVSPost2010PropOp38
 70
     1
102
RTVSPost2010Prop39
140
1.0
102
RTVSPost2010PropOp39
 70
     1
102
RTVSPost2010Prop40
 90
        0
102
RTVSPost2010PropOp40
 70
     1
102
RTVSPost2010Prop41ColorIndex
 90
       18
102
RTVSPost2010Prop41ColorRGB
 90
        0
102
RTVSPost2010PropOp41
 70
     1
102
RTVSPost2010Prop42
 90
       50
102
RTVSPost2010PropOp42
 70
     1
102
RTVSPost2010Prop43
 90
        3
102
RTVSPost2010PropOp43
 70
     1
102
RTVSPost2010Prop44ColorIndex
 90
        5
102
RTVSPost2010Prop44ColorRGB
 90
      255
102
RTVSPost2010PropOp44
 70
     1
102
RTVSPost2010Prop45
280
     0
102
RTVSPost2010PropOp45
 70
     1
102
RTVSPost2010Prop46
 90
       50
102
RTVSPost2010PropOp46
 70
     1
102
RTVSPost2010Prop47
 90
       50
102
RTVSPost2010PropOp47
 70
     1
102
RTVSPost2010Prop48
 90
       50
102
RTVSPost2010PropOp48
 70
     1
102
RTVSPost2010Prop49
280
     0
102
RTVSPost2010PropOp49
 70
     1
102
RTVSPost2010Prop50
 90
       50
102
RTVSPost2010PropOp50
 70
     1
102
RTVSPost2010Prop51ColorIndex
 90
      256
102
RTVSPost2010Prop51ColorRGB
 90
-16777216
102
RTVSPost2010PropOp51
 70
     0
102
RTVSPost2010Prop52
140
1.0
102
RTVSPost2010PropOp52
 70
     0
102
RTVSPost2010Prop53
 90
        2
102
RTVSPost2010PropOp53
 70
     1
102
RTVSPost2010Prop54
  1
strokes_ogs.tif
102
RTVSPost2010PropOp54
 70
     1
102
RTVSPost2010Prop55
280
     0
102
RTVSPost2010PropOp55
 70
     1
102
RTVSPost2010Prop56
140
1.0
102
RTVSPost2010PropOp56
 70
     1
102
RTVSPost2010Prop57
140
1.0
102
RTVSPost2010PropOp57
 70
     1
102
RTVSPropertyOp0
 70
     1
102
RTVSPropertyOp1
 70
     1
102
RTVSPropertyOp2
 70
     1
102
RTVSPropertyOp3
 70
     1
102
RTVSPropertyOp4
 70
     1
102
RTVSPropertyOp5
 70
     1
102
RTVSPropertyOp6
 70
     1
102
RTVSPropertyOp7
 70
     1
102
RTVSPropertyOp8
 70
     1
102
RTVSPropertyOp9
 70
     1
102
RTVSPropertyOp10
 70
     1
102
RTVSPropertyOp11
 70
     1
102
RTVSPropertyOp12
 70
     1
102
RTVSPropertyOp13
 70
     1
102
RTVSPropertyOp14
 70
     1
102
RTVSPropertyOp15
 70
     1
102
RTVSPropertyOp16
 70
     1
102
RTVSPropertyOp17
 70
     1
102
RTVSPropertyOp18
 70
     1
102
RTVSPropertyOp19
 70
     1
102
RTVSPropertyOp20
 70
     1
102
RTVSPropertyOp21
 70
     1
102
RTVSPropertyOp22
 70
     1
102
RTVSPropertyOp23
 70
     1
102
RTVSPropertyOp24
 70
     1
102
RTVSPropertyOp25
 70
     1
102
RTVSPropertyOp26
 70
     1
102
RTVSPropertyOp27
 70
     1
102
RTVSPropertyOp28
 70
     1
102
RTVSPropertyOp29
 70
     1
102
RTVSPropertyOp30
 70
     1
102
RTVSPropertyOp31
 70
     1
102
RTVSPropertyOp32
 70
     1
102
RTVSPropertyOp33
 70
     1
102
RTVSPropertyOp34
 70
     1
102
RTVSPropertyOp35
 70
     1
102
RTVSPropertyOp36
 70
     1
102
RTVSPropertyOp37
 70
     1
102
RTVSPropertyOp38
 70
     1
102
RTVSPropertyOp39
 70
     1
102
RTVSPropertyOp40
 70
     1
102
RTVSPropertyOp41
 70
     1
102
RTVSPropertyOp42
 70
     1
102
RTVSPropertyOp43
 70
     1
102
RTVSPropertyOp44
 70
     1
102
RTVSPropertyOp45
 70
     1
102
RTVSPropertyOp46
 70
     1
102
RTVSPropertyOp47
 70
     1
102
RTVSPropertyOp48
 70
     1
102
RTVSPropertyOp49
 70
     1
102
RTVSPropertyOp50
 70
     1
102
RTVSPropertyOp51
 70
     0
102
RTVSPropertyOp52
 70
     0
102
RTVSPropertyOp53
 70
     1
102
RTVSPropertyOp54
 70
     1
102
RTVSPropertyOp55
 70
     1
102
RTVSPropertyOp56
 70
     1
102
RTVSPropertyOp57
 70
     1
102
RTVSPropertyOp58
 70
     1
102
RTVSPropertyOp59
 70
     1
102
RTVSPropertyOp60
 70
     1
102
RTVSPropertyOp61
 70
     1
102
RTVSPropertyOp62
 70
     1
  0
XRECORD
  5
995F6
102
{ACAD_REACTORS
330
995F5
102
}
330
995F5
100
AcDbXrecord
280
     1
102
RTVSPost2010Prop28
280
     0
102
RTVSPost2010PropOp28
 70
     1
102
RTVSPost2010Prop29
280
     1
102
RTVSPost2010PropOp29
 70
     1
102
RTVSPost2010Prop30
280
     1
102
RTVSPost2010PropOp30
 70
     1
102
RTVSPost2010Prop31
280
     0
102
RTVSPost2010PropOp31
 70
     1
102
RTVSPost2010Prop32
280
     0
102
RTVSPost2010PropOp32
 70
     1
102
RTVSPost2010Prop33
280
     0
102
RTVSPost2010PropOp33
 70
     1
102
RTVSPost2010Prop34
280
     0
102
RTVSPost2010PropOp34
 70
     1
102
RTVSPost2010Prop35
280
     0
102
RTVSPost2010PropOp35
 70
     1
102
RTVSPost2010Prop36
280
     0
102
RTVSPost2010PropOp36
 70
     1
102
RTVSPost2010Prop37
 90
       50
102
RTVSPost2010PropOp37
 70
     1
102
RTVSPost2010Prop38
140
0.0
102
RTVSPost2010PropOp38
 70
     1
102
RTVSPost2010Prop39
140
1.0
102
RTVSPost2010PropOp39
 70
     1
102
RTVSPost2010Prop40
 90
        0
102
RTVSPost2010PropOp40
 70
     1
102
RTVSPost2010Prop41ColorIndex
 90
       18
102
RTVSPost2010Prop41ColorRGB
 90
        0
102
RTVSPost2010PropOp41
 70
     1
102
RTVSPost2010Prop42
 90
       50
102
RTVSPost2010PropOp42
 70
     1
102
RTVSPost2010Prop43
 90
        3
102
RTVSPost2010PropOp43
 70
     1
102
RTVSPost2010Prop44ColorIndex
 90
        5
102
RTVSPost2010Prop44ColorRGB
 90
      255
102
RTVSPost2010PropOp44
 70
     1
102
RTVSPost2010Prop45
280
     0
102
RTVSPost2010PropOp45
 70
     1
102
RTVSPost2010Prop46
 90
       50
102
RTVSPost2010PropOp46
 70
     1
102
RTVSPost2010Prop47
 90
       50
102
RTVSPost2010PropOp47
 70
     1
102
RTVSPost2010Prop48
 90
       50
102
RTVSPost2010PropOp48
 70
     1
102
RTVSPost2010Prop49
280
     0
102
RTVSPost2010PropOp49
 70
     1
102
RTVSPost2010Prop50
 90
       50
102
RTVSPost2010PropOp50
 70
     1
102
RTVSPost2010Prop51ColorIndex
 90
      256
102
RTVSPost2010Prop51ColorRGB
 90
-16777216
102
RTVSPost2010PropOp51
 70
     0
102
RTVSPost2010Prop52
140
1.0
102
RTVSPost2010PropOp52
 70
     0
102
RTVSPost2010Prop53
 90
        2
102
RTVSPost2010PropOp53
 70
     1
102
RTVSPost2010Prop54
  1
strokes_ogs.tif
102
RTVSPost2010PropOp54
 70
     1
102
RTVSPost2010Prop55
280
     0
102
RTVSPost2010PropOp55
 70
     1
102
RTVSPost2010Prop56
140
1.0
102
RTVSPost2010PropOp56
 70
     1
102
RTVSPost2010Prop57
140
1.0
102
RTVSPost2010PropOp57
 70
     1
102
RTVSPropertyOp0
 70
     1
102
RTVSPropertyOp1
 70
     1
102
RTVSPropertyOp2
 70
     1
102
RTVSPropertyOp3
 70
     1
102
RTVSPropertyOp4
 70
     1
102
RTVSPropertyOp5
 70
     1
102
RTVSPropertyOp6
 70
     1
102
RTVSPropertyOp7
 70
     1
102
RTVSPropertyOp8
 70
     1
102
RTVSPropertyOp9
 70
     1
102
RTVSPropertyOp10
 70
     1
102
RTVSPropertyOp11
 70
     1
102
RTVSPropertyOp12
 70
     1
102
RTVSPropertyOp13
 70
     1
102
RTVSPropertyOp14
 70
     1
102
RTVSPropertyOp15
 70
     1
102
RTVSPropertyOp16
 70
     1
102
RTVSPropertyOp17
 70
     1
102
RTVSPropertyOp18
 70
     1
102
RTVSPropertyOp19
 70
     1
102
RTVSPropertyOp20
 70
     1
102
RTVSPropertyOp21
 70
     1
102
RTVSPropertyOp22
 70
     1
102
RTVSPropertyOp23
 70
     1
102
RTVSPropertyOp24
 70
     1
102
RTVSPropertyOp25
 70
     1
102
RTVSPropertyOp26
 70
     1
102
RTVSPropertyOp27
 70
     1
102
RTVSPropertyOp28
 70
     1
102
RTVSPropertyOp29
 70
     1
102
RTVSPropertyOp30
 70
     1
102
RTVSPropertyOp31
 70
     1
102
RTVSPropertyOp32
 70
     1
102
RTVSPropertyOp33
 70
     1
102
RTVSPropertyOp34
 70
     1
102
RTVSPropertyOp35
 70
     1
102
RTVSPropertyOp36
 70
     1
102
RTVSPropertyOp37
 70
     1
102
RTVSPropertyOp38
 70
     1
102
RTVSPropertyOp39
 70
     1
102
RTVSPropertyOp40
 70
     1
102
RTVSPropertyOp41
 70
     1
102
RTVSPropertyOp42
 70
     1
102
RTVSPropertyOp43
 70
     1
102
RTVSPropertyOp44
 70
     1
102
RTVSPropertyOp45
 70
     1
102
RTVSPropertyOp46
 70
     1
102
RTVSPropertyOp47
 70
     1
102
RTVSPropertyOp48
 70
     1
102
RTVSPropertyOp49
 70
     1
102
RTVSPropertyOp50
 70
     1
102
RTVSPropertyOp51
 70
     0
102
RTVSPropertyOp52
 70
     0
102
RTVSPropertyOp53
 70
     1
102
RTVSPropertyOp54
 70
     1
102
RTVSPropertyOp55
 70
     1
102
RTVSPropertyOp56
 70
     1
102
RTVSPropertyOp57
 70
     1
102
RTVSPropertyOp58
 70
     1
102
RTVSPropertyOp59
 70
     1
102
RTVSPropertyOp60
 70
     1
102
RTVSPropertyOp61
 70
     1
102
RTVSPropertyOp62
 70
     1
  0
XRECORD
  5
99602
102
{ACAD_REACTORS
330
99601
102
}
330
99601
100
AcDbXrecord
280
     1
102
RTVSPost2010Prop28
280
     0
102
RTVSPost2010PropOp28
 70
     0
102
RTVSPost2010Prop29
280
     1
102
RTVSPost2010PropOp29
 70
     0
102
RTVSPost2010Prop30
280
     1
102
RTVSPost2010PropOp30
 70
     0
102
RTVSPost2010Prop31
280
     0
102
RTVSPost2010PropOp31
 70
     0
102
RTVSPost2010Prop32
280
     0
102
RTVSPost2010PropOp32
 70
     0
102
RTVSPost2010Prop33
280
     0
102
RTVSPost2010PropOp33
 70
     1
102
RTVSPost2010Prop34
280
     0
102
RTVSPost2010PropOp34
 70
     1
102
RTVSPost2010Prop35
280
     0
102
RTVSPost2010PropOp35
 70
     1
102
RTVSPost2010Prop36
280
     0
102
RTVSPost2010PropOp36
 70
     1
102
RTVSPost2010Prop37
 90
       50
102
RTVSPost2010PropOp37
 70
     1
102
RTVSPost2010Prop38
140
0.0
102
RTVSPost2010PropOp38
 70
     1
102
RTVSPost2010Prop39
140
1.0
102
RTVSPost2010PropOp39
 70
     1
102
RTVSPost2010Prop40
 90
        0
102
RTVSPost2010PropOp40
 70
     1
102
RTVSPost2010Prop41ColorIndex
 90
       18
102
RTVSPost2010Prop41ColorRGB
 90
        0
102
RTVSPost2010PropOp41
 70
     1
102
RTVSPost2010Prop42
 90
       50
102
RTVSPost2010PropOp42
 70
     1
102
RTVSPost2010Prop43
 90
        3
102
RTVSPost2010PropOp43
 70
     1
102
RTVSPost2010Prop44ColorIndex
 90
        5
102
RTVSPost2010Prop44ColorRGB
 90
      255
102
RTVSPost2010PropOp44
 70
     1
102
RTVSPost2010Prop45
280
     0
102
RTVSPost2010PropOp45
 70
     1
102
RTVSPost2010Prop46
 90
       50
102
RTVSPost2010PropOp46
 70
     1
102
RTVSPost2010Prop47
 90
       50
102
RTVSPost2010PropOp47
 70
     1
102
RTVSPost2010Prop48
 90
       50
102
RTVSPost2010PropOp48
 70
     1
102
RTVSPost2010Prop49
280
     0
102
RTVSPost2010PropOp49
 70
     1
102
RTVSPost2010Prop50
 90
       50
102
RTVSPost2010PropOp50
 70
     1
102
RTVSPost2010Prop51ColorIndex
 90
      256
102
RTVSPost2010Prop51ColorRGB
 90
-16777216
102
RTVSPost2010PropOp51
 70
     0
102
RTVSPost2010Prop52
140
1.0
102
RTVSPost2010PropOp52
 70
     0
102
RTVSPost2010Prop53
 90
        2
102
RTVSPost2010PropOp53
 70
     1
102
RTVSPost2010Prop54
  1
strokes_ogs.tif
102
RTVSPost2010PropOp54
 70
     1
102
RTVSPost2010Prop55
280
     0
102
RTVSPost2010PropOp55
 70
     1
102
RTVSPost2010Prop56
140
1.0
102
RTVSPost2010PropOp56
 70
     1
102
RTVSPost2010Prop57
140
1.0
102
RTVSPost2010PropOp57
 70
     1
102
RTVSPropertyOp0
 70
     0
102
RTVSPropertyOp1
 70
     0
102
RTVSPropertyOp2
 70
     0
102
RTVSPropertyOp3
 70
     0
102
RTVSPropertyOp4
 70
     0
102
RTVSPropertyOp5
 70
     0
102
RTVSPropertyOp6
 70
     0
102
RTVSPropertyOp7
 70
     0
102
RTVSPropertyOp8
 70
     0
102
RTVSPropertyOp9
 70
     0
102
RTVSPropertyOp10
 70
     0
102
RTVSPropertyOp11
 70
     0
102
RTVSPropertyOp12
 70
     0
102
RTVSPropertyOp13
 70
     0
102
RTVSPropertyOp14
 70
     2
102
RTVSPropertyOp15
 70
     0
102
RTVSPropertyOp16
 70
     0
102
RTVSPropertyOp17
 70
     0
102
RTVSPropertyOp18
 70
     0
102
RTVSPropertyOp19
 70
     0
102
RTVSPropertyOp20
 70
     0
102
RTVSPropertyOp21
 70
     0
102
RTVSPropertyOp22
 70
     0
102
RTVSPropertyOp23
 70
     0
102
RTVSPropertyOp24
 70
     0
102
RTVSPropertyOp25
 70
     0
102
RTVSPropertyOp26
 70
     0
102
RTVSPropertyOp27
 70
     0
102
RTVSPropertyOp28
 70
     0
102
RTVSPropertyOp29
 70
     0
102
RTVSPropertyOp30
 70
     0
102
RTVSPropertyOp31
 70
     0
102
RTVSPropertyOp32
 70
     0
102
RTVSPropertyOp33
 70
     1
102
RTVSPropertyOp34
 70
     1
102
RTVSPropertyOp35
 70
     1
102
RTVSPropertyOp36
 70
     1
102
RTVSPropertyOp37
 70
     1
102
RTVSPropertyOp38
 70
     1
102
RTVSPropertyOp39
 70
     1
102
RTVSPropertyOp40
 70
     1
102
RTVSPropertyOp41
 70
     1
102
RTVSPropertyOp42
 70
     1
102
RTVSPropertyOp43
 70
     1
102
RTVSPropertyOp44
 70
     1
102
RTVSPropertyOp45
 70
     1
102
RTVSPropertyOp46
 70
     1
102
RTVSPropertyOp47
 70
     1
102
RTVSPropertyOp48
 70
     1
102
RTVSPropertyOp49
 70
     1
102
RTVSPropertyOp50
 70
     1
102
RTVSPropertyOp51
 70
     0
102
RTVSPropertyOp52
 70
     0
102
RTVSPropertyOp53
 70
     1
102
RTVSPropertyOp54
 70
     1
102
RTVSPropertyOp55
 70
     1
102
RTVSPropertyOp56
 70
     1
102
RTVSPropertyOp57
 70
     1
102
RTVSPropertyOp58
 70
     1
102
RTVSPropertyOp59
 70
     1
102
RTVSPropertyOp60
 70
     1
102
RTVSPropertyOp61
 70
     1
102
RTVSPropertyOp62
 70
     1
  0
XRECORD
  5
995ED
102
{ACAD_REACTORS
330
995EC
102
}
330
995EC
100
AcDbXrecord
280
     1
102
RTVSPost2010Prop28
280
     0
102
RTVSPost2010PropOp28
 70
     1
102
RTVSPost2010Prop29
280
     1
102
RTVSPost2010PropOp29
 70
     1
102
RTVSPost2010Prop30
280
     1
102
RTVSPost2010PropOp30
 70
     1
102
RTVSPost2010Prop31
280
     0
102
RTVSPost2010PropOp31
 70
     1
102
RTVSPost2010Prop32
280
     0
102
RTVSPost2010PropOp32
 70
     1
102
RTVSPost2010Prop33
280
     0
102
RTVSPost2010PropOp33
 70
     1
102
RTVSPost2010Prop34
280
     0
102
RTVSPost2010PropOp34
 70
     1
102
RTVSPost2010Prop35
280
     0
102
RTVSPost2010PropOp35
 70
     1
102
RTVSPost2010Prop36
280
     0
102
RTVSPost2010PropOp36
 70
     1
102
RTVSPost2010Prop37
 90
       50
102
RTVSPost2010PropOp37
 70
     1
102
RTVSPost2010Prop38
140
0.0
102
RTVSPost2010PropOp38
 70
     1
102
RTVSPost2010Prop39
140
1.0
102
RTVSPost2010PropOp39
 70
     1
102
RTVSPost2010Prop40
 90
        0
102
RTVSPost2010PropOp40
 70
     1
102
RTVSPost2010Prop41ColorIndex
 90
       18
102
RTVSPost2010Prop41ColorRGB
 90
        0
102
RTVSPost2010PropOp41
 70
     1
102
RTVSPost2010Prop42
 90
       50
102
RTVSPost2010PropOp42
 70
     1
102
RTVSPost2010Prop43
 90
        3
102
RTVSPost2010PropOp43
 70
     1
102
RTVSPost2010Prop44ColorIndex
 90
        5
102
RTVSPost2010Prop44ColorRGB
 90
      255
102
RTVSPost2010PropOp44
 70
     1
102
RTVSPost2010Prop45
280
     0
102
RTVSPost2010PropOp45
 70
     1
102
RTVSPost2010Prop46
 90
       50
102
RTVSPost2010PropOp46
 70
     1
102
RTVSPost2010Prop47
 90
       50
102
RTVSPost2010PropOp47
 70
     1
102
RTVSPost2010Prop48
 90
       50
102
RTVSPost2010PropOp48
 70
     1
102
RTVSPost2010Prop49
280
     0
102
RTVSPost2010PropOp49
 70
     1
102
RTVSPost2010Prop50
 90
       50
102
RTVSPost2010PropOp50
 70
     1
102
RTVSPost2010Prop51ColorIndex
 90
      256
102
RTVSPost2010Prop51ColorRGB
 90
-16777216
102
RTVSPost2010PropOp51
 70
     0
102
RTVSPost2010Prop52
140
1.0
102
RTVSPost2010PropOp52
 70
     0
102
RTVSPost2010Prop53
 90
        2
102
RTVSPost2010PropOp53
 70
     1
102
RTVSPost2010Prop54
  1
strokes_ogs.tif
102
RTVSPost2010PropOp54
 70
     1
102
RTVSPost2010Prop55
280
     0
102
RTVSPost2010PropOp55
 70
     1
102
RTVSPost2010Prop56
140
1.0
102
RTVSPost2010PropOp56
 70
     1
102
RTVSPost2010Prop57
140
1.0
102
RTVSPost2010PropOp57
 70
     1
102
RTVSPropertyOp0
 70
     1
102
RTVSPropertyOp1
 70
     1
102
RTVSPropertyOp2
 70
     1
102
RTVSPropertyOp3
 70
     1
102
RTVSPropertyOp4
 70
     1
102
RTVSPropertyOp5
 70
     1
102
RTVSPropertyOp6
 70
     1
102
RTVSPropertyOp7
 70
     1
102
RTVSPropertyOp8
 70
     1
102
RTVSPropertyOp9
 70
     1
102
RTVSPropertyOp10
 70
     1
102
RTVSPropertyOp11
 70
     1
102
RTVSPropertyOp12
 70
     1
102
RTVSPropertyOp13
 70
     1
102
RTVSPropertyOp14
 70
     1
102
RTVSPropertyOp15
 70
     1
102
RTVSPropertyOp16
 70
     1
102
RTVSPropertyOp17
 70
     1
102
RTVSPropertyOp18
 70
     1
102
RTVSPropertyOp19
 70
     1
102
RTVSPropertyOp20
 70
     1
102
RTVSPropertyOp21
 70
     1
102
RTVSPropertyOp22
 70
     1
102
RTVSPropertyOp23
 70
     1
102
RTVSPropertyOp24
 70
     1
102
RTVSPropertyOp25
 70
     1
102
RTVSPropertyOp26
 70
     1
102
RTVSPropertyOp27
 70
     1
102
RTVSPropertyOp28
 70
     1
102
RTVSPropertyOp29
 70
     1
102
RTVSPropertyOp30
 70
     1
102
RTVSPropertyOp31
 70
     1
102
RTVSPropertyOp32
 70
     1
102
RTVSPropertyOp33
 70
     1
102
RTVSPropertyOp34
 70
     1
102
RTVSPropertyOp35
 70
     1
102
RTVSPropertyOp36
 70
     1
102
RTVSPropertyOp37
 70
     1
102
RTVSPropertyOp38
 70
     1
102
RTVSPropertyOp39
 70
     1
102
RTVSPropertyOp40
 70
     1
102
RTVSPropertyOp41
 70
     1
102
RTVSPropertyOp42
 70
     1
102
RTVSPropertyOp43
 70
     1
102
RTVSPropertyOp44
 70
     1
102
RTVSPropertyOp45
 70
     1
102
RTVSPropertyOp46
 70
     1
102
RTVSPropertyOp47
 70
     1
102
RTVSPropertyOp48
 70
     1
102
RTVSPropertyOp49
 70
     1
102
RTVSPropertyOp50
 70
     1
102
RTVSPropertyOp51
 70
     0
102
RTVSPropertyOp52
 70
     0
102
RTVSPropertyOp53
 70
     1
102
RTVSPropertyOp54
 70
     1
102
RTVSPropertyOp55
 70
     1
102
RTVSPropertyOp56
 70
     1
102
RTVSPropertyOp57
 70
     1
102
RTVSPropertyOp58
 70
     1
102
RTVSPropertyOp59
 70
     1
102
RTVSPropertyOp60
 70
     1
102
RTVSPropertyOp61
 70
     1
102
RTVSPropertyOp62
 70
     1
  0
XRECORD
  5
99604
102
{ACAD_REACTORS
330
99603
102
}
330
99603
100
AcDbXrecord
280
     1
102
RTVSPost2010Prop28
280
     0
102
RTVSPost2010PropOp28
 70
     0
102
RTVSPost2010Prop29
280
     1
102
RTVSPost2010PropOp29
 70
     0
102
RTVSPost2010Prop30
280
     1
102
RTVSPost2010PropOp30
 70
     0
102
RTVSPost2010Prop31
280
     0
102
RTVSPost2010PropOp31
 70
     0
102
RTVSPost2010Prop32
280
     0
102
RTVSPost2010PropOp32
 70
     0
102
RTVSPost2010Prop33
280
     0
102
RTVSPost2010PropOp33
 70
     1
102
RTVSPost2010Prop34
280
     0
102
RTVSPost2010PropOp34
 70
     1
102
RTVSPost2010Prop35
280
     0
102
RTVSPost2010PropOp35
 70
     1
102
RTVSPost2010Prop36
280
     0
102
RTVSPost2010PropOp36
 70
     1
102
RTVSPost2010Prop37
 90
       50
102
RTVSPost2010PropOp37
 70
     1
102
RTVSPost2010Prop38
140
0.0
102
RTVSPost2010PropOp38
 70
     1
102
RTVSPost2010Prop39
140
1.0
102
RTVSPost2010PropOp39
 70
     1
102
RTVSPost2010Prop40
 90
        0
102
RTVSPost2010PropOp40
 70
     1
102
RTVSPost2010Prop41ColorIndex
 90
       18
102
RTVSPost2010Prop41ColorRGB
 90
        0
102
RTVSPost2010PropOp41
 70
     1
102
RTVSPost2010Prop42
 90
       50
102
RTVSPost2010PropOp42
 70
     1
102
RTVSPost2010Prop43
 90
        3
102
RTVSPost2010PropOp43
 70
     1
102
RTVSPost2010Prop44ColorIndex
 90
        5
102
RTVSPost2010Prop44ColorRGB
 90
      255
102
RTVSPost2010PropOp44
 70
     1
102
RTVSPost2010Prop45
280
     0
102
RTVSPost2010PropOp45
 70
     1
102
RTVSPost2010Prop46
 90
       50
102
RTVSPost2010PropOp46
 70
     1
102
RTVSPost2010Prop47
 90
       50
102
RTVSPost2010PropOp47
 70
     1
102
RTVSPost2010Prop48
 90
       50
102
RTVSPost2010PropOp48
 70
     1
102
RTVSPost2010Prop49
280
     0
102
RTVSPost2010PropOp49
 70
     1
102
RTVSPost2010Prop50
 90
       50
102
RTVSPost2010PropOp50
 70
     1
102
RTVSPost2010Prop51ColorIndex
 90
      256
102
RTVSPost2010Prop51ColorRGB
 90
-16777216
102
RTVSPost2010PropOp51
 70
     0
102
RTVSPost2010Prop52
140
1.0
102
RTVSPost2010PropOp52
 70
     0
102
RTVSPost2010Prop53
 90
        2
102
RTVSPost2010PropOp53
 70
     1
102
RTVSPost2010Prop54
  1
strokes_ogs.tif
102
RTVSPost2010PropOp54
 70
     1
102
RTVSPost2010Prop55
280
     0
102
RTVSPost2010PropOp55
 70
     1
102
RTVSPost2010Prop56
140
1.0
102
RTVSPost2010PropOp56
 70
     1
102
RTVSPost2010Prop57
140
1.0
102
RTVSPost2010PropOp57
 70
     1
102
RTVSPropertyOp0
 70
     0
102
RTVSPropertyOp1
 70
     0
102
RTVSPropertyOp2
 70
     0
102
RTVSPropertyOp3
 70
     0
102
RTVSPropertyOp4
 70
     0
102
RTVSPropertyOp5
 70
     0
102
RTVSPropertyOp6
 70
     0
102
RTVSPropertyOp7
 70
     0
102
RTVSPropertyOp8
 70
     0
102
RTVSPropertyOp9
 70
     0
102
RTVSPropertyOp10
 70
     0
102
RTVSPropertyOp11
 70
     0
102
RTVSPropertyOp12
 70
     0
102
RTVSPropertyOp13
 70
     0
102
RTVSPropertyOp14
 70
     2
102
RTVSPropertyOp15
 70
     0
102
RTVSPropertyOp16
 70
     0
102
RTVSPropertyOp17
 70
     0
102
RTVSPropertyOp18
 70
     0
102
RTVSPropertyOp19
 70
     0
102
RTVSPropertyOp20
 70
     0
102
RTVSPropertyOp21
 70
     0
102
RTVSPropertyOp22
 70
     0
102
RTVSPropertyOp23
 70
     0
102
RTVSPropertyOp24
 70
     0
102
RTVSPropertyOp25
 70
     0
102
RTVSPropertyOp26
 70
     0
102
RTVSPropertyOp27
 70
     0
102
RTVSPropertyOp28
 70
     0
102
RTVSPropertyOp29
 70
     0
102
RTVSPropertyOp30
 70
     0
102
RTVSPropertyOp31
 70
     0
102
RTVSPropertyOp32
 70
     0
102
RTVSPropertyOp33
 70
     1
102
RTVSPropertyOp34
 70
     1
102
RTVSPropertyOp35
 70
     1
102
RTVSPropertyOp36
 70
     1
102
RTVSPropertyOp37
 70
     1
102
RTVSPropertyOp38
 70
     1
102
RTVSPropertyOp39
 70
     1
102
RTVSPropertyOp40
 70
     1
102
RTVSPropertyOp41
 70
     1
102
RTVSPropertyOp42
 70
     1
102
RTVSPropertyOp43
 70
     1
102
RTVSPropertyOp44
 70
     1
102
RTVSPropertyOp45
 70
     1
102
RTVSPropertyOp46
 70
     1
102
RTVSPropertyOp47
 70
     1
102
RTVSPropertyOp48
 70
     1
102
RTVSPropertyOp49
 70
     1
102
RTVSPropertyOp50
 70
     1
102
RTVSPropertyOp51
 70
     0
102
RTVSPropertyOp52
 70
     0
102
RTVSPropertyOp53
 70
     1
102
RTVSPropertyOp54
 70
     1
102
RTVSPropertyOp55
 70
     1
102
RTVSPropertyOp56
 70
     1
102
RTVSPropertyOp57
 70
     1
102
RTVSPropertyOp58
 70
     1
102
RTVSPropertyOp59
 70
     1
102
RTVSPropertyOp60
 70
     1
102
RTVSPropertyOp61
 70
     1
102
RTVSPropertyOp62
 70
     1
  0
XRECORD
  5
995E5
102
{ACAD_REACTORS
330
995E4
102
}
330
995E4
100
AcDbXrecord
280
     1
102
RTVSPost2010Prop28
280
     0
102
RTVSPost2010PropOp28
 70
     1
102
RTVSPost2010Prop29
280
     1
102
RTVSPost2010PropOp29
 70
     1
102
RTVSPost2010Prop30
280
     1
102
RTVSPost2010PropOp30
 70
     1
102
RTVSPost2010Prop31
280
     0
102
RTVSPost2010PropOp31
 70
     1
102
RTVSPost2010Prop32
280
     0
102
RTVSPost2010PropOp32
 70
     1
102
RTVSPost2010Prop33
280
     0
102
RTVSPost2010PropOp33
 70
     1
102
RTVSPost2010Prop34
280
     0
102
RTVSPost2010PropOp34
 70
     1
102
RTVSPost2010Prop35
280
     0
102
RTVSPost2010PropOp35
 70
     1
102
RTVSPost2010Prop36
280
     0
102
RTVSPost2010PropOp36
 70
     1
102
RTVSPost2010Prop37
 90
       50
102
RTVSPost2010PropOp37
 70
     1
102
RTVSPost2010Prop38
140
0.0
102
RTVSPost2010PropOp38
 70
     1
102
RTVSPost2010Prop39
140
1.0
102
RTVSPost2010PropOp39
 70
     1
102
RTVSPost2010Prop40
 90
        0
102
RTVSPost2010PropOp40
 70
     1
102
RTVSPost2010Prop41ColorIndex
 90
       18
102
RTVSPost2010Prop41ColorRGB
 90
        0
102
RTVSPost2010PropOp41
 70
     1
102
RTVSPost2010Prop42
 90
       50
102
RTVSPost2010PropOp42
 70
     1
102
RTVSPost2010Prop43
 90
        3
102
RTVSPost2010PropOp43
 70
     1
102
RTVSPost2010Prop44ColorIndex
 90
        5
102
RTVSPost2010Prop44ColorRGB
 90
      255
102
RTVSPost2010PropOp44
 70
     1
102
RTVSPost2010Prop45
280
     0
102
RTVSPost2010PropOp45
 70
     1
102
RTVSPost2010Prop46
 90
       50
102
RTVSPost2010PropOp46
 70
     1
102
RTVSPost2010Prop47
 90
       50
102
RTVSPost2010PropOp47
 70
     1
102
RTVSPost2010Prop48
 90
       50
102
RTVSPost2010PropOp48
 70
     1
102
RTVSPost2010Prop49
280
     0
102
RTVSPost2010PropOp49
 70
     1
102
RTVSPost2010Prop50
 90
       50
102
RTVSPost2010PropOp50
 70
     1
102
RTVSPost2010Prop51ColorIndex
 90
      256
102
RTVSPost2010Prop51ColorRGB
 90
-16777216
102
RTVSPost2010PropOp51
 70
     0
102
RTVSPost2010Prop52
140
1.0
102
RTVSPost2010PropOp52
 70
     0
102
RTVSPost2010Prop53
 90
        2
102
RTVSPost2010PropOp53
 70
     1
102
RTVSPost2010Prop54
  1
strokes_ogs.tif
102
RTVSPost2010PropOp54
 70
     1
102
RTVSPost2010Prop55
280
     0
102
RTVSPost2010PropOp55
 70
     1
102
RTVSPost2010Prop56
140
1.0
102
RTVSPost2010PropOp56
 70
     1
102
RTVSPost2010Prop57
140
1.0
102
RTVSPost2010PropOp57
 70
     1
102
RTVSPropertyOp0
 70
     1
102
RTVSPropertyOp1
 70
     1
102
RTVSPropertyOp2
 70
     1
102
RTVSPropertyOp3
 70
     1
102
RTVSPropertyOp4
 70
     1
102
RTVSPropertyOp5
 70
     1
102
RTVSPropertyOp6
 70
     1
102
RTVSPropertyOp7
 70
     1
102
RTVSPropertyOp8
 70
     1
102
RTVSPropertyOp9
 70
     1
102
RTVSPropertyOp10
 70
     1
102
RTVSPropertyOp11
 70
     1
102
RTVSPropertyOp12
 70
     1
102
RTVSPropertyOp13
 70
     1
102
RTVSPropertyOp14
 70
     1
102
RTVSPropertyOp15
 70
     1
102
RTVSPropertyOp16
 70
     1
102
RTVSPropertyOp17
 70
     1
102
RTVSPropertyOp18
 70
     1
102
RTVSPropertyOp19
 70
     1
102
RTVSPropertyOp20
 70
     1
102
RTVSPropertyOp21
 70
     1
102
RTVSPropertyOp22
 70
     1
102
RTVSPropertyOp23
 70
     1
102
RTVSPropertyOp24
 70
     1
102
RTVSPropertyOp25
 70
     1
102
RTVSPropertyOp26
 70
     1
102
RTVSPropertyOp27
 70
     1
102
RTVSPropertyOp28
 70
     1
102
RTVSPropertyOp29
 70
     1
102
RTVSPropertyOp30
 70
     1
102
RTVSPropertyOp31
 70
     1
102
RTVSPropertyOp32
 70
     1
102
RTVSPropertyOp33
 70
     1
102
RTVSPropertyOp34
 70
     1
102
RTVSPropertyOp35
 70
     1
102
RTVSPropertyOp36
 70
     1
102
RTVSPropertyOp37
 70
     1
102
RTVSPropertyOp38
 70
     1
102
RTVSPropertyOp39
 70
     1
102
RTVSPropertyOp40
 70
     1
102
RTVSPropertyOp41
 70
     1
102
RTVSPropertyOp42
 70
     1
102
RTVSPropertyOp43
 70
     1
102
RTVSPropertyOp44
 70
     1
102
RTVSPropertyOp45
 70
     1
102
RTVSPropertyOp46
 70
     1
102
RTVSPropertyOp47
 70
     1
102
RTVSPropertyOp48
 70
     1
102
RTVSPropertyOp49
 70
     1
102
RTVSPropertyOp50
 70
     1
102
RTVSPropertyOp51
 70
     0
102
RTVSPropertyOp52
 70
     0
102
RTVSPropertyOp53
 70
     1
102
RTVSPropertyOp54
 70
     1
102
RTVSPropertyOp55
 70
     1
102
RTVSPropertyOp56
 70
     1
102
RTVSPropertyOp57
 70
     1
102
RTVSPropertyOp58
 70
     1
102
RTVSPropertyOp59
 70
     1
102
RTVSPropertyOp60
 70
     1
102
RTVSPropertyOp61
 70
     1
102
RTVSPropertyOp62
 70
     1
  0
XRECORD
  5
99600
102
{ACAD_REACTORS
330
995FF
102
}
330
995FF
100
AcDbXrecord
280
     1
102
RTVSPost2010Prop28
280
     0
102
RTVSPost2010PropOp28
 70
     1
102
RTVSPost2010Prop29
280
     1
102
RTVSPost2010PropOp29
 70
     1
102
RTVSPost2010Prop30
280
     1
102
RTVSPost2010PropOp30
 70
     1
102
RTVSPost2010Prop31
280
     0
102
RTVSPost2010PropOp31
 70
     1
102
RTVSPost2010Prop32
280
     0
102
RTVSPost2010PropOp32
 70
     1
102
RTVSPost2010Prop33
280
     0
102
RTVSPost2010PropOp33
 70
     1
102
RTVSPost2010Prop34
280
     0
102
RTVSPost2010PropOp34
 70
     1
102
RTVSPost2010Prop35
280
     0
102
RTVSPost2010PropOp35
 70
     1
102
RTVSPost2010Prop36
280
     0
102
RTVSPost2010PropOp36
 70
     1
102
RTVSPost2010Prop37
 90
       50
102
RTVSPost2010PropOp37
 70
     1
102
RTVSPost2010Prop38
140
0.0
102
RTVSPost2010PropOp38
 70
     1
102
RTVSPost2010Prop39
140
1.0
102
RTVSPost2010PropOp39
 70
     1
102
RTVSPost2010Prop40
 90
        0
102
RTVSPost2010PropOp40
 70
     1
102
RTVSPost2010Prop41ColorIndex
 90
       18
102
RTVSPost2010Prop41ColorRGB
 90
        0
102
RTVSPost2010PropOp41
 70
     1
102
RTVSPost2010Prop42
 90
       50
102
RTVSPost2010PropOp42
 70
     1
102
RTVSPost2010Prop43
 90
        3
102
RTVSPost2010PropOp43
 70
     1
102
RTVSPost2010Prop44ColorIndex
 90
        5
102
RTVSPost2010Prop44ColorRGB
 90
      255
102
RTVSPost2010PropOp44
 70
     1
102
RTVSPost2010Prop45
280
     0
102
RTVSPost2010PropOp45
 70
     1
102
RTVSPost2010Prop46
 90
       50
102
RTVSPost2010PropOp46
 70
     1
102
RTVSPost2010Prop47
 90
       50
102
RTVSPost2010PropOp47
 70
     1
102
RTVSPost2010Prop48
 90
       50
102
RTVSPost2010PropOp48
 70
     1
102
RTVSPost2010Prop49
280
     0
102
RTVSPost2010PropOp49
 70
     1
102
RTVSPost2010Prop50
 90
       50
102
RTVSPost2010PropOp50
 70
     1
102
RTVSPost2010Prop51ColorIndex
 90
      256
102
RTVSPost2010Prop51ColorRGB
 90
-16777216
102
RTVSPost2010PropOp51
 70
     0
102
RTVSPost2010Prop52
140
1.0
102
RTVSPost2010PropOp52
 70
     0
102
RTVSPost2010Prop53
 90
        2
102
RTVSPost2010PropOp53
 70
     1
102
RTVSPost2010Prop54
  1
strokes_ogs.tif
102
RTVSPost2010PropOp54
 70
     1
102
RTVSPost2010Prop55
280
     0
102
RTVSPost2010PropOp55
 70
     1
102
RTVSPost2010Prop56
140
1.0
102
RTVSPost2010PropOp56
 70
     1
102
RTVSPost2010Prop57
140
1.0
102
RTVSPost2010PropOp57
 70
     1
102
RTVSPropertyOp0
 70
     1
102
RTVSPropertyOp1
 70
     1
102
RTVSPropertyOp2
 70
     1
102
RTVSPropertyOp3
 70
     1
102
RTVSPropertyOp4
 70
     1
102
RTVSPropertyOp5
 70
     1
102
RTVSPropertyOp6
 70
     1
102
RTVSPropertyOp7
 70
     1
102
RTVSPropertyOp8
 70
     1
102
RTVSPropertyOp9
 70
     1
102
RTVSPropertyOp10
 70
     1
102
RTVSPropertyOp11
 70
     1
102
RTVSPropertyOp12
 70
     1
102
RTVSPropertyOp13
 70
     1
102
RTVSPropertyOp14
 70
     1
102
RTVSPropertyOp15
 70
     1
102
RTVSPropertyOp16
 70
     1
102
RTVSPropertyOp17
 70
     1
102
RTVSPropertyOp18
 70
     1
102
RTVSPropertyOp19
 70
     1
102
RTVSPropertyOp20
 70
     1
102
RTVSPropertyOp21
 70
     1
102
RTVSPropertyOp22
 70
     1
102
RTVSPropertyOp23
 70
     1
102
RTVSPropertyOp24
 70
     1
102
RTVSPropertyOp25
 70
     1
102
RTVSPropertyOp26
 70
     1
102
RTVSPropertyOp27
 70
     1
102
RTVSPropertyOp28
 70
     1
102
RTVSPropertyOp29
 70
     1
102
RTVSPropertyOp30
 70
     1
102
RTVSPropertyOp31
 70
     1
102
RTVSPropertyOp32
 70
     1
102
RTVSPropertyOp33
 70
     1
102
RTVSPropertyOp34
 70
     1
102
RTVSPropertyOp35
 70
     1
102
RTVSPropertyOp36
 70
     1
102
RTVSPropertyOp37
 70
     1
102
RTVSPropertyOp38
 70
     1
102
RTVSPropertyOp39
 70
     1
102
RTVSPropertyOp40
 70
     1
102
RTVSPropertyOp41
 70
     1
102
RTVSPropertyOp42
 70
     1
102
RTVSPropertyOp43
 70
     1
102
RTVSPropertyOp44
 70
     1
102
RTVSPropertyOp45
 70
     1
102
RTVSPropertyOp46
 70
     1
102
RTVSPropertyOp47
 70
     1
102
RTVSPropertyOp48
 70
     1
102
RTVSPropertyOp49
 70
     1
102
RTVSPropertyOp50
 70
     1
102
RTVSPropertyOp51
 70
     0
102
RTVSPropertyOp52
 70
     0
102
RTVSPropertyOp53
 70
     1
102
RTVSPropertyOp54
 70
     1
102
RTVSPropertyOp55
 70
     1
102
RTVSPropertyOp56
 70
     1
102
RTVSPropertyOp57
 70
     1
102
RTVSPropertyOp58
 70
     1
102
RTVSPropertyOp59
 70
     1
102
RTVSPropertyOp60
 70
     1
102
RTVSPropertyOp61
 70
     1
102
RTVSPropertyOp62
 70
     1
  0
XRECORD
  5
995FE
102
{ACAD_REACTORS
330
995FD
102
}
330
995FD
100
AcDbXrecord
280
     1
102
RTVSPost2010Prop28
280
     0
102
RTVSPost2010PropOp28
 70
     1
102
RTVSPost2010Prop29
280
     1
102
RTVSPost2010PropOp29
 70
     1
102
RTVSPost2010Prop30
280
     1
102
RTVSPost2010PropOp30
 70
     1
102
RTVSPost2010Prop31
280
     0
102
RTVSPost2010PropOp31
 70
     1
102
RTVSPost2010Prop32
280
     0
102
RTVSPost2010PropOp32
 70
     1
102
RTVSPost2010Prop33
280
     0
102
RTVSPost2010PropOp33
 70
     1
102
RTVSPost2010Prop34
280
     0
102
RTVSPost2010PropOp34
 70
     1
102
RTVSPost2010Prop35
280
     0
102
RTVSPost2010PropOp35
 70
     1
102
RTVSPost2010Prop36
280
     0
102
RTVSPost2010PropOp36
 70
     1
102
RTVSPost2010Prop37
 90
       50
102
RTVSPost2010PropOp37
 70
     1
102
RTVSPost2010Prop38
140
0.0
102
RTVSPost2010PropOp38
 70
     1
102
RTVSPost2010Prop39
140
1.0
102
RTVSPost2010PropOp39
 70
     1
102
RTVSPost2010Prop40
 90
        0
102
RTVSPost2010PropOp40
 70
     1
102
RTVSPost2010Prop41ColorIndex
 90
       18
102
RTVSPost2010Prop41ColorRGB
 90
        0
102
RTVSPost2010PropOp41
 70
     1
102
RTVSPost2010Prop42
 90
       50
102
RTVSPost2010PropOp42
 70
     1
102
RTVSPost2010Prop43
 90
        3
102
RTVSPost2010PropOp43
 70
     1
102
RTVSPost2010Prop44ColorIndex
 90
        5
102
RTVSPost2010Prop44ColorRGB
 90
      255
102
RTVSPost2010PropOp44
 70
     1
102
RTVSPost2010Prop45
280
     0
102
RTVSPost2010PropOp45
 70
     1
102
RTVSPost2010Prop46
 90
       50
102
RTVSPost2010PropOp46
 70
     1
102
RTVSPost2010Prop47
 90
       50
102
RTVSPost2010PropOp47
 70
     1
102
RTVSPost2010Prop48
 90
       50
102
RTVSPost2010PropOp48
 70
     1
102
RTVSPost2010Prop49
280
     0
102
RTVSPost2010PropOp49
 70
     1
102
RTVSPost2010Prop50
 90
       50
102
RTVSPost2010PropOp50
 70
     1
102
RTVSPost2010Prop51ColorIndex
 90
      256
102
RTVSPost2010Prop51ColorRGB
 90
-16777216
102
RTVSPost2010PropOp51
 70
     0
102
RTVSPost2010Prop52
140
1.0
102
RTVSPost2010PropOp52
 70
     0
102
RTVSPost2010Prop53
 90
        2
102
RTVSPost2010PropOp53
 70
     1
102
RTVSPost2010Prop54
  1
strokes_ogs.tif
102
RTVSPost2010PropOp54
 70
     1
102
RTVSPost2010Prop55
280
     0
102
RTVSPost2010PropOp55
 70
     1
102
RTVSPost2010Prop56
140
1.0
102
RTVSPost2010PropOp56
 70
     1
102
RTVSPost2010Prop57
140
1.0
102
RTVSPost2010PropOp57
 70
     1
102
RTVSPropertyOp0
 70
     1
102
RTVSPropertyOp1
 70
     1
102
RTVSPropertyOp2
 70
     1
102
RTVSPropertyOp3
 70
     1
102
RTVSPropertyOp4
 70
     1
102
RTVSPropertyOp5
 70
     1
102
RTVSPropertyOp6
 70
     1
102
RTVSPropertyOp7
 70
     1
102
RTVSPropertyOp8
 70
     1
102
RTVSPropertyOp9
 70
     1
102
RTVSPropertyOp10
 70
     1
102
RTVSPropertyOp11
 70
     1
102
RTVSPropertyOp12
 70
     1
102
RTVSPropertyOp13
 70
     1
102
RTVSPropertyOp14
 70
     1
102
RTVSPropertyOp15
 70
     1
102
RTVSPropertyOp16
 70
     1
102
RTVSPropertyOp17
 70
     1
102
RTVSPropertyOp18
 70
     1
102
RTVSPropertyOp19
 70
     1
102
RTVSPropertyOp20
 70
     1
102
RTVSPropertyOp21
 70
     1
102
RTVSPropertyOp22
 70
     1
102
RTVSPropertyOp23
 70
     1
102
RTVSPropertyOp24
 70
     1
102
RTVSPropertyOp25
 70
     1
102
RTVSPropertyOp26
 70
     1
102
RTVSPropertyOp27
 70
     1
102
RTVSPropertyOp28
 70
     1
102
RTVSPropertyOp29
 70
     1
102
RTVSPropertyOp30
 70
     1
102
RTVSPropertyOp31
 70
     1
102
RTVSPropertyOp32
 70
     1
102
RTVSPropertyOp33
 70
     1
102
RTVSPropertyOp34
 70
     1
102
RTVSPropertyOp35
 70
     1
102
RTVSPropertyOp36
 70
     1
102
RTVSPropertyOp37
 70
     1
102
RTVSPropertyOp38
 70
     1
102
RTVSPropertyOp39
 70
     1
102
RTVSPropertyOp40
 70
     1
102
RTVSPropertyOp41
 70
     1
102
RTVSPropertyOp42
 70
     1
102
RTVSPropertyOp43
 70
     1
102
RTVSPropertyOp44
 70
     1
102
RTVSPropertyOp45
 70
     1
102
RTVSPropertyOp46
 70
     1
102
RTVSPropertyOp47
 70
     1
102
RTVSPropertyOp48
 70
     1
102
RTVSPropertyOp49
 70
     1
102
RTVSPropertyOp50
 70
     1
102
RTVSPropertyOp51
 70
     0
102
RTVSPropertyOp52
 70
     0
102
RTVSPropertyOp53
 70
     1
102
RTVSPropertyOp54
 70
     1
102
RTVSPropertyOp55
 70
     1
102
RTVSPropertyOp56
 70
     1
102
RTVSPropertyOp57
 70
     1
102
RTVSPropertyOp58
 70
     1
102
RTVSPropertyOp59
 70
     1
102
RTVSPropertyOp60
 70
     1
102
RTVSPropertyOp61
 70
     1
102
RTVSPropertyOp62
 70
     1
  0
XRECORD
  5
995F8
102
{ACAD_REACTORS
330
995F7
102
}
330
995F7
100
AcDbXrecord
280
     1
102
RTVSPost2010Prop28
280
     0
102
RTVSPost2010PropOp28
 70
     1
102
RTVSPost2010Prop29
280
     1
102
RTVSPost2010PropOp29
 70
     1
102
RTVSPost2010Prop30
280
     1
102
RTVSPost2010PropOp30
 70
     1
102
RTVSPost2010Prop31
280
     0
102
RTVSPost2010PropOp31
 70
     1
102
RTVSPost2010Prop32
280
     0
102
RTVSPost2010PropOp32
 70
     1
102
RTVSPost2010Prop33
280
     0
102
RTVSPost2010PropOp33
 70
     1
102
RTVSPost2010Prop34
280
     0
102
RTVSPost2010PropOp34
 70
     1
102
RTVSPost2010Prop35
280
     0
102
RTVSPost2010PropOp35
 70
     1
102
RTVSPost2010Prop36
280
     0
102
RTVSPost2010PropOp36
 70
     1
102
RTVSPost2010Prop37
 90
       50
102
RTVSPost2010PropOp37
 70
     1
102
RTVSPost2010Prop38
140
0.0
102
RTVSPost2010PropOp38
 70
     1
102
RTVSPost2010Prop39
140
1.0
102
RTVSPost2010PropOp39
 70
     1
102
RTVSPost2010Prop40
 90
        0
102
RTVSPost2010PropOp40
 70
     1
102
RTVSPost2010Prop41ColorIndex
 90
       18
102
RTVSPost2010Prop41ColorRGB
 90
        0
102
RTVSPost2010PropOp41
 70
     1
102
RTVSPost2010Prop42
 90
       50
102
RTVSPost2010PropOp42
 70
     1
102
RTVSPost2010Prop43
 90
        3
102
RTVSPost2010PropOp43
 70
     1
102
RTVSPost2010Prop44ColorIndex
 90
        5
102
RTVSPost2010Prop44ColorRGB
 90
      255
102
RTVSPost2010PropOp44
 70
     1
102
RTVSPost2010Prop45
280
     0
102
RTVSPost2010PropOp45
 70
     1
102
RTVSPost2010Prop46
 90
       50
102
RTVSPost2010PropOp46
 70
     1
102
RTVSPost2010Prop47
 90
       50
102
RTVSPost2010PropOp47
 70
     1
102
RTVSPost2010Prop48
 90
       50
102
RTVSPost2010PropOp48
 70
     1
102
RTVSPost2010Prop49
280
     0
102
RTVSPost2010PropOp49
 70
     1
102
RTVSPost2010Prop50
 90
       50
102
RTVSPost2010PropOp50
 70
     1
102
RTVSPost2010Prop51ColorIndex
 90
      256
102
RTVSPost2010Prop51ColorRGB
 90
-16777216
102
RTVSPost2010PropOp51
 70
     0
102
RTVSPost2010Prop52
140
1.0
102
RTVSPost2010PropOp52
 70
     0
102
RTVSPost2010Prop53
 90
        2
102
RTVSPost2010PropOp53
 70
     1
102
RTVSPost2010Prop54
  1
strokes_ogs.tif
102
RTVSPost2010PropOp54
 70
     1
102
RTVSPost2010Prop55
280
     0
102
RTVSPost2010PropOp55
 70
     1
102
RTVSPost2010Prop56
140
1.0
102
RTVSPost2010PropOp56
 70
     1
102
RTVSPost2010Prop57
140
1.0
102
RTVSPost2010PropOp57
 70
     1
102
RTVSPropertyOp0
 70
     1
102
RTVSPropertyOp1
 70
     1
102
RTVSPropertyOp2
 70
     1
102
RTVSPropertyOp3
 70
     1
102
RTVSPropertyOp4
 70
     1
102
RTVSPropertyOp5
 70
     1
102
RTVSPropertyOp6
 70
     1
102
RTVSPropertyOp7
 70
     1
102
RTVSPropertyOp8
 70
     1
102
RTVSPropertyOp9
 70
     1
102
RTVSPropertyOp10
 70
     1
102
RTVSPropertyOp11
 70
     1
102
RTVSPropertyOp12
 70
     1
102
RTVSPropertyOp13
 70
     1
102
RTVSPropertyOp14
 70
     1
102
RTVSPropertyOp15
 70
     1
102
RTVSPropertyOp16
 70
     1
102
RTVSPropertyOp17
 70
     1
102
RTVSPropertyOp18
 70
     1
102
RTVSPropertyOp19
 70
     1
102
RTVSPropertyOp20
 70
     1
102
RTVSPropertyOp21
 70
     1
102
RTVSPropertyOp22
 70
     1
102
RTVSPropertyOp23
 70
     1
102
RTVSPropertyOp24
 70
     1
102
RTVSPropertyOp25
 70
     1
102
RTVSPropertyOp26
 70
     1
102
RTVSPropertyOp27
 70
     1
102
RTVSPropertyOp28
 70
     1
102
RTVSPropertyOp29
 70
     1
102
RTVSPropertyOp30
 70
     1
102
RTVSPropertyOp31
 70
     1
102
RTVSPropertyOp32
 70
     1
102
RTVSPropertyOp33
 70
     1
102
RTVSPropertyOp34
 70
     1
102
RTVSPropertyOp35
 70
     1
102
RTVSPropertyOp36
 70
     1
102
RTVSPropertyOp37
 70
     1
102
RTVSPropertyOp38
 70
     1
102
RTVSPropertyOp39
 70
     1
102
RTVSPropertyOp40
 70
     1
102
RTVSPropertyOp41
 70
     1
102
RTVSPropertyOp42
 70
     1
102
RTVSPropertyOp43
 70
     1
102
RTVSPropertyOp44
 70
     1
102
RTVSPropertyOp45
 70
     1
102
RTVSPropertyOp46
 70
     1
102
RTVSPropertyOp47
 70
     1
102
RTVSPropertyOp48
 70
     1
102
RTVSPropertyOp49
 70
     1
102
RTVSPropertyOp50
 70
     1
102
RTVSPropertyOp51
 70
     0
102
RTVSPropertyOp52
 70
     0
102
RTVSPropertyOp53
 70
     1
102
RTVSPropertyOp54
 70
     1
102
RTVSPropertyOp55
 70
     1
102
RTVSPropertyOp56
 70
     1
102
RTVSPropertyOp57
 70
     1
102
RTVSPropertyOp58
 70
     1
102
RTVSPropertyOp59
 70
     1
102
RTVSPropertyOp60
 70
     1
102
RTVSPropertyOp61
 70
     1
102
RTVSPropertyOp62
 70
     1
  0
XRECORD
  5
995FA
102
{ACAD_REACTORS
330
995F9
102
}
330
995F9
100
AcDbXrecord
280
     1
102
RTVSPost2010Prop28
280
     0
102
RTVSPost2010PropOp28
 70
     1
102
RTVSPost2010Prop29
280
     1
102
RTVSPost2010PropOp29
 70
     1
102
RTVSPost2010Prop30
280
     1
102
RTVSPost2010PropOp30
 70
     1
102
RTVSPost2010Prop31
280
     0
102
RTVSPost2010PropOp31
 70
     1
102
RTVSPost2010Prop32
280
     0
102
RTVSPost2010PropOp32
 70
     1
102
RTVSPost2010Prop33
280
     0
102
RTVSPost2010PropOp33
 70
     1
102
RTVSPost2010Prop34
280
     0
102
RTVSPost2010PropOp34
 70
     1
102
RTVSPost2010Prop35
280
     0
102
RTVSPost2010PropOp35
 70
     1
102
RTVSPost2010Prop36
280
     0
102
RTVSPost2010PropOp36
 70
     1
102
RTVSPost2010Prop37
 90
       50
102
RTVSPost2010PropOp37
 70
     1
102
RTVSPost2010Prop38
140
0.0
102
RTVSPost2010PropOp38
 70
     1
102
RTVSPost2010Prop39
140
1.0
102
RTVSPost2010PropOp39
 70
     1
102
RTVSPost2010Prop40
 90
        0
102
RTVSPost2010PropOp40
 70
     1
102
RTVSPost2010Prop41ColorIndex
 90
       18
102
RTVSPost2010Prop41ColorRGB
 90
        0
102
RTVSPost2010PropOp41
 70
     1
102
RTVSPost2010Prop42
 90
       50
102
RTVSPost2010PropOp42
 70
     1
102
RTVSPost2010Prop43
 90
        3
102
RTVSPost2010PropOp43
 70
     1
102
RTVSPost2010Prop44ColorIndex
 90
        5
102
RTVSPost2010Prop44ColorRGB
 90
      255
102
RTVSPost2010PropOp44
 70
     1
102
RTVSPost2010Prop45
280
     0
102
RTVSPost2010PropOp45
 70
     1
102
RTVSPost2010Prop46
 90
       50
102
RTVSPost2010PropOp46
 70
     1
102
RTVSPost2010Prop47
 90
       50
102
RTVSPost2010PropOp47
 70
     1
102
RTVSPost2010Prop48
 90
       50
102
RTVSPost2010PropOp48
 70
     1
102
RTVSPost2010Prop49
280
     0
102
RTVSPost2010PropOp49
 70
     1
102
RTVSPost2010Prop50
 90
       50
102
RTVSPost2010PropOp50
 70
     1
102
RTVSPost2010Prop51ColorIndex
 90
      256
102
RTVSPost2010Prop51ColorRGB
 90
-16777216
102
RTVSPost2010PropOp51
 70
     0
102
RTVSPost2010Prop52
140
1.0
102
RTVSPost2010PropOp52
 70
     0
102
RTVSPost2010Prop53
 90
        2
102
RTVSPost2010PropOp53
 70
     1
102
RTVSPost2010Prop54
  1
strokes_ogs.tif
102
RTVSPost2010PropOp54
 70
     1
102
RTVSPost2010Prop55
280
     0
102
RTVSPost2010PropOp55
 70
     1
102
RTVSPost2010Prop56
140
1.0
102
RTVSPost2010PropOp56
 70
     1
102
RTVSPost2010Prop57
140
1.0
102
RTVSPost2010PropOp57
 70
     1
102
RTVSPropertyOp0
 70
     1
102
RTVSPropertyOp1
 70
     1
102
RTVSPropertyOp2
 70
     1
102
RTVSPropertyOp3
 70
     1
102
RTVSPropertyOp4
 70
     1
102
RTVSPropertyOp5
 70
     1
102
RTVSPropertyOp6
 70
     1
102
RTVSPropertyOp7
 70
     1
102
RTVSPropertyOp8
 70
     1
102
RTVSPropertyOp9
 70
     1
102
RTVSPropertyOp10
 70
     1
102
RTVSPropertyOp11
 70
     1
102
RTVSPropertyOp12
 70
     1
102
RTVSPropertyOp13
 70
     1
102
RTVSPropertyOp14
 70
     1
102
RTVSPropertyOp15
 70
     1
102
RTVSPropertyOp16
 70
     1
102
RTVSPropertyOp17
 70
     1
102
RTVSPropertyOp18
 70
     1
102
RTVSPropertyOp19
 70
     1
102
RTVSPropertyOp20
 70
     1
102
RTVSPropertyOp21
 70
     1
102
RTVSPropertyOp22
 70
     1
102
RTVSPropertyOp23
 70
     1
102
RTVSPropertyOp24
 70
     1
102
RTVSPropertyOp25
 70
     1
102
RTVSPropertyOp26
 70
     1
102
RTVSPropertyOp27
 70
     1
102
RTVSPropertyOp28
 70
     1
102
RTVSPropertyOp29
 70
     1
102
RTVSPropertyOp30
 70
     1
102
RTVSPropertyOp31
 70
     1
102
RTVSPropertyOp32
 70
     1
102
RTVSPropertyOp33
 70
     1
102
RTVSPropertyOp34
 70
     1
102
RTVSPropertyOp35
 70
     1
102
RTVSPropertyOp36
 70
     1
102
RTVSPropertyOp37
 70
     1
102
RTVSPropertyOp38
 70
     1
102
RTVSPropertyOp39
 70
     1
102
RTVSPropertyOp40
 70
     1
102
RTVSPropertyOp41
 70
     1
102
RTVSPropertyOp42
 70
     1
102
RTVSPropertyOp43
 70
     1
102
RTVSPropertyOp44
 70
     1
102
RTVSPropertyOp45
 70
     1
102
RTVSPropertyOp46
 70
     1
102
RTVSPropertyOp47
 70
     1
102
RTVSPropertyOp48
 70
     1
102
RTVSPropertyOp49
 70
     1
102
RTVSPropertyOp50
 70
     1
102
RTVSPropertyOp51
 70
     0
102
RTVSPropertyOp52
 70
     0
102
RTVSPropertyOp53
 70
     1
102
RTVSPropertyOp54
 70
     1
102
RTVSPropertyOp55
 70
     1
102
RTVSPropertyOp56
 70
     1
102
RTVSPropertyOp57
 70
     1
102
RTVSPropertyOp58
 70
     1
102
RTVSPropertyOp59
 70
     1
102
RTVSPropertyOp60
 70
     1
102
RTVSPropertyOp61
 70
     1
102
RTVSPropertyOp62
 70
     1
  0
XRECORD
  5
995EB
102
{ACAD_REACTORS
330
995EA
102
}
330
995EA
100
AcDbXrecord
280
     1
102
RTVSPost2010Prop28
280
     0
102
RTVSPost2010PropOp28
 70
     1
102
RTVSPost2010Prop29
280
     1
102
RTVSPost2010PropOp29
 70
     1
102
RTVSPost2010Prop30
280
     1
102
RTVSPost2010PropOp30
 70
     1
102
RTVSPost2010Prop31
280
     0
102
RTVSPost2010PropOp31
 70
     1
102
RTVSPost2010Prop32
280
     0
102
RTVSPost2010PropOp32
 70
     1
102
RTVSPost2010Prop33
280
     0
102
RTVSPost2010PropOp33
 70
     1
102
RTVSPost2010Prop34
280
     0
102
RTVSPost2010PropOp34
 70
     1
102
RTVSPost2010Prop35
280
     0
102
RTVSPost2010PropOp35
 70
     1
102
RTVSPost2010Prop36
280
     0
102
RTVSPost2010PropOp36
 70
     1
102
RTVSPost2010Prop37
 90
       50
102
RTVSPost2010PropOp37
 70
     1
102
RTVSPost2010Prop38
140
0.0
102
RTVSPost2010PropOp38
 70
     1
102
RTVSPost2010Prop39
140
1.0
102
RTVSPost2010PropOp39
 70
     1
102
RTVSPost2010Prop40
 90
        0
102
RTVSPost2010PropOp40
 70
     1
102
RTVSPost2010Prop41ColorIndex
 90
       18
102
RTVSPost2010Prop41ColorRGB
 90
        0
102
RTVSPost2010PropOp41
 70
     1
102
RTVSPost2010Prop42
 90
       50
102
RTVSPost2010PropOp42
 70
     1
102
RTVSPost2010Prop43
 90
        3
102
RTVSPost2010PropOp43
 70
     1
102
RTVSPost2010Prop44ColorIndex
 90
        5
102
RTVSPost2010Prop44ColorRGB
 90
      255
102
RTVSPost2010PropOp44
 70
     1
102
RTVSPost2010Prop45
280
     0
102
RTVSPost2010PropOp45
 70
     1
102
RTVSPost2010Prop46
 90
       50
102
RTVSPost2010PropOp46
 70
     1
102
RTVSPost2010Prop47
 90
       50
102
RTVSPost2010PropOp47
 70
     1
102
RTVSPost2010Prop48
 90
       50
102
RTVSPost2010PropOp48
 70
     1
102
RTVSPost2010Prop49
280
     0
102
RTVSPost2010PropOp49
 70
     1
102
RTVSPost2010Prop50
 90
       50
102
RTVSPost2010PropOp50
 70
     1
102
RTVSPost2010Prop51ColorIndex
 90
      256
102
RTVSPost2010Prop51ColorRGB
 90
-16777216
102
RTVSPost2010PropOp51
 70
     0
102
RTVSPost2010Prop52
140
1.0
102
RTVSPost2010PropOp52
 70
     0
102
RTVSPost2010Prop53
 90
        2
102
RTVSPost2010PropOp53
 70
     1
102
RTVSPost2010Prop54
  1
strokes_ogs.tif
102
RTVSPost2010PropOp54
 70
     1
102
RTVSPost2010Prop55
280
     0
102
RTVSPost2010PropOp55
 70
     1
102
RTVSPost2010Prop56
140
1.0
102
RTVSPost2010PropOp56
 70
     1
102
RTVSPost2010Prop57
140
1.0
102
RTVSPost2010PropOp57
 70
     1
102
RTVSPropertyOp0
 70
     1
102
RTVSPropertyOp1
 70
     1
102
RTVSPropertyOp2
 70
     1
102
RTVSPropertyOp3
 70
     1
102
RTVSPropertyOp4
 70
     1
102
RTVSPropertyOp5
 70
     1
102
RTVSPropertyOp6
 70
     1
102
RTVSPropertyOp7
 70
     1
102
RTVSPropertyOp8
 70
     1
102
RTVSPropertyOp9
 70
     1
102
RTVSPropertyOp10
 70
     1
102
RTVSPropertyOp11
 70
     1
102
RTVSPropertyOp12
 70
     1
102
RTVSPropertyOp13
 70
     1
102
RTVSPropertyOp14
 70
     1
102
RTVSPropertyOp15
 70
     1
102
RTVSPropertyOp16
 70
     1
102
RTVSPropertyOp17
 70
     1
102
RTVSPropertyOp18
 70
     1
102
RTVSPropertyOp19
 70
     1
102
RTVSPropertyOp20
 70
     1
102
RTVSPropertyOp21
 70
     1
102
RTVSPropertyOp22
 70
     1
102
RTVSPropertyOp23
 70
     1
102
RTVSPropertyOp24
 70
     1
102
RTVSPropertyOp25
 70
     1
102
RTVSPropertyOp26
 70
     1
102
RTVSPropertyOp27
 70
     1
102
RTVSPropertyOp28
 70
     1
102
RTVSPropertyOp29
 70
     1
102
RTVSPropertyOp30
 70
     1
102
RTVSPropertyOp31
 70
     1
102
RTVSPropertyOp32
 70
     1
102
RTVSPropertyOp33
 70
     1
102
RTVSPropertyOp34
 70
     1
102
RTVSPropertyOp35
 70
     1
102
RTVSPropertyOp36
 70
     1
102
RTVSPropertyOp37
 70
     1
102
RTVSPropertyOp38
 70
     1
102
RTVSPropertyOp39
 70
     1
102
RTVSPropertyOp40
 70
     1
102
RTVSPropertyOp41
 70
     1
102
RTVSPropertyOp42
 70
     1
102
RTVSPropertyOp43
 70
     1
102
RTVSPropertyOp44
 70
     1
102
RTVSPropertyOp45
 70
     1
102
RTVSPropertyOp46
 70
     1
102
RTVSPropertyOp47
 70
     1
102
RTVSPropertyOp48
 70
     1
102
RTVSPropertyOp49
 70
     1
102
RTVSPropertyOp50
 70
     1
102
RTVSPropertyOp51
 70
     0
102
RTVSPropertyOp52
 70
     0
102
RTVSPropertyOp53
 70
     1
102
RTVSPropertyOp54
 70
     1
102
RTVSPropertyOp55
 70
     1
102
RTVSPropertyOp56
 70
     1
102
RTVSPropertyOp57
 70
     1
102
RTVSPropertyOp58
 70
     1
102
RTVSPropertyOp59
 70
     1
102
RTVSPropertyOp60
 70
     1
102
RTVSPropertyOp61
 70
     1
102
RTVSPropertyOp62
 70
     1
  0
XRECORD
  5
995F4
102
{ACAD_REACTORS
330
995F3
102
}
330
995F3
100
AcDbXrecord
280
     1
102
RTVSPost2010Prop28
280
     0
102
RTVSPost2010PropOp28
 70
     1
102
RTVSPost2010Prop29
280
     1
102
RTVSPost2010PropOp29
 70
     1
102
RTVSPost2010Prop30
280
     1
102
RTVSPost2010PropOp30
 70
     1
102
RTVSPost2010Prop31
280
     0
102
RTVSPost2010PropOp31
 70
     1
102
RTVSPost2010Prop32
280
     0
102
RTVSPost2010PropOp32
 70
     1
102
RTVSPost2010Prop33
280
     0
102
RTVSPost2010PropOp33
 70
     1
102
RTVSPost2010Prop34
280
     0
102
RTVSPost2010PropOp34
 70
     1
102
RTVSPost2010Prop35
280
     0
102
RTVSPost2010PropOp35
 70
     1
102
RTVSPost2010Prop36
280
     0
102
RTVSPost2010PropOp36
 70
     1
102
RTVSPost2010Prop37
 90
       50
102
RTVSPost2010PropOp37
 70
     1
102
RTVSPost2010Prop38
140
0.0
102
RTVSPost2010PropOp38
 70
     1
102
RTVSPost2010Prop39
140
1.0
102
RTVSPost2010PropOp39
 70
     1
102
RTVSPost2010Prop40
 90
        0
102
RTVSPost2010PropOp40
 70
     1
102
RTVSPost2010Prop41ColorIndex
 90
       18
102
RTVSPost2010Prop41ColorRGB
 90
        0
102
RTVSPost2010PropOp41
 70
     1
102
RTVSPost2010Prop42
 90
       50
102
RTVSPost2010PropOp42
 70
     1
102
RTVSPost2010Prop43
 90
        3
102
RTVSPost2010PropOp43
 70
     1
102
RTVSPost2010Prop44ColorIndex
 90
        5
102
RTVSPost2010Prop44ColorRGB
 90
      255
102
RTVSPost2010PropOp44
 70
     1
102
RTVSPost2010Prop45
280
     0
102
RTVSPost2010PropOp45
 70
     1
102
RTVSPost2010Prop46
 90
       50
102
RTVSPost2010PropOp46
 70
     1
102
RTVSPost2010Prop47
 90
       50
102
RTVSPost2010PropOp47
 70
     1
102
RTVSPost2010Prop48
 90
       50
102
RTVSPost2010PropOp48
 70
     1
102
RTVSPost2010Prop49
280
     0
102
RTVSPost2010PropOp49
 70
     1
102
RTVSPost2010Prop50
 90
       50
102
RTVSPost2010PropOp50
 70
     1
102
RTVSPost2010Prop51ColorIndex
 90
      256
102
RTVSPost2010Prop51ColorRGB
 90
-16777216
102
RTVSPost2010PropOp51
 70
     0
102
RTVSPost2010Prop52
140
1.0
102
RTVSPost2010PropOp52
 70
     0
102
RTVSPost2010Prop53
 90
        2
102
RTVSPost2010PropOp53
 70
     1
102
RTVSPost2010Prop54
  1
strokes_ogs.tif
102
RTVSPost2010PropOp54
 70
     1
102
RTVSPost2010Prop55
280
     0
102
RTVSPost2010PropOp55
 70
     1
102
RTVSPost2010Prop56
140
1.0
102
RTVSPost2010PropOp56
 70
     1
102
RTVSPost2010Prop57
140
1.0
102
RTVSPost2010PropOp57
 70
     1
102
RTVSPropertyOp0
 70
     1
102
RTVSPropertyOp1
 70
     1
102
RTVSPropertyOp2
 70
     1
102
RTVSPropertyOp3
 70
     1
102
RTVSPropertyOp4
 70
     1
102
RTVSPropertyOp5
 70
     1
102
RTVSPropertyOp6
 70
     1
102
RTVSPropertyOp7
 70
     1
102
RTVSPropertyOp8
 70
     1
102
RTVSPropertyOp9
 70
     1
102
RTVSPropertyOp10
 70
     1
102
RTVSPropertyOp11
 70
     1
102
RTVSPropertyOp12
 70
     1
102
RTVSPropertyOp13
 70
     1
102
RTVSPropertyOp14
 70
     1
102
RTVSPropertyOp15
 70
     1
102
RTVSPropertyOp16
 70
     1
102
RTVSPropertyOp17
 70
     1
102
RTVSPropertyOp18
 70
     1
102
RTVSPropertyOp19
 70
     1
102
RTVSPropertyOp20
 70
     1
102
RTVSPropertyOp21
 70
     1
102
RTVSPropertyOp22
 70
     1
102
RTVSPropertyOp23
 70
     1
102
RTVSPropertyOp24
 70
     1
102
RTVSPropertyOp25
 70
     1
102
RTVSPropertyOp26
 70
     1
102
RTVSPropertyOp27
 70
     1
102
RTVSPropertyOp28
 70
     1
102
RTVSPropertyOp29
 70
     1
102
RTVSPropertyOp30
 70
     1
102
RTVSPropertyOp31
 70
     1
102
RTVSPropertyOp32
 70
     1
102
RTVSPropertyOp33
 70
     1
102
RTVSPropertyOp34
 70
     1
102
RTVSPropertyOp35
 70
     1
102
RTVSPropertyOp36
 70
     1
102
RTVSPropertyOp37
 70
     1
102
RTVSPropertyOp38
 70
     1
102
RTVSPropertyOp39
 70
     1
102
RTVSPropertyOp40
 70
     1
102
RTVSPropertyOp41
 70
     1
102
RTVSPropertyOp42
 70
     1
102
RTVSPropertyOp43
 70
     1
102
RTVSPropertyOp44
 70
     1
102
RTVSPropertyOp45
 70
     1
102
RTVSPropertyOp46
 70
     1
102
RTVSPropertyOp47
 70
     1
102
RTVSPropertyOp48
 70
     1
102
RTVSPropertyOp49
 70
     1
102
RTVSPropertyOp50
 70
     1
102
RTVSPropertyOp51
 70
     0
102
RTVSPropertyOp52
 70
     0
102
RTVSPropertyOp53
 70
     1
102
RTVSPropertyOp54
 70
     1
102
RTVSPropertyOp55
 70
     1
102
RTVSPropertyOp56
 70
     1
102
RTVSPropertyOp57
 70
     1
102
RTVSPropertyOp58
 70
     1
102
RTVSPropertyOp59
 70
     1
102
RTVSPropertyOp60
 70
     1
102
RTVSPropertyOp61
 70
     1
102
RTVSPropertyOp62
 70
     1
  0
XRECORD
  5
995FC
102
{ACAD_REACTORS
330
995FB
102
}
330
995FB
100
AcDbXrecord
280
     1
102
RTVSPost2010Prop28
280
     0
102
RTVSPost2010PropOp28
 70
     1
102
RTVSPost2010Prop29
280
     1
102
RTVSPost2010PropOp29
 70
     1
102
RTVSPost2010Prop30
280
     1
102
RTVSPost2010PropOp30
 70
     1
102
RTVSPost2010Prop31
280
     0
102
RTVSPost2010PropOp31
 70
     1
102
RTVSPost2010Prop32
280
     0
102
RTVSPost2010PropOp32
 70
     1
102
RTVSPost2010Prop33
280
     0
102
RTVSPost2010PropOp33
 70
     1
102
RTVSPost2010Prop34
280
     0
102
RTVSPost2010PropOp34
 70
     1
102
RTVSPost2010Prop35
280
     0
102
RTVSPost2010PropOp35
 70
     1
102
RTVSPost2010Prop36
280
     0
102
RTVSPost2010PropOp36
 70
     1
102
RTVSPost2010Prop37
 90
       50
102
RTVSPost2010PropOp37
 70
     1
102
RTVSPost2010Prop38
140
0.0
102
RTVSPost2010PropOp38
 70
     1
102
RTVSPost2010Prop39
140
1.0
102
RTVSPost2010PropOp39
 70
     1
102
RTVSPost2010Prop40
 90
        0
102
RTVSPost2010PropOp40
 70
     1
102
RTVSPost2010Prop41ColorIndex
 90
       18
102
RTVSPost2010Prop41ColorRGB
 90
        0
102
RTVSPost2010PropOp41
 70
     1
102
RTVSPost2010Prop42
 90
       50
102
RTVSPost2010PropOp42
 70
     1
102
RTVSPost2010Prop43
 90
        3
102
RTVSPost2010PropOp43
 70
     1
102
RTVSPost2010Prop44ColorIndex
 90
        5
102
RTVSPost2010Prop44ColorRGB
 90
      255
102
RTVSPost2010PropOp44
 70
     1
102
RTVSPost2010Prop45
280
     0
102
RTVSPost2010PropOp45
 70
     1
102
RTVSPost2010Prop46
 90
       50
102
RTVSPost2010PropOp46
 70
     1
102
RTVSPost2010Prop47
 90
       50
102
RTVSPost2010PropOp47
 70
     1
102
RTVSPost2010Prop48
 90
       50
102
RTVSPost2010PropOp48
 70
     1
102
RTVSPost2010Prop49
280
     0
102
RTVSPost2010PropOp49
 70
     1
102
RTVSPost2010Prop50
 90
       50
102
RTVSPost2010PropOp50
 70
     1
102
RTVSPost2010Prop51ColorIndex
 90
      256
102
RTVSPost2010Prop51ColorRGB
 90
-16777216
102
RTVSPost2010PropOp51
 70
     0
102
RTVSPost2010Prop52
140
1.0
102
RTVSPost2010PropOp52
 70
     0
102
RTVSPost2010Prop53
 90
        2
102
RTVSPost2010PropOp53
 70
     1
102
RTVSPost2010Prop54
  1
strokes_ogs.tif
102
RTVSPost2010PropOp54
 70
     1
102
RTVSPost2010Prop55
280
     0
102
RTVSPost2010PropOp55
 70
     1
102
RTVSPost2010Prop56
140
1.0
102
RTVSPost2010PropOp56
 70
     1
102
RTVSPost2010Prop57
140
1.0
102
RTVSPost2010PropOp57
 70
     1
102
RTVSPropertyOp0
 70
     1
102
RTVSPropertyOp1
 70
     1
102
RTVSPropertyOp2
 70
     1
102
RTVSPropertyOp3
 70
     1
102
RTVSPropertyOp4
 70
     1
102
RTVSPropertyOp5
 70
     1
102
RTVSPropertyOp6
 70
     1
102
RTVSPropertyOp7
 70
     1
102
RTVSPropertyOp8
 70
     1
102
RTVSPropertyOp9
 70
     1
102
RTVSPropertyOp10
 70
     1
102
RTVSPropertyOp11
 70
     1
102
RTVSPropertyOp12
 70
     1
102
RTVSPropertyOp13
 70
     1
102
RTVSPropertyOp14
 70
     1
102
RTVSPropertyOp15
 70
     1
102
RTVSPropertyOp16
 70
     1
102
RTVSPropertyOp17
 70
     1
102
RTVSPropertyOp18
 70
     1
102
RTVSPropertyOp19
 70
     1
102
RTVSPropertyOp20
 70
     1
102
RTVSPropertyOp21
 70
     1
102
RTVSPropertyOp22
 70
     1
102
RTVSPropertyOp23
 70
     1
102
RTVSPropertyOp24
 70
     1
102
RTVSPropertyOp25
 70
     1
102
RTVSPropertyOp26
 70
     1
102
RTVSPropertyOp27
 70
     1
102
RTVSPropertyOp28
 70
     1
102
RTVSPropertyOp29
 70
     1
102
RTVSPropertyOp30
 70
     1
102
RTVSPropertyOp31
 70
     1
102
RTVSPropertyOp32
 70
     1
102
RTVSPropertyOp33
 70
     1
102
RTVSPropertyOp34
 70
     1
102
RTVSPropertyOp35
 70
     1
102
RTVSPropertyOp36
 70
     1
102
RTVSPropertyOp37
 70
     1
102
RTVSPropertyOp38
 70
     1
102
RTVSPropertyOp39
 70
     1
102
RTVSPropertyOp40
 70
     1
102
RTVSPropertyOp41
 70
     1
102
RTVSPropertyOp42
 70
     1
102
RTVSPropertyOp43
 70
     1
102
RTVSPropertyOp44
 70
     1
102
RTVSPropertyOp45
 70
     1
102
RTVSPropertyOp46
 70
     1
102
RTVSPropertyOp47
 70
     1
102
RTVSPropertyOp48
 70
     1
102
RTVSPropertyOp49
 70
     1
102
RTVSPropertyOp50
 70
     1
102
RTVSPropertyOp51
 70
     0
102
RTVSPropertyOp52
 70
     0
102
RTVSPropertyOp53
 70
     1
102
RTVSPropertyOp54
 70
     1
102
RTVSPropertyOp55
 70
     1
102
RTVSPropertyOp56
 70
     1
102
RTVSPropertyOp57
 70
     1
102
RTVSPropertyOp58
 70
     1
102
RTVSPropertyOp59
 70
     1
102
RTVSPropertyOp60
 70
     1
102
RTVSPropertyOp61
 70
     1
102
RTVSPropertyOp62
 70
     1
  0
ENDSEC
  0
EOF
