  0
SECTION
  2
HEADER
  9
$ACADVER
  1
AC1006
  9
$INSBASE
 10
0.0
 20
0.0
 30
0.0
  9
$EXTMIN
 10
-1690.460254004407
 20
-508.48240149521371
  9
$EXTMAX
 10
1092.0103685047609
 20
2119.4368683546381
  9
$LIMMIN
 10
-4267.1522210604817
 20
-2696.0832101984129
  9
$LIMMAX
 10
7190.7174225864646
 20
5141.155363923066
  9
$ORTHOMODE
 70
     0
  9
$REGENMODE
 70
     1
  9
$FILLMODE
 70
     1
  9
$QTEXTMODE
 70
     0
  9
$MIRRTEXT
 70
     0
  9
$LTSCALE
 40
20.0
  9
$ATTMODE
 70
     1
  9
$TEXTSIZE
 40
53.0
  9
$TRACEWID
 40
0.05
  9
$TEXTSTYLE
  7
KAIGAI_STANDARD_1
  9
$CLAYER
  8
NOTE
  9
$CELTYPE
  6
CONTINUOUS
  9
$CECOLOR
 62
     7
  9
$DIMSCALE
 40
1.0
  9
$DIMASZ
 40
30.0
  9
$DIMEXO
 40
20.0
  9
$DIMDLI
 40
80.0
  9
$DIMRND
 40
0.0
  9
$DIMDLE
 40
0.0
  9
$DIMEXE
 40
20.0
  9
$DIMTP
 40
0.0
  9
$DIMTM
 40
0.0
  9
$DIMTXT
 40
40.0
  9
$DIMCEN
 40
0.09
  9
$DIMTSZ
 40
0.0
  9
$DIMTOL
 70
     0
  9
$DIMLIM
 70
     0
  9
$DIMTIH
 70
     0
  9
$DIMTOH
 70
     0
  9
$DIMSE1
 70
     0
  9
$DIMSE2
 70
     0
  9
$DIMTAD
 70
     1
  9
$DIMZIN
 70
     8
  9
$DIMBLK
  1

  9
$DIMASO
 70
     1
  9
$DIMSHO
 70
     0
  9
$DIMPOST
  1

  9
$DIMAPOST
  1

  9
$DIMALT
 70
     0
  9
$DIMALTD
 70
     2
  9
$DIMALTF
 40
25.399999999999999
  9
$DIMLFAC
 40
1.0
  9
$DIMTOFL
 70
     1
  9
$DIMTVP
 40
0.0
  9
$DIMTIX
 70
     0
  9
$DIMSOXD
 70
     0
  9
$DIMSAH
 70
     0
  9
$DIMBLK1
  1

  9
$DIMBLK2
  1

  9
$LUNITS
 70
     2
  9
$LUPREC
 70
     4
  9
$SKETCHINC
 40
0.1
  9
$FILLETRAD
 40
0.0
  9
$AUNITS
 70
     1
  9
$AUPREC
 70
     3
  9
$MENU
  1
ACAD
  9
$ELEVATION
 40
0.0
  9
$THICKNESS
 40
0.0
  9
$LIMCHECK
 70
     0
  9
$CHAMFERA
 40
0.0
  9
$CHAMFERB
 40
0.0
  9
$SKPOLY
 70
     0
  9
$TDCREATE
 40
2455902.607169062
  9
$TDUPDATE
 40
2457837.413242917
  9
$TDINDWG
 40
1.6379970833
  9
$TDUSRTIMER
 40
1.6379934838
  9
$USRTIMER
 70
     1
  9
$ANGBASE
 50
0.0
  9
$ANGDIR
 70
     0
  9
$PDMODE
 70
     3
  9
$PDSIZE
 40
-2.0
  9
$PLINEWID
 40
0.0
  9
$SPLFRAME
 70
     0
  9
$SPLINETYPE
 70
     6
  9
$SPLINESEGS
 70
     8
  9
$SURFTAB1
 70
     6
  9
$SURFTAB2
 70
     6
  9
$SURFTYPE
 70
     6
  9
$SURFU
 70
     6
  9
$SURFV
 70
     6
  9
$UCSNAME
  2

  9
$UCSORG
 10
0.0
 20
0.0
 30
0.0
  9
$UCSXDIR
 10
1.0
 20
0.0
 30
0.0
  9
$UCSYDIR
 10
0.0
 20
1.0
 30
0.0
  9
$USERI1
 70
     0
  9
$USERI2
 70
     0
  9
$USERI3
 70
     0
  9
$USERI4
 70
     0
  9
$USERI5
 70
     0
  9
$USERR1
 40
20.0
  9
$USERR2
 40
0.0
  9
$USERR3
 40
0.0
  9
$USERR4
 40
0.0
  9
$USERR5
 40
0.0
  9
$WORLDVIEW
 70
     1
  9
$ATTDIA
 70
     0
  9
$ATTREQ
 70
     1
  9
$BLIPMODE
 70
     1
  9
$COORDS
 70
     1
  9
$DRAGMODE
 70
     2
  9
$OSMODE
 70
     0
  9
$HANDLING
 70
     0
  9
$HANDSEED
  5
99C97
  0
ENDSEC
  0
SECTION
  2
TABLES
  0
TABLE
  2
LTYPE
 70
     2
  0
LTYPE
  2
CONTINUOUS
 70
     0
  3
実線
 72
    65
 73
     0
 40
0.0
  0
LTYPE
  2
DASHDOT
 70
     0
  3
____ _ ____ _ ____ _ ____ _ ____ _ ____ _ ____
 72
    65
 73
     4
 40
5.5
 49
4.0
 49
-0.6
 49
0.3
 49
-0.6
  0
ENDTAB
  0
TABLE
  2
LAYER
 70
    12
  0
LAYER
  2
0
 70
     0
 62
     7
  6
CONTINUOUS
  0
LAYER
  2
OUTLINE
 70
     0
 62
     3
  6
CONTINUOUS
  0
LAYER
  2
DETAIL
 70
     0
 62
     5
  6
CONTINUOUS
  0
LAYER
  2
BASIS
 70
     0
 62
     6
  6
DASHDOT
  0
LAYER
  2
SIZE
 70
     0
 62
    30
  6
CONTINUOUS
  0
LAYER
  2
NOTE
 70
     0
 62
     4
  6
CONTINUOUS
  0
LAYER
  2
ARRANGE
 70
     0
 62
     1
  6
CONTINUOUS
  0
LAYER
  2
FIX
 70
     0
 62
    11
  6
CONTINUOUS
  0
LAYER
  2
SERVICESPACE
 70
     0
 62
     2
  6
DASHDOT
  0
LAYER
  2
ETC
 70
     0
 62
    61
  6
CONTINUOUS
  0
LAYER
  2
SYMBOLLINE
 70
     0
 62
    15
  6
CONTINUOUS
  0
LAYER
  2
DEFPOINTS
 70
     0
 62
     7
  6
CONTINUOUS
  0
ENDTAB
  0
TABLE
  2
STYLE
 70
     2
  0
STYLE
  2
STANDARD
 70
     0
 40
0.0
 41
0.9
 50
0.0
 71
     0
 42
64.0
  3
SIMPLEX
  4
BIGFONT
  0
STYLE
  2
KAIGAI_STANDARD_1
 70
     0
 40
53.0
 41
0.51
 50
0.0
 71
     0
 42
53.0
  3
MONOTXT.shx
  4
BIGFONT.shx
  0
ENDTAB
  0
TABLE
  2
VIEW
 70
     1
  0
VIEW
  2
ALL
 70
     0
 40
9000.0
 10
241.50664699999999
 20
0.0
 41
12483.01
 11
0.0
 21
0.0
 31
1.0
 12
0.0
 22
0.0
 32
0.0
 42
50.0
 43
0.0
 44
0.0
 50
0.0
 71
     0
  0
ENDTAB
  0
TABLE
  2
UCS
 70
     0
  0
ENDTAB
  0
TABLE
  2
VPORT
 70
     1
  0
VPORT
  2
*ACTIVE
 70
     0
 10
0.0
 20
0.0
 11
1.0
 21
1.0
 12
-299.22494274982301
 22
805.47723342971233
 13
0.0
 23
0.0
 14
50.0
 24
50.0
 15
100.0
 25
100.0
 16
0.0
 26
0.0
 36
1.0
 17
0.0
 27
0.0
 37
0.0
 40
2648.0052770079401
 41
2.3073979591836729
 42
50.0
 43
0.0
 44
0.0
 50
0.0
 51
0.0
 71
     0
 72
  1000
 73
     1
 74
     0
 75
     0
 76
     0
 77
     0
 78
     0
  0
ENDTAB
  0
TABLE
  2
DWGMGR
 70
     0
  0
ENDTAB
  0
ENDSEC
  0
SECTION
  2
BLOCKS
  0
ENDSEC
  0
SECTION
  2
ENTITIES
  0
LINE
  8
DETAIL
  6
CONTINUOUS
 62
     5
 10
-306.80940107664361
 20
70.499999999936335
 30
0.0
 11
-309.11880215344718
 21
74.499999999936335
 31
0.0
  0
LINE
  8
DETAIL
  6
CONTINUOUS
 62
     5
 10
-299.8811978463491
 20
74.499999999936335
 30
0.0
 11
-302.19059892314539
 21
78.499999999936335
 31
0.0
  0
LINE
  8
DETAIL
  6
CONTINUOUS
 62
     5
 10
-255.8094010766435
 20
106.99999999993631
 30
0.0
 11
-258.11880215344718
 21
110.99999999993631
 31
0.0
  0
LINE
  8
DETAIL
  6
CONTINUOUS
 62
     5
 10
-248.8811978463491
 20
110.99999999993631
 30
0.0
 11
-251.1905989231455
 21
114.99999999993631
 31
0.0
  0
LINE
  8
DETAIL
  6
CONTINUOUS
 62
     5
 10
-189.8094010766435
 20
106.99999999993631
 30
0.0
 11
-192.11880215344721
 21
110.99999999993631
 31
0.0
  0
LINE
  8
DETAIL
  6
CONTINUOUS
 62
     5
 10
-182.8811978463491
 20
110.99999999993631
 30
0.0
 11
-185.19059892314539
 21
114.99999999993631
 31
0.0
  0
LINE
  8
DETAIL
  6
CONTINUOUS
 62
     5
 10
369.50000000005821
 20
-0.0000000000636646
 30
0.0
 11
317.00000000005821
 21
-0.0000000000636646
 31
0.0
  0
LINE
  8
DETAIL
  6
CONTINUOUS
 62
     5
 10
-316.99999999994179
 20
-0.0000000000636646
 30
0.0
 11
-369.49999999994179
 21
-0.0000000000636646
 31
0.0
  0
LINE
  8
DETAIL
  6
CONTINUOUS
 62
     5
 10
369.50000000005821
 20
2.2999999999356069
 30
0.0
 11
317.00000000005821
 21
2.2999999999356069
 31
0.0
  0
LINE
  8
DETAIL
  6
CONTINUOUS
 62
     5
 10
-316.99999999994179
 20
2.2999999999356069
 30
0.0
 11
-369.49999999994179
 21
2.2999999999356069
 31
0.0
  0
LINE
  8
DETAIL
  6
CONTINUOUS
 62
     5
 10
319.50000000005821
 20
3.9999999999363349
 30
0.0
 11
315.8000000000539
 21
3.9999999999363349
 31
0.0
  0
LINE
  8
DETAIL
  6
CONTINUOUS
 62
     5
 10
-315.7999999999447
 20
3.9999999999363349
 30
0.0
 11
-319.49999999994179
 21
3.9999999999363349
 31
0.0
  0
LINE
  8
DETAIL
  6
CONTINUOUS
 62
     5
 10
-227.30940107664361
 20
300.99999999993628
 30
0.0
 11
-229.61880215344721
 21
304.99999999993628
 31
0.0
  0
LINE
  8
DETAIL
  6
CONTINUOUS
 62
     5
 10
-220.3811978463491
 20
304.99999999993628
 30
0.0
 11
-222.69059892314539
 21
308.99999999993628
 31
0.0
  0
LINE
  8
DETAIL
  6
CONTINUOUS
 62
     5
 10
-369.49999999994179
 20
2.2999999999356069
 30
0.0
 11
-369.49999999994179
 21
-0.0000000000636646
 31
0.0
  0
LINE
  8
DETAIL
  6
CONTINUOUS
 62
     5
 10
-369.49999999994179
 20
57.699999999937063
 30
0.0
 11
-369.49999999994179
 21
62.299999999935608
 31
0.0
  0
LINE
  8
DETAIL
  6
CONTINUOUS
 62
     5
 10
-367.49999999994179
 20
57.699999999937063
 30
0.0
 11
-367.49999999994179
 21
2.2999999999356069
 31
0.0
  0
LINE
  8
DETAIL
  6
CONTINUOUS
 62
     5
 10
-370.28091039814171
 20
1522.4999999999361
 30
0.0
 11
-369.99760774914461
 21
1553.963268127836
 31
0.0
  0
LINE
  8
DETAIL
  6
CONTINUOUS
 62
     5
 10
-365.02656217934418
 20
1641.074277792535
 30
0.0
 11
-367.38842298794771
 21
1559.254987546037
 31
0.0
  0
LINE
  8
DETAIL
  6
CONTINUOUS
 62
     5
 10
-365.02656205934181
 20
1641.074280214636
 30
0.0
 11
-360.02855335244379
 21
1755.5474998459381
 31
0.0
  0
LINE
  8
DETAIL
  6
CONTINUOUS
 62
     5
 10
319.50000000005821
 20
55.999999999936342
 30
0.0
 11
315.8000000000539
 21
55.999999999936342
 31
0.0
  0
LINE
  8
DETAIL
  6
CONTINUOUS
 62
     5
 10
-315.7999999999447
 20
55.999999999936342
 30
0.0
 11
-319.49999999994179
 21
55.999999999936342
 31
0.0
  0
LINE
  8
DETAIL
  6
CONTINUOUS
 62
     5
 10
369.50000000005821
 20
57.699999999937063
 30
0.0
 11
317.00000000005821
 21
57.699999999937063
 31
0.0
  0
LINE
  8
DETAIL
  6
CONTINUOUS
 62
     5
 10
-316.99999999994179
 20
57.699999999937063
 30
0.0
 11
-369.49999999994179
 21
57.699999999937063
 31
0.0
  0
LINE
  8
DETAIL
  6
CONTINUOUS
 62
     5
 10
369.50000000005821
 20
59.999999999936328
 30
0.0
 11
317.00000000005821
 21
59.999999999936328
 31
0.0
  0
LINE
  8
DETAIL
  6
CONTINUOUS
 62
     5
 10
-316.99999999994179
 20
59.999999999936328
 30
0.0
 11
-369.49999999994179
 21
59.999999999936328
 31
0.0
  0
LINE
  8
DETAIL
  6
CONTINUOUS
 62
     5
 10
-369.49999999994179
 20
62.299999999935608
 30
0.0
 11
-318.99999999994179
 21
62.299999999935608
 31
0.0
  0
LINE
  8
DETAIL
  6
CONTINUOUS
 62
     5
 10
319.00000000005821
 20
62.299999999935608
 30
0.0
 11
369.50000000005821
 21
62.299999999935608
 31
0.0
  0
LINE
  8
DETAIL
  6
CONTINUOUS
 62
     5
 10
320.46357325975259
 20
64.499999999936335
 30
0.0
 11
300.8000000000539
 21
64.499999999936335
 31
0.0
  0
LINE
  8
DETAIL
  6
CONTINUOUS
 62
     5
 10
306.8094010768545
 20
70.499999999936335
 30
0.0
 11
302.1905989233565
 21
70.499999999936335
 31
0.0
  0
LINE
  8
DETAIL
  6
CONTINUOUS
 62
     5
 10
-302.19059892314539
 20
70.499999999936335
 30
0.0
 11
-306.80940107664361
 21
70.499999999936335
 31
0.0
  0
LINE
  8
DETAIL
  6
CONTINUOUS
 62
     5
 10
-304.7999999999447
 20
72.499999999936335
 30
0.0
 11
-304.19999999994621
 21
72.499999999936335
 31
0.0
  0
LINE
  8
DETAIL
  6
CONTINUOUS
 62
     5
 10
304.2000000000553
 20
72.499999999936335
 30
0.0
 11
304.80000000005379
 21
72.499999999936335
 31
0.0
  0
LINE
  8
DETAIL
  6
CONTINUOUS
 62
     5
 10
-306.49999999994179
 20
74.199999999937063
 30
0.0
 11
-304.7999999999447
 21
74.199999999937063
 31
0.0
  0
LINE
  8
DETAIL
  6
CONTINUOUS
 62
     5
 10
-304.19999999994621
 20
74.199999999937063
 30
0.0
 11
-302.49999999994179
 21
74.199999999937063
 31
0.0
  0
LINE
  8
DETAIL
  6
CONTINUOUS
 62
     5
 10
302.50000000005821
 20
74.199999999937063
 30
0.0
 11
304.2000000000553
 21
74.199999999937063
 31
0.0
  0
LINE
  8
DETAIL
  6
CONTINUOUS
 62
     5
 10
304.80000000005379
 20
74.199999999937063
 30
0.0
 11
306.50000000005821
 21
74.199999999937063
 31
0.0
  0
LINE
  8
DETAIL
  6
CONTINUOUS
 62
     5
 10
306.50000000005821
 20
74.799999999935608
 30
0.0
 11
304.80000000005379
 21
74.799999999935608
 31
0.0
  0
LINE
  8
DETAIL
  6
CONTINUOUS
 62
     5
 10
304.2000000000553
 20
74.799999999935608
 30
0.0
 11
302.50000000005821
 21
74.799999999935608
 31
0.0
  0
LINE
  8
DETAIL
  6
CONTINUOUS
 62
     5
 10
-302.49999999994179
 20
74.799999999935608
 30
0.0
 11
-304.19999999994621
 21
74.799999999935608
 31
0.0
  0
LINE
  8
DETAIL
  6
CONTINUOUS
 62
     5
 10
-304.7999999999447
 20
74.799999999935608
 30
0.0
 11
-306.49999999994179
 21
74.799999999935608
 31
0.0
  0
LINE
  8
DETAIL
  6
CONTINUOUS
 62
     5
 10
304.80000000005379
 20
76.499999999936335
 30
0.0
 11
304.2000000000553
 21
76.499999999936335
 31
0.0
  0
LINE
  8
DETAIL
  6
CONTINUOUS
 62
     5
 10
-304.19999999994621
 20
76.499999999936335
 30
0.0
 11
-304.7999999999447
 21
76.499999999936335
 31
0.0
  0
LINE
  8
DETAIL
  6
CONTINUOUS
 62
     5
 10
306.8094010768545
 20
78.499999999936335
 30
0.0
 11
302.1905989233565
 21
78.499999999936335
 31
0.0
  0
LINE
  8
DETAIL
  6
CONTINUOUS
 62
     5
 10
-302.19059892314539
 20
78.499999999936335
 30
0.0
 11
-306.80940107664361
 21
78.499999999936335
 31
0.0
  0
LINE
  8
DETAIL
  6
CONTINUOUS
 62
     5
 10
295.80000000005379
 20
87.999999999936335
 30
0.0
 11
-295.7999999999447
 21
87.999999999936335
 31
0.0
  0
LINE
  8
DETAIL
  6
CONTINUOUS
 62
     5
 10
-226.49999999994179
 20
93.007179676935266
 30
0.0
 11
149.50000000005821
 21
93.007179676935266
 31
0.0
  0
LINE
  8
DETAIL
  6
CONTINUOUS
 62
     5
 10
-296.49999999994179
 20
94.999999999936335
 30
0.0
 11
-295.7999999999447
 21
94.999999999936335
 31
0.0
  0
LINE
  8
DETAIL
  6
CONTINUOUS
 62
     5
 10
365.50000000005821
 20
94.999999999936335
 30
0.0
 11
363.95064030275529
 21
94.999999999936335
 31
0.0
  0
LINE
  8
DETAIL
  6
CONTINUOUS
 62
     5
 10
296.50000000005821
 20
94.999999999936335
 30
0.0
 11
295.80000000005379
 21
94.999999999936335
 31
0.0
  0
LINE
  8
DETAIL
  6
CONTINUOUS
 62
     5
 10
295.80000000005379
 20
94.999999999936335
 30
0.0
 11
152.50000000005821
 21
94.999999999936335
 31
0.0
  0
LINE
  8
DETAIL
  6
CONTINUOUS
 62
     5
 10
-229.49999999994179
 20
94.999999999936335
 30
0.0
 11
-295.7999999999447
 21
94.999999999936335
 31
0.0
  0
LINE
  8
DETAIL
  6
CONTINUOUS
 62
     5
 10
160.0999640542577
 20
96.999999999936335
 30
0.0
 11
152.50000000005821
 21
96.999999999936335
 31
0.0
  0
LINE
  8
DETAIL
  6
CONTINUOUS
 62
     5
 10
-229.49999999994179
 20
96.999999999936335
 30
0.0
 11
-237.09996405414131
 21
96.999999999936335
 31
0.0
  0
LINE
  8
DETAIL
  6
CONTINUOUS
 62
     5
 10
291.50000000005821
 20
99.999999999936335
 30
0.0
 11
166.50000000005821
 21
99.999999999936335
 31
0.0
  0
LINE
  8
DETAIL
  6
CONTINUOUS
 62
     5
 10
-243.49999999994179
 20
99.999999999936335
 30
0.0
 11
-291.49999999994179
 21
99.999999999936335
 31
0.0
  0
LINE
  8
DETAIL
  6
CONTINUOUS
 62
     5
 10
176.8094010768545
 20
106.99999999993631
 30
0.0
 11
172.19059892335639
 21
106.99999999993631
 31
0.0
  0
LINE
  8
DETAIL
  6
CONTINUOUS
 62
     5
 10
112.8094010768545
 20
106.99999999993631
 30
0.0
 11
108.1905989233564
 21
106.99999999993631
 31
0.0
  0
LINE
  8
DETAIL
  6
CONTINUOUS
 62
     5
 10
-185.19059892314539
 20
106.99999999993631
 30
0.0
 11
-189.8094010766435
 21
106.99999999993631
 31
0.0
  0
LINE
  8
DETAIL
  6
CONTINUOUS
 62
     5
 10
-251.1905989231455
 20
106.99999999993631
 30
0.0
 11
-255.8094010766435
 21
106.99999999993631
 31
0.0
  0
LINE
  8
DETAIL
  6
CONTINUOUS
 62
     5
 10
-253.7999999999447
 20
108.99999999993631
 30
0.0
 11
-253.19999999994619
 21
108.99999999993631
 31
0.0
  0
LINE
  8
DETAIL
  6
CONTINUOUS
 62
     5
 10
-187.7999999999447
 20
108.99999999993631
 30
0.0
 11
-187.1999999999461
 21
108.99999999993631
 31
0.0
  0
LINE
  8
DETAIL
  6
CONTINUOUS
 62
     5
 10
110.2000000000553
 20
108.99999999993631
 30
0.0
 11
110.8000000000538
 21
108.99999999993631
 31
0.0
  0
LINE
  8
DETAIL
  6
CONTINUOUS
 62
     5
 10
174.2000000000553
 20
108.99999999993631
 30
0.0
 11
174.80000000005381
 21
108.99999999993631
 31
0.0
  0
LINE
  8
DETAIL
  6
CONTINUOUS
 62
     5
 10
-255.49999999994179
 20
110.69999999993701
 30
0.0
 11
-253.7999999999447
 21
110.69999999993701
 31
0.0
  0
LINE
  8
DETAIL
  6
CONTINUOUS
 62
     5
 10
-253.19999999994619
 20
110.69999999993701
 30
0.0
 11
-251.49999999994179
 21
110.69999999993701
 31
0.0
  0
LINE
  8
DETAIL
  6
CONTINUOUS
 62
     5
 10
-189.49999999994179
 20
110.69999999993701
 30
0.0
 11
-187.7999999999447
 21
110.69999999993701
 31
0.0
  0
LINE
  8
DETAIL
  6
CONTINUOUS
 62
     5
 10
-187.1999999999461
 20
110.69999999993701
 30
0.0
 11
-185.49999999994179
 21
110.69999999993701
 31
0.0
  0
LINE
  8
DETAIL
  6
CONTINUOUS
 62
     5
 10
108.50000000005819
 20
110.69999999993701
 30
0.0
 11
110.2000000000553
 21
110.69999999993701
 31
0.0
  0
LINE
  8
DETAIL
  6
CONTINUOUS
 62
     5
 10
110.8000000000538
 20
110.69999999993701
 30
0.0
 11
112.50000000005819
 21
110.69999999993701
 31
0.0
  0
LINE
  8
DETAIL
  6
CONTINUOUS
 62
     5
 10
172.50000000005821
 20
110.69999999993701
 30
0.0
 11
174.2000000000553
 21
110.69999999993701
 31
0.0
  0
LINE
  8
DETAIL
  6
CONTINUOUS
 62
     5
 10
174.80000000005381
 20
110.69999999993701
 30
0.0
 11
176.50000000005821
 21
110.69999999993701
 31
0.0
  0
LINE
  8
DETAIL
  6
CONTINUOUS
 62
     5
 10
176.50000000005821
 20
111.29999999993559
 30
0.0
 11
174.80000000005381
 21
111.29999999993559
 31
0.0
  0
LINE
  8
DETAIL
  6
CONTINUOUS
 62
     5
 10
174.2000000000553
 20
111.29999999993559
 30
0.0
 11
172.50000000005821
 21
111.29999999993559
 31
0.0
  0
LINE
  8
DETAIL
  6
CONTINUOUS
 62
     5
 10
112.50000000005819
 20
111.29999999993559
 30
0.0
 11
110.8000000000538
 21
111.29999999993559
 31
0.0
  0
LINE
  8
DETAIL
  6
CONTINUOUS
 62
     5
 10
110.2000000000553
 20
111.29999999993559
 30
0.0
 11
108.50000000005819
 21
111.29999999993559
 31
0.0
  0
LINE
  8
DETAIL
  6
CONTINUOUS
 62
     5
 10
-185.49999999994179
 20
111.29999999993559
 30
0.0
 11
-187.1999999999461
 21
111.29999999993559
 31
0.0
  0
LINE
  8
DETAIL
  6
CONTINUOUS
 62
     5
 10
-187.7999999999447
 20
111.29999999993559
 30
0.0
 11
-189.49999999994179
 21
111.29999999993559
 31
0.0
  0
LINE
  8
DETAIL
  6
CONTINUOUS
 62
     5
 10
-251.49999999994179
 20
111.29999999993559
 30
0.0
 11
-253.19999999994619
 21
111.29999999993559
 31
0.0
  0
LINE
  8
DETAIL
  6
CONTINUOUS
 62
     5
 10
-253.7999999999447
 20
111.29999999993559
 30
0.0
 11
-255.49999999994179
 21
111.29999999993559
 31
0.0
  0
LINE
  8
DETAIL
  6
CONTINUOUS
 62
     5
 10
174.80000000005381
 20
112.99999999993631
 30
0.0
 11
174.2000000000553
 21
112.99999999993631
 31
0.0
  0
LINE
  8
DETAIL
  6
CONTINUOUS
 62
     5
 10
110.8000000000538
 20
112.99999999993631
 30
0.0
 11
110.2000000000553
 21
112.99999999993631
 31
0.0
  0
LINE
  8
DETAIL
  6
CONTINUOUS
 62
     5
 10
-187.1999999999461
 20
112.99999999993631
 30
0.0
 11
-187.7999999999447
 21
112.99999999993631
 31
0.0
  0
LINE
  8
DETAIL
  6
CONTINUOUS
 62
     5
 10
-253.19999999994619
 20
112.99999999993631
 30
0.0
 11
-253.7999999999447
 21
112.99999999993631
 31
0.0
  0
LINE
  8
DETAIL
  6
CONTINUOUS
 62
     5
 10
159.30000000005381
 20
113.99999999993631
 30
0.0
 11
160.1000000000567
 21
113.99999999993631
 31
0.0
  0
LINE
  8
DETAIL
  6
CONTINUOUS
 62
     5
 10
-236.2999999999447
 20
113.99999999993631
 30
0.0
 11
-237.09999999994761
 21
113.99999999993631
 31
0.0
  0
LINE
  8
DETAIL
  6
CONTINUOUS
 62
     5
 10
176.8094010768545
 20
114.99999999993631
 30
0.0
 11
172.19059892335639
 21
114.99999999993631
 31
0.0
  0
LINE
  8
DETAIL
  6
CONTINUOUS
 62
     5
 10
112.8094010768545
 20
114.99999999993631
 30
0.0
 11
108.1905989233564
 21
114.99999999993631
 31
0.0
  0
LINE
  8
DETAIL
  6
CONTINUOUS
 62
     5
 10
-185.19059892314539
 20
114.99999999993631
 30
0.0
 11
-189.8094010766435
 21
114.99999999993631
 31
0.0
  0
LINE
  8
DETAIL
  6
CONTINUOUS
 62
     5
 10
-251.1905989231455
 20
114.99999999993631
 30
0.0
 11
-255.8094010766435
 21
114.99999999993631
 31
0.0
  0
LINE
  8
DETAIL
  6
CONTINUOUS
 62
     5
 10
159.30000000005381
 20
116.99999999993631
 30
0.0
 11
161.58962968155541
 21
116.99999999993631
 31
0.0
  0
LINE
  8
DETAIL
  6
CONTINUOUS
 62
     5
 10
163.50000000005821
 20
116.99999999993631
 30
0.0
 11
161.58962968155541
 21
116.99999999993631
 31
0.0
  0
LINE
  8
DETAIL
  6
CONTINUOUS
 62
     5
 10
-236.2999999999447
 20
116.99999999993631
 30
0.0
 11
-238.58962968134441
 21
116.99999999993631
 31
0.0
  0
LINE
  8
DETAIL
  6
CONTINUOUS
 62
     5
 10
-238.58962968134441
 20
116.99999999993631
 30
0.0
 11
-240.49999999994179
 21
116.99999999993631
 31
0.0
  0
LINE
  8
DETAIL
  6
CONTINUOUS
 62
     5
 10
-365.7999999999447
 20
301.0448456432369
 30
0.0
 11
-365.7999999999447
 21
308.95515435653761
 31
0.0
  0
LINE
  8
DETAIL
  6
CONTINUOUS
 62
     5
 10
-365.49999999994179
 20
94.999999999936335
 30
0.0
 11
-365.49999999994179
 21
1522.4999999999361
 31
0.0
  0
LINE
  8
DETAIL
  6
CONTINUOUS
 62
     5
 10
-362.99999999994179
 20
1834.5999999999369
 30
0.0
 11
-362.99999999994179
 21
1817.0999999999369
 31
0.0
  0
LINE
  8
DETAIL
  6
CONTINUOUS
 62
     5
 10
-362.99999999994179
 20
1813.7999999999349
 30
0.0
 11
-362.99999999994179
 21
1815.6999999999371
 31
0.0
  0
LINE
  8
DETAIL
  6
CONTINUOUS
 62
     5
 10
-359.99999999994179
 20
1817.0999999999369
 30
0.0
 11
-359.99999999994179
 21
1816.9999999999361
 31
0.0
  0
LINE
  8
DETAIL
  6
CONTINUOUS
 62
     5
 10
-359.99999999994179
 20
1811.4999999999361
 30
0.0
 11
-359.99999999994179
 21
1756.237603585037
 31
0.0
  0
LINE
  8
DETAIL
  6
CONTINUOUS
 62
     5
 10
-357.99999999994179
 20
1838.5999999999369
 30
0.0
 11
-357.99999999994179
 21
1857.5999999999369
 31
0.0
  0
LINE
  8
DETAIL
  6
CONTINUOUS
 62
     5
 10
-347.15685424934782
 20
1493.9999999999361
 30
0.0
 11
-347.15685424934782
 21
1343.9999999999361
 31
0.0
  0
LINE
  8
DETAIL
  6
CONTINUOUS
 62
     5
 10
-347.15685424934782
 20
1293.9999999999361
 30
0.0
 11
-347.15685424934782
 21
1143.9999999999361
 31
0.0
  0
LINE
  8
DETAIL
  6
CONTINUOUS
 62
     5
 10
-347.15685424934782
 20
1093.9999999999361
 30
0.0
 11
-347.15685424934782
 21
943.99999999993634
 31
0.0
  0
LINE
  8
DETAIL
  6
CONTINUOUS
 62
     5
 10
-347.15685424934782
 20
893.99999999993634
 30
0.0
 11
-347.15685424934782
 21
758.99999999993634
 31
0.0
  0
LINE
  8
DETAIL
  6
CONTINUOUS
 62
     5
 10
-334.51471862564358
 20
1493.9999999999361
 30
0.0
 11
-334.51471862564358
 21
1343.9999999999361
 31
0.0
  0
LINE
  8
DETAIL
  6
CONTINUOUS
 62
     5
 10
-334.51471862564358
 20
1293.9999999999361
 30
0.0
 11
-334.51471862564358
 21
1143.9999999999361
 31
0.0
  0
LINE
  8
DETAIL
  6
CONTINUOUS
 62
     5
 10
-334.51471862564358
 20
1093.9999999999361
 30
0.0
 11
-334.51471862564358
 21
943.99999999993634
 31
0.0
  0
LINE
  8
DETAIL
  6
CONTINUOUS
 62
     5
 10
-334.51471862564358
 20
893.99999999993634
 30
0.0
 11
-334.51471862564358
 21
758.99999999993634
 31
0.0
  0
LINE
  8
DETAIL
  6
CONTINUOUS
 62
     5
 10
-319.49999999994179
 20
57.699999999937063
 30
0.0
 11
-319.49999999994179
 21
55.999999999936342
 31
0.0
  0
LINE
  8
DETAIL
  6
CONTINUOUS
 62
     5
 10
-319.49999999994179
 20
3.9999999999363349
 30
0.0
 11
-319.49999999994179
 21
2.2999999999356069
 31
0.0
  0
LINE
  8
DETAIL
  6
CONTINUOUS
 62
     5
 10
-317.7999999999447
 20
63.499999999936342
 30
0.0
 11
-317.7999999999447
 21
64.499999999936335
 31
0.0
  0
LINE
  8
DETAIL
  6
CONTINUOUS
 62
     5
 10
-315.7999999999447
 20
3.4999999999363349
 30
0.0
 11
-315.7999999999447
 21
56.499999999936328
 31
0.0
  0
LINE
  8
DETAIL
  6
CONTINUOUS
 62
     5
 10
-315.49999999994179
 20
63.499999999936342
 30
0.0
 11
-315.49999999994179
 21
64.499999999936335
 31
0.0
  0
LINE
  8
DETAIL
  6
CONTINUOUS
 62
     5
 10
-313.49999999994179
 20
3.4999999999363349
 30
0.0
 11
-313.49999999994179
 21
56.499999999936328
 31
0.0
  0
LINE
  8
DETAIL
  6
CONTINUOUS
 62
     5
 10
-306.49999999994179
 20
74.799999999935608
 30
0.0
 11
-306.49999999994179
 21
74.199999999937063
 31
0.0
  0
LINE
  8
DETAIL
  6
CONTINUOUS
 62
     5
 10
-304.7999999999447
 20
76.499999999936335
 30
0.0
 11
-304.7999999999447
 21
74.799999999935608
 31
0.0
  0
LINE
  8
DETAIL
  6
CONTINUOUS
 62
     5
 10
-304.7999999999447
 20
74.199999999937063
 30
0.0
 11
-304.7999999999447
 21
72.499999999936335
 31
0.0
  0
LINE
  8
DETAIL
  6
CONTINUOUS
 62
     5
 10
-304.19999999994621
 20
72.499999999936335
 30
0.0
 11
-304.19999999994621
 21
74.199999999937063
 31
0.0
  0
LINE
  8
DETAIL
  6
CONTINUOUS
 62
     5
 10
-304.19999999994621
 20
74.799999999935608
 30
0.0
 11
-304.19999999994621
 21
76.499999999936335
 31
0.0
  0
LINE
  8
DETAIL
  6
CONTINUOUS
 62
     5
 10
-302.49999999994179
 20
74.199999999937063
 30
0.0
 11
-302.49999999994179
 21
74.799999999935608
 31
0.0
  0
LINE
  8
DETAIL
  6
CONTINUOUS
 62
     5
 10
-296.49999999994179
 20
69.499999999936335
 30
0.0
 11
-296.49999999994179
 21
94.999999999936335
 31
0.0
  0
LINE
  8
DETAIL
  6
CONTINUOUS
 62
     5
 10
-295.7999999999447
 20
69.499999999936335
 30
0.0
 11
-295.7999999999447
 21
94.999999999936335
 31
0.0
  0
LINE
  8
DETAIL
  6
CONTINUOUS
 62
     5
 10
-289.49999999994179
 20
1493.9999999999361
 30
0.0
 11
-289.49999999994179
 21
1343.9999999999361
 31
0.0
  0
LINE
  8
DETAIL
  6
CONTINUOUS
 62
     5
 10
-289.49999999994179
 20
1293.9999999999361
 30
0.0
 11
-289.49999999994179
 21
1143.9999999999361
 31
0.0
  0
LINE
  8
DETAIL
  6
CONTINUOUS
 62
     5
 10
-289.49999999994179
 20
1093.9999999999361
 30
0.0
 11
-289.49999999994179
 21
943.99999999993634
 31
0.0
  0
LINE
  8
DETAIL
  6
CONTINUOUS
 62
     5
 10
-289.49999999994179
 20
893.99999999993634
 30
0.0
 11
-289.49999999994179
 21
758.99999999993634
 31
0.0
  0
LINE
  8
DETAIL
  6
CONTINUOUS
 62
     5
 10
-269.49999999994179
 20
758.99999999993634
 30
0.0
 11
-269.49999999994179
 21
893.99999999993634
 31
0.0
  0
LINE
  8
DETAIL
  6
CONTINUOUS
 62
     5
 10
-269.49999999994179
 20
943.99999999993634
 30
0.0
 11
-269.49999999994179
 21
1093.9999999999361
 31
0.0
  0
LINE
  8
DETAIL
  6
CONTINUOUS
 62
     5
 10
-269.49999999994179
 20
1143.9999999999361
 30
0.0
 11
-269.49999999994179
 21
1293.9999999999361
 31
0.0
  0
LINE
  8
DETAIL
  6
CONTINUOUS
 62
     5
 10
-269.49999999994179
 20
1343.9999999999361
 30
0.0
 11
-269.49999999994179
 21
1493.9999999999361
 31
0.0
  0
LINE
  8
DETAIL
  6
CONTINUOUS
 62
     5
 10
-258.11880215344718
 20
1516.5999999999369
 30
0.0
 11
-255.8094010766435
 21
1520.5999999999369
 31
0.0
  0
LINE
  8
DETAIL
  6
CONTINUOUS
 62
     5
 10
-251.1905989231455
 20
1512.5999999999369
 30
0.0
 11
-248.8811978463491
 21
1516.5999999999369
 31
0.0
  0
LINE
  8
DETAIL
  6
CONTINUOUS
 62
     5
 10
-365.99999999994179
 20
184.99999999993631
 30
0.0
 11
-365.49999999994179
 21
184.99999999993631
 31
0.0
  0
LINE
  8
DETAIL
  6
CONTINUOUS
 62
     5
 10
-227.30940107664361
 20
640.99999999993634
 30
0.0
 11
-229.61880215344721
 21
644.99999999993634
 31
0.0
  0
LINE
  8
DETAIL
  6
CONTINUOUS
 62
     5
 10
-220.3811978463491
 20
644.99999999993634
 30
0.0
 11
-222.69059892314539
 21
648.99999999993634
 31
0.0
  0
LINE
  8
DETAIL
  6
CONTINUOUS
 62
     5
 10
108.1905989233564
 20
106.99999999993631
 30
0.0
 11
105.88119784655279
 21
110.99999999993631
 31
0.0
  0
LINE
  8
DETAIL
  6
CONTINUOUS
 62
     5
 10
115.1188021536509
 20
110.99999999993631
 30
0.0
 11
112.8094010768545
 21
114.99999999993631
 31
0.0
  0
LINE
  8
DETAIL
  6
CONTINUOUS
 62
     5
 10
172.19059892335639
 20
106.99999999993631
 30
0.0
 11
169.88119784655279
 21
110.99999999993631
 31
0.0
  0
LINE
  8
DETAIL
  6
CONTINUOUS
 62
     5
 10
179.1188021536509
 20
110.99999999993631
 30
0.0
 11
176.8094010768545
 21
114.99999999993631
 31
0.0
  0
LINE
  8
DETAIL
  6
CONTINUOUS
 62
     5
 10
-189.03807854514159
 20
711.54007549323615
 30
0.0
 11
-189.03747415244291
 21
711.51994724543499
 31
0.0
  0
LINE
  8
DETAIL
  6
CONTINUOUS
 62
     5
 10
-188.77338446214711
 20
696.39999999993768
 30
0.0
 11
-189.014931990343
 21
710.23772170163636
 31
0.0
  0
LINE
  8
DETAIL
  6
CONTINUOUS
 62
     5
 10
-188.28983744154539
 20
701.69489490063643
 30
0.0
 11
-188.3388025976455
 21
704.49999999993634
 31
0.0
  0
LINE
  8
DETAIL
  6
CONTINUOUS
 62
     5
 10
-188.49999999994179
 20
696.39999999993768
 30
0.0
 11
-188.57306630124361
 21
700.9904720187368
 31
0.0
  0
LINE
  8
DETAIL
  6
CONTINUOUS
 62
     5
 10
-255.49999999994179
 20
1516.899999999938
 30
0.0
 11
-255.49999999994179
 21
1516.2999999999361
 31
0.0
  0
LINE
  8
DETAIL
  6
CONTINUOUS
 62
     5
 10
-255.49999999994179
 20
111.29999999993559
 30
0.0
 11
-255.49999999994179
 21
110.69999999993701
 31
0.0
  0
LINE
  8
DETAIL
  6
CONTINUOUS
 62
     5
 10
-253.7999999999447
 20
1518.5999999999369
 30
0.0
 11
-253.7999999999447
 21
1516.899999999938
 31
0.0
  0
LINE
  8
DETAIL
  6
CONTINUOUS
 62
     5
 10
-253.7999999999447
 20
1516.2999999999361
 30
0.0
 11
-253.7999999999447
 21
1514.599999999936
 31
0.0
  0
LINE
  8
DETAIL
  6
CONTINUOUS
 62
     5
 10
-253.7999999999447
 20
112.99999999993631
 30
0.0
 11
-253.7999999999447
 21
111.29999999993559
 31
0.0
  0
LINE
  8
DETAIL
  6
CONTINUOUS
 62
     5
 10
-253.7999999999447
 20
110.69999999993701
 30
0.0
 11
-253.7999999999447
 21
108.99999999993631
 31
0.0
  0
LINE
  8
DETAIL
  6
CONTINUOUS
 62
     5
 10
-253.19999999994619
 20
108.99999999993631
 30
0.0
 11
-253.19999999994619
 21
110.69999999993701
 31
0.0
  0
LINE
  8
DETAIL
  6
CONTINUOUS
 62
     5
 10
-253.19999999994619
 20
111.29999999993559
 30
0.0
 11
-253.19999999994619
 21
112.99999999993631
 31
0.0
  0
LINE
  8
DETAIL
  6
CONTINUOUS
 62
     5
 10
-253.19999999994619
 20
1514.599999999936
 30
0.0
 11
-253.19999999994619
 21
1516.2999999999361
 31
0.0
  0
LINE
  8
DETAIL
  6
CONTINUOUS
 62
     5
 10
-253.19999999994619
 20
1516.899999999938
 30
0.0
 11
-253.19999999994619
 21
1518.5999999999369
 31
0.0
  0
LINE
  8
DETAIL
  6
CONTINUOUS
 62
     5
 10
-251.49999999994179
 20
110.69999999993701
 30
0.0
 11
-251.49999999994179
 21
111.29999999993559
 31
0.0
  0
LINE
  8
DETAIL
  6
CONTINUOUS
 62
     5
 10
-251.49999999994179
 20
1516.2999999999361
 30
0.0
 11
-251.49999999994179
 21
1516.899999999938
 31
0.0
  0
LINE
  8
DETAIL
  6
CONTINUOUS
 62
     5
 10
-240.49999999994179
 20
102.99999999993631
 30
0.0
 11
-240.49999999994179
 21
116.99999999993631
 31
0.0
  0
LINE
  8
DETAIL
  6
CONTINUOUS
 62
     5
 10
-238.49999999994179
 20
116.99999999993631
 30
0.0
 11
-238.49999999994179
 21
1522.4999999999361
 31
0.0
  0
LINE
  8
DETAIL
  6
CONTINUOUS
 62
     5
 10
-237.49999999994179
 20
678.49999999993634
 30
0.0
 11
-237.49999999994179
 21
116.99999999993631
 31
0.0
  0
LINE
  8
DETAIL
  6
CONTINUOUS
 62
     5
 10
-237.09999999994761
 20
113.99999999993631
 30
0.0
 11
-237.09999999994761
 21
96.999999999936335
 31
0.0
  0
LINE
  8
DETAIL
  6
CONTINUOUS
 62
     5
 10
-236.2999999999447
 20
684.86396103063635
 30
0.0
 11
-236.2999999999447
 21
678.49999999993634
 31
0.0
  0
LINE
  8
DETAIL
  6
CONTINUOUS
 62
     5
 10
-236.2999999999447
 20
113.99999999993631
 30
0.0
 11
-236.2999999999447
 21
116.99999999993631
 31
0.0
  0
LINE
  8
DETAIL
  6
CONTINUOUS
 62
     5
 10
-229.49999999994179
 20
94.507179676935266
 30
0.0
 11
-229.49999999994179
 21
96.999999999936335
 31
0.0
  0
LINE
  8
DETAIL
  6
CONTINUOUS
 62
     5
 10
-226.99999999994179
 20
645.29999999993561
 30
0.0
 11
-226.99999999994179
 21
644.69999999993695
 31
0.0
  0
LINE
  8
DETAIL
  6
CONTINUOUS
 62
     5
 10
-226.99999999994179
 20
305.29999999993561
 30
0.0
 11
-226.99999999994179
 21
304.69999999993712
 31
0.0
  0
LINE
  8
DETAIL
  6
CONTINUOUS
 62
     5
 10
-225.2999999999447
 20
646.99999999993634
 30
0.0
 11
-225.2999999999447
 21
645.29999999993561
 31
0.0
  0
LINE
  8
DETAIL
  6
CONTINUOUS
 62
     5
 10
-225.2999999999447
 20
644.69999999993695
 30
0.0
 11
-225.2999999999447
 21
642.99999999993634
 31
0.0
  0
LINE
  8
DETAIL
  6
CONTINUOUS
 62
     5
 10
-225.2999999999447
 20
306.99999999993628
 30
0.0
 11
-225.2999999999447
 21
305.29999999993561
 31
0.0
  0
LINE
  8
DETAIL
  6
CONTINUOUS
 62
     5
 10
-225.2999999999447
 20
304.69999999993712
 30
0.0
 11
-225.2999999999447
 21
302.99999999993628
 31
0.0
  0
LINE
  8
DETAIL
  6
CONTINUOUS
 62
     5
 10
-224.69999999994619
 20
302.99999999993628
 30
0.0
 11
-224.69999999994619
 21
304.69999999993712
 31
0.0
  0
LINE
  8
DETAIL
  6
CONTINUOUS
 62
     5
 10
-224.69999999994619
 20
305.29999999993561
 30
0.0
 11
-224.69999999994619
 21
306.99999999993628
 31
0.0
  0
LINE
  8
DETAIL
  6
CONTINUOUS
 62
     5
 10
-224.69999999994619
 20
642.99999999993634
 30
0.0
 11
-224.69999999994619
 21
644.69999999993695
 31
0.0
  0
LINE
  8
DETAIL
  6
CONTINUOUS
 62
     5
 10
-224.69999999994619
 20
645.29999999993561
 30
0.0
 11
-224.69999999994619
 21
646.99999999993634
 31
0.0
  0
LINE
  8
DETAIL
  6
CONTINUOUS
 62
     5
 10
-222.99999999994179
 20
304.69999999993712
 30
0.0
 11
-222.99999999994179
 21
305.29999999993561
 31
0.0
  0
LINE
  8
DETAIL
  6
CONTINUOUS
 62
     5
 10
-222.99999999994179
 20
644.69999999993695
 30
0.0
 11
-222.99999999994179
 21
645.29999999993561
 31
0.0
  0
LINE
  8
DETAIL
  6
CONTINUOUS
 62
     5
 10
-217.49999999994179
 20
684.86396103063635
 30
0.0
 11
-217.49999999994179
 21
1519.9999999999361
 31
0.0
  0
LINE
  8
DETAIL
  6
CONTINUOUS
 62
     5
 10
-198.00570692504689
 20
695.39999999993779
 30
0.0
 11
-198.00570692504689
 21
686.49999999993634
 31
0.0
  0
LINE
  8
DETAIL
  6
CONTINUOUS
 62
     5
 10
-196.49999999994179
 20
684.86396103063635
 30
0.0
 11
-196.49999999994179
 21
696.39999999993768
 31
0.0
  0
LINE
  8
DETAIL
  6
CONTINUOUS
 62
     5
 10
-189.49999999994179
 20
111.29999999993559
 30
0.0
 11
-189.49999999994179
 21
110.69999999993701
 31
0.0
  0
LINE
  8
DETAIL
  6
CONTINUOUS
 62
     5
 10
-187.7999999999447
 20
112.99999999993631
 30
0.0
 11
-187.7999999999447
 21
111.29999999993559
 31
0.0
  0
LINE
  8
DETAIL
  6
CONTINUOUS
 62
     5
 10
-187.7999999999447
 20
110.69999999993701
 30
0.0
 11
-187.7999999999447
 21
108.99999999993631
 31
0.0
  0
LINE
  8
DETAIL
  6
CONTINUOUS
 62
     5
 10
-187.1999999999461
 20
108.99999999993631
 30
0.0
 11
-187.1999999999461
 21
110.69999999993701
 31
0.0
  0
LINE
  8
DETAIL
  6
CONTINUOUS
 62
     5
 10
-187.1999999999461
 20
111.29999999993559
 30
0.0
 11
-187.1999999999461
 21
112.99999999993631
 31
0.0
  0
LINE
  8
DETAIL
  6
CONTINUOUS
 62
     5
 10
-185.49999999994179
 20
110.69999999993701
 30
0.0
 11
-185.49999999994179
 21
111.29999999993559
 31
0.0
  0
LINE
  8
DETAIL
  6
CONTINUOUS
 62
     5
 10
-167.85142435414309
 20
1857.5999999999369
 30
0.0
 11
-167.85142435414309
 21
1836.599999999936
 31
0.0
  0
LINE
  8
DETAIL
  6
CONTINUOUS
 62
     5
 10
-4.6188021534471773
 20
1824.7999999999349
 30
0.0
 11
-2.3094010766435531
 21
1828.7999999999361
 31
0.0
  0
LINE
  8
DETAIL
  6
CONTINUOUS
 62
     5
 10
2.309401076854555
 20
1820.7999999999349
 30
0.0
 11
4.6188021536509041
 21
1824.7999999999349
 31
0.0
  0
LINE
  8
DETAIL
  6
CONTINUOUS
 62
     5
 10
161.50000000005821
 20
273.99999999993628
 30
0.0
 11
160.50000000005821
 21
273.99999999993628
 31
0.0
  0
LINE
  8
DETAIL
  6
CONTINUOUS
 62
     5
 10
-237.49999999994179
 20
278.99999999993628
 30
0.0
 11
-238.49999999994179
 21
278.99999999993628
 31
0.0
  0
LINE
  8
DETAIL
  6
CONTINUOUS
 62
     5
 10
150.3094010768545
 20
300.99999999993628
 30
0.0
 11
145.69059892335639
 21
300.99999999993628
 31
0.0
  0
LINE
  8
DETAIL
  6
CONTINUOUS
 62
     5
 10
-222.69059892314539
 20
300.99999999993628
 30
0.0
 11
-227.30940107664361
 21
300.99999999993628
 31
0.0
  0
LINE
  8
DETAIL
  6
CONTINUOUS
 62
     5
 10
-225.2999999999447
 20
302.99999999993628
 30
0.0
 11
-224.69999999994619
 21
302.99999999993628
 31
0.0
  0
LINE
  8
DETAIL
  6
CONTINUOUS
 62
     5
 10
147.7000000000553
 20
302.99999999993628
 30
0.0
 11
148.30000000005381
 21
302.99999999993628
 31
0.0
  0
LINE
  8
DETAIL
  6
CONTINUOUS
 62
     5
 10
-226.99999999994179
 20
304.69999999993712
 30
0.0
 11
-225.2999999999447
 21
304.69999999993712
 31
0.0
  0
LINE
  8
DETAIL
  6
CONTINUOUS
 62
     5
 10
-224.69999999994619
 20
304.69999999993712
 30
0.0
 11
-222.99999999994179
 21
304.69999999993712
 31
0.0
  0
LINE
  8
DETAIL
  6
CONTINUOUS
 62
     5
 10
146.00000000005821
 20
304.69999999993712
 30
0.0
 11
147.7000000000553
 21
304.69999999993712
 31
0.0
  0
LINE
  8
DETAIL
  6
CONTINUOUS
 62
     5
 10
148.30000000005381
 20
304.69999999993712
 30
0.0
 11
150.00000000005821
 21
304.69999999993712
 31
0.0
  0
LINE
  8
DETAIL
  6
CONTINUOUS
 62
     5
 10
150.00000000005821
 20
305.29999999993561
 30
0.0
 11
148.30000000005381
 21
305.29999999993561
 31
0.0
  0
LINE
  8
DETAIL
  6
CONTINUOUS
 62
     5
 10
147.7000000000553
 20
305.29999999993561
 30
0.0
 11
146.00000000005821
 21
305.29999999993561
 31
0.0
  0
LINE
  8
DETAIL
  6
CONTINUOUS
 62
     5
 10
-222.99999999994179
 20
305.29999999993561
 30
0.0
 11
-224.69999999994619
 21
305.29999999993561
 31
0.0
  0
LINE
  8
DETAIL
  6
CONTINUOUS
 62
     5
 10
-225.2999999999447
 20
305.29999999993561
 30
0.0
 11
-226.99999999994179
 21
305.29999999993561
 31
0.0
  0
LINE
  8
DETAIL
  6
CONTINUOUS
 62
     5
 10
148.30000000005381
 20
306.99999999993628
 30
0.0
 11
147.7000000000553
 21
306.99999999993628
 31
0.0
  0
LINE
  8
DETAIL
  6
CONTINUOUS
 62
     5
 10
-224.69999999994619
 20
306.99999999993628
 30
0.0
 11
-225.2999999999447
 21
306.99999999993628
 31
0.0
  0
LINE
  8
DETAIL
  6
CONTINUOUS
 62
     5
 10
150.3094010768545
 20
308.99999999993628
 30
0.0
 11
145.69059892335639
 21
308.99999999993628
 31
0.0
  0
LINE
  8
DETAIL
  6
CONTINUOUS
 62
     5
 10
-222.69059892314539
 20
308.99999999993628
 30
0.0
 11
-227.30940107664361
 21
308.99999999993628
 31
0.0
  0
LINE
  8
DETAIL
  6
CONTINUOUS
 62
     5
 10
-237.49999999994179
 20
330.99999999993628
 30
0.0
 11
-238.49999999994179
 21
330.99999999993628
 31
0.0
  0
LINE
  8
DETAIL
  6
CONTINUOUS
 62
     5
 10
161.50000000005821
 20
335.99999999993628
 30
0.0
 11
160.50000000005821
 21
335.99999999993628
 31
0.0
  0
LINE
  8
DETAIL
  6
CONTINUOUS
 62
     5
 10
145.69059892335639
 20
300.99999999993628
 30
0.0
 11
143.38119784655279
 21
304.99999999993628
 31
0.0
  0
LINE
  8
DETAIL
  6
CONTINUOUS
 62
     5
 10
152.6188021536509
 20
304.99999999993628
 30
0.0
 11
150.3094010768545
 21
308.99999999993628
 31
0.0
  0
LINE
  8
DETAIL
  6
CONTINUOUS
 62
     5
 10
302.1905989233565
 20
70.499999999936335
 30
0.0
 11
299.88119784655282
 21
74.499999999936335
 31
0.0
  0
LINE
  8
DETAIL
  6
CONTINUOUS
 62
     5
 10
309.1188021536509
 20
74.499999999936335
 30
0.0
 11
306.8094010768545
 21
78.499999999936335
 31
0.0
  0
LINE
  8
DETAIL
  6
CONTINUOUS
 62
     5
 10
-9.9999999999417923
 20
1835.183202319836
 30
0.0
 11
-9.9999999999417923
 21
1817.0999999999369
 31
0.0
  0
LINE
  8
DETAIL
  6
CONTINUOUS
 62
     5
 10
-1.9999999999417919
 20
1825.0999999999369
 30
0.0
 11
-1.9999999999417919
 21
1824.4999999999361
 31
0.0
  0
LINE
  8
DETAIL
  6
CONTINUOUS
 62
     5
 10
-0.2999999999447027
 20
1826.7999999999361
 30
0.0
 11
-0.2999999999447027
 21
1825.0999999999369
 31
0.0
  0
LINE
  8
DETAIL
  6
CONTINUOUS
 62
     5
 10
-0.2999999999447027
 20
1824.4999999999361
 30
0.0
 11
-0.2999999999447027
 21
1822.7999999999349
 31
0.0
  0
LINE
  8
DETAIL
  6
CONTINUOUS
 62
     5
 10
0.3000000000538421
 20
1822.7999999999349
 30
0.0
 11
0.3000000000538421
 21
1824.4999999999361
 31
0.0
  0
LINE
  8
DETAIL
  6
CONTINUOUS
 62
     5
 10
0.3000000000538421
 20
1825.0999999999369
 30
0.0
 11
0.3000000000538421
 21
1826.7999999999361
 31
0.0
  0
LINE
  8
DETAIL
  6
CONTINUOUS
 62
     5
 10
2.0000000000582072
 20
1824.4999999999361
 30
0.0
 11
2.0000000000582072
 21
1825.0999999999369
 31
0.0
  0
LINE
  8
DETAIL
  6
CONTINUOUS
 62
     5
 10
10.000000000058209
 20
1835.1831927068361
 30
0.0
 11
10.000000000058209
 21
1817.0999999999369
 31
0.0
  0
LINE
  8
DETAIL
  6
CONTINUOUS
 62
     5
 10
178.94596691475451
 20
1581.3573677695369
 30
0.0
 11
179.08029197115681
 21
1581.5741929763369
 31
0.0
  0
LINE
  8
DETAIL
  6
CONTINUOUS
 62
     5
 10
145.69059892335639
 20
640.99999999993634
 30
0.0
 11
143.38119784655279
 21
644.99999999993634
 31
0.0
  0
LINE
  8
DETAIL
  6
CONTINUOUS
 62
     5
 10
152.6188021536509
 20
644.99999999993634
 30
0.0
 11
150.3094010768545
 21
648.99999999993634
 31
0.0
  0
LINE
  8
DETAIL
  6
CONTINUOUS
 62
     5
 10
142.19059892335639
 20
685.49999999993634
 30
0.0
 11
139.88119784655279
 21
689.49999999993634
 31
0.0
  0
LINE
  8
DETAIL
  6
CONTINUOUS
 62
     5
 10
149.1188021536509
 20
689.49999999993634
 30
0.0
 11
146.8094010768545
 21
693.49999999993634
 31
0.0
  0
LINE
  8
DETAIL
  6
CONTINUOUS
 62
     5
 10
108.50000000005819
 20
111.29999999993559
 30
0.0
 11
108.50000000005819
 21
110.69999999993701
 31
0.0
  0
LINE
  8
DETAIL
  6
CONTINUOUS
 62
     5
 10
110.2000000000553
 20
112.99999999993631
 30
0.0
 11
110.2000000000553
 21
111.29999999993559
 31
0.0
  0
LINE
  8
DETAIL
  6
CONTINUOUS
 62
     5
 10
110.2000000000553
 20
110.69999999993701
 30
0.0
 11
110.2000000000553
 21
108.99999999993631
 31
0.0
  0
LINE
  8
DETAIL
  6
CONTINUOUS
 62
     5
 10
110.8000000000538
 20
108.99999999993631
 30
0.0
 11
110.8000000000538
 21
110.69999999993701
 31
0.0
  0
LINE
  8
DETAIL
  6
CONTINUOUS
 62
     5
 10
110.8000000000538
 20
111.29999999993559
 30
0.0
 11
110.8000000000538
 21
112.99999999993631
 31
0.0
  0
LINE
  8
DETAIL
  6
CONTINUOUS
 62
     5
 10
112.50000000005819
 20
110.69999999993701
 30
0.0
 11
112.50000000005819
 21
111.29999999993559
 31
0.0
  0
LINE
  8
DETAIL
  6
CONTINUOUS
 62
     5
 10
133.50000000005821
 20
1522.4999999999361
 30
0.0
 11
133.50000000005821
 21
684.86396103063635
 31
0.0
  0
LINE
  8
DETAIL
  6
CONTINUOUS
 62
     5
 10
142.50000000005821
 20
689.79999999993561
 30
0.0
 11
142.50000000005821
 21
689.19999999993695
 31
0.0
  0
LINE
  8
DETAIL
  6
CONTINUOUS
 62
     5
 10
144.2000000000553
 20
691.49999999993634
 30
0.0
 11
144.2000000000553
 21
689.79999999993561
 31
0.0
  0
LINE
  8
DETAIL
  6
CONTINUOUS
 62
     5
 10
144.2000000000553
 20
689.19999999993695
 30
0.0
 11
144.2000000000553
 21
687.49999999993634
 31
0.0
  0
LINE
  8
DETAIL
  6
CONTINUOUS
 62
     5
 10
144.80000000005381
 20
687.49999999993634
 30
0.0
 11
144.80000000005381
 21
689.19999999993695
 31
0.0
  0
LINE
  8
DETAIL
  6
CONTINUOUS
 62
     5
 10
144.80000000005381
 20
689.79999999993561
 30
0.0
 11
144.80000000005381
 21
691.49999999993634
 31
0.0
  0
LINE
  8
DETAIL
  6
CONTINUOUS
 62
     5
 10
146.00000000005821
 20
645.29999999993561
 30
0.0
 11
146.00000000005821
 21
644.69999999993695
 31
0.0
  0
LINE
  8
DETAIL
  6
CONTINUOUS
 62
     5
 10
146.00000000005821
 20
305.29999999993561
 30
0.0
 11
146.00000000005821
 21
304.69999999993712
 31
0.0
  0
LINE
  8
DETAIL
  6
CONTINUOUS
 62
     5
 10
146.50000000005821
 20
689.19999999993695
 30
0.0
 11
146.50000000005821
 21
689.79999999993561
 31
0.0
  0
LINE
  8
DETAIL
  6
CONTINUOUS
 62
     5
 10
256.88119784655282
 20
1516.5999999999369
 30
0.0
 11
259.19059892335639
 21
1520.5999999999369
 31
0.0
  0
LINE
  8
DETAIL
  6
CONTINUOUS
 62
     5
 10
263.80940107685461
 20
1512.5999999999369
 30
0.0
 11
266.1188021536509
 21
1516.5999999999369
 31
0.0
  0
LINE
  8
DETAIL
  6
CONTINUOUS
 62
     5
 10
-229.61880215344721
 20
644.99999999993634
 30
0.0
 11
-227.30940107664361
 21
648.99999999993634
 31
0.0
  0
LINE
  8
DETAIL
  6
CONTINUOUS
 62
     5
 10
226.06450480865169
 20
1568.189539596136
 30
0.0
 11
226.20211294265749
 21
1568.4116642905369
 31
0.0
  0
LINE
  8
DETAIL
  6
CONTINUOUS
 62
     5
 10
282.39349053235492
 20
1574.503624898136
 30
0.0
 11
282.52756783215591
 21
1574.7200501803361
 31
0.0
  0
LINE
  8
DETAIL
  6
CONTINUOUS
 62
     5
 10
161.50000000005821
 20
619.62638114763649
 30
0.0
 11
160.50000000005821
 21
619.57397336833674
 31
0.0
  0
LINE
  8
DETAIL
  6
CONTINUOUS
 62
     5
 10
-238.49999999994179
 20
559.99999999993634
 30
0.0
 11
-237.49999999994179
 21
559.99999999993634
 31
0.0
  0
LINE
  8
DETAIL
  6
CONTINUOUS
 62
     5
 10
-237.49999999994179
 20
562.99999999993634
 30
0.0
 11
-238.49999999994179
 21
562.99999999993634
 31
0.0
  0
LINE
  8
DETAIL
  6
CONTINUOUS
 62
     5
 10
-237.49999999994179
 20
586.99999999993634
 30
0.0
 11
-238.49999999994179
 21
586.99999999993634
 31
0.0
  0
LINE
  8
DETAIL
  6
CONTINUOUS
 62
     5
 10
-238.49999999994179
 20
589.99999999993634
 30
0.0
 11
-237.49999999994179
 21
589.99999999993634
 31
0.0
  0
LINE
  8
DETAIL
  6
CONTINUOUS
 62
     5
 10
161.50000000005821
 20
613.99999999993634
 30
0.0
 11
160.50000000005821
 21
613.99999999993634
 31
0.0
  0
LINE
  8
DETAIL
  6
CONTINUOUS
 62
     5
 10
-237.49999999994179
 20
618.99999999993634
 30
0.0
 11
-238.49999999994179
 21
618.99999999993634
 31
0.0
  0
LINE
  8
DETAIL
  6
CONTINUOUS
 62
     5
 10
-237.49999999994179
 20
636.17274692213675
 30
0.0
 11
-238.49999999994179
 21
636.17274692213675
 31
0.0
  0
LINE
  8
DETAIL
  6
CONTINUOUS
 62
     5
 10
150.3094010768545
 20
640.99999999993634
 30
0.0
 11
145.69059892335639
 21
640.99999999993634
 31
0.0
  0
LINE
  8
DETAIL
  6
CONTINUOUS
 62
     5
 10
-222.69059892314539
 20
640.99999999993634
 30
0.0
 11
-227.30940107664361
 21
640.99999999993634
 31
0.0
  0
LINE
  8
DETAIL
  6
CONTINUOUS
 62
     5
 10
-225.2999999999447
 20
642.99999999993634
 30
0.0
 11
-224.69999999994619
 21
642.99999999993634
 31
0.0
  0
LINE
  8
DETAIL
  6
CONTINUOUS
 62
     5
 10
147.7000000000553
 20
642.99999999993634
 30
0.0
 11
148.30000000005381
 21
642.99999999993634
 31
0.0
  0
LINE
  8
DETAIL
  6
CONTINUOUS
 62
     5
 10
-226.99999999994179
 20
644.69999999993695
 30
0.0
 11
-225.2999999999447
 21
644.69999999993695
 31
0.0
  0
LINE
  8
DETAIL
  6
CONTINUOUS
 62
     5
 10
-224.69999999994619
 20
644.69999999993695
 30
0.0
 11
-222.99999999994179
 21
644.69999999993695
 31
0.0
  0
LINE
  8
DETAIL
  6
CONTINUOUS
 62
     5
 10
146.00000000005821
 20
644.69999999993695
 30
0.0
 11
147.7000000000553
 21
644.69999999993695
 31
0.0
  0
LINE
  8
DETAIL
  6
CONTINUOUS
 62
     5
 10
148.30000000005381
 20
644.69999999993695
 30
0.0
 11
150.00000000005821
 21
644.69999999993695
 31
0.0
  0
LINE
  8
DETAIL
  6
CONTINUOUS
 62
     5
 10
150.00000000005821
 20
645.29999999993561
 30
0.0
 11
148.30000000005381
 21
645.29999999993561
 31
0.0
  0
LINE
  8
DETAIL
  6
CONTINUOUS
 62
     5
 10
147.7000000000553
 20
645.29999999993561
 30
0.0
 11
146.00000000005821
 21
645.29999999993561
 31
0.0
  0
LINE
  8
DETAIL
  6
CONTINUOUS
 62
     5
 10
-222.99999999994179
 20
645.29999999993561
 30
0.0
 11
-224.69999999994619
 21
645.29999999993561
 31
0.0
  0
LINE
  8
DETAIL
  6
CONTINUOUS
 62
     5
 10
-225.2999999999447
 20
645.29999999993561
 30
0.0
 11
-226.99999999994179
 21
645.29999999993561
 31
0.0
  0
LINE
  8
DETAIL
  6
CONTINUOUS
 62
     5
 10
148.30000000005381
 20
646.99999999993634
 30
0.0
 11
147.7000000000553
 21
646.99999999993634
 31
0.0
  0
LINE
  8
DETAIL
  6
CONTINUOUS
 62
     5
 10
-224.69999999994619
 20
646.99999999993634
 30
0.0
 11
-225.2999999999447
 21
646.99999999993634
 31
0.0
  0
LINE
  8
DETAIL
  6
CONTINUOUS
 62
     5
 10
150.3094010768545
 20
648.99999999993634
 30
0.0
 11
145.69059892335639
 21
648.99999999993634
 31
0.0
  0
LINE
  8
DETAIL
  6
CONTINUOUS
 62
     5
 10
-222.69059892314539
 20
648.99999999993634
 30
0.0
 11
-227.30940107664361
 21
648.99999999993634
 31
0.0
  0
LINE
  8
DETAIL
  6
CONTINUOUS
 62
     5
 10
-255.8094010766435
 20
1512.5999999999369
 30
0.0
 11
-258.11880215344718
 21
1516.5999999999369
 31
0.0
  0
LINE
  8
DETAIL
  6
CONTINUOUS
 62
     5
 10
-248.8811978463491
 20
1516.5999999999369
 30
0.0
 11
-251.1905989231455
 21
1520.5999999999369
 31
0.0
  0
LINE
  8
DETAIL
  6
CONTINUOUS
 62
     5
 10
147.7000000000553
 20
646.99999999993634
 30
0.0
 11
147.7000000000553
 21
645.29999999993561
 31
0.0
  0
LINE
  8
DETAIL
  6
CONTINUOUS
 62
     5
 10
147.7000000000553
 20
644.69999999993695
 30
0.0
 11
147.7000000000553
 21
642.99999999993634
 31
0.0
  0
LINE
  8
DETAIL
  6
CONTINUOUS
 62
     5
 10
147.7000000000553
 20
306.99999999993628
 30
0.0
 11
147.7000000000553
 21
305.29999999993561
 31
0.0
  0
LINE
  8
DETAIL
  6
CONTINUOUS
 62
     5
 10
147.7000000000553
 20
304.69999999993712
 30
0.0
 11
147.7000000000553
 21
302.99999999993628
 31
0.0
  0
LINE
  8
DETAIL
  6
CONTINUOUS
 62
     5
 10
148.30000000005381
 20
302.99999999993628
 30
0.0
 11
148.30000000005381
 21
304.69999999993712
 31
0.0
  0
LINE
  8
DETAIL
  6
CONTINUOUS
 62
     5
 10
148.30000000005381
 20
305.29999999993561
 30
0.0
 11
148.30000000005381
 21
306.99999999993628
 31
0.0
  0
LINE
  8
DETAIL
  6
CONTINUOUS
 62
     5
 10
148.30000000005381
 20
642.99999999993634
 30
0.0
 11
148.30000000005381
 21
644.69999999993695
 31
0.0
  0
LINE
  8
DETAIL
  6
CONTINUOUS
 62
     5
 10
148.30000000005381
 20
645.29999999993561
 30
0.0
 11
148.30000000005381
 21
646.99999999993634
 31
0.0
  0
LINE
  8
DETAIL
  6
CONTINUOUS
 62
     5
 10
150.00000000005821
 20
304.69999999993712
 30
0.0
 11
150.00000000005821
 21
305.29999999993561
 31
0.0
  0
LINE
  8
DETAIL
  6
CONTINUOUS
 62
     5
 10
150.00000000005821
 20
644.69999999993695
 30
0.0
 11
150.00000000005821
 21
645.29999999993561
 31
0.0
  0
LINE
  8
DETAIL
  6
CONTINUOUS
 62
     5
 10
152.50000000005821
 20
94.507179676935266
 30
0.0
 11
152.50000000005821
 21
96.999999999936335
 31
0.0
  0
LINE
  8
DETAIL
  6
CONTINUOUS
 62
     5
 10
159.30000000005381
 20
113.99999999993631
 30
0.0
 11
159.30000000005381
 21
116.99999999993631
 31
0.0
  0
LINE
  8
DETAIL
  6
CONTINUOUS
 62
     5
 10
159.30000000005381
 20
678.49999999993634
 30
0.0
 11
159.30000000005381
 21
684.86396103063635
 31
0.0
  0
LINE
  8
DETAIL
  6
CONTINUOUS
 62
     5
 10
160.1000000000567
 20
96.999999999936335
 30
0.0
 11
160.1000000000567
 21
113.99999999993631
 31
0.0
  0
LINE
  8
DETAIL
  6
CONTINUOUS
 62
     5
 10
160.50000000005821
 20
116.99999999993631
 30
0.0
 11
160.50000000005821
 21
142.49362949340139
 31
0.0
  0
LINE
  8
DETAIL
  6
CONTINUOUS
 62
     5
 10
160.50000000005821
 20
142.49362949340139
 30
0.0
 11
160.50000000005821
 21
678.49999999993634
 31
0.0
  0
LINE
  8
DETAIL
  6
CONTINUOUS
 62
     5
 10
161.50000000005821
 20
116.99999999993631
 30
0.0
 11
161.50000000005821
 21
142.51904081946671
 31
0.0
  0
LINE
  8
DETAIL
  6
CONTINUOUS
 62
     5
 10
161.50000000005821
 20
142.51904081946671
 30
0.0
 11
161.50000000005821
 21
1522.4999999999361
 31
0.0
  0
LINE
  8
DETAIL
  6
CONTINUOUS
 62
     5
 10
163.50000000005821
 20
116.99999999993631
 30
0.0
 11
163.50000000005821
 21
102.99999999993631
 31
0.0
  0
LINE
  8
DETAIL
  6
CONTINUOUS
 62
     5
 10
167.85142435435409
 20
1836.599999999936
 30
0.0
 11
167.85142435435409
 21
1857.5999999999369
 31
0.0
  0
LINE
  8
DETAIL
  6
CONTINUOUS
 62
     5
 10
172.50000000005821
 20
111.29999999993559
 30
0.0
 11
172.50000000005821
 21
110.69999999993701
 31
0.0
  0
LINE
  8
DETAIL
  6
CONTINUOUS
 62
     5
 10
174.2000000000553
 20
112.99999999993631
 30
0.0
 11
174.2000000000553
 21
111.29999999993559
 31
0.0
  0
LINE
  8
DETAIL
  6
CONTINUOUS
 62
     5
 10
174.2000000000553
 20
110.69999999993701
 30
0.0
 11
174.2000000000553
 21
108.99999999993631
 31
0.0
  0
LINE
  8
DETAIL
  6
CONTINUOUS
 62
     5
 10
174.80000000005381
 20
108.99999999993631
 30
0.0
 11
174.80000000005381
 21
110.69999999993701
 31
0.0
  0
LINE
  8
DETAIL
  6
CONTINUOUS
 62
     5
 10
174.80000000005381
 20
111.29999999993559
 30
0.0
 11
174.80000000005381
 21
112.99999999993631
 31
0.0
  0
LINE
  8
DETAIL
  6
CONTINUOUS
 62
     5
 10
176.50000000005821
 20
110.69999999993701
 30
0.0
 11
176.50000000005821
 21
111.29999999993559
 31
0.0
  0
LINE
  8
DETAIL
  6
CONTINUOUS
 62
     5
 10
-222.69059892314539
 20
640.99999999993634
 30
0.0
 11
-220.3811978463491
 21
644.99999999993634
 31
0.0
  0
LINE
  8
DETAIL
  6
CONTINUOUS
 62
     5
 10
161.50000000005821
 20
636.64971102963682
 30
0.0
 11
160.50000000005821
 21
636.59730325033695
 31
0.0
  0
LINE
  8
DETAIL
  6
CONTINUOUS
 62
     5
 10
-237.49999999994179
 20
670.99999999993634
 30
0.0
 11
-238.49999999994179
 21
670.99999999993634
 31
0.0
  0
LINE
  8
DETAIL
  6
CONTINUOUS
 62
     5
 10
161.50000000005821
 20
675.99999999993634
 30
0.0
 11
160.50000000005821
 21
675.99999999993634
 31
0.0
  0
LINE
  8
DETAIL
  6
CONTINUOUS
 62
     5
 10
-237.49999999994179
 20
678.49999999993634
 30
0.0
 11
-236.2999999999447
 21
678.49999999993634
 31
0.0
  0
LINE
  8
DETAIL
  6
CONTINUOUS
 62
     5
 10
159.30000000005381
 20
678.49999999993634
 30
0.0
 11
160.50000000005821
 21
678.49999999993634
 31
0.0
  0
LINE
  8
DETAIL
  6
CONTINUOUS
 62
     5
 10
-236.2999999999447
 20
684.86396103063635
 30
0.0
 11
159.30000000005381
 21
684.86396103063635
 31
0.0
  0
LINE
  8
DETAIL
  6
CONTINUOUS
 62
     5
 10
-198.49999999994179
 20
685.49999999993634
 30
0.0
 11
-198.02316198994231
 21
685.49999999993634
 31
0.0
  0
LINE
  8
DETAIL
  6
CONTINUOUS
 62
     5
 10
146.8094010768545
 20
685.49999999993634
 30
0.0
 11
142.19059892335639
 21
685.49999999993634
 31
0.0
  0
LINE
  8
DETAIL
  6
CONTINUOUS
 62
     5
 10
144.2000000000553
 20
687.49999999993634
 30
0.0
 11
144.80000000005381
 21
687.49999999993634
 31
0.0
  0
LINE
  8
DETAIL
  6
CONTINUOUS
 62
     5
 10
142.50000000005821
 20
689.19999999993695
 30
0.0
 11
144.2000000000553
 21
689.19999999993695
 31
0.0
  0
LINE
  8
DETAIL
  6
CONTINUOUS
 62
     5
 10
144.80000000005381
 20
689.19999999993695
 30
0.0
 11
146.50000000005821
 21
689.19999999993695
 31
0.0
  0
LINE
  8
DETAIL
  6
CONTINUOUS
 62
     5
 10
146.50000000005821
 20
689.79999999993561
 30
0.0
 11
144.80000000005381
 21
689.79999999993561
 31
0.0
  0
LINE
  8
DETAIL
  6
CONTINUOUS
 62
     5
 10
144.2000000000553
 20
689.79999999993561
 30
0.0
 11
142.50000000005821
 21
689.79999999993561
 31
0.0
  0
LINE
  8
DETAIL
  6
CONTINUOUS
 62
     5
 10
144.80000000005381
 20
691.49999999993634
 30
0.0
 11
144.2000000000553
 21
691.49999999993634
 31
0.0
  0
LINE
  8
DETAIL
  6
CONTINUOUS
 62
     5
 10
146.8094010768545
 20
693.49999999993634
 30
0.0
 11
142.19059892335639
 21
693.49999999993634
 31
0.0
  0
LINE
  8
DETAIL
  6
CONTINUOUS
 62
     5
 10
-188.49999999994179
 20
696.39999999993768
 30
0.0
 11
-197.00555459704631
 21
696.39999999993768
 31
0.0
  0
LINE
  8
DETAIL
  6
CONTINUOUS
 62
     5
 10
-188.91157477114751
 20
704.49999999993634
 30
0.0
 11
133.50000000005821
 21
704.49999999993634
 31
0.0
  0
LINE
  8
DETAIL
  6
CONTINUOUS
 62
     5
 10
-248.6293224930414
 20
712.49999999993634
 30
0.0
 11
-246.3706775067476
 21
712.49999999993634
 31
0.0
  0
LINE
  8
DETAIL
  6
CONTINUOUS
 62
     5
 10
-217.49999999994179
 20
712.49999999993634
 30
0.0
 11
-190.04144368134439
 21
712.49999999993634
 31
0.0
  0
LINE
  8
DETAIL
  6
CONTINUOUS
 62
     5
 10
259.50000000005821
 20
1516.899999999938
 30
0.0
 11
259.50000000005821
 21
1516.2999999999361
 31
0.0
  0
LINE
  8
DETAIL
  6
CONTINUOUS
 62
     5
 10
261.2000000000553
 20
1518.5999999999369
 30
0.0
 11
261.2000000000553
 21
1516.899999999938
 31
0.0
  0
LINE
  8
DETAIL
  6
CONTINUOUS
 62
     5
 10
261.2000000000553
 20
1516.2999999999361
 30
0.0
 11
261.2000000000553
 21
1514.599999999936
 31
0.0
  0
LINE
  8
DETAIL
  6
CONTINUOUS
 62
     5
 10
261.8000000000539
 20
1514.599999999936
 30
0.0
 11
261.8000000000539
 21
1516.2999999999361
 31
0.0
  0
LINE
  8
DETAIL
  6
CONTINUOUS
 62
     5
 10
261.8000000000539
 20
1516.899999999938
 30
0.0
 11
261.8000000000539
 21
1518.5999999999369
 31
0.0
  0
LINE
  8
DETAIL
  6
CONTINUOUS
 62
     5
 10
263.50000000005821
 20
1516.2999999999361
 30
0.0
 11
263.50000000005821
 21
1516.899999999938
 31
0.0
  0
LINE
  8
DETAIL
  6
CONTINUOUS
 62
     5
 10
295.80000000005379
 20
94.999999999936335
 30
0.0
 11
295.80000000005379
 21
69.499999999936335
 31
0.0
  0
LINE
  8
DETAIL
  6
CONTINUOUS
 62
     5
 10
296.50000000005821
 20
69.499999999936335
 30
0.0
 11
296.50000000005821
 21
94.999999999936335
 31
0.0
  0
LINE
  8
DETAIL
  6
CONTINUOUS
 62
     5
 10
302.50000000005821
 20
74.799999999935608
 30
0.0
 11
302.50000000005821
 21
74.199999999937063
 31
0.0
  0
LINE
  8
DETAIL
  6
CONTINUOUS
 62
     5
 10
304.2000000000553
 20
76.499999999936335
 30
0.0
 11
304.2000000000553
 21
74.799999999935608
 31
0.0
  0
LINE
  8
DETAIL
  6
CONTINUOUS
 62
     5
 10
304.2000000000553
 20
74.199999999937063
 30
0.0
 11
304.2000000000553
 21
72.499999999936335
 31
0.0
  0
LINE
  8
DETAIL
  6
CONTINUOUS
 62
     5
 10
304.80000000005379
 20
72.499999999936335
 30
0.0
 11
304.80000000005379
 21
74.199999999937063
 31
0.0
  0
LINE
  8
DETAIL
  6
CONTINUOUS
 62
     5
 10
304.80000000005379
 20
74.799999999935608
 30
0.0
 11
304.80000000005379
 21
76.499999999936335
 31
0.0
  0
LINE
  8
DETAIL
  6
CONTINUOUS
 62
     5
 10
306.50000000005821
 20
74.199999999937063
 30
0.0
 11
306.50000000005821
 21
74.799999999935608
 31
0.0
  0
LINE
  8
DETAIL
  6
CONTINUOUS
 62
     5
 10
313.50000000005821
 20
56.499999999936328
 30
0.0
 11
313.50000000005821
 21
3.4999999999363349
 31
0.0
  0
LINE
  8
DETAIL
  6
CONTINUOUS
 62
     5
 10
315.50000000005821
 20
64.499999999936335
 30
0.0
 11
315.50000000005821
 21
63.499999999936342
 31
0.0
  0
LINE
  8
DETAIL
  6
CONTINUOUS
 62
     5
 10
315.8000000000539
 20
56.499999999936328
 30
0.0
 11
315.8000000000539
 21
3.4999999999363349
 31
0.0
  0
LINE
  8
DETAIL
  6
CONTINUOUS
 62
     5
 10
317.8000000000539
 20
64.499999999936335
 30
0.0
 11
317.8000000000539
 21
63.499999999936342
 31
0.0
  0
LINE
  8
DETAIL
  6
CONTINUOUS
 62
     5
 10
319.50000000005821
 20
2.2999999999356069
 30
0.0
 11
319.50000000005821
 21
3.9999999999363349
 31
0.0
  0
LINE
  8
DETAIL
  6
CONTINUOUS
 62
     5
 10
319.50000000005821
 20
55.999999999936342
 30
0.0
 11
319.50000000005821
 21
57.699999999937063
 31
0.0
  0
LINE
  8
DETAIL
  6
CONTINUOUS
 62
     5
 10
-229.61880215344721
 20
304.99999999993628
 30
0.0
 11
-227.30940107664361
 21
308.99999999993628
 31
0.0
  0
LINE
  8
DETAIL
  6
CONTINUOUS
 62
     5
 10
-222.69059892314539
 20
300.99999999993628
 30
0.0
 11
-220.3811978463491
 21
304.99999999993628
 31
0.0
  0
LINE
  8
DETAIL
  6
CONTINUOUS
 62
     5
 10
143.00000000005821
 20
757.5999999999367
 30
0.0
 11
140.00000000005821
 21
757.5999999999367
 31
0.0
  0
LINE
  8
DETAIL
  6
CONTINUOUS
 62
     5
 10
140.00000000005821
 20
763.59999999993659
 30
0.0
 11
143.00000000005821
 21
763.59999999993659
 31
0.0
  0
LINE
  8
DETAIL
  6
CONTINUOUS
 62
     5
 10
151.00000000005821
 20
783.99999999993634
 30
0.0
 11
148.00000000005821
 21
783.99999999993634
 31
0.0
  0
LINE
  8
DETAIL
  6
CONTINUOUS
 62
     5
 10
148.00000000005821
 20
789.99999999993634
 30
0.0
 11
151.00000000005821
 21
789.99999999993634
 31
0.0
  0
LINE
  8
DETAIL
  6
CONTINUOUS
 62
     5
 10
365.02656205955282
 20
1641.074280214636
 30
0.0
 11
360.02855335265491
 21
1755.5474998459381
 31
0.0
  0
LINE
  8
DETAIL
  6
CONTINUOUS
 62
     5
 10
367.38842298815138
 20
1559.254987546037
 30
0.0
 11
365.02656217955519
 21
1641.074277792535
 31
0.0
  0
LINE
  8
DETAIL
  6
CONTINUOUS
 62
     5
 10
370.28091039835272
 20
1522.4999999999361
 30
0.0
 11
369.99760774935572
 21
1553.963268124937
 31
0.0
  0
LINE
  8
DETAIL
  6
CONTINUOUS
 62
     5
 10
358.00000000005821
 20
1838.5999999999369
 30
0.0
 11
358.00000000005821
 21
1857.5999999999369
 31
0.0
  0
LINE
  8
DETAIL
  6
CONTINUOUS
 62
     5
 10
360.00000000005821
 20
1817.0999999999369
 30
0.0
 11
360.00000000005821
 21
1816.9999999999361
 31
0.0
  0
LINE
  8
DETAIL
  6
CONTINUOUS
 62
     5
 10
360.00000000005821
 20
1811.4999999999361
 30
0.0
 11
360.00000000005821
 21
1756.237604085238
 31
0.0
  0
LINE
  8
DETAIL
  6
CONTINUOUS
 62
     5
 10
363.00000000005821
 20
1834.5999999999369
 30
0.0
 11
363.00000000005821
 21
1817.0999999999369
 31
0.0
  0
LINE
  8
DETAIL
  6
CONTINUOUS
 62
     5
 10
363.00000000005821
 20
1815.6999999999371
 30
0.0
 11
363.00000000005821
 21
1813.7999999999349
 31
0.0
  0
LINE
  8
DETAIL
  6
CONTINUOUS
 62
     5
 10
365.50000000005821
 20
94.999999999936335
 30
0.0
 11
365.50000000005821
 21
1522.4999999999361
 31
0.0
  0
LINE
  8
DETAIL
  6
CONTINUOUS
 62
     5
 10
367.50000000005821
 20
2.2999999999356069
 30
0.0
 11
367.50000000005821
 21
57.699999999937063
 31
0.0
  0
LINE
  8
DETAIL
  6
CONTINUOUS
 62
     5
 10
369.50000000005821
 20
2.2999999999356069
 30
0.0
 11
369.50000000005821
 21
-0.0000000000636646
 31
0.0
  0
LINE
  8
DETAIL
  6
CONTINUOUS
 62
     5
 10
369.50000000005821
 20
57.699999999937063
 30
0.0
 11
369.50000000005821
 21
62.299999999935608
 31
0.0
  0
LINE
  8
DETAIL
  6
CONTINUOUS
 62
     5
 10
-309.11880215344718
 20
74.499999999936335
 30
0.0
 11
-306.80940107664361
 21
78.499999999936335
 31
0.0
  0
LINE
  8
DETAIL
  6
CONTINUOUS
 62
     5
 10
-299.8811978463491
 20
74.499999999936335
 30
0.0
 11
-302.19059892314539
 21
70.499999999936335
 31
0.0
  0
LINE
  8
DETAIL
  6
CONTINUOUS
 62
     5
 10
-258.11880215344718
 20
110.99999999993631
 30
0.0
 11
-255.8094010766435
 21
114.99999999993631
 31
0.0
  0
LINE
  8
DETAIL
  6
CONTINUOUS
 62
     5
 10
-251.1905989231455
 20
106.99999999993631
 30
0.0
 11
-248.8811978463491
 21
110.99999999993631
 31
0.0
  0
LINE
  8
DETAIL
  6
CONTINUOUS
 62
     5
 10
139.88119784655279
 20
689.49999999993634
 30
0.0
 11
142.19059892335639
 21
693.49999999993634
 31
0.0
  0
LINE
  8
DETAIL
  6
CONTINUOUS
 62
     5
 10
-192.11880215344721
 20
110.99999999993631
 30
0.0
 11
-189.8094010766435
 21
114.99999999993631
 31
0.0
  0
LINE
  8
DETAIL
  6
CONTINUOUS
 62
     5
 10
146.8094010768545
 20
685.49999999993634
 30
0.0
 11
149.1188021536509
 21
689.49999999993634
 31
0.0
  0
LINE
  8
DETAIL
  6
CONTINUOUS
 62
     5
 10
-185.19059892314539
 20
106.99999999993631
 30
0.0
 11
-182.8811978463491
 21
110.99999999993631
 31
0.0
  0
LINE
  8
DETAIL
  6
CONTINUOUS
 62
     5
 10
-188.28983744154539
 20
701.69489490063643
 30
0.0
 11
-188.5760191900481
 21
701.40362889143751
 31
0.0
  0
LINE
  8
DETAIL
  6
CONTINUOUS
 62
     5
 10
151.00000000005821
 20
909.5999999999367
 30
0.0
 11
148.00000000005821
 21
909.5999999999367
 31
0.0
  0
LINE
  8
DETAIL
  6
CONTINUOUS
 62
     5
 10
148.00000000005821
 20
915.59999999993659
 30
0.0
 11
151.00000000005821
 21
915.59999999993659
 31
0.0
  0
LINE
  8
DETAIL
  6
CONTINUOUS
 62
     5
 10
-2.3094010766435531
 20
1820.7999999999349
 30
0.0
 11
-4.6188021534471773
 21
1824.7999999999349
 31
0.0
  0
LINE
  8
DETAIL
  6
CONTINUOUS
 62
     5
 10
4.6188021536509041
 20
1824.7999999999349
 30
0.0
 11
2.309401076854555
 21
1828.7999999999361
 31
0.0
  0
LINE
  8
DETAIL
  6
CONTINUOUS
 62
     5
 10
143.38119784655279
 20
644.99999999993634
 30
0.0
 11
145.69059892335639
 21
648.99999999993634
 31
0.0
  0
LINE
  8
DETAIL
  6
CONTINUOUS
 62
     5
 10
150.3094010768545
 20
640.99999999993634
 30
0.0
 11
152.6188021536509
 21
644.99999999993634
 31
0.0
  0
LINE
  8
DETAIL
  6
CONTINUOUS
 62
     5
 10
143.00000000005821
 20
1022.799999999935
 30
0.0
 11
140.00000000005821
 21
1022.799999999935
 31
0.0
  0
LINE
  8
DETAIL
  6
CONTINUOUS
 62
     5
 10
140.00000000005821
 20
1028.7999999999349
 30
0.0
 11
143.00000000005821
 21
1028.7999999999349
 31
0.0
  0
LINE
  8
DETAIL
  6
CONTINUOUS
 62
     5
 10
259.19059892335639
 20
1512.5999999999369
 30
0.0
 11
256.88119784655282
 21
1516.5999999999369
 31
0.0
  0
LINE
  8
DETAIL
  6
CONTINUOUS
 62
     5
 10
266.1188021536509
 20
1516.5999999999369
 30
0.0
 11
263.80940107685461
 21
1520.5999999999369
 31
0.0
  0
LINE
  8
DETAIL
  6
CONTINUOUS
 62
     5
 10
143.38119784655279
 20
304.99999999993628
 30
0.0
 11
145.69059892335639
 21
308.99999999993628
 31
0.0
  0
LINE
  8
DETAIL
  6
CONTINUOUS
 62
     5
 10
150.3094010768545
 20
300.99999999993628
 30
0.0
 11
152.6188021536509
 21
304.99999999993628
 31
0.0
  0
LINE
  8
DETAIL
  6
CONTINUOUS
 62
     5
 10
151.00000000005821
 20
1097.9999999999361
 30
0.0
 11
148.00000000005821
 21
1097.9999999999361
 31
0.0
  0
LINE
  8
DETAIL
  6
CONTINUOUS
 62
     5
 10
148.00000000005821
 20
1103.9999999999361
 30
0.0
 11
151.00000000005821
 21
1103.9999999999361
 31
0.0
  0
LINE
  8
DETAIL
  6
CONTINUOUS
 62
     5
 10
105.88119784655279
 20
110.99999999993631
 30
0.0
 11
108.1905989233564
 21
114.99999999993631
 31
0.0
  0
LINE
  8
DETAIL
  6
CONTINUOUS
 62
     5
 10
112.8094010768545
 20
106.99999999993631
 30
0.0
 11
115.1188021536509
 21
110.99999999993631
 31
0.0
  0
LINE
  8
DETAIL
  6
CONTINUOUS
 62
     5
 10
169.88119784655279
 20
110.99999999993631
 30
0.0
 11
172.19059892335639
 21
114.99999999993631
 31
0.0
  0
LINE
  8
DETAIL
  6
CONTINUOUS
 62
     5
 10
176.8094010768545
 20
106.99999999993631
 30
0.0
 11
179.1188021536509
 21
110.99999999993631
 31
0.0
  0
LINE
  8
DETAIL
  6
CONTINUOUS
 62
     5
 10
143.00000000005821
 20
1226.7999999999349
 30
0.0
 11
140.00000000005821
 21
1226.7999999999349
 31
0.0
  0
LINE
  8
DETAIL
  6
CONTINUOUS
 62
     5
 10
140.00000000005821
 20
1232.7999999999349
 30
0.0
 11
143.00000000005821
 21
1232.7999999999349
 31
0.0
  0
LINE
  8
DETAIL
  6
CONTINUOUS
 62
     5
 10
151.00000000005821
 20
1286.399999999938
 30
0.0
 11
148.00000000005821
 21
1286.399999999938
 31
0.0
  0
LINE
  8
DETAIL
  6
CONTINUOUS
 62
     5
 10
148.00000000005821
 20
1292.399999999938
 30
0.0
 11
151.00000000005821
 21
1292.399999999938
 31
0.0
  0
LINE
  8
DETAIL
  6
CONTINUOUS
 62
     5
 10
299.88119784655282
 20
74.499999999936335
 30
0.0
 11
302.1905989233565
 21
78.499999999936335
 31
0.0
  0
LINE
  8
DETAIL
  6
CONTINUOUS
 62
     5
 10
306.8094010768545
 20
70.499999999936335
 30
0.0
 11
309.1188021536509
 21
74.499999999936335
 31
0.0
  0
LINE
  8
DETAIL
  6
CONTINUOUS
 62
     5
 10
143.00000000005821
 20
1451.1999999999371
 30
0.0
 11
140.00000000005821
 21
1451.1999999999371
 31
0.0
  0
LINE
  8
DETAIL
  6
CONTINUOUS
 62
     5
 10
140.00000000005821
 20
1457.1999999999371
 30
0.0
 11
143.00000000005821
 21
1457.1999999999371
 31
0.0
  0
LINE
  8
DETAIL
  6
CONTINUOUS
 62
     5
 10
151.00000000005821
 20
1490.4999999999361
 30
0.0
 11
148.00000000005821
 21
1490.4999999999361
 31
0.0
  0
LINE
  8
DETAIL
  6
CONTINUOUS
 62
     5
 10
152.6956789355535
 20
1491.0299999999349
 30
0.0
 11
151.80000000005381
 21
1491.0299999999349
 31
0.0
  0
LINE
  8
DETAIL
  6
CONTINUOUS
 62
     5
 10
148.00000000005821
 20
1496.4999999999361
 30
0.0
 11
151.00000000005821
 21
1496.4999999999361
 31
0.0
  0
LINE
  8
DETAIL
  6
CONTINUOUS
 62
     5
 10
263.80940107685461
 20
1512.5999999999369
 30
0.0
 11
259.19059892335639
 21
1512.5999999999369
 31
0.0
  0
LINE
  8
DETAIL
  6
CONTINUOUS
 62
     5
 10
-251.1905989231455
 20
1512.5999999999369
 30
0.0
 11
-255.8094010766435
 21
1512.5999999999369
 31
0.0
  0
LINE
  8
DETAIL
  6
CONTINUOUS
 62
     5
 10
-253.7999999999447
 20
1514.599999999936
 30
0.0
 11
-253.19999999994619
 21
1514.599999999936
 31
0.0
  0
LINE
  8
DETAIL
  6
CONTINUOUS
 62
     5
 10
261.2000000000553
 20
1514.599999999936
 30
0.0
 11
261.8000000000539
 21
1514.599999999936
 31
0.0
  0
LINE
  8
DETAIL
  6
CONTINUOUS
 62
     5
 10
-255.49999999994179
 20
1516.2999999999361
 30
0.0
 11
-253.7999999999447
 21
1516.2999999999361
 31
0.0
  0
LINE
  8
DETAIL
  6
CONTINUOUS
 62
     5
 10
-253.19999999994619
 20
1516.2999999999361
 30
0.0
 11
-251.49999999994179
 21
1516.2999999999361
 31
0.0
  0
LINE
  8
DETAIL
  6
CONTINUOUS
 62
     5
 10
259.50000000005821
 20
1516.2999999999361
 30
0.0
 11
261.2000000000553
 21
1516.2999999999361
 31
0.0
  0
LINE
  8
DETAIL
  6
CONTINUOUS
 62
     5
 10
261.8000000000539
 20
1516.2999999999361
 30
0.0
 11
263.50000000005821
 21
1516.2999999999361
 31
0.0
  0
LINE
  8
DETAIL
  6
CONTINUOUS
 62
     5
 10
263.50000000005821
 20
1516.899999999938
 30
0.0
 11
261.8000000000539
 21
1516.899999999938
 31
0.0
  0
LINE
  8
DETAIL
  6
CONTINUOUS
 62
     5
 10
261.2000000000553
 20
1516.899999999938
 30
0.0
 11
259.50000000005821
 21
1516.899999999938
 31
0.0
  0
LINE
  8
DETAIL
  6
CONTINUOUS
 62
     5
 10
-251.49999999994179
 20
1516.899999999938
 30
0.0
 11
-253.19999999994619
 21
1516.899999999938
 31
0.0
  0
LINE
  8
DETAIL
  6
CONTINUOUS
 62
     5
 10
-253.7999999999447
 20
1516.899999999938
 30
0.0
 11
-255.49999999994179
 21
1516.899999999938
 31
0.0
  0
LINE
  8
DETAIL
  6
CONTINUOUS
 62
     5
 10
261.8000000000539
 20
1518.5999999999369
 30
0.0
 11
261.2000000000553
 21
1518.5999999999369
 31
0.0
  0
LINE
  8
DETAIL
  6
CONTINUOUS
 62
     5
 10
-253.19999999994619
 20
1518.5999999999369
 30
0.0
 11
-253.7999999999447
 21
1518.5999999999369
 31
0.0
  0
LINE
  8
DETAIL
  6
CONTINUOUS
 62
     5
 10
-217.49999999994179
 20
1520.0999999999369
 30
0.0
 11
133.50000000005821
 21
1520.0999999999369
 31
0.0
  0
LINE
  8
DETAIL
  6
CONTINUOUS
 62
     5
 10
263.80940107685461
 20
1520.5999999999369
 30
0.0
 11
259.19059892335639
 21
1520.5999999999369
 31
0.0
  0
LINE
  8
DETAIL
  6
CONTINUOUS
 62
     5
 10
-251.1905989231455
 20
1520.5999999999369
 30
0.0
 11
-255.8094010766435
 21
1520.5999999999369
 31
0.0
  0
LINE
  8
DETAIL
  6
CONTINUOUS
 62
     5
 10
370.28091039835272
 20
1522.4999999999361
 30
0.0
 11
-370.28091039814171
 21
1522.4999999999361
 31
0.0
  0
LINE
  8
DETAIL
  6
CONTINUOUS
 62
     5
 10
363.95064030275529
 20
94.999999999936335
 30
0.0
 11
320.46357325975259
 21
64.499999999936335
 31
0.0
  0
LINE
  8
DETAIL
  6
CONTINUOUS
 62
     5
 10
362.7000000000553
 20
1813.4999999999361
 30
0.0
 11
361.71537032412022
 21
1813.499999999937
 31
0.0
  0
LINE
  8
DETAIL
  6
CONTINUOUS
 62
     5
 10
-362.00009158699692
 20
1813.4999999978379
 30
0.0
 11
-362.6999999999461
 21
1813.4999999999361
 31
0.0
  0
LINE
  8
DETAIL
  6
CONTINUOUS
 62
     5
 10
362.7000000000553
 20
1815.9999999999361
 30
0.0
 11
360.99973351350491
 21
1816.000000035335
 31
0.0
  0
LINE
  8
DETAIL
  6
CONTINUOUS
 62
     5
 10
-360.9995889217098
 20
1816.0000000841981
 30
0.0
 11
-362.6999999999461
 21
1815.9999999999361
 31
0.0
  0
LINE
  8
DETAIL
  6
CONTINUOUS
 62
     5
 10
363.00000000005821
 20
1817.0999999999369
 30
0.0
 11
-362.99999999994179
 21
1817.0999999999369
 31
0.0
  0
LINE
  8
DETAIL
  6
CONTINUOUS
 62
     5
 10
2.309401076854555
 20
1820.7999999999349
 30
0.0
 11
-2.3094010766435531
 21
1820.7999999999349
 31
0.0
  0
LINE
  8
DETAIL
  6
CONTINUOUS
 62
     5
 10
-0.2999999999447027
 20
1822.7999999999349
 30
0.0
 11
0.3000000000538421
 21
1822.7999999999349
 31
0.0
  0
LINE
  8
DETAIL
  6
CONTINUOUS
 62
     5
 10
-1.9999999999417919
 20
1824.4999999999361
 30
0.0
 11
-0.2999999999447027
 21
1824.4999999999361
 31
0.0
  0
LINE
  8
DETAIL
  6
CONTINUOUS
 62
     5
 10
0.3000000000538421
 20
1824.4999999999361
 30
0.0
 11
2.0000000000582072
 21
1824.4999999999361
 31
0.0
  0
LINE
  8
DETAIL
  6
CONTINUOUS
 62
     5
 10
2.0000000000582072
 20
1825.0999999999369
 30
0.0
 11
0.3000000000538421
 21
1825.0999999999369
 31
0.0
  0
LINE
  8
DETAIL
  6
CONTINUOUS
 62
     5
 10
-0.2999999999447027
 20
1825.0999999999369
 30
0.0
 11
-1.9999999999417919
 21
1825.0999999999369
 31
0.0
  0
LINE
  8
DETAIL
  6
CONTINUOUS
 62
     5
 10
0.3000000000538421
 20
1826.7999999999361
 30
0.0
 11
-0.2999999999447027
 21
1826.7999999999361
 31
0.0
  0
LINE
  8
DETAIL
  6
CONTINUOUS
 62
     5
 10
2.309401076854555
 20
1828.7999999999361
 30
0.0
 11
-2.3094010766435531
 21
1828.7999999999361
 31
0.0
  0
LINE
  8
DETAIL
  6
CONTINUOUS
 62
     5
 10
361.00000000005821
 20
1836.599999999936
 30
0.0
 11
167.85142435435409
 21
1836.599999999936
 31
0.0
  0
LINE
  8
DETAIL
  6
CONTINUOUS
 62
     5
 10
167.85142435435409
 20
1836.599999999936
 30
0.0
 11
-167.85142435414309
 21
1836.599999999936
 31
0.0
  0
LINE
  8
DETAIL
  6
CONTINUOUS
 62
     5
 10
-167.85142435414309
 20
1836.599999999936
 30
0.0
 11
-360.99999999994179
 21
1836.599999999936
 31
0.0
  0
LINE
  8
DETAIL
  6
CONTINUOUS
 62
     5
 10
-357.49999999994179
 20
1858.0999999999369
 30
0.0
 11
357.50000000005821
 21
1858.0999999999369
 31
0.0
  0
CIRCLE
  8
DETAIL
  6
CONTINUOUS
 62
     5
 10
-304.49999999994179
 20
74.499999999936335
 30
0.0
 40
6.0999999999999988
  0
CIRCLE
  8
DETAIL
  6
CONTINUOUS
 62
     5
 10
-304.49999999994179
 20
74.499999999936335
 30
0.0
 40
6.0
  0
ARC
  8
DETAIL
  6
CONTINUOUS
 62
     5
 10
-300.7999999999447
 20
69.499999999936335
 30
0.0
 40
5.0
 50
270.0
 51
0.0
  0
ARC
  8
DETAIL
  6
CONTINUOUS
 62
     5
 10
-301.49999999994179
 20
69.499999999936335
 30
0.0
 40
5.0
 50
270.0
 51
0.0
  0
ARC
  8
DETAIL
  6
CONTINUOUS
 62
     5
 10
-318.99999999994179
 20
63.499999999936342
 30
0.0
 40
3.5
 50
270.0
 51
0.0
  0
ARC
  8
DETAIL
  6
CONTINUOUS
 62
     5
 10
-316.99999999994179
 20
56.499999999936328
 30
0.0
 40
3.5
 50
0.0
 51
90.0
  0
ARC
  8
DETAIL
  6
CONTINUOUS
 62
     5
 10
-316.99999999994179
 20
3.4999999999363349
 30
0.0
 40
3.5
 50
270.0
 51
0.0
  0
ARC
  8
DETAIL
  6
CONTINUOUS
 62
     5
 10
-318.99999999994179
 20
63.499999999936342
 30
0.0
 40
1.1999999999999991
 50
270.0
 51
0.0
  0
ARC
  8
DETAIL
  6
CONTINUOUS
 62
     5
 10
-316.99999999994179
 20
56.499999999936328
 30
0.0
 40
1.1999999999999991
 50
0.0
 51
90.0
  0
ARC
  8
DETAIL
  6
CONTINUOUS
 62
     5
 10
-316.99999999994179
 20
3.4999999999363349
 30
0.0
 40
1.1999999999999991
 50
270.0
 51
0.0
  0
CIRCLE
  8
DETAIL
  6
CONTINUOUS
 62
     5
 10
-309.49999999994179
 20
146.49999999993631
 30
0.0
 40
2.2999999999999989
  0
ARC
  8
DETAIL
  6
CONTINUOUS
 62
     5
 10
-363.84719540024531
 20
308.95620177943601
 30
0.0
 40
1.9528048806
 50
178.6891993278208
 51
180.03073164807009
  0
ARC
  8
DETAIL
  6
CONTINUOUS
 62
     5
 10
-365.07225022334751
 20
309.05569233193643
 30
0.0
 40
0.7212970671
 50
164.02752334471131
 51
166.07832949809969
  0
ARC
  8
DETAIL
  6
CONTINUOUS
 62
     5
 10
-365.10841862524831
 20
309.06600134203649
 30
0.0
 40
0.6836881965
 50
162.83826320311201
 51
164.02403375796149
  0
ARC
  8
DETAIL
  6
CONTINUOUS
 62
     5
 10
-365.2999999999447
 20
309.11880215343632
 30
0.0
 40
0.5
 50
113.9999985013594
 51
180.0
  0
ARC
  8
DETAIL
  6
CONTINUOUS
 62
     5
 10
-365.2999999999447
 20
300.88119784643641
 30
0.0
 40
0.5
 50
180.0
 51
246.00000149864059
  0
ARC
  8
DETAIL
  6
CONTINUOUS
 62
     5
 10
-365.3252737503426
 20
309.17626722583549
 30
0.0
 40
0.4369026509000001
 50
114.1753191758789
 51
117.64407115767099
  0
ARC
  8
DETAIL
  6
CONTINUOUS
 62
     5
 10
-365.3323265761428
 20
309.1900789404371
 30
0.0
 40
0.4213952633
 50
117.6659076031434
 51
127.02555853618379
  0
CIRCLE
  8
DETAIL
  6
CONTINUOUS
 62
     5
 10
-253.49999999994179
 20
110.99999999993631
 30
0.0
 40
6.0999999999999988
  0
CIRCLE
  8
DETAIL
  6
CONTINUOUS
 62
     5
 10
-253.49999999994179
 20
110.99999999993631
 30
0.0
 40
6.0
  0
ARC
  8
DETAIL
  6
CONTINUOUS
 62
     5
 10
-291.49999999994179
 20
94.999999999936335
 30
0.0
 40
5.0
 50
90.0
 51
180.0
  0
ARC
  8
DETAIL
  6
CONTINUOUS
 62
     5
 10
-243.49999999994179
 20
102.99999999993631
 30
0.0
 40
3.0
 50
270.0
 51
0.0
  0
CIRCLE
  8
DETAIL
  6
CONTINUOUS
 62
     5
 10
-224.99999999994179
 20
304.99999999993628
 30
0.0
 40
6.0999999999999988
  0
CIRCLE
  8
DETAIL
  6
CONTINUOUS
 62
     5
 10
-224.99999999994179
 20
304.99999999993628
 30
0.0
 40
6.0
  0
ARC
  8
DETAIL
  6
CONTINUOUS
 62
     5
 10
-279.49999999994179
 20
893.99999999993634
 30
0.0
 40
10.0
 50
0.0
 51
180.0
  0
ARC
  8
DETAIL
  6
CONTINUOUS
 62
     5
 10
-279.49999999994179
 20
758.99999999993634
 30
0.0
 40
10.0
 50
180.0
 51
0.0
  0
CIRCLE
  8
DETAIL
  6
CONTINUOUS
 62
     5
 10
-224.99999999994179
 20
644.99999999993634
 30
0.0
 40
6.0999999999999988
  0
CIRCLE
  8
DETAIL
  6
CONTINUOUS
 62
     5
 10
-224.99999999994179
 20
644.99999999993634
 30
0.0
 40
6.0
  0
ARC
  8
DETAIL
  6
CONTINUOUS
 62
     5
 10
-340.06532333274657
 20
898.84848174513718
 30
0.0
 40
5.1530650344999991
 50
101.495741301685
 51
101.7764842367901
  0
ARC
  8
DETAIL
  6
CONTINUOUS
 62
     5
 10
-340.06532333274657
 20
754.15151825463727
 30
0.0
 40
5.1530650344999991
 50
258.22351576321
 51
258.50425869831503
  0
ARC
  8
DETAIL
  6
CONTINUOUS
 62
     5
 10
-340.076053939345
 20
754.09538044943645
 30
0.0
 40
5.0959148676999986
 50
258.49669584436481
 51
263.80212653961559
  0
ARC
  8
DETAIL
  6
CONTINUOUS
 62
     5
 10
-340.07606315334851
 20
898.90467137473559
 30
0.0
 40
5.0958622468000003
 50
96.191375150998979
 51
101.50331884054209
  0
ARC
  8
DETAIL
  6
CONTINUOUS
 62
     5
 10
-341.1475264524488
 20
899.72258578653589
 30
0.0
 40
4.277414349699999
 50
82.984732968993157
 51
89.985535548075063
  0
ARC
  8
DETAIL
  6
CONTINUOUS
 62
     5
 10
-341.14752343594591
 20
753.27733886473652
 30
0.0
 40
4.2773390003999996
 50
270.01442430079999
 51
277.00765895869063
  0
CIRCLE
  8
DETAIL
  6
CONTINUOUS
 62
     5
 10
-247.49999999994179
 20
714.49999999993634
 30
0.0
 40
2.2999999999999989
  0
CIRCLE
  8
DETAIL
  6
CONTINUOUS
 62
     5
 10
-309.49999999994179
 20
821.49999999993634
 30
0.0
 40
2.2999999999999989
  0
CIRCLE
  8
DETAIL
  6
CONTINUOUS
 62
     5
 10
-187.49999999994179
 20
110.99999999993631
 30
0.0
 40
6.0999999999999988
  0
CIRCLE
  8
DETAIL
  6
CONTINUOUS
 62
     5
 10
-187.49999999994179
 20
110.99999999993631
 30
0.0
 40
6.0
  0
ARC
  8
DETAIL
  6
CONTINUOUS
 62
     5
 10
-190.04737231304171
 20
711.48945352183534
 30
0.0
 40
1.010521510999999
 50
2.854646149159934
 51
59.01984457267519
  0
ARC
  8
DETAIL
  6
CONTINUOUS
 62
     5
 10
-190.04191625314701
 20
711.50920979793773
 30
0.0
 40
0.9907903145999998
 50
58.702270445650171
 51
89.972671948522205
  0
ARC
  8
DETAIL
  6
CONTINUOUS
 62
     5
 10
-279.49999999994179
 20
1293.9999999999361
 30
0.0
 40
10.0
 50
0.0
 51
180.0
  0
ARC
  8
DETAIL
  6
CONTINUOUS
 62
     5
 10
-279.49999999994179
 20
1143.9999999999361
 30
0.0
 40
10.0
 50
180.0
 51
0.0
  0
ARC
  8
DETAIL
  6
CONTINUOUS
 62
     5
 10
-279.49999999994179
 20
1343.9999999999361
 30
0.0
 40
10.0
 50
180.0
 51
0.0
  0
ARC
  8
DETAIL
  6
CONTINUOUS
 62
     5
 10
-279.49999999994179
 20
1093.9999999999361
 30
0.0
 40
10.0
 50
0.0
 51
180.0
  0
ARC
  8
DETAIL
  6
CONTINUOUS
 62
     5
 10
-279.49999999994179
 20
943.99999999993634
 30
0.0
 40
10.0
 50
180.0
 51
0.0
  0
ARC
  8
DETAIL
  6
CONTINUOUS
 62
     5
 10
-340.06532331884227
 20
1339.1515183220361
 30
0.0
 40
5.1530651032999986
 50
258.22351576449802
 51
258.50425869575997
  0
ARC
  8
DETAIL
  6
CONTINUOUS
 62
     5
 10
-340.0653233302437
 20
1098.8484817327351
 30
0.0
 40
5.1530650472000001
 50
101.4957413021142
 51
101.7764842363607
  0
ARC
  8
DETAIL
  6
CONTINUOUS
 62
     5
 10
-340.0653233315461
 20
939.15151826083638
 30
0.0
 40
5.1530650407999987
 50
258.22351576363928
 51
258.50425869831503
  0
ARC
  8
DETAIL
  6
CONTINUOUS
 62
     5
 10
-340.06532333274657
 20
1139.151518254637
 30
0.0
 40
5.1530650344999991
 50
258.22351576321
 51
258.50425869831503
  0
ARC
  8
DETAIL
  6
CONTINUOUS
 62
     5
 10
-340.06532333274657
 20
1298.848481745137
 30
0.0
 40
5.1530650344999991
 50
101.495741301685
 51
101.7764842367901
  0
ARC
  8
DETAIL
  6
CONTINUOUS
 62
     5
 10
-340.0760539392432
 20
1139.0953804497369
 30
0.0
 40
5.0959148680000004
 50
258.4966958447734
 51
263.80212653918989
  0
ARC
  8
DETAIL
  6
CONTINUOUS
 62
     5
 10
-340.0760539392432
 20
1339.095380449636
 30
0.0
 40
5.0959148679000004
 50
258.4966958447734
 51
263.80212653918989
  0
ARC
  8
DETAIL
  6
CONTINUOUS
 62
     5
 10
-340.076053939345
 20
939.09538044953649
 30
0.0
 40
5.0959148677999986
 50
258.4966958447734
 51
263.80212653918989
  0
ARC
  8
DETAIL
  6
CONTINUOUS
 62
     5
 10
-340.07606315324671
 20
1098.9046713743351
 30
0.0
 40
5.0958622472000004
 50
96.191375151413439
 51
101.50331884054209
  0
ARC
  8
DETAIL
  6
CONTINUOUS
 62
     5
 10
-340.07606315334851
 20
1298.9046713745361
 30
0.0
 40
5.0958622469999986
 50
96.191375150998979
 51
101.50331884054209
  0
ARC
  8
DETAIL
  6
CONTINUOUS
 62
     5
 10
-341.1475264524488
 20
1099.7225857866381
 30
0.0
 40
4.277414349599999
 50
82.984732968993157
 51
89.985535548075063
  0
ARC
  8
DETAIL
  6
CONTINUOUS
 62
     5
 10
-341.1475264524488
 20
1299.722585786536
 30
0.0
 40
4.277414349699999
 50
82.984732968993157
 51
89.985535548075063
  0
ARC
  8
DETAIL
  6
CONTINUOUS
 62
     5
 10
-341.14752343594591
 20
938.27733886473652
 30
0.0
 40
4.2773390003999996
 50
270.01442430079999
 51
277.00765895869063
  0
ARC
  8
DETAIL
  6
CONTINUOUS
 62
     5
 10
-341.14752343594591
 20
1338.2773388648361
 30
0.0
 40
4.2773390003999996
 50
270.01442430079999
 51
277.00765895869063
  0
ARC
  8
DETAIL
  6
CONTINUOUS
 62
     5
 10
-341.14752343594591
 20
1138.2773388647361
 30
0.0
 40
4.2773390002999987
 50
270.01442430079999
 51
277.00765895869063
  0
CIRCLE
  8
DETAIL
  6
CONTINUOUS
 62
     5
 10
-247.49999999994179
 20
1098.4999999999361
 30
0.0
 40
2.2999999999999989
  0
ARC
  8
DETAIL
  6
CONTINUOUS
 62
     5
 10
-340.06532333274657
 20
1498.848481745137
 30
0.0
 40
5.1530650344999991
 50
101.495741301685
 51
101.7764842367901
  0
ARC
  8
DETAIL
  6
CONTINUOUS
 62
     5
 10
-340.07606315324671
 20
1498.9046713743351
 30
0.0
 40
5.0958622472000004
 50
96.191375151413439
 51
101.50331884054209
  0
ARC
  8
DETAIL
  6
CONTINUOUS
 62
     5
 10
-341.1475264524488
 20
1499.722585786536
 30
0.0
 40
4.277414349699999
 50
82.984732968993157
 51
89.985535548075063
  0
CIRCLE
  8
DETAIL
  6
CONTINUOUS
 62
     5
 10
-309.49999999994179
 20
1496.4999999999361
 30
0.0
 40
2.2999999999999989
  0
ARC
  8
DETAIL
  6
CONTINUOUS
 62
     5
 10
-389.99999999994179
 20
1756.856081466836
 30
0.0
 40
30.0
 50
357.50000000002899
 51
0.0
  0
ARC
  8
DETAIL
  6
CONTINUOUS
 62
     5
 10
-360.99999996704719
 20
1834.5999999999369
 30
0.0
 40
2.0
 50
90.000000941735635
 51
180.0
  0
ARC
  8
DETAIL
  6
CONTINUOUS
 62
     5
 10
-359.99999999994179
 20
1838.5999999999369
 30
0.0
 40
2.0
 50
270.0
 51
0.0
  0
ARC
  8
DETAIL
  6
CONTINUOUS
 62
     5
 10
-361.99999999786093
 20
1811.500000002038
 30
0.0
 40
1.9999999979117999
 50
0.0000006225085436
 51
89.997374717323623
  0
ARC
  8
DETAIL
  6
CONTINUOUS
 62
     5
 10
-360.99999943884899
 20
1816.9999994388411
 30
0.0
 40
0.9999994389047801
 50
270.02352091349741
 51
0.000032146995695
  0
ARC
  8
DETAIL
  6
CONTINUOUS
 62
     5
 10
-357.50000000224833
 20
1857.5999999999369
 30
0.0
 40
0.5
 50
89.999999728610035
 51
180.0
  0
ARC
  8
DETAIL
  6
CONTINUOUS
 62
     5
 10
-362.6999999999461
 20
1815.6999999999371
 30
0.0
 40
0.3
 50
90.0
 51
180.0
  0
ARC
  8
DETAIL
  6
CONTINUOUS
 62
     5
 10
-362.6999999999461
 20
1813.7999999999349
 30
0.0
 40
0.3
 50
180.0
 51
270.0
  0
ARC
  8
DETAIL
  6
CONTINUOUS
 62
     5
 10
-279.49999999994179
 20
1493.9999999999361
 30
0.0
 40
10.0
 50
0.0
 51
180.0
  0
ARC
  8
DETAIL
  6
CONTINUOUS
 62
     5
 10
-253.49999999994179
 20
1516.5999999999369
 30
0.0
 40
6.0999999999999988
 50
102.1444617173148
 51
77.855538282685202
  0
ARC
  8
DETAIL
  6
CONTINUOUS
 62
     5
 10
-253.49999999994179
 20
1516.5999999999369
 30
0.0
 40
6.0
 50
95.663804351435985
 51
84.336195648564001
  0
ARC
  8
DETAIL
  6
CONTINUOUS
 62
     5
 10
-220.49999999994179
 20
1519.9999999999361
 30
0.0
 40
3.0
 50
0.0
 51
56.529971084237097
  0
CIRCLE
  8
DETAIL
  6
CONTINUOUS
 62
     5
 10
-247.49999999994179
 20
1482.4999999999361
 30
0.0
 40
2.2999999999999989
  0
ARC
  8
DETAIL
  6
CONTINUOUS
 62
     5
 10
-167.35142435414309
 20
1857.5999999999369
 30
0.0
 40
0.5
 50
90.0
 51
180.0
  0
ARC
  8
DETAIL
  6
CONTINUOUS
 62
     5
 10
261.16397222155501
 20
-6151.9737338289633
 30
0.0
 40
7740.6837844605998
 50
90.213249172224891
 51
90.349648923642491
  0
ARC
  8
DETAIL
  6
CONTINUOUS
 62
     5
 10
198.3093747672537
 20
-5564.4711822979643
 30
0.0
 40
7139.5396893155012
 50
89.327158192027738
 51
89.656526329418
  0
ARC
  8
DETAIL
  6
CONTINUOUS
 62
     5
 10
198.63658347695309
 20
-5505.554557964263
 30
0.0
 40
7080.4052500467997
 50
89.325271790043701
 51
89.657337661546293
  0
ARC
  8
DETAIL
  6
CONTINUOUS
 62
     5
 10
216.0668669039587
 20
-3796.5262054903628
 30
0.0
 40
5385.2072717016999
 50
89.405157975313713
 51
89.82671333175432
  0
CIRCLE
  8
DETAIL
  6
CONTINUOUS
 62
     5
 10
174.50000000005821
 20
110.99999999993631
 30
0.0
 40
6.0999999999999988
  0
CIRCLE
  8
DETAIL
  6
CONTINUOUS
 62
     5
 10
110.50000000005819
 20
110.99999999993631
 30
0.0
 40
6.0999999999999988
  0
CIRCLE
  8
DETAIL
  6
CONTINUOUS
 62
     5
 10
148.00000000005821
 20
304.99999999993628
 30
0.0
 40
6.0999999999999988
  0
CIRCLE
  8
DETAIL
  6
CONTINUOUS
 62
     5
 10
174.50000000005821
 20
110.99999999993631
 30
0.0
 40
6.0
  0
CIRCLE
  8
DETAIL
  6
CONTINUOUS
 62
     5
 10
110.50000000005819
 20
110.99999999993631
 30
0.0
 40
6.0
  0
CIRCLE
  8
DETAIL
  6
CONTINUOUS
 62
     5
 10
148.00000000005821
 20
304.99999999993628
 30
0.0
 40
6.0
  0
ARC
  8
DETAIL
  6
CONTINUOUS
 62
     5
 10
166.50000000005821
 20
102.99999999993631
 30
0.0
 40
3.0
 50
180.0
 51
270.0
  0
ARC
  8
DETAIL
  6
CONTINUOUS
 62
     5
 10
144.50000000005821
 20
689.49999999993634
 30
0.0
 40
6.0999999999999988
 50
309.9590438056523
 51
230.04095619434781
  0
CIRCLE
  8
DETAIL
  6
CONTINUOUS
 62
     5
 10
148.00000000005821
 20
644.99999999993634
 30
0.0
 40
6.0999999999999988
  0
ARC
  8
DETAIL
  6
CONTINUOUS
 62
     5
 10
144.50000000005821
 20
689.49999999993634
 30
0.0
 40
6.0
 50
309.25026147891919
 51
230.7497385210807
  0
CIRCLE
  8
DETAIL
  6
CONTINUOUS
 62
     5
 10
148.00000000005821
 20
644.99999999993634
 30
0.0
 40
6.0
  0
ARC
  8
DETAIL
  6
CONTINUOUS
 62
     5
 10
151.00000000005821
 20
786.99999999993634
 30
0.0
 40
3.0
 50
270.0
 51
90.0
  0
ARC
  8
DETAIL
  6
CONTINUOUS
 62
     5
 10
148.00000000005821
 20
786.99999999993634
 30
0.0
 40
3.0
 50
90.0
 51
270.0
  0
ARC
  8
DETAIL
  6
CONTINUOUS
 62
     5
 10
151.00000000005821
 20
912.5999999999367
 30
0.0
 40
3.0
 50
270.0
 51
90.0
  0
ARC
  8
DETAIL
  6
CONTINUOUS
 62
     5
 10
148.00000000005821
 20
912.5999999999367
 30
0.0
 40
3.0
 50
90.0
 51
270.0
  0
ARC
  8
DETAIL
  6
CONTINUOUS
 62
     5
 10
143.00000000005821
 20
760.5999999999367
 30
0.0
 40
3.0
 50
270.0
 51
90.0
  0
ARC
  8
DETAIL
  6
CONTINUOUS
 62
     5
 10
140.00000000005821
 20
760.5999999999367
 30
0.0
 40
3.0
 50
90.0
 51
270.0
  0
CIRCLE
  8
DETAIL
  6
CONTINUOUS
 62
     5
 10
170.50000000005821
 20
714.49999999993634
 30
0.0
 40
2.2999999999999989
  0
CIRCLE
  8
DETAIL
  6
CONTINUOUS
 62
     5
 10
304.50000000005821
 20
74.499999999936335
 30
0.0
 40
6.0999999999999988
  0
CIRCLE
  8
DETAIL
  6
CONTINUOUS
 62
     5
 10
304.50000000005821
 20
74.499999999936335
 30
0.0
 40
6.0
  0
ARC
  8
DETAIL
  6
CONTINUOUS
 62
     5
 10
300.8000000000539
 20
69.499999999936335
 30
0.0
 40
5.0
 50
180.0
 51
270.0
  0
ARC
  8
DETAIL
  6
CONTINUOUS
 62
     5
 10
301.50000000005821
 20
69.499999999936335
 30
0.0
 40
5.0
 50
180.0
 51
270.0
  0
ARC
  8
DETAIL
  6
CONTINUOUS
 62
     5
 10
319.00000000005821
 20
63.499999999936342
 30
0.0
 40
3.5
 50
180.0
 51
270.0
  0
ARC
  8
DETAIL
  6
CONTINUOUS
 62
     5
 10
317.00000000005821
 20
3.4999999999363349
 30
0.0
 40
3.5
 50
180.0
 51
270.0
  0
ARC
  8
DETAIL
  6
CONTINUOUS
 62
     5
 10
317.00000000005821
 20
56.499999999936328
 30
0.0
 40
3.5
 50
90.0
 51
180.0
  0
ARC
  8
DETAIL
  6
CONTINUOUS
 62
     5
 10
319.00000000005821
 20
63.499999999936342
 30
0.0
 40
1.1999999999999991
 50
180.0
 51
270.0
  0
ARC
  8
DETAIL
  6
CONTINUOUS
 62
     5
 10
317.00000000005821
 20
3.4999999999363349
 30
0.0
 40
1.1999999999999991
 50
180.0
 51
270.0
  0
ARC
  8
DETAIL
  6
CONTINUOUS
 62
     5
 10
317.00000000005821
 20
56.499999999936328
 30
0.0
 40
1.1999999999999991
 50
90.0
 51
180.0
  0
ARC
  8
DETAIL
  6
CONTINUOUS
 62
     5
 10
291.50000000005821
 20
94.999999999936335
 30
0.0
 40
5.0
 50
0.0
 51
90.0
  0
CIRCLE
  8
DETAIL
  6
CONTINUOUS
 62
     5
 10
309.50000000005821
 20
146.49999999993631
 30
0.0
 40
2.2999999999999989
  0
CIRCLE
  8
DETAIL
  6
CONTINUOUS
 62
     5
 10
309.50000000005821
 20
821.49999999993634
 30
0.0
 40
2.2999999999999989
  0
ARC
  8
DETAIL
  6
CONTINUOUS
 62
     5
 10
151.00000000005821
 20
1100.9999999999361
 30
0.0
 40
3.0
 50
270.0
 51
90.0
  0
ARC
  8
DETAIL
  6
CONTINUOUS
 62
     5
 10
148.00000000005821
 20
1100.9999999999361
 30
0.0
 40
3.0
 50
90.0
 51
270.0
  0
ARC
  8
DETAIL
  6
CONTINUOUS
 62
     5
 10
151.00000000005821
 20
1289.399999999938
 30
0.0
 40
3.0
 50
270.0
 51
90.0
  0
ARC
  8
DETAIL
  6
CONTINUOUS
 62
     5
 10
148.00000000005821
 20
1289.399999999938
 30
0.0
 40
3.0
 50
90.0
 51
270.0
  0
ARC
  8
DETAIL
  6
CONTINUOUS
 62
     5
 10
143.00000000005821
 20
1025.7999999999349
 30
0.0
 40
3.0
 50
270.0
 51
90.0
  0
ARC
  8
DETAIL
  6
CONTINUOUS
 62
     5
 10
140.00000000005821
 20
1025.7999999999349
 30
0.0
 40
3.0
 50
90.0
 51
270.0
  0
ARC
  8
DETAIL
  6
CONTINUOUS
 62
     5
 10
143.00000000005821
 20
1229.7999999999361
 30
0.0
 40
3.0
 50
270.0
 51
90.0
  0
ARC
  8
DETAIL
  6
CONTINUOUS
 62
     5
 10
140.00000000005821
 20
1229.7999999999361
 30
0.0
 40
3.0
 50
90.0
 51
270.0
  0
CIRCLE
  8
DETAIL
  6
CONTINUOUS
 62
     5
 10
170.50000000005821
 20
1098.4999999999361
 30
0.0
 40
2.2999999999999989
  0
CIRCLE
  8
DETAIL
  6
CONTINUOUS
 62
     5
 10
0.0000000000582077
 20
1824.7999999999349
 30
0.0
 40
6.0999999999999988
  0
CIRCLE
  8
DETAIL
  6
CONTINUOUS
 62
     5
 10
0.0000000000582077
 20
1824.7999999999349
 30
0.0
 40
6.0
  0
ARC
  8
DETAIL
  6
CONTINUOUS
 62
     5
 10
151.00000000005821
 20
1493.4999999999361
 30
0.0
 40
3.0
 50
270.0
 51
90.0
  0
ARC
  8
DETAIL
  6
CONTINUOUS
 62
     5
 10
148.00000000005821
 20
1493.4999999999361
 30
0.0
 40
3.0
 50
90.0
 51
270.0
  0
ARC
  8
DETAIL
  6
CONTINUOUS
 62
     5
 10
143.00000000005821
 20
1454.1999999999371
 30
0.0
 40
3.0
 50
270.0
 51
90.0
  0
ARC
  8
DETAIL
  6
CONTINUOUS
 62
     5
 10
140.00000000005821
 20
1454.1999999999371
 30
0.0
 40
3.0
 50
90.0
 51
270.0
  0
CIRCLE
  8
DETAIL
  6
CONTINUOUS
 62
     5
 10
170.50000000005821
 20
1472.4999999999361
 30
0.0
 40
2.2999999999999989
  0
ARC
  8
DETAIL
  6
CONTINUOUS
 62
     5
 10
167.35142435435409
 20
1857.5999999999369
 30
0.0
 40
0.5
 50
0.0
 51
90.0
  0
ARC
  8
DETAIL
  6
CONTINUOUS
 62
     5
 10
261.50000000005821
 20
1516.5999999999369
 30
0.0
 40
6.0999999999999988
 50
102.1444617173148
 51
77.855538282685202
  0
ARC
  8
DETAIL
  6
CONTINUOUS
 62
     5
 10
261.50000000005821
 20
1516.5999999999369
 30
0.0
 40
6.0
 50
95.663804351435985
 51
84.336195648564001
  0
ARC
  8
DETAIL
  6
CONTINUOUS
 62
     5
 10
221.68919596005429
 20
1574.4405100951351
 30
0.0
 40
0.3053054789
 50
148.25264872236141
 51
165.67973247846979
  0
ARC
  8
DETAIL
  6
CONTINUOUS
 62
     5
 10
372.38657282435452
 20
1559.3992675948371
 30
0.0
 40
5.0001653733999989
 50
181.65348041249271
 51
231.17312119017501
  0
CIRCLE
  8
DETAIL
  6
CONTINUOUS
 62
     5
 10
309.50000000005821
 20
1496.4999999999361
 30
0.0
 40
2.2999999999999989
  0
ARC
  8
DETAIL
  6
CONTINUOUS
 62
     5
 10
367.99768376205611
 20
1553.9458312278359
 30
0.0
 40
2.0
 50
34.143969497336961
 51
51.173123656595507
  0
ARC
  8
DETAIL
  6
CONTINUOUS
 62
     5
 10
390.00000000005821
 20
1756.856081466836
 30
0.0
 40
30.0
 50
180.0
 51
182.4999999999709
  0
ARC
  8
DETAIL
  6
CONTINUOUS
 62
     5
 10
362.04178533155209
 20
1811.484414853006
 30
0.0
 40
2.0418448133011471
 50
99.198932121778185
 51
179.56266420985679
  0
ARC
  8
DETAIL
  6
CONTINUOUS
 62
     5
 10
361.00000000005821
 20
1834.5999999999369
 30
0.0
 40
2.0
 50
0.0
 51
90.0
  0
ARC
  8
DETAIL
  6
CONTINUOUS
 62
     5
 10
360.00000000005821
 20
1838.5999999999369
 30
0.0
 40
2.0
 50
180.0
 51
270.0
  0
ARC
  8
DETAIL
  6
CONTINUOUS
 62
     5
 10
360.99999996325641
 20
1816.9999999644369
 30
0.0
 40
0.9999999645999999
 50
179.99999796957781
 51
269.98473355318879
  0
ARC
  8
DETAIL
  6
CONTINUOUS
 62
     5
 10
357.50000000285218
 20
1857.5999999999369
 30
0.0
 40
0.5
 50
0.0
 51
90.000000317663833
  0
ARC
  8
DETAIL
  6
CONTINUOUS
 62
     5
 10
362.7000000000553
 20
1813.7999999999349
 30
0.0
 40
0.3
 50
270.0
 51
0.0
  0
ARC
  8
DETAIL
  6
CONTINUOUS
 62
     5
 10
362.7000000000553
 20
1815.6999999999371
 30
0.0
 40
0.3
 50
0.0
 51
90.0
  0
POLYLINE
  8
DETAIL
  6
CONTINUOUS
 62
     5
 66
     1
 10
0.0
 20
0.0
 30
0.0
  0
VERTEX
  8
DETAIL
  6
CONTINUOUS
 62
     5
 10
-365.7999999999447
 20
304.01789451683538
 30
0.0
  0
VERTEX
  8
DETAIL
  6
CONTINUOUS
 62
     5
 10
-365.79903970068125
 20
303.88750980651912
 30
0.0
  0
VERTEX
  8
DETAIL
  6
CONTINUOUS
 62
     5
 10
-365.79542588348914
 20
303.75709226383395
 30
0.0
  0
VERTEX
  8
DETAIL
  6
CONTINUOUS
 62
     5
 10
-365.78805916926586
 20
303.62685647493339
 30
0.0
  0
VERTEX
  8
DETAIL
  6
CONTINUOUS
 62
     5
 10
-365.77584017890894
 20
303.49701702597116
 30
0.0
  0
VERTEX
  8
DETAIL
  6
CONTINUOUS
 62
     5
 10
-365.75766953330566
 20
303.36778850311146
 30
0.0
  0
VERTEX
  8
DETAIL
  6
CONTINUOUS
 62
     5
 10
-365.73222108739981
 20
303.23962988741664
 30
0.0
  0
VERTEX
  8
DETAIL
  6
CONTINUOUS
 62
     5
 10
-365.6972712512715
 20
303.11396737284576
 30
0.0
  0
VERTEX
  8
DETAIL
  6
CONTINUOUS
 62
     5
 10
-365.65032305326957
 20
302.99250748491107
 30
0.0
  0
VERTEX
  8
DETAIL
  6
CONTINUOUS
 62
     5
 10
-365.58771804408809
 20
302.87791678992937
 30
0.0
  0
VERTEX
  8
DETAIL
  6
CONTINUOUS
 62
     5
 10
-365.50379070504277
 20
302.77817588343709
 30
0.0
  0
SEQEND
  8
DETAIL
  6
CONTINUOUS
 62
     5
  0
POLYLINE
  8
DETAIL
  6
CONTINUOUS
 62
     5
 66
     1
 10
0.0
 20
0.0
 30
0.0
  0
VERTEX
  8
DETAIL
  6
CONTINUOUS
 62
     5
 10
-365.50393320664438
 20
307.22171306893688
 30
0.0
  0
VERTEX
  8
DETAIL
  6
CONTINUOUS
 62
     5
 10
-365.58784032532287
 20
307.12197575930162
 30
0.0
  0
VERTEX
  8
DETAIL
  6
CONTINUOUS
 62
     5
 10
-365.65039126703363
 20
307.00737638171017
 30
0.0
  0
VERTEX
  8
DETAIL
  6
CONTINUOUS
 62
     5
 10
-365.69729035382625
 20
306.8859122274348
 30
0.0
  0
VERTEX
  8
DETAIL
  6
CONTINUOUS
 62
     5
 10
-365.73223133190322
 20
306.76026469690663
 30
0.0
  0
VERTEX
  8
DETAIL
  6
CONTINUOUS
 62
     5
 10
-365.75768738797723
 20
306.63212881454132
 30
0.0
  0
VERTEX
  8
DETAIL
  6
CONTINUOUS
 62
     5
 10
-365.77586064652286
 20
306.50292051645141
 30
0.0
  0
VERTEX
  8
DETAIL
  6
CONTINUOUS
 62
     5
 10
-365.78807576764899
 20
306.37309801207914
 30
0.0
  0
VERTEX
  8
DETAIL
  6
CONTINUOUS
 62
     5
 10
-365.79543552070396
 20
306.24287732359653
 30
0.0
  0
VERTEX
  8
DETAIL
  6
CONTINUOUS
 62
     5
 10
-365.79904267502383
 20
306.11247447316242
 30
0.0
  0
VERTEX
  8
DETAIL
  6
CONTINUOUS
 62
     5
 10
-365.7999999999447
 20
305.98210548293542
 30
0.0
  0
SEQEND
  8
DETAIL
  6
CONTINUOUS
 62
     5
  0
POLYLINE
  8
DETAIL
  6
CONTINUOUS
 62
     5
 66
     1
 10
0.0
 20
0.0
 30
0.0
  0
VERTEX
  8
DETAIL
  6
CONTINUOUS
 62
     5
 10
-365.7999999999447
 20
301.0448456432369
 30
0.0
  0
VERTEX
  8
DETAIL
  6
CONTINUOUS
 62
     5
 10
-365.79987047204042
 20
301.02133099943114
 30
0.0
  0
VERTEX
  8
DETAIL
  6
CONTINUOUS
 62
     5
 10
-365.79945589311006
 20
300.99780950754734
 30
0.0
  0
VERTEX
  8
DETAIL
  6
CONTINUOUS
 62
     5
 10
-365.79871727032719
 20
300.97429265015631
 30
0.0
  0
VERTEX
  8
DETAIL
  6
CONTINUOUS
 62
     5
 10
-365.79761561086536
 20
300.95079190982898
 30
0.0
  0
VERTEX
  8
DETAIL
  6
CONTINUOUS
 62
     5
 10
-365.79611192189844
 20
300.92731876913615
 30
0.0
  0
VERTEX
  8
DETAIL
  6
CONTINUOUS
 62
     5
 10
-365.79416721059999
 20
300.90388471064887
 30
0.0
  0
VERTEX
  8
DETAIL
  6
CONTINUOUS
 62
     5
 10
-365.79174248414353
 20
300.88050121693777
 30
0.0
  0
SEQEND
  8
DETAIL
  6
CONTINUOUS
 62
     5
  0
POLYLINE
  8
DETAIL
  6
CONTINUOUS
 62
     5
 66
     1
 10
0.0
 20
0.0
 30
0.0
  0
VERTEX
  8
DETAIL
  6
CONTINUOUS
 62
     5
 10
-365.79174248414353
 20
300.88050121693777
 30
0.0
  0
VERTEX
  8
DETAIL
  6
CONTINUOUS
 62
     5
 10
-365.78140868890432
 20
300.81142953881317
 30
0.0
  0
VERTEX
  8
DETAIL
  6
CONTINUOUS
 62
     5
 10
-365.76532474612372
 20
300.74333188729963
 30
0.0
  0
VERTEX
  8
DETAIL
  6
CONTINUOUS
 62
     5
 10
-365.7420616364854
 20
300.67726256265553
 30
0.0
  0
VERTEX
  8
DETAIL
  6
CONTINUOUS
 62
     5
 10
-365.71021964323518
 20
300.61428472522164
 30
0.0
  0
VERTEX
  8
DETAIL
  6
CONTINUOUS
 62
     5
 10
-365.66947088579349
 20
300.55578562157552
 30
0.0
  0
VERTEX
  8
DETAIL
  6
CONTINUOUS
 62
     5
 10
-365.62084210696338
 20
300.50356208961495
 30
0.0
  0
VERTEX
  8
DETAIL
  6
CONTINUOUS
 62
     5
 10
-365.56544688337118
 20
300.45943722278645
 30
0.0
  0
VERTEX
  8
DETAIL
  6
CONTINUOUS
 62
     5
 10
-365.50439879164333
 20
300.42523411453658
 30
0.0
  0
SEQEND
  8
DETAIL
  6
CONTINUOUS
 62
     5
  0
POLYLINE
  8
DETAIL
  6
CONTINUOUS
 62
     5
 66
     1
 10
0.0
 20
0.0
 30
0.0
  0
VERTEX
  8
DETAIL
  6
CONTINUOUS
 62
     5
 10
-365.50409873134782
 20
302.64668884573621
 30
0.0
  0
VERTEX
  8
DETAIL
  6
CONTINUOUS
 62
     5
 10
-365.56772106767096
 20
302.61114533319
 30
0.0
  0
VERTEX
  8
DETAIL
  6
CONTINUOUS
 62
     5
 10
-365.62504270802555
 20
302.56524684473931
 30
0.0
  0
VERTEX
  8
DETAIL
  6
CONTINUOUS
 62
     5
 10
-365.67445396722576
 20
302.51090494890354
 30
0.0
  0
VERTEX
  8
DETAIL
  6
CONTINUOUS
 62
     5
 10
-365.71467957123662
 20
302.44999079410309
 30
0.0
  0
VERTEX
  8
DETAIL
  6
CONTINUOUS
 62
     5
 10
-365.74591233096925
 20
302.38419808210614
 30
0.0
  0
VERTEX
  8
DETAIL
  6
CONTINUOUS
 62
     5
 10
-365.76876719601768
 20
302.31515419868094
 30
0.0
  0
VERTEX
  8
DETAIL
  6
CONTINUOUS
 62
     5
 10
-365.78425818566473
 20
302.24412355098525
 30
0.0
  0
VERTEX
  8
DETAIL
  6
CONTINUOUS
 62
     5
 10
-365.79377330806454
 20
302.1720280468453
 30
0.0
  0
VERTEX
  8
DETAIL
  6
CONTINUOUS
 62
     5
 10
-365.79863366224288
 20
302.09955424890535
 30
0.0
  0
VERTEX
  8
DETAIL
  6
CONTINUOUS
 62
     5
 10
-365.7999999999447
 20
302.02695112633768
 30
0.0
  0
SEQEND
  8
DETAIL
  6
CONTINUOUS
 62
     5
  0
POLYLINE
  8
DETAIL
  6
CONTINUOUS
 62
     5
 66
     1
 10
0.0
 20
0.0
 30
0.0
  0
VERTEX
  8
DETAIL
  6
CONTINUOUS
 62
     5
 10
-365.7999999999447
 20
307.97304887353681
 30
0.0
  0
VERTEX
  8
DETAIL
  6
CONTINUOUS
 62
     5
 10
-365.798636350116
 20
307.90048310119278
 30
0.0
  0
VERTEX
  8
DETAIL
  6
CONTINUOUS
 62
     5
 10
-365.79378163659146
 20
307.82804719686669
 30
0.0
  0
VERTEX
  8
DETAIL
  6
CONTINUOUS
 62
     5
 10
-365.78427274981527
 20
307.75599189078963
 30
0.0
  0
VERTEX
  8
DETAIL
  6
CONTINUOUS
 62
     5
 10
-365.76879692352628
 20
307.6849974657149
 30
0.0
  0
VERTEX
  8
DETAIL
  6
CONTINUOUS
 62
     5
 10
-365.74597917569099
 20
307.61597614194358
 30
0.0
  0
VERTEX
  8
DETAIL
  6
CONTINUOUS
 62
     5
 10
-365.71480370805966
 20
307.55019434173261
 30
0.0
  0
VERTEX
  8
DETAIL
  6
CONTINUOUS
 62
     5
 10
-365.67463887886294
 20
307.48929483613773
 30
0.0
  0
VERTEX
  8
DETAIL
  6
CONTINUOUS
 62
     5
 10
-365.62527965212189
 20
307.43497661403359
 30
0.0
  0
VERTEX
  8
DETAIL
  6
CONTINUOUS
 62
     5
 10
-365.56801312575374
 20
307.38907716573516
 30
0.0
  0
VERTEX
  8
DETAIL
  6
CONTINUOUS
 62
     5
 10
-365.50446752694552
 20
307.35346564553578
 30
0.0
  0
SEQEND
  8
DETAIL
  6
CONTINUOUS
 62
     5
  0
POLYLINE
  8
DETAIL
  6
CONTINUOUS
 62
     5
 66
     1
 10
0.0
 20
0.0
 30
0.0
  0
VERTEX
  8
DETAIL
  6
CONTINUOUS
 62
     5
 10
-365.58607867564569
 20
309.52650700113549
 30
0.0
  0
VERTEX
  8
DETAIL
  6
CONTINUOUS
 62
     5
 10
-365.60088546409474
 20
309.51482034113894
 30
0.0
  0
VERTEX
  8
DETAIL
  6
CONTINUOUS
 62
     5
 10
-365.61519855599761
 20
309.50251675765065
 30
0.0
  0
VERTEX
  8
DETAIL
  6
CONTINUOUS
 62
     5
 10
-365.62903161162575
 20
309.4896425811117
 30
0.0
  0
VERTEX
  8
DETAIL
  6
CONTINUOUS
 62
     5
 10
-365.64236735683079
 20
309.47622971809767
 30
0.0
  0
VERTEX
  8
DETAIL
  6
CONTINUOUS
 62
     5
 10
-365.65517627904416
 20
309.4623043687468
 30
0.0
  0
VERTEX
  8
DETAIL
  6
CONTINUOUS
 62
     5
 10
-365.6674288353671
 20
309.44789271905563
 30
0.0
  0
VERTEX
  8
DETAIL
  6
CONTINUOUS
 62
     5
 10
-365.67909548290066
 20
309.43302095502003
 30
0.0
  0
VERTEX
  8
DETAIL
  6
CONTINUOUS
 62
     5
 10
-365.6901466787458
 20
309.41771526263619
 30
0.0
  0
SEQEND
  8
DETAIL
  6
CONTINUOUS
 62
     5
  0
POLYLINE
  8
DETAIL
  6
CONTINUOUS
 62
     5
 66
     1
 10
0.0
 20
0.0
 30
0.0
  0
VERTEX
  8
DETAIL
  6
CONTINUOUS
 62
     5
 10
-365.6901466787458
 20
309.41771526263619
 30
0.0
  0
VERTEX
  8
DETAIL
  6
CONTINUOUS
 62
     5
 10
-365.70162370331269
 20
309.40034539893475
 30
0.0
  0
VERTEX
  8
DETAIL
  6
CONTINUOUS
 62
     5
 10
-365.7123620635445
 20
309.38249857727129
 30
0.0
  0
VERTEX
  8
DETAIL
  6
CONTINUOUS
 62
     5
 10
-365.72236080369066
 20
309.36420861254192
 30
0.0
  0
VERTEX
  8
DETAIL
  6
CONTINUOUS
 62
     5
 10
-365.73162954895656
 20
309.34551996786359
 30
0.0
  0
VERTEX
  8
DETAIL
  6
CONTINUOUS
 62
     5
 10
-365.74018137106469
 20
309.32648057478048
 30
0.0
  0
VERTEX
  8
DETAIL
  6
CONTINUOUS
 62
     5
 10
-365.7480293436152
 20
309.30713836672606
 30
0.0
  0
VERTEX
  8
DETAIL
  6
CONTINUOUS
 62
     5
 10
-365.75518654020789
 20
309.28754127713381
 30
0.0
  0
VERTEX
  8
DETAIL
  6
CONTINUOUS
 62
     5
 10
-365.7616660344429
 20
309.26773723943728
 30
0.0
  0
SEQEND
  8
DETAIL
  6
CONTINUOUS
 62
     5
  0
POLYLINE
  8
DETAIL
  6
CONTINUOUS
 62
     5
 66
     1
 10
0.0
 20
0.0
 30
0.0
  0
VERTEX
  8
DETAIL
  6
CONTINUOUS
 62
     5
 10
-365.77235958784883
 20
309.22923292333689
 30
0.0
  0
VERTEX
  8
DETAIL
  6
CONTINUOUS
 62
     5
 10
-365.77625422735173
 20
309.21272822897237
 30
0.0
  0
VERTEX
  8
DETAIL
  6
CONTINUOUS
 62
     5
 10
-365.77978521259377
 20
309.19613495352542
 30
0.0
  0
VERTEX
  8
DETAIL
  6
CONTINUOUS
 62
     5
 10
-365.78296853390214
 20
309.17946560779563
 30
0.0
  0
VERTEX
  8
DETAIL
  6
CONTINUOUS
 62
     5
 10
-365.78582018160438
 20
309.16273270258233
 30
0.0
  0
VERTEX
  8
DETAIL
  6
CONTINUOUS
 62
     5
 10
-365.7883561460277
 20
309.14594874868516
 30
0.0
  0
VERTEX
  8
DETAIL
  6
CONTINUOUS
 62
     5
 10
-365.7905924174994
 20
309.12912625690353
 30
0.0
  0
VERTEX
  8
DETAIL
  6
CONTINUOUS
 62
     5
 10
-365.79254498634691
 20
309.11227773803688
 30
0.0
  0
SEQEND
  8
DETAIL
  6
CONTINUOUS
 62
     5
  0
POLYLINE
  8
DETAIL
  6
CONTINUOUS
 62
     5
 66
     1
 10
0.0
 20
0.0
 30
0.0
  0
VERTEX
  8
DETAIL
  6
CONTINUOUS
 62
     5
 10
-365.79254498634691
 20
309.11227773803688
 30
0.0
  0
VERTEX
  8
DETAIL
  6
CONTINUOUS
 62
     5
 10
-365.79413876530191
 20
309.09641083030243
 30
0.0
  0
VERTEX
  8
DETAIL
  6
CONTINUOUS
 62
     5
 10
-365.79551212495028
 20
309.0805209339228
 30
0.0
  0
VERTEX
  8
DETAIL
  6
CONTINUOUS
 62
     5
 10
-365.796676968925
 20
309.06461225219192
 30
0.0
  0
VERTEX
  8
DETAIL
  6
CONTINUOUS
 62
     5
 10
-365.79764520085899
 20
309.04868898840374
 30
0.0
  0
VERTEX
  8
DETAIL
  6
CONTINUOUS
 62
     5
 10
-365.79842872438519
 20
309.03275534585231
 30
0.0
  0
VERTEX
  8
DETAIL
  6
CONTINUOUS
 62
     5
 10
-365.79903944313651
 20
309.01681552783162
 30
0.0
  0
VERTEX
  8
DETAIL
  6
CONTINUOUS
 62
     5
 10
-365.79948926074582
 20
309.00087373763557
 30
0.0
  0
SEQEND
  8
DETAIL
  6
CONTINUOUS
 62
     5
  0
LINE
  8
DETAIL
  6
CONTINUOUS
 62
     5
 10
-189.014931990343
 20
710.23772170163636
 30
0.0
 11
-189.03743211694379
 21
711.51754603123663
 31
0.0
  0
LINE
  8
DETAIL
  6
CONTINUOUS
 62
     5
 10
-189.03743211694379
 20
711.51754603123663
 30
0.0
 11
-189.0381047659466
 21
711.53977988193765
 31
0.0
  0
POLYLINE
  8
DETAIL
  6
CONTINUOUS
 62
     5
 66
     1
 10
0.0
 20
0.0
 30
0.0
  0
VERTEX
  8
DETAIL
  6
CONTINUOUS
 62
     5
 10
-347.15685424934782
 20
1143.9999999999361
 30
0.0
  0
VERTEX
  8
DETAIL
  6
CONTINUOUS
 62
     5
 10
-347.11893662032389
 20
1142.963409835746
 30
0.0
  0
VERTEX
  8
DETAIL
  6
CONTINUOUS
 62
     5
 10
-347.00407343268859
 20
1141.9308478901573
 30
0.0
  0
VERTEX
  8
DETAIL
  6
CONTINUOUS
 62
     5
 10
-346.81059923559684
 20
1140.9089252004674
 30
0.0
  0
VERTEX
  8
DETAIL
  6
CONTINUOUS
 62
     5
 10
-346.53677697345978
 20
1139.9044347489403
 30
0.0
  0
VERTEX
  8
DETAIL
  6
CONTINUOUS
 62
     5
 10
-346.17983555098681
 20
1138.9267969739326
 30
0.0
  0
VERTEX
  8
DETAIL
  6
CONTINUOUS
 62
     5
 10
-345.73622656178469
 20
1137.9874074321544
 30
0.0
  0
VERTEX
  8
DETAIL
  6
CONTINUOUS
 62
     5
 10
-345.20236713113684
 20
1137.097804819165
 30
0.0
  0
VERTEX
  8
DETAIL
  6
CONTINUOUS
 62
     5
 10
-344.57413745161961
 20
1136.2728137144393
 30
0.0
  0
VERTEX
  8
DETAIL
  6
CONTINUOUS
 62
     5
 10
-343.84759609106681
 20
1135.5325558621162
 30
0.0
  0
VERTEX
  8
DETAIL
  6
CONTINUOUS
 62
     5
 10
-343.02301299900995
 20
1134.9035270022764
 30
0.0
  0
VERTEX
  8
DETAIL
  6
CONTINUOUS
 62
     5
 10
-342.10658119953473
 20
1134.4171729640923
 30
0.0
  0
VERTEX
  8
DETAIL
  6
CONTINUOUS
 62
     5
 10
-341.11703443354781
 20
1134.106918864238
 30
0.0
  0
SEQEND
  8
DETAIL
  6
CONTINUOUS
 62
     5
  0
POLYLINE
  8
DETAIL
  6
CONTINUOUS
 62
     5
 66
     1
 10
0.0
 20
0.0
 30
0.0
  0
VERTEX
  8
DETAIL
  6
CONTINUOUS
 62
     5
 10
-347.15685424934782
 20
1343.9999999999361
 30
0.0
  0
VERTEX
  8
DETAIL
  6
CONTINUOUS
 62
     5
 10
-347.11893662032389
 20
1342.963409835746
 30
0.0
  0
VERTEX
  8
DETAIL
  6
CONTINUOUS
 62
     5
 10
-347.00407343268859
 20
1341.9308478901576
 30
0.0
  0
VERTEX
  8
DETAIL
  6
CONTINUOUS
 62
     5
 10
-346.81059923559684
 20
1340.9089252004671
 30
0.0
  0
VERTEX
  8
DETAIL
  6
CONTINUOUS
 62
     5
 10
-346.53677697345978
 20
1339.9044347489403
 30
0.0
  0
VERTEX
  8
DETAIL
  6
CONTINUOUS
 62
     5
 10
-346.17983555098681
 20
1338.9267969739326
 30
0.0
  0
VERTEX
  8
DETAIL
  6
CONTINUOUS
 62
     5
 10
-345.73622656178469
 20
1337.9874074321542
 30
0.0
  0
VERTEX
  8
DETAIL
  6
CONTINUOUS
 62
     5
 10
-345.20236713113684
 20
1337.097804819165
 30
0.0
  0
VERTEX
  8
DETAIL
  6
CONTINUOUS
 62
     5
 10
-344.57413745161961
 20
1336.2728137144393
 30
0.0
  0
VERTEX
  8
DETAIL
  6
CONTINUOUS
 62
     5
 10
-343.84759609106681
 20
1335.5325558621162
 30
0.0
  0
VERTEX
  8
DETAIL
  6
CONTINUOUS
 62
     5
 10
-343.02301299900995
 20
1334.9035270022766
 30
0.0
  0
VERTEX
  8
DETAIL
  6
CONTINUOUS
 62
     5
 10
-342.10658119953473
 20
1334.4171729640925
 30
0.0
  0
VERTEX
  8
DETAIL
  6
CONTINUOUS
 62
     5
 10
-341.11703443354781
 20
1334.106918864238
 30
0.0
  0
SEQEND
  8
DETAIL
  6
CONTINUOUS
 62
     5
  0
POLYLINE
  8
DETAIL
  6
CONTINUOUS
 62
     5
 66
     1
 10
0.0
 20
0.0
 30
0.0
  0
VERTEX
  8
DETAIL
  6
CONTINUOUS
 62
     5
 10
-340.62567943784228
 20
749.03195221973692
 30
0.0
  0
VERTEX
  8
DETAIL
  6
CONTINUOUS
 62
     5
 10
-339.67970270726283
 20
749.2557697613712
 30
0.0
  0
VERTEX
  8
DETAIL
  6
CONTINUOUS
 62
     5
 10
-338.79812989262689
 20
749.66648217150396
 30
0.0
  0
VERTEX
  8
DETAIL
  6
CONTINUOUS
 62
     5
 10
-338.00214353061853
 20
750.22484515888232
 30
0.0
  0
VERTEX
  8
DETAIL
  6
CONTINUOUS
 62
     5
 10
-337.29737219087639
 20
750.89493815116816
 30
0.0
  0
VERTEX
  8
DETAIL
  6
CONTINUOUS
 62
     5
 10
-336.68275538257501
 20
751.6482059217725
 30
0.0
  0
VERTEX
  8
DETAIL
  6
CONTINUOUS
 62
     5
 10
-336.1539499640117
 20
752.464151687911
 30
0.0
  0
VERTEX
  8
DETAIL
  6
CONTINUOUS
 62
     5
 10
-335.7061551009819
 20
753.32704882363214
 30
0.0
  0
VERTEX
  8
DETAIL
  6
CONTINUOUS
 62
     5
 10
-335.33486484988481
 20
754.22507953596562
 30
0.0
  0
VERTEX
  8
DETAIL
  6
CONTINUOUS
 62
     5
 10
-335.03603778121493
 20
755.15022878306308
 30
0.0
  0
VERTEX
  8
DETAIL
  6
CONTINUOUS
 62
     5
 10
-334.8061737305618
 20
756.09650928905478
 30
0.0
  0
VERTEX
  8
DETAIL
  6
CONTINUOUS
 62
     5
 10
-334.64346028386177
 20
757.05773945512044
 30
0.0
  0
VERTEX
  8
DETAIL
  6
CONTINUOUS
 62
     5
 10
-334.5467055542062
 20
758.02765712089013
 30
0.0
  0
VERTEX
  8
DETAIL
  6
CONTINUOUS
 62
     5
 10
-334.51471862564358
 20
758.99999999993634
 30
0.0
  0
SEQEND
  8
DETAIL
  6
CONTINUOUS
 62
     5
  0
POLYLINE
  8
DETAIL
  6
CONTINUOUS
 62
     5
 66
     1
 10
0.0
 20
0.0
 30
0.0
  0
VERTEX
  8
DETAIL
  6
CONTINUOUS
 62
     5
 10
-334.51471862564358
 20
893.99999999993634
 30
0.0
  0
VERTEX
  8
DETAIL
  6
CONTINUOUS
 62
     5
 10
-334.54670267749833
 20
894.97229894263228
 30
0.0
  0
VERTEX
  8
DETAIL
  6
CONTINUOUS
 62
     5
 10
-334.64344861460262
 20
895.94217292840608
 30
0.0
  0
VERTEX
  8
DETAIL
  6
CONTINUOUS
 62
     5
 10
-334.80614710926727
 20
896.9033606110869
 30
0.0
  0
VERTEX
  8
DETAIL
  6
CONTINUOUS
 62
     5
 10
-335.03598980602999
 20
897.84960077087669
 30
0.0
  0
VERTEX
  8
DETAIL
  6
CONTINUOUS
 62
     5
 10
-335.33478885179863
 20
898.77471284221781
 30
0.0
  0
VERTEX
  8
DETAIL
  6
CONTINUOUS
 62
     5
 10
-335.70604375693489
 20
899.67271077766338
 30
0.0
  0
VERTEX
  8
DETAIL
  6
CONTINUOUS
 62
     5
 10
-336.15379519310034
 20
900.53558099593329
 30
0.0
  0
VERTEX
  8
DETAIL
  6
CONTINUOUS
 62
     5
 10
-336.68254829783683
 20
901.35150831019416
 30
0.0
  0
VERTEX
  8
DETAIL
  6
CONTINUOUS
 62
     5
 10
-337.29710332804689
 20
902.10476981663987
 30
0.0
  0
VERTEX
  8
DETAIL
  6
CONTINUOUS
 62
     5
 10
-338.00180332120584
 20
902.77487399626796
 30
0.0
  0
VERTEX
  8
DETAIL
  6
CONTINUOUS
 62
     5
 10
-338.79771075803046
 20
903.33327297079586
 30
0.0
  0
VERTEX
  8
DETAIL
  6
CONTINUOUS
 62
     5
 10
-339.67920299992301
 20
903.744054408902
 30
0.0
  0
VERTEX
  8
DETAIL
  6
CONTINUOUS
 62
     5
 10
-340.6251095286425
 20
903.96797788583535
 30
0.0
  0
SEQEND
  8
DETAIL
  6
CONTINUOUS
 62
     5
  0
POLYLINE
  8
DETAIL
  6
CONTINUOUS
 62
     5
 66
     1
 10
0.0
 20
0.0
 30
0.0
  0
VERTEX
  8
DETAIL
  6
CONTINUOUS
 62
     5
 10
-347.15685424934782
 20
943.99999999993634
 30
0.0
  0
VERTEX
  8
DETAIL
  6
CONTINUOUS
 62
     5
 10
-347.11893662032389
 20
942.96340983574589
 30
0.0
  0
VERTEX
  8
DETAIL
  6
CONTINUOUS
 62
     5
 10
-347.00407343268859
 20
941.93084789015745
 30
0.0
  0
VERTEX
  8
DETAIL
  6
CONTINUOUS
 62
     5
 10
-346.81059923559684
 20
940.90892520046737
 30
0.0
  0
VERTEX
  8
DETAIL
  6
CONTINUOUS
 62
     5
 10
-346.53677697345978
 20
939.9044347489405
 30
0.0
  0
VERTEX
  8
DETAIL
  6
CONTINUOUS
 62
     5
 10
-346.17983555098681
 20
938.9267969739326
 30
0.0
  0
VERTEX
  8
DETAIL
  6
CONTINUOUS
 62
     5
 10
-345.73622656178469
 20
937.98740743215421
 30
0.0
  0
VERTEX
  8
DETAIL
  6
CONTINUOUS
 62
     5
 10
-345.20236713113684
 20
937.09780481916437
 30
0.0
  0
VERTEX
  8
DETAIL
  6
CONTINUOUS
 62
     5
 10
-344.57413745161961
 20
936.27281371443792
 30
0.0
  0
VERTEX
  8
DETAIL
  6
CONTINUOUS
 62
     5
 10
-343.84759609106681
 20
935.53255586211549
 30
0.0
  0
VERTEX
  8
DETAIL
  6
CONTINUOUS
 62
     5
 10
-343.02301299900995
 20
934.90352700227641
 30
0.0
  0
VERTEX
  8
DETAIL
  6
CONTINUOUS
 62
     5
 10
-342.10658119953473
 20
934.41717296409274
 30
0.0
  0
VERTEX
  8
DETAIL
  6
CONTINUOUS
 62
     5
 10
-341.11703443354781
 20
934.10691886423774
 30
0.0
  0
SEQEND
  8
DETAIL
  6
CONTINUOUS
 62
     5
  0
POLYLINE
  8
DETAIL
  6
CONTINUOUS
 62
     5
 66
     1
 10
0.0
 20
0.0
 30
0.0
  0
VERTEX
  8
DETAIL
  6
CONTINUOUS
 62
     5
 10
-341.11703443354781
 20
903.89308113563675
 30
0.0
  0
VERTEX
  8
DETAIL
  6
CONTINUOUS
 62
     5
 10
-342.10658119953473
 20
903.58282703577981
 30
0.0
  0
VERTEX
  8
DETAIL
  6
CONTINUOUS
 62
     5
 10
-343.02301299900995
 20
903.09647299759615
 30
0.0
  0
VERTEX
  8
DETAIL
  6
CONTINUOUS
 62
     5
 10
-343.84759609106681
 20
902.46744413775707
 30
0.0
  0
VERTEX
  8
DETAIL
  6
CONTINUOUS
 62
     5
 10
-344.57413745161961
 20
901.72718628543475
 30
0.0
  0
VERTEX
  8
DETAIL
  6
CONTINUOUS
 62
     5
 10
-345.20236713113684
 20
900.90219518070853
 30
0.0
  0
VERTEX
  8
DETAIL
  6
CONTINUOUS
 62
     5
 10
-345.73622656178469
 20
900.01259256771823
 30
0.0
  0
VERTEX
  8
DETAIL
  6
CONTINUOUS
 62
     5
 10
-346.17983555098681
 20
899.07320302593712
 30
0.0
  0
VERTEX
  8
DETAIL
  6
CONTINUOUS
 62
     5
 10
-346.53677697345972
 20
898.09556525091966
 30
0.0
  0
VERTEX
  8
DETAIL
  6
CONTINUOUS
 62
     5
 10
-346.81059923559678
 20
897.09107479937211
 30
0.0
  0
VERTEX
  8
DETAIL
  6
CONTINUOUS
 62
     5
 10
-347.00407343268859
 20
896.06915210965997
 30
0.0
  0
VERTEX
  8
DETAIL
  6
CONTINUOUS
 62
     5
 10
-347.11893662032389
 20
895.03659016407335
 30
0.0
  0
VERTEX
  8
DETAIL
  6
CONTINUOUS
 62
     5
 10
-347.15685424934782
 20
893.99999999993634
 30
0.0
  0
SEQEND
  8
DETAIL
  6
CONTINUOUS
 62
     5
  0
POLYLINE
  8
DETAIL
  6
CONTINUOUS
 62
     5
 66
     1
 10
0.0
 20
0.0
 30
0.0
  0
VERTEX
  8
DETAIL
  6
CONTINUOUS
 62
     5
 10
-340.62567943784228
 20
934.03195221973681
 30
0.0
  0
VERTEX
  8
DETAIL
  6
CONTINUOUS
 62
     5
 10
-339.67970270726283
 20
934.25576976137131
 30
0.0
  0
VERTEX
  8
DETAIL
  6
CONTINUOUS
 62
     5
 10
-338.79812989262689
 20
934.66648217150396
 30
0.0
  0
VERTEX
  8
DETAIL
  6
CONTINUOUS
 62
     5
 10
-338.00214353061853
 20
935.22484515888243
 30
0.0
  0
VERTEX
  8
DETAIL
  6
CONTINUOUS
 62
     5
 10
-337.29737219087639
 20
935.89493815116816
 30
0.0
  0
VERTEX
  8
DETAIL
  6
CONTINUOUS
 62
     5
 10
-336.68275538257501
 20
936.64820592177261
 30
0.0
  0
VERTEX
  8
DETAIL
  6
CONTINUOUS
 62
     5
 10
-336.1539499640117
 20
937.46415168791123
 30
0.0
  0
VERTEX
  8
DETAIL
  6
CONTINUOUS
 62
     5
 10
-335.7061551009819
 20
938.32704882363225
 30
0.0
  0
VERTEX
  8
DETAIL
  6
CONTINUOUS
 62
     5
 10
-335.33486484988481
 20
939.22507953596551
 30
0.0
  0
VERTEX
  8
DETAIL
  6
CONTINUOUS
 62
     5
 10
-335.03603778121493
 20
940.15022878306297
 30
0.0
  0
VERTEX
  8
DETAIL
  6
CONTINUOUS
 62
     5
 10
-334.8061737305618
 20
941.09650928905467
 30
0.0
  0
VERTEX
  8
DETAIL
  6
CONTINUOUS
 62
     5
 10
-334.64346028386177
 20
942.05773945512055
 30
0.0
  0
VERTEX
  8
DETAIL
  6
CONTINUOUS
 62
     5
 10
-334.5467055542062
 20
943.02765712089013
 30
0.0
  0
VERTEX
  8
DETAIL
  6
CONTINUOUS
 62
     5
 10
-334.51471862564358
 20
943.99999999993634
 30
0.0
  0
SEQEND
  8
DETAIL
  6
CONTINUOUS
 62
     5
  0
POLYLINE
  8
DETAIL
  6
CONTINUOUS
 62
     5
 66
     1
 10
0.0
 20
0.0
 30
0.0
  0
VERTEX
  8
DETAIL
  6
CONTINUOUS
 62
     5
 10
-334.51471862564358
 20
1093.9999999999361
 30
0.0
  0
VERTEX
  8
DETAIL
  6
CONTINUOUS
 62
     5
 10
-334.54670267749833
 20
1094.9722989426323
 30
0.0
  0
VERTEX
  8
DETAIL
  6
CONTINUOUS
 62
     5
 10
-334.64344861460262
 20
1095.9421729284059
 30
0.0
  0
VERTEX
  8
DETAIL
  6
CONTINUOUS
 62
     5
 10
-334.80614710926727
 20
1096.9033606110868
 30
0.0
  0
VERTEX
  8
DETAIL
  6
CONTINUOUS
 62
     5
 10
-335.03598980602999
 20
1097.8496007708766
 30
0.0
  0
VERTEX
  8
DETAIL
  6
CONTINUOUS
 62
     5
 10
-335.33478885179863
 20
1098.7747128422177
 30
0.0
  0
VERTEX
  8
DETAIL
  6
CONTINUOUS
 62
     5
 10
-335.70604375693489
 20
1099.6727107776633
 30
0.0
  0
VERTEX
  8
DETAIL
  6
CONTINUOUS
 62
     5
 10
-336.15379519310034
 20
1100.5355809959331
 30
0.0
  0
VERTEX
  8
DETAIL
  6
CONTINUOUS
 62
     5
 10
-336.68254829783683
 20
1101.3515083101938
 30
0.0
  0
VERTEX
  8
DETAIL
  6
CONTINUOUS
 62
     5
 10
-337.29710332804689
 20
1102.1047698166394
 30
0.0
  0
VERTEX
  8
DETAIL
  6
CONTINUOUS
 62
     5
 10
-338.00180332120584
 20
1102.7748739962676
 30
0.0
  0
VERTEX
  8
DETAIL
  6
CONTINUOUS
 62
     5
 10
-338.79771075803046
 20
1103.3332729707956
 30
0.0
  0
VERTEX
  8
DETAIL
  6
CONTINUOUS
 62
     5
 10
-339.67920299992301
 20
1103.7440544089015
 30
0.0
  0
VERTEX
  8
DETAIL
  6
CONTINUOUS
 62
     5
 10
-340.6251095286425
 20
1103.9679778858349
 30
0.0
  0
SEQEND
  8
DETAIL
  6
CONTINUOUS
 62
     5
  0
POLYLINE
  8
DETAIL
  6
CONTINUOUS
 62
     5
 66
     1
 10
0.0
 20
0.0
 30
0.0
  0
VERTEX
  8
DETAIL
  6
CONTINUOUS
 62
     5
 10
-341.11703443354781
 20
1103.893081135637
 30
0.0
  0
VERTEX
  8
DETAIL
  6
CONTINUOUS
 62
     5
 10
-342.10658119948505
 20
1103.5828270357797
 30
0.0
  0
VERTEX
  8
DETAIL
  6
CONTINUOUS
 62
     5
 10
-343.02301299896516
 20
1103.0964729975963
 30
0.0
  0
VERTEX
  8
DETAIL
  6
CONTINUOUS
 62
     5
 10
-343.84759609106106
 20
1102.4674441377567
 30
0.0
  0
VERTEX
  8
DETAIL
  6
CONTINUOUS
 62
     5
 10
-344.57413745161961
 20
1101.7271862854343
 30
0.0
  0
VERTEX
  8
DETAIL
  6
CONTINUOUS
 62
     5
 10
-345.20236713113684
 20
1100.9021951807083
 30
0.0
  0
VERTEX
  8
DETAIL
  6
CONTINUOUS
 62
     5
 10
-345.73622656178469
 20
1100.012592567718
 30
0.0
  0
VERTEX
  8
DETAIL
  6
CONTINUOUS
 62
     5
 10
-346.17983555098681
 20
1099.0732030259369
 30
0.0
  0
VERTEX
  8
DETAIL
  6
CONTINUOUS
 62
     5
 10
-346.53677697345972
 20
1098.0955652509194
 30
0.0
  0
VERTEX
  8
DETAIL
  6
CONTINUOUS
 62
     5
 10
-346.81059923559678
 20
1097.0910747993721
 30
0.0
  0
VERTEX
  8
DETAIL
  6
CONTINUOUS
 62
     5
 10
-347.00407343268859
 20
1096.0691521096599
 30
0.0
  0
VERTEX
  8
DETAIL
  6
CONTINUOUS
 62
     5
 10
-347.11893662032389
 20
1095.0365901640735
 30
0.0
  0
VERTEX
  8
DETAIL
  6
CONTINUOUS
 62
     5
 10
-347.15685424934782
 20
1093.9999999999361
 30
0.0
  0
SEQEND
  8
DETAIL
  6
CONTINUOUS
 62
     5
  0
POLYLINE
  8
DETAIL
  6
CONTINUOUS
 62
     5
 66
     1
 10
0.0
 20
0.0
 30
0.0
  0
VERTEX
  8
DETAIL
  6
CONTINUOUS
 62
     5
 10
-340.62567943784228
 20
1334.0319522197369
 30
0.0
  0
VERTEX
  8
DETAIL
  6
CONTINUOUS
 62
     5
 10
-339.67970270726283
 20
1334.2557697613711
 30
0.0
  0
VERTEX
  8
DETAIL
  6
CONTINUOUS
 62
     5
 10
-338.79812989262689
 20
1334.666482171504
 30
0.0
  0
VERTEX
  8
DETAIL
  6
CONTINUOUS
 62
     5
 10
-338.00214353061853
 20
1335.2248451588825
 30
0.0
  0
VERTEX
  8
DETAIL
  6
CONTINUOUS
 62
     5
 10
-337.29737219087639
 20
1335.8949381511682
 30
0.0
  0
VERTEX
  8
DETAIL
  6
CONTINUOUS
 62
     5
 10
-336.68275538257501
 20
1336.6482059217728
 30
0.0
  0
VERTEX
  8
DETAIL
  6
CONTINUOUS
 62
     5
 10
-336.1539499640117
 20
1337.4641516879112
 30
0.0
  0
VERTEX
  8
DETAIL
  6
CONTINUOUS
 62
     5
 10
-335.7061551009819
 20
1338.3270488236385
 30
0.0
  0
VERTEX
  8
DETAIL
  6
CONTINUOUS
 62
     5
 10
-335.33486484988481
 20
1339.2250795359942
 30
0.0
  0
VERTEX
  8
DETAIL
  6
CONTINUOUS
 62
     5
 10
-335.03603778121493
 20
1340.1502287831149
 30
0.0
  0
VERTEX
  8
DETAIL
  6
CONTINUOUS
 62
     5
 10
-334.8061737305618
 20
1341.0965092891063
 30
0.0
  0
VERTEX
  8
DETAIL
  6
CONTINUOUS
 62
     5
 10
-334.64346028386177
 20
1342.0577394551533
 30
0.0
  0
VERTEX
  8
DETAIL
  6
CONTINUOUS
 62
     5
 10
-334.5467055542062
 20
1343.0276571209006
 30
0.0
  0
VERTEX
  8
DETAIL
  6
CONTINUOUS
 62
     5
 10
-334.51471862564358
 20
1343.9999999999361
 30
0.0
  0
SEQEND
  8
DETAIL
  6
CONTINUOUS
 62
     5
  0
POLYLINE
  8
DETAIL
  6
CONTINUOUS
 62
     5
 66
     1
 10
0.0
 20
0.0
 30
0.0
  0
VERTEX
  8
DETAIL
  6
CONTINUOUS
 62
     5
 10
-334.51471862564358
 20
1493.9999999999361
 30
0.0
  0
VERTEX
  8
DETAIL
  6
CONTINUOUS
 62
     5
 10
-334.54670267749833
 20
1494.9722989426323
 30
0.0
  0
VERTEX
  8
DETAIL
  6
CONTINUOUS
 62
     5
 10
-334.64344861460262
 20
1495.9421729284059
 30
0.0
  0
VERTEX
  8
DETAIL
  6
CONTINUOUS
 62
     5
 10
-334.80614710926727
 20
1496.9033606110868
 30
0.0
  0
VERTEX
  8
DETAIL
  6
CONTINUOUS
 62
     5
 10
-335.03598980602999
 20
1497.8496007708763
 30
0.0
  0
VERTEX
  8
DETAIL
  6
CONTINUOUS
 62
     5
 10
-335.33478885179863
 20
1498.7747128422177
 30
0.0
  0
VERTEX
  8
DETAIL
  6
CONTINUOUS
 62
     5
 10
-335.70604375693489
 20
1499.672710777663
 30
0.0
  0
VERTEX
  8
DETAIL
  6
CONTINUOUS
 62
     5
 10
-336.15379519310034
 20
1500.5355809959328
 30
0.0
  0
VERTEX
  8
DETAIL
  6
CONTINUOUS
 62
     5
 10
-336.68254829783683
 20
1501.3515083101938
 30
0.0
  0
VERTEX
  8
DETAIL
  6
CONTINUOUS
 62
     5
 10
-337.29710332804689
 20
1502.1047698166394
 30
0.0
  0
VERTEX
  8
DETAIL
  6
CONTINUOUS
 62
     5
 10
-338.00180332120584
 20
1502.7748739962733
 30
0.0
  0
VERTEX
  8
DETAIL
  6
CONTINUOUS
 62
     5
 10
-338.79771075803046
 20
1503.3332729708397
 30
0.0
  0
VERTEX
  8
DETAIL
  6
CONTINUOUS
 62
     5
 10
-339.67920299992301
 20
1503.7440544089527
 30
0.0
  0
VERTEX
  8
DETAIL
  6
CONTINUOUS
 62
     5
 10
-340.6251095286425
 20
1503.9679778858349
 30
0.0
  0
SEQEND
  8
DETAIL
  6
CONTINUOUS
 62
     5
  0
POLYLINE
  8
DETAIL
  6
CONTINUOUS
 62
     5
 66
     1
 10
0.0
 20
0.0
 30
0.0
  0
VERTEX
  8
DETAIL
  6
CONTINUOUS
 62
     5
 10
-341.11703443354781
 20
1503.893081135637
 30
0.0
  0
VERTEX
  8
DETAIL
  6
CONTINUOUS
 62
     5
 10
-342.10658119953473
 20
1503.5828270357797
 30
0.0
  0
VERTEX
  8
DETAIL
  6
CONTINUOUS
 62
     5
 10
-343.02301299900995
 20
1503.096472997596
 30
0.0
  0
VERTEX
  8
DETAIL
  6
CONTINUOUS
 62
     5
 10
-343.84759609106681
 20
1502.4674441377567
 30
0.0
  0
VERTEX
  8
DETAIL
  6
CONTINUOUS
 62
     5
 10
-344.57413745161961
 20
1501.7271862854341
 30
0.0
  0
VERTEX
  8
DETAIL
  6
CONTINUOUS
 62
     5
 10
-345.20236713113684
 20
1500.9021951807083
 30
0.0
  0
VERTEX
  8
DETAIL
  6
CONTINUOUS
 62
     5
 10
-345.73622656178469
 20
1500.012592567718
 30
0.0
  0
VERTEX
  8
DETAIL
  6
CONTINUOUS
 62
     5
 10
-346.17983555098681
 20
1499.0732030259367
 30
0.0
  0
VERTEX
  8
DETAIL
  6
CONTINUOUS
 62
     5
 10
-346.53677697345972
 20
1498.0955652509192
 30
0.0
  0
VERTEX
  8
DETAIL
  6
CONTINUOUS
 62
     5
 10
-346.81059923559678
 20
1497.0910747993714
 30
0.0
  0
VERTEX
  8
DETAIL
  6
CONTINUOUS
 62
     5
 10
-347.00407343268859
 20
1496.0691521096589
 30
0.0
  0
VERTEX
  8
DETAIL
  6
CONTINUOUS
 62
     5
 10
-347.11893662032389
 20
1495.0365901640721
 30
0.0
  0
VERTEX
  8
DETAIL
  6
CONTINUOUS
 62
     5
 10
-347.15685424934782
 20
1493.9999999999361
 30
0.0
  0
SEQEND
  8
DETAIL
  6
CONTINUOUS
 62
     5
  0
POLYLINE
  8
DETAIL
  6
CONTINUOUS
 62
     5
 66
     1
 10
0.0
 20
0.0
 30
0.0
  0
VERTEX
  8
DETAIL
  6
CONTINUOUS
 62
     5
 10
-340.62567943784228
 20
1134.0319522197369
 30
0.0
  0
VERTEX
  8
DETAIL
  6
CONTINUOUS
 62
     5
 10
-339.67970270726283
 20
1134.2557697613713
 30
0.0
  0
VERTEX
  8
DETAIL
  6
CONTINUOUS
 62
     5
 10
-338.79812989262689
 20
1134.6664821715042
 30
0.0
  0
VERTEX
  8
DETAIL
  6
CONTINUOUS
 62
     5
 10
-338.00214353061853
 20
1135.2248451588828
 30
0.0
  0
VERTEX
  8
DETAIL
  6
CONTINUOUS
 62
     5
 10
-337.29737219087639
 20
1135.8949381511682
 30
0.0
  0
VERTEX
  8
DETAIL
  6
CONTINUOUS
 62
     5
 10
-336.68275538257501
 20
1136.6482059217726
 30
0.0
  0
VERTEX
  8
DETAIL
  6
CONTINUOUS
 62
     5
 10
-336.1539499640117
 20
1137.464151687911
 30
0.0
  0
VERTEX
  8
DETAIL
  6
CONTINUOUS
 62
     5
 10
-335.7061551009819
 20
1138.3270488236321
 30
0.0
  0
VERTEX
  8
DETAIL
  6
CONTINUOUS
 62
     5
 10
-335.33486484988481
 20
1139.2250795359655
 30
0.0
  0
VERTEX
  8
DETAIL
  6
CONTINUOUS
 62
     5
 10
-335.03603778121493
 20
1140.1502287830631
 30
0.0
  0
VERTEX
  8
DETAIL
  6
CONTINUOUS
 62
     5
 10
-334.8061737305618
 20
1141.0965092890547
 30
0.0
  0
VERTEX
  8
DETAIL
  6
CONTINUOUS
 62
     5
 10
-334.64346028386177
 20
1142.0577394551203
 30
0.0
  0
VERTEX
  8
DETAIL
  6
CONTINUOUS
 62
     5
 10
-334.5467055542062
 20
1143.0276571208897
 30
0.0
  0
VERTEX
  8
DETAIL
  6
CONTINUOUS
 62
     5
 10
-334.51471862564358
 20
1143.9999999999361
 30
0.0
  0
SEQEND
  8
DETAIL
  6
CONTINUOUS
 62
     5
  0
POLYLINE
  8
DETAIL
  6
CONTINUOUS
 62
     5
 66
     1
 10
0.0
 20
0.0
 30
0.0
  0
VERTEX
  8
DETAIL
  6
CONTINUOUS
 62
     5
 10
-334.51471862564358
 20
1293.9999999999361
 30
0.0
  0
VERTEX
  8
DETAIL
  6
CONTINUOUS
 62
     5
 10
-334.54670267749833
 20
1294.9722989426323
 30
0.0
  0
VERTEX
  8
DETAIL
  6
CONTINUOUS
 62
     5
 10
-334.64344861460262
 20
1295.9421729284056
 30
0.0
  0
VERTEX
  8
DETAIL
  6
CONTINUOUS
 62
     5
 10
-334.80614710926727
 20
1296.9033606110868
 30
0.0
  0
VERTEX
  8
DETAIL
  6
CONTINUOUS
 62
     5
 10
-335.03598980602999
 20
1297.8496007708763
 30
0.0
  0
VERTEX
  8
DETAIL
  6
CONTINUOUS
 62
     5
 10
-335.33478885179863
 20
1298.7747128422177
 30
0.0
  0
VERTEX
  8
DETAIL
  6
CONTINUOUS
 62
     5
 10
-335.70604375693489
 20
1299.672710777663
 30
0.0
  0
VERTEX
  8
DETAIL
  6
CONTINUOUS
 62
     5
 10
-336.15379519310034
 20
1300.5355809959328
 30
0.0
  0
VERTEX
  8
DETAIL
  6
CONTINUOUS
 62
     5
 10
-336.68254829783683
 20
1301.3515083101938
 30
0.0
  0
VERTEX
  8
DETAIL
  6
CONTINUOUS
 62
     5
 10
-337.29710332804689
 20
1302.1047698166396
 30
0.0
  0
VERTEX
  8
DETAIL
  6
CONTINUOUS
 62
     5
 10
-338.00180332120584
 20
1302.7748739962733
 30
0.0
  0
VERTEX
  8
DETAIL
  6
CONTINUOUS
 62
     5
 10
-338.79771075803046
 20
1303.3332729708395
 30
0.0
  0
VERTEX
  8
DETAIL
  6
CONTINUOUS
 62
     5
 10
-339.67920299992301
 20
1303.7440544089529
 30
0.0
  0
VERTEX
  8
DETAIL
  6
CONTINUOUS
 62
     5
 10
-340.6251095286425
 20
1303.9679778858349
 30
0.0
  0
SEQEND
  8
DETAIL
  6
CONTINUOUS
 62
     5
  0
POLYLINE
  8
DETAIL
  6
CONTINUOUS
 62
     5
 66
     1
 10
0.0
 20
0.0
 30
0.0
  0
VERTEX
  8
DETAIL
  6
CONTINUOUS
 62
     5
 10
-341.11703443354781
 20
1303.893081135637
 30
0.0
  0
VERTEX
  8
DETAIL
  6
CONTINUOUS
 62
     5
 10
-342.10658119953473
 20
1303.5828270357797
 30
0.0
  0
VERTEX
  8
DETAIL
  6
CONTINUOUS
 62
     5
 10
-343.02301299900995
 20
1303.096472997596
 30
0.0
  0
VERTEX
  8
DETAIL
  6
CONTINUOUS
 62
     5
 10
-343.84759609106681
 20
1302.4674441377567
 30
0.0
  0
VERTEX
  8
DETAIL
  6
CONTINUOUS
 62
     5
 10
-344.57413745161961
 20
1301.7271862854343
 30
0.0
  0
VERTEX
  8
DETAIL
  6
CONTINUOUS
 62
     5
 10
-345.20236713113684
 20
1300.9021951807081
 30
0.0
  0
VERTEX
  8
DETAIL
  6
CONTINUOUS
 62
     5
 10
-345.73622656178469
 20
1300.012592567718
 30
0.0
  0
VERTEX
  8
DETAIL
  6
CONTINUOUS
 62
     5
 10
-346.17983555098681
 20
1299.0732030259369
 30
0.0
  0
VERTEX
  8
DETAIL
  6
CONTINUOUS
 62
     5
 10
-346.53677697345972
 20
1298.0955652509197
 30
0.0
  0
VERTEX
  8
DETAIL
  6
CONTINUOUS
 62
     5
 10
-346.81059923559678
 20
1297.0910747993721
 30
0.0
  0
VERTEX
  8
DETAIL
  6
CONTINUOUS
 62
     5
 10
-347.00407343268859
 20
1296.0691521096601
 30
0.0
  0
VERTEX
  8
DETAIL
  6
CONTINUOUS
 62
     5
 10
-347.11893662032389
 20
1295.0365901640735
 30
0.0
  0
VERTEX
  8
DETAIL
  6
CONTINUOUS
 62
     5
 10
-347.15685424934782
 20
1293.9999999999361
 30
0.0
  0
SEQEND
  8
DETAIL
  6
CONTINUOUS
 62
     5
  0
POLYLINE
  8
DETAIL
  6
CONTINUOUS
 62
     5
 66
     1
 10
0.0
 20
0.0
 30
0.0
  0
VERTEX
  8
DETAIL
  6
CONTINUOUS
 62
     5
 10
-347.15685424934782
 20
758.99999999993634
 30
0.0
  0
VERTEX
  8
DETAIL
  6
CONTINUOUS
 62
     5
 10
-347.11893662032389
 20
757.96340983574589
 30
0.0
  0
VERTEX
  8
DETAIL
  6
CONTINUOUS
 62
     5
 10
-347.00407343268859
 20
756.93084789015734
 30
0.0
  0
VERTEX
  8
DETAIL
  6
CONTINUOUS
 62
     5
 10
-346.81059923559684
 20
755.90892520046737
 30
0.0
  0
VERTEX
  8
DETAIL
  6
CONTINUOUS
 62
     5
 10
-346.53677697345978
 20
754.90443474894039
 30
0.0
  0
VERTEX
  8
DETAIL
  6
CONTINUOUS
 62
     5
 10
-346.17983555098681
 20
753.9267969739326
 30
0.0
  0
VERTEX
  8
DETAIL
  6
CONTINUOUS
 62
     5
 10
-345.73622656178469
 20
752.9874074321541
 30
0.0
  0
VERTEX
  8
DETAIL
  6
CONTINUOUS
 62
     5
 10
-345.20236713113684
 20
752.09780481916425
 30
0.0
  0
VERTEX
  8
DETAIL
  6
CONTINUOUS
 62
     5
 10
-344.57413745161961
 20
751.2728137144378
 30
0.0
  0
VERTEX
  8
DETAIL
  6
CONTINUOUS
 62
     5
 10
-343.84759609106681
 20
750.5325558621156
 30
0.0
  0
VERTEX
  8
DETAIL
  6
CONTINUOUS
 62
     5
 10
-343.02301299900995
 20
749.90352700227641
 30
0.0
  0
VERTEX
  8
DETAIL
  6
CONTINUOUS
 62
     5
 10
-342.10658119953473
 20
749.41717296409274
 30
0.0
  0
VERTEX
  8
DETAIL
  6
CONTINUOUS
 62
     5
 10
-341.11703443354781
 20
749.10691886423774
 30
0.0
  0
SEQEND
  8
DETAIL
  6
CONTINUOUS
 62
     5
  0
POLYLINE
  8
DETAIL
  6
CONTINUOUS
 62
     5
 66
     1
 10
0.0
 20
0.0
 30
0.0
  0
VERTEX
  8
DETAIL
  6
CONTINUOUS
 62
     5
 10
282.52756733275601
 20
1574.720050464837
 30
0.0
  0
VERTEX
  8
DETAIL
  6
CONTINUOUS
 62
     5
 10
282.55489013799945
 20
1574.787376909487
 30
0.0
  0
VERTEX
  8
DETAIL
  6
CONTINUOUS
 62
     5
 10
282.56223274646072
 20
1574.8600844763516
 30
0.0
  0
VERTEX
  8
DETAIL
  6
CONTINUOUS
 62
     5
 10
282.55272650988059
 20
1574.9320766517774
 30
0.0
  0
VERTEX
  8
DETAIL
  6
CONTINUOUS
 62
     5
 10
282.53050322636886
 20
1575.002017063088
 30
0.0
  0
VERTEX
  8
DETAIL
  6
CONTINUOUS
 62
     5
 10
282.49977244039843
 20
1575.068974050987
 30
0.0
  0
VERTEX
  8
DETAIL
  6
CONTINUOUS
 62
     5
 10
282.46369694685421
 20
1575.1324220431338
 30
0.0
  0
VERTEX
  8
DETAIL
  6
CONTINUOUS
 62
     5
 10
282.42327031224335
 20
1575.1926770202783
 30
0.0
  0
VERTEX
  8
DETAIL
  6
CONTINUOUS
 62
     5
 10
282.37921673607394
 20
1575.2501594642147
 30
0.0
  0
VERTEX
  8
DETAIL
  6
CONTINUOUS
 62
     5
 10
282.33226041785377
 20
1575.3052898567371
 30
0.0
  0
SEQEND
  8
DETAIL
  6
CONTINUOUS
 62
     5
  0
POLYLINE
  8
DETAIL
  6
CONTINUOUS
 62
     5
 66
     1
 10
0.0
 20
0.0
 30
0.0
  0
VERTEX
  8
DETAIL
  6
CONTINUOUS
 62
     5
 10
226.20211245425159
 20
1568.4116644802359
 30
0.0
  0
VERTEX
  8
DETAIL
  6
CONTINUOUS
 62
     5
 10
226.22299867619373
 20
1568.4564468207013
 30
0.0
  0
VERTEX
  8
DETAIL
  6
CONTINUOUS
 62
     5
 10
226.23327663675613
 20
1568.5049988887224
 30
0.0
  0
VERTEX
  8
DETAIL
  6
CONTINUOUS
 62
     5
 10
226.23257422267523
 20
1568.5543689824533
 30
0.0
  0
VERTEX
  8
DETAIL
  6
CONTINUOUS
 62
     5
 10
226.22267466296788
 20
1568.6028781053594
 30
0.0
  0
VERTEX
  8
DETAIL
  6
CONTINUOUS
 62
     5
 10
226.20585904246215
 20
1568.6493069330606
 30
0.0
  0
VERTEX
  8
DETAIL
  6
CONTINUOUS
 62
     5
 10
226.18371769624213
 20
1568.6933500921361
 30
0.0
  0
VERTEX
  8
DETAIL
  6
CONTINUOUS
 62
     5
 10
226.1575098360735
 20
1568.7351397350362
 30
0.0
  0
VERTEX
  8
DETAIL
  6
CONTINUOUS
 62
     5
 10
226.12829645340022
 20
1568.7748184893376
 30
0.0
  0
VERTEX
  8
DETAIL
  6
CONTINUOUS
 62
     5
 10
226.09663706735535
 20
1568.8125487663117
 30
0.0
  0
VERTEX
  8
DETAIL
  6
CONTINUOUS
 62
     5
 10
226.063012203158
 20
1568.848496093636
 30
0.0
  0
SEQEND
  8
DETAIL
  6
CONTINUOUS
 62
     5
  0
POLYLINE
  8
DETAIL
  6
CONTINUOUS
 62
     5
 66
     1
 10
0.0
 20
0.0
 30
0.0
  0
VERTEX
  8
DETAIL
  6
CONTINUOUS
 62
     5
 10
282.33226041785377
 20
1575.3052898567371
 30
0.0
  0
VERTEX
  8
DETAIL
  6
CONTINUOUS
 62
     5
 10
281.09358537222249
 20
1576.7314813578007
 30
0.0
  0
VERTEX
  8
DETAIL
  6
CONTINUOUS
 62
     5
 10
279.88961232497758
 20
1578.1875280281033
 30
0.0
  0
VERTEX
  8
DETAIL
  6
CONTINUOUS
 62
     5
 10
278.7198721958402
 20
1579.6720219278438
 30
0.0
  0
VERTEX
  8
DETAIL
  6
CONTINUOUS
 62
     5
 10
277.58410831463647
 20
1581.1833478150827
 30
0.0
  0
VERTEX
  8
DETAIL
  6
CONTINUOUS
 62
     5
 10
276.48210908767118
 20
1582.7198464553856
 30
0.0
  0
VERTEX
  8
DETAIL
  6
CONTINUOUS
 62
     5
 10
275.41366292124951
 20
1584.2798586143183
 30
0.0
  0
VERTEX
  8
DETAIL
  6
CONTINUOUS
 62
     5
 10
274.37855822167637
 20
1585.8617250574468
 30
0.0
  0
VERTEX
  8
DETAIL
  6
CONTINUOUS
 62
     5
 10
273.3765833952566
 20
1587.4637865503371
 30
0.0
  0
SEQEND
  8
DETAIL
  6
CONTINUOUS
 62
     5
  0
POLYLINE
  8
DETAIL
  6
CONTINUOUS
 62
     5
 66
     1
 10
0.0
 20
0.0
 30
0.0
  0
VERTEX
  8
DETAIL
  6
CONTINUOUS
 62
     5
 10
273.3765833952566
 20
1587.4637865503371
 30
0.0
  0
VERTEX
  8
DETAIL
  6
CONTINUOUS
 62
     5
 10
273.27875318715104
 20
1587.6072491519571
 30
0.0
  0
VERTEX
  8
DETAIL
  6
CONTINUOUS
 62
     5
 10
273.16795906826411
 20
1587.7414209406386
 30
0.0
  0
VERTEX
  8
DETAIL
  6
CONTINUOUS
 62
     5
 10
273.04657754803844
 20
1587.8662078085381
 30
0.0
  0
VERTEX
  8
DETAIL
  6
CONTINUOUS
 62
     5
 10
272.91623174454674
 20
1587.9812855103955
 30
0.0
  0
VERTEX
  8
DETAIL
  6
CONTINUOUS
 62
     5
 10
272.77762331187392
 20
1588.0860483226231
 30
0.0
  0
VERTEX
  8
DETAIL
  6
CONTINUOUS
 62
     5
 10
272.63134877259222
 20
1588.1797633407914
 30
0.0
  0
VERTEX
  8
DETAIL
  6
CONTINUOUS
 62
     5
 10
272.47752070564803
 20
1588.2606106179069
 30
0.0
  0
VERTEX
  8
DETAIL
  6
CONTINUOUS
 62
     5
 10
272.31597808135245
 20
1588.3261462250696
 30
0.0
  0
VERTEX
  8
DETAIL
  6
CONTINUOUS
 62
     5
 10
272.14743774376774
 20
1588.3722851634063
 30
0.0
  0
VERTEX
  8
DETAIL
  6
CONTINUOUS
 62
     5
 10
271.97482520925411
 20
1588.390846738637
 30
0.0
  0
SEQEND
  8
DETAIL
  6
CONTINUOUS
 62
     5
  0
POLYLINE
  8
DETAIL
  6
CONTINUOUS
 62
     5
 66
     1
 10
0.0
 20
0.0
 30
0.0
  0
VERTEX
  8
DETAIL
  6
CONTINUOUS
 62
     5
 10
213.9265495228538
 20
1588.565916409136
 30
0.0
  0
VERTEX
  8
DETAIL
  6
CONTINUOUS
 62
     5
 10
213.74906398315107
 20
1588.5782627859144
 30
0.0
  0
VERTEX
  8
DETAIL
  6
CONTINUOUS
 62
     5
 10
213.57413067731835
 20
1588.6146430394276
 30
0.0
  0
VERTEX
  8
DETAIL
  6
CONTINUOUS
 62
     5
 10
213.40463816451245
 20
1588.6709355722801
 30
0.0
  0
VERTEX
  8
DETAIL
  6
CONTINUOUS
 62
     5
 10
213.24235752364109
 20
1588.7444961552394
 30
0.0
  0
VERTEX
  8
DETAIL
  6
CONTINUOUS
 62
     5
 10
213.08824860675429
 20
1588.8337530451133
 30
0.0
  0
VERTEX
  8
DETAIL
  6
CONTINUOUS
 62
     5
 10
212.94340885361297
 20
1588.9373904640991
 30
0.0
  0
VERTEX
  8
DETAIL
  6
CONTINUOUS
 62
     5
 10
212.80953367035053
 20
1589.054982514951
 30
0.0
  0
VERTEX
  8
DETAIL
  6
CONTINUOUS
 62
     5
 10
212.68849347298232
 20
1589.1863076483439
 30
0.0
  0
VERTEX
  8
DETAIL
  6
CONTINUOUS
 62
     5
 10
212.58339053043011
 20
1589.3307895025928
 30
0.0
  0
VERTEX
  8
DETAIL
  6
CONTINUOUS
 62
     5
 10
212.49892968765201
 20
1589.4873901237349
 30
0.0
  0
SEQEND
  8
DETAIL
  6
CONTINUOUS
 62
     5
  0
POLYLINE
  8
DETAIL
  6
CONTINUOUS
 62
     5
 66
     1
 10
0.0
 20
0.0
 30
0.0
  0
VERTEX
  8
DETAIL
  6
CONTINUOUS
 62
     5
 10
212.49892968765201
 20
1589.4873901237349
 30
0.0
  0
VERTEX
  8
DETAIL
  6
CONTINUOUS
 62
     5
 10
212.07747902073785
 20
1590.4449260147323
 30
0.0
  0
VERTEX
  8
DETAIL
  6
CONTINUOUS
 62
     5
 10
211.66675290268842
 20
1591.407158195251
 30
0.0
  0
VERTEX
  8
DETAIL
  6
CONTINUOUS
 62
     5
 10
211.26660243600895
 20
1592.3739303820148
 30
0.0
  0
VERTEX
  8
DETAIL
  6
CONTINUOUS
 62
     5
 10
210.87690529773741
 20
1593.3450390524895
 30
0.0
  0
VERTEX
  8
DETAIL
  6
CONTINUOUS
 62
     5
 10
210.49754516137011
 20
1594.3202700247518
 30
0.0
  0
VERTEX
  8
DETAIL
  6
CONTINUOUS
 62
     5
 10
210.12840570040322
 20
1595.2994091168787
 30
0.0
  0
VERTEX
  8
DETAIL
  6
CONTINUOUS
 62
     5
 10
209.7693705883332
 20
1596.282242146948
 30
0.0
  0
VERTEX
  8
DETAIL
  6
CONTINUOUS
 62
     5
 10
209.42032349865619
 20
1597.2685549330361
 30
0.0
  0
SEQEND
  8
DETAIL
  6
CONTINUOUS
 62
     5
  0
POLYLINE
  8
DETAIL
  6
CONTINUOUS
 62
     5
 66
     1
 10
0.0
 20
0.0
 30
0.0
  0
VERTEX
  8
DETAIL
  6
CONTINUOUS
 62
     5
 10
209.42032349865619
 20
1597.2685549330361
 30
0.0
  0
VERTEX
  8
DETAIL
  6
CONTINUOUS
 62
     5
 10
209.34789762146858
 20
1597.4378340905323
 30
0.0
  0
VERTEX
  8
DETAIL
  6
CONTINUOUS
 62
     5
 10
209.25380930486972
 20
1597.5971417203127
 30
0.0
  0
VERTEX
  8
DETAIL
  6
CONTINUOUS
 62
     5
 10
209.14134509116946
 20
1597.7448115290431
 30
0.0
  0
VERTEX
  8
DETAIL
  6
CONTINUOUS
 62
     5
 10
209.01356958070318
 20
1597.8791771340946
 30
0.0
  0
VERTEX
  8
DETAIL
  6
CONTINUOUS
 62
     5
 10
208.87234230203148
 20
1597.9985716679985
 30
0.0
  0
VERTEX
  8
DETAIL
  6
CONTINUOUS
 62
     5
 10
208.71911572053472
 20
1598.1013280995128
 30
0.0
  0
VERTEX
  8
DETAIL
  6
CONTINUOUS
 62
     5
 10
208.55533896732865
 20
1598.1856972553592
 30
0.0
  0
VERTEX
  8
DETAIL
  6
CONTINUOUS
 62
     5
 10
208.38242130191222
 20
1598.2488422885085
 30
0.0
  0
VERTEX
  8
DETAIL
  6
CONTINUOUS
 62
     5
 10
208.20220038003964
 20
1598.2868134590738
 30
0.0
  0
VERTEX
  8
DETAIL
  6
CONTINUOUS
 62
     5
 10
208.01817921446772
 20
1598.2944311665042
 30
0.0
  0
VERTEX
  8
DETAIL
  6
CONTINUOUS
 62
     5
 10
207.83621241337261
 20
1598.2653483914435
 30
0.0
  0
VERTEX
  8
DETAIL
  6
CONTINUOUS
 62
     5
 10
207.66643047105751
 20
1598.194096921836
 30
0.0
  0
SEQEND
  8
DETAIL
  6
CONTINUOUS
 62
     5
  0
POLYLINE
  8
DETAIL
  6
CONTINUOUS
 62
     5
 66
     1
 10
0.0
 20
0.0
 30
0.0
  0
VERTEX
  8
DETAIL
  6
CONTINUOUS
 62
     5
 10
207.66643047105751
 20
1598.194096921836
 30
0.0
  0
VERTEX
  8
DETAIL
  6
CONTINUOUS
 62
     5
 10
204.13071805131608
 20
1596.1193625994308
 30
0.0
  0
VERTEX
  8
DETAIL
  6
CONTINUOUS
 62
     5
 10
200.59316539003908
 20
1594.0477689286624
 30
0.0
  0
VERTEX
  8
DETAIL
  6
CONTINUOUS
 62
     5
 10
197.0530059278062
 20
1591.9806257789596
 30
0.0
  0
VERTEX
  8
DETAIL
  6
CONTINUOUS
 62
     5
 10
193.50947310519746
 20
1589.9192430197511
 30
0.0
  0
VERTEX
  8
DETAIL
  6
CONTINUOUS
 62
     5
 10
189.96176217640681
 20
1587.8650155729533
 30
0.0
  0
VERTEX
  8
DETAIL
  6
CONTINUOUS
 62
     5
 10
186.40890295365162
 20
1585.8197068491827
 30
0.0
  0
VERTEX
  8
DETAIL
  6
CONTINUOUS
 62
     5
 10
182.84988045507879
 20
1583.785180028834
 30
0.0
  0
VERTEX
  8
DETAIL
  6
CONTINUOUS
 62
     5
 10
179.28367969805549
 20
1581.7632982940361
 30
0.0
  0
SEQEND
  8
DETAIL
  6
CONTINUOUS
 62
     5
  0
POLYLINE
  8
DETAIL
  6
CONTINUOUS
 62
     5
 66
     1
 10
0.0
 20
0.0
 30
0.0
  0
VERTEX
  8
DETAIL
  6
CONTINUOUS
 62
     5
 10
179.28367969805549
 20
1581.7632982940361
 30
0.0
  0
VERTEX
  8
DETAIL
  6
CONTINUOUS
 62
     5
 10
179.25373028493712
 20
1581.7453785552195
 30
0.0
  0
VERTEX
  8
DETAIL
  6
CONTINUOUS
 62
     5
 10
179.22474931152149
 20
1581.7258438661304
 30
0.0
  0
VERTEX
  8
DETAIL
  6
CONTINUOUS
 62
     5
 10
179.19683190642127
 20
1581.7045732270963
 30
0.0
  0
VERTEX
  8
DETAIL
  6
CONTINUOUS
 62
     5
 10
179.17016302287644
 20
1581.6815946494899
 30
0.0
  0
VERTEX
  8
DETAIL
  6
CONTINUOUS
 62
     5
 10
179.1449586777189
 20
1581.6569876764127
 30
0.0
  0
VERTEX
  8
DETAIL
  6
CONTINUOUS
 62
     5
 10
179.12143491761714
 20
1581.6308319004629
 30
0.0
  0
VERTEX
  8
DETAIL
  6
CONTINUOUS
 62
     5
 10
179.09980778923969
 20
1581.6032069142379
 30
0.0
  0
VERTEX
  8
DETAIL
  6
CONTINUOUS
 62
     5
 10
179.08029333925509
 20
1581.574192310336
 30
0.0
  0
SEQEND
  8
DETAIL
  6
CONTINUOUS
 62
     5
  0
POLYLINE
  8
DETAIL
  6
CONTINUOUS
 62
     5
 66
     1
 10
0.0
 20
0.0
 30
0.0
  0
VERTEX
  8
DETAIL
  6
CONTINUOUS
 62
     5
 10
226.063012203158
 20
1568.848496093636
 30
0.0
  0
VERTEX
  8
DETAIL
  6
CONTINUOUS
 62
     5
 10
225.46078392221582
 20
1569.4724477365462
 30
0.0
  0
VERTEX
  8
DETAIL
  6
CONTINUOUS
 62
     5
 10
224.86864589314996
 20
1570.1060813235708
 30
0.0
  0
VERTEX
  8
DETAIL
  6
CONTINUOUS
 62
     5
 10
224.28649045828001
 20
1570.7490860033283
 30
0.0
  0
VERTEX
  8
DETAIL
  6
CONTINUOUS
 62
     5
 10
223.714255124461
 20
1571.4010887461516
 30
0.0
  0
VERTEX
  8
DETAIL
  6
CONTINUOUS
 62
     5
 10
223.15188730950615
 20
1572.0617028778966
 30
0.0
  0
VERTEX
  8
DETAIL
  6
CONTINUOUS
 62
     5
 10
222.59933443122861
 20
1572.7305417244215
 30
0.0
  0
VERTEX
  8
DETAIL
  6
CONTINUOUS
 62
     5
 10
222.05654390744149
 20
1573.4072186115832
 30
0.0
  0
VERTEX
  8
DETAIL
  6
CONTINUOUS
 62
     5
 10
221.5234631559579
 20
1574.0913468652379
 30
0.0
  0
SEQEND
  8
DETAIL
  6
CONTINUOUS
 62
     5
  0
POLYLINE
  8
DETAIL
  6
CONTINUOUS
 62
     5
 66
     1
 10
0.0
 20
0.0
 30
0.0
  0
VERTEX
  8
DETAIL
  6
CONTINUOUS
 62
     5
 10
221.5234631559579
 20
1574.0913468652379
 30
0.0
  0
VERTEX
  8
DETAIL
  6
CONTINUOUS
 62
     5
 10
221.48995374425627
 20
1574.1375229541247
 30
0.0
  0
VERTEX
  8
DETAIL
  6
CONTINUOUS
 62
     5
 10
221.45940150308425
 20
1574.1858423645272
 30
0.0
  0
VERTEX
  8
DETAIL
  6
CONTINUOUS
 62
     5
 10
221.43273216896009
 20
1574.2364401946315
 30
0.0
  0
VERTEX
  8
DETAIL
  6
CONTINUOUS
 62
     5
 10
221.41087147840193
 20
1574.2894515426224
 30
0.0
  0
VERTEX
  8
DETAIL
  6
CONTINUOUS
 62
     5
 10
221.39475848344583
 20
1574.3449625359251
 30
0.0
  0
VERTEX
  8
DETAIL
  6
CONTINUOUS
 62
     5
 10
221.38556208231074
 20
1574.4022139918336
 30
0.0
  0
VERTEX
  8
DETAIL
  6
CONTINUOUS
 62
     5
 10
221.38464519838755
 20
1574.4597331571945
 30
0.0
  0
VERTEX
  8
DETAIL
  6
CONTINUOUS
 62
     5
 10
221.39337684185739
 20
1574.5160248933371
 30
0.0
  0
SEQEND
  8
DETAIL
  6
CONTINUOUS
 62
     5
  0
POLYLINE
  8
DETAIL
  6
CONTINUOUS
 62
     5
 66
     1
 10
0.0
 20
0.0
 30
0.0
  0
VERTEX
  8
DETAIL
  6
CONTINUOUS
 62
     5
 10
179.95375108335429
 20
1580.0730310949359
 30
0.0
  0
VERTEX
  8
DETAIL
  6
CONTINUOUS
 62
     5
 10
185.55993308964935
 20
1578.4947705609559
 30
0.0
  0
VERTEX
  8
DETAIL
  6
CONTINUOUS
 62
     5
 10
191.16989669668388
 20
1576.929993783622
 30
0.0
  0
VERTEX
  8
DETAIL
  6
CONTINUOUS
 62
     5
 10
196.78479832392301
 20
1575.3829474491363
 30
0.0
  0
VERTEX
  8
DETAIL
  6
CONTINUOUS
 62
     5
 10
202.40579439083095
 20
1573.8578782437107
 30
0.0
  0
VERTEX
  8
DETAIL
  6
CONTINUOUS
 62
     5
 10
208.03402064886808
 20
1572.3592019118221
 30
0.0
  0
VERTEX
  8
DETAIL
  6
CONTINUOUS
 62
     5
 10
213.67053110372282
 20
1570.8920028546104
 30
0.0
  0
VERTEX
  8
DETAIL
  6
CONTINUOUS
 62
     5
 10
219.31635955361287
 20
1569.4615307644551
 30
0.0
  0
VERTEX
  8
DETAIL
  6
CONTINUOUS
 62
     5
 10
224.97253979675591
 20
1568.0730353337369
 30
0.0
  0
SEQEND
  8
DETAIL
  6
CONTINUOUS
 62
     5
  0
POLYLINE
  8
DETAIL
  6
CONTINUOUS
 62
     5
 66
     1
 10
0.0
 20
0.0
 30
0.0
  0
VERTEX
  8
DETAIL
  6
CONTINUOUS
 62
     5
 10
224.9725397970542
 20
1568.0730353341371
 30
0.0
  0
VERTEX
  8
DETAIL
  6
CONTINUOUS
 62
     5
 10
225.08451533877309
 20
1568.0483658366288
 30
0.0
  0
VERTEX
  8
DETAIL
  6
CONTINUOUS
 62
     5
 10
225.19748782046977
 20
1568.0284585720199
 30
0.0
  0
VERTEX
  8
DETAIL
  6
CONTINUOUS
 62
     5
 10
225.3113008652256
 20
1568.0138291406458
 30
0.0
  0
VERTEX
  8
DETAIL
  6
CONTINUOUS
 62
     5
 10
225.42577606328416
 20
1568.0050363907617
 30
0.0
  0
VERTEX
  8
DETAIL
  6
CONTINUOUS
 62
     5
 10
225.54053884014886
 20
1568.0030242193361
 30
0.0
  0
VERTEX
  8
DETAIL
  6
CONTINUOUS
 62
     5
 10
225.65511172253477
 20
1568.008938501772
 30
0.0
  0
VERTEX
  8
DETAIL
  6
CONTINUOUS
 62
     5
 10
225.7687803872625
 20
1568.0245792576641
 30
0.0
  0
VERTEX
  8
DETAIL
  6
CONTINUOUS
 62
     5
 10
225.8794925273917
 20
1568.0554459355399
 30
0.0
  0
VERTEX
  8
DETAIL
  6
CONTINUOUS
 62
     5
 10
225.98370448746678
 20
1568.1083096734094
 30
0.0
  0
VERTEX
  8
DETAIL
  6
CONTINUOUS
 62
     5
 10
226.0645043220575
 20
1568.1895397854371
 30
0.0
  0
SEQEND
  8
DETAIL
  6
CONTINUOUS
 62
     5
  0
POLYLINE
  8
DETAIL
  6
CONTINUOUS
 62
     5
 66
     1
 10
0.0
 20
0.0
 30
0.0
  0
VERTEX
  8
DETAIL
  6
CONTINUOUS
 62
     5
 10
221.84629218575719
 20
1574.6037493016349
 30
0.0
  0
VERTEX
  8
DETAIL
  6
CONTINUOUS
 62
     5
 10
224.23815680805606
 20
1574.6205871767622
 30
0.0
  0
VERTEX
  8
DETAIL
  6
CONTINUOUS
 62
     5
 10
226.63002497939596
 20
1574.636919524522
 30
0.0
  0
VERTEX
  8
DETAIL
  6
CONTINUOUS
 62
     5
 10
229.0218966549721
 20
1574.6527457473569
 30
0.0
  0
VERTEX
  8
DETAIL
  6
CONTINUOUS
 62
     5
 10
231.4137717335189
 20
1574.668060418305
 30
0.0
  0
VERTEX
  8
DETAIL
  6
CONTINUOUS
 62
     5
 10
233.80565009830352
 20
1574.6828567874195
 30
0.0
  0
VERTEX
  8
DETAIL
  6
CONTINUOUS
 62
     5
 10
236.1975316325927
 20
1574.6971281047174
 30
0.0
  0
VERTEX
  8
DETAIL
  6
CONTINUOUS
 62
     5
 10
238.58941621965329
 20
1574.710867620217
 30
0.0
  0
VERTEX
  8
DETAIL
  6
CONTINUOUS
 62
     5
 10
240.98130374275209
 20
1574.724068583937
 30
0.0
  0
SEQEND
  8
DETAIL
  6
CONTINUOUS
 62
     5
  0
POLYLINE
  8
DETAIL
  6
CONTINUOUS
 62
     5
 66
     1
 10
0.0
 20
0.0
 30
0.0
  0
VERTEX
  8
DETAIL
  6
CONTINUOUS
 62
     5
 10
282.0151286798573
 20
1574.3597439952371
 30
0.0
  0
VERTEX
  8
DETAIL
  6
CONTINUOUS
 62
     5
 10
282.06748191680407
 20
1574.3602955252727
 30
0.0
  0
VERTEX
  8
DETAIL
  6
CONTINUOUS
 62
     5
 10
282.11980622552176
 20
1574.3639221349829
 30
0.0
  0
VERTEX
  8
DETAIL
  6
CONTINUOUS
 62
     5
 10
282.17169050373144
 20
1574.3716730449312
 30
0.0
  0
VERTEX
  8
DETAIL
  6
CONTINUOUS
 62
     5
 10
282.22272364915409
 20
1574.3845974756809
 30
0.0
  0
VERTEX
  8
DETAIL
  6
CONTINUOUS
 62
     5
 10
282.27246539529
 20
1574.4037351975362
 30
0.0
  0
VERTEX
  8
DETAIL
  6
CONTINUOUS
 62
     5
 10
282.3194142637085
 20
1574.4297821098444
 30
0.0
  0
VERTEX
  8
DETAIL
  6
CONTINUOUS
 62
     5
 10
282.36073078429882
 20
1574.4630005543713
 30
0.0
  0
VERTEX
  8
DETAIL
  6
CONTINUOUS
 62
     5
 10
282.39349003305688
 20
1574.5036251827371
 30
0.0
  0
SEQEND
  8
DETAIL
  6
CONTINUOUS
 62
     5
  0
POLYLINE
  8
DETAIL
  6
CONTINUOUS
 62
     5
 66
     1
 10
0.0
 20
0.0
 30
0.0
  0
VERTEX
  8
DETAIL
  6
CONTINUOUS
 62
     5
 10
221.42957134005701
 20
1574.601154087137
 30
0.0
  0
VERTEX
  8
DETAIL
  6
CONTINUOUS
 62
     5
 10
221.47161860067098
 20
1574.6550736861564
 30
0.0
  0
VERTEX
  8
DETAIL
  6
CONTINUOUS
 62
     5
 10
221.5233168663556
 20
1574.7002623602793
 30
0.0
  0
VERTEX
  8
DETAIL
  6
CONTINUOUS
 62
     5
 10
221.58142395947036
 20
1574.7364764994711
 30
0.0
  0
VERTEX
  8
DETAIL
  6
CONTINUOUS
 62
     5
 10
221.64405891635079
 20
1574.7646849347279
 30
0.0
  0
VERTEX
  8
DETAIL
  6
CONTINUOUS
 62
     5
 10
221.70954028500648
 20
1574.7860342032272
 30
0.0
  0
VERTEX
  8
DETAIL
  6
CONTINUOUS
 62
     5
 10
221.77638907599444
 20
1574.8015926569765
 30
0.0
  0
VERTEX
  8
DETAIL
  6
CONTINUOUS
 62
     5
 10
221.84403454849647
 20
1574.8120779086689
 30
0.0
  0
VERTEX
  8
DETAIL
  6
CONTINUOUS
 62
     5
 10
221.91216054074681
 20
1574.8181092599416
 30
0.0
  0
VERTEX
  8
DETAIL
  6
CONTINUOUS
 62
     5
 10
221.98045090365491
 20
1574.8203060075371
 30
0.0
  0
SEQEND
  8
DETAIL
  6
CONTINUOUS
 62
     5
  0
POLYLINE
  8
DETAIL
  6
CONTINUOUS
 62
     5
 66
     1
 10
0.0
 20
0.0
 30
0.0
  0
VERTEX
  8
DETAIL
  6
CONTINUOUS
 62
     5
 10
221.38731493675729
 20
1574.4822649039361
 30
0.0
  0
VERTEX
  8
DETAIL
  6
CONTINUOUS
 62
     5
 10
221.40735674160317
 20
1574.4962025010179
 30
0.0
  0
VERTEX
  8
DETAIL
  6
CONTINUOUS
 62
     5
 10
221.42812738807189
 20
1574.509057879636
 30
0.0
  0
VERTEX
  8
DETAIL
  6
CONTINUOUS
 62
     5
 10
221.44952702741094
 20
1574.5208773507848
 30
0.0
  0
VERTEX
  8
DETAIL
  6
CONTINUOUS
 62
     5
 10
221.47147284566609
 20
1574.5317045980707
 30
0.0
  0
VERTEX
  8
DETAIL
  6
CONTINUOUS
 62
     5
 10
221.49388482971767
 20
1574.541582873112
 30
0.0
  0
VERTEX
  8
DETAIL
  6
CONTINUOUS
 62
     5
 10
221.51668296644618
 20
1574.5505554275255
 30
0.0
  0
VERTEX
  8
DETAIL
  6
CONTINUOUS
 62
     5
 10
221.53978724273196
 20
1574.558665512928
 30
0.0
  0
VERTEX
  8
DETAIL
  6
CONTINUOUS
 62
     5
 10
221.56311764545541
 20
1574.565956380937
 30
0.0
  0
SEQEND
  8
DETAIL
  6
CONTINUOUS
 62
     5
  0
POLYLINE
  8
DETAIL
  6
CONTINUOUS
 62
     5
 66
     1
 10
0.0
 20
0.0
 30
0.0
  0
VERTEX
  8
DETAIL
  6
CONTINUOUS
 62
     5
 10
221.56311764545541
 20
1574.565956380937
 30
0.0
  0
VERTEX
  8
DETAIL
  6
CONTINUOUS
 62
     5
 10
221.59766369975185
 20
1574.5752662541415
 30
0.0
  0
VERTEX
  8
DETAIL
  6
CONTINUOUS
 62
     5
 10
221.63259567620489
 20
1574.5830739494425
 30
0.0
  0
VERTEX
  8
DETAIL
  6
CONTINUOUS
 62
     5
 10
221.66782625230877
 20
1574.5895017127777
 30
0.0
  0
VERTEX
  8
DETAIL
  6
CONTINUOUS
 62
     5
 10
221.70329142754659
 20
1574.5946332620333
 30
0.0
  0
VERTEX
  8
DETAIL
  6
CONTINUOUS
 62
     5
 10
221.73893090521446
 20
1574.5985461963789
 30
0.0
  0
VERTEX
  8
DETAIL
  6
CONTINUOUS
 62
     5
 10
221.77468438860814
 20
1574.601318114982
 30
0.0
  0
VERTEX
  8
DETAIL
  6
CONTINUOUS
 62
     5
 10
221.81049158102371
 20
1574.603026617011
 30
0.0
  0
VERTEX
  8
DETAIL
  6
CONTINUOUS
 62
     5
 10
221.84629218575719
 20
1574.6037493016349
 30
0.0
  0
SEQEND
  8
DETAIL
  6
CONTINUOUS
 62
     5
  0
POLYLINE
  8
DETAIL
  6
CONTINUOUS
 62
     5
 66
     1
 10
0.0
 20
0.0
 30
0.0
  0
VERTEX
  8
DETAIL
  6
CONTINUOUS
 62
     5
 10
179.08029333925509
 20
1581.574192310336
 30
0.0
  0
VERTEX
  8
DETAIL
  6
CONTINUOUS
 62
     5
 10
179.02185665862137
 20
1581.4318816836842
 30
0.0
  0
VERTEX
  8
DETAIL
  6
CONTINUOUS
 62
     5
 10
179.01120876157199
 20
1581.2783859264177
 30
0.0
  0
VERTEX
  8
DETAIL
  6
CONTINUOUS
 62
     5
 10
179.04243253102854
 20
1581.1277298299804
 30
0.0
  0
VERTEX
  8
DETAIL
  6
CONTINUOUS
 62
     5
 10
179.10516664876059
 20
1580.987187302467
 30
0.0
  0
VERTEX
  8
DETAIL
  6
CONTINUOUS
 62
     5
 10
179.19039917623579
 20
1580.8591054842229
 30
0.0
  0
VERTEX
  8
DETAIL
  6
CONTINUOUS
 62
     5
 10
179.29183322414951
 20
1580.7433789399017
 30
0.0
  0
VERTEX
  8
DETAIL
  6
CONTINUOUS
 62
     5
 10
179.40599073377049
 20
1580.6396170055625
 30
0.0
  0
VERTEX
  8
DETAIL
  6
CONTINUOUS
 62
     5
 10
179.53022228762978
 20
1580.5473921676203
 30
0.0
  0
VERTEX
  8
DETAIL
  6
CONTINUOUS
 62
     5
 10
179.66193865066487
 20
1580.4662975716508
 30
0.0
  0
VERTEX
  8
DETAIL
  6
CONTINUOUS
 62
     5
 10
179.79946214723398
 20
1580.3962408163015
 30
0.0
  0
VERTEX
  8
DETAIL
  6
CONTINUOUS
 62
     5
 10
179.9418245479759
 20
1580.3373742320055
 30
0.0
  0
VERTEX
  8
DETAIL
  6
CONTINUOUS
 62
     5
 10
180.0880763248569
 20
1580.2898566004351
 30
0.0
  0
SEQEND
  8
DETAIL
  6
CONTINUOUS
 62
     5
  0
POLYLINE
  8
DETAIL
  6
CONTINUOUS
 62
     5
 66
     1
 10
0.0
 20
0.0
 30
0.0
  0
VERTEX
  8
DETAIL
  6
CONTINUOUS
 62
     5
 10
178.94596828245261
 20
1581.357367103735
 30
0.0
  0
VERTEX
  8
DETAIL
  6
CONTINUOUS
 62
     5
 10
178.88752869581648
 20
1581.2150558056373
 30
0.0
  0
VERTEX
  8
DETAIL
  6
CONTINUOUS
 62
     5
 10
178.87687532675432
 20
1581.0615587090588
 30
0.0
  0
VERTEX
  8
DETAIL
  6
CONTINUOUS
 62
     5
 10
178.90809406897023
 20
1580.9108998414272
 30
0.0
  0
VERTEX
  8
DETAIL
  6
CONTINUOUS
 62
     5
 10
178.9708250391636
 20
1580.7703540350383
 30
0.0
  0
VERTEX
  8
DETAIL
  6
CONTINUOUS
 62
     5
 10
179.05605630911504
 20
1580.6422693435295
 30
0.0
  0
VERTEX
  8
DETAIL
  6
CONTINUOUS
 62
     5
 10
179.15749063087011
 20
1580.5265407528532
 30
0.0
  0
VERTEX
  8
DETAIL
  6
CONTINUOUS
 62
     5
 10
179.27164956037367
 20
1580.4227777860526
 30
0.0
  0
VERTEX
  8
DETAIL
  6
CONTINUOUS
 62
     5
 10
179.39588344796809
 20
1580.3305530610844
 30
0.0
  0
VERTEX
  8
DETAIL
  6
CONTINUOUS
 62
     5
 10
179.52760281756045
 20
1580.2494598478443
 30
0.0
  0
VERTEX
  8
DETAIL
  6
CONTINUOUS
 62
     5
 10
179.66512972880005
 20
1580.1794058023038
 30
0.0
  0
VERTEX
  8
DETAIL
  6
CONTINUOUS
 62
     5
 10
179.8074957319273
 20
1580.1205432817153
 30
0.0
  0
VERTEX
  8
DETAIL
  6
CONTINUOUS
 62
     5
 10
179.95375108335429
 20
1580.0730310950371
 30
0.0
  0
SEQEND
  8
DETAIL
  6
CONTINUOUS
 62
     5
  0
POLYLINE
  8
DETAIL
  6
CONTINUOUS
 62
     5
 66
     1
 10
0.0
 20
0.0
 30
0.0
  0
VERTEX
  8
DETAIL
  6
CONTINUOUS
 62
     5
 10
282.14923914665269
 20
1574.5762228150361
 30
0.0
  0
VERTEX
  8
DETAIL
  6
CONTINUOUS
 62
     5
 10
282.2015850735765
 20
1574.5767750312514
 30
0.0
  0
VERTEX
  8
DETAIL
  6
CONTINUOUS
 62
     5
 10
282.25390188400951
 20
1574.5803997681171
 30
0.0
  0
VERTEX
  8
DETAIL
  6
CONTINUOUS
 62
     5
 10
282.30577926422291
 20
1574.5881461585313
 30
0.0
  0
VERTEX
  8
DETAIL
  6
CONTINUOUS
 62
     5
 10
282.35680690048792
 20
1574.6010633353915
 30
0.0
  0
VERTEX
  8
DETAIL
  6
CONTINUOUS
 62
     5
 10
282.40654538703649
 20
1574.620191043057
 30
0.0
  0
VERTEX
  8
DETAIL
  6
CONTINUOUS
 62
     5
 10
282.45349361006964
 20
1574.646226393091
 30
0.0
  0
VERTEX
  8
DETAIL
  6
CONTINUOUS
 62
     5
 10
282.4948100329396
 20
1574.6794339178377
 30
0.0
  0
VERTEX
  8
DETAIL
  6
CONTINUOUS
 62
     5
 10
282.52756733275601
 20
1574.720050464837
 30
0.0
  0
SEQEND
  8
DETAIL
  6
CONTINUOUS
 62
     5
  0
POLYLINE
  8
DETAIL
  6
CONTINUOUS
 62
     5
 66
     1
 10
0.0
 20
0.0
 30
0.0
  0
VERTEX
  8
DETAIL
  6
CONTINUOUS
 62
     5
 10
180.0880763248569
 20
1580.2898566004351
 30
0.0
  0
VERTEX
  8
DETAIL
  6
CONTINUOUS
 62
     5
 10
185.69444825274275
 20
1578.7113898624311
 30
0.0
  0
VERTEX
  8
DETAIL
  6
CONTINUOUS
 62
     5
 10
191.30466556220668
 20
1577.1466330076173
 30
0.0
  0
VERTEX
  8
DETAIL
  6
CONTINUOUS
 62
     5
 10
196.91988674163014
 20
1575.5998452432871
 30
0.0
  0
VERTEX
  8
DETAIL
  6
CONTINUOUS
 62
     5
 10
202.54127027939319
 20
1574.0752857767436
 30
0.0
  0
VERTEX
  8
DETAIL
  6
CONTINUOUS
 62
     5
 10
208.1699534532053
 20
1572.5773842066021
 30
0.0
  0
VERTEX
  8
DETAIL
  6
CONTINUOUS
 62
     5
 10
213.80698965738097
 20
1571.1112439904955
 30
0.0
  0
VERTEX
  8
DETAIL
  6
CONTINUOUS
 62
     5
 10
219.45341155250276
 20
1569.6821351459862
 30
0.0
  0
VERTEX
  8
DETAIL
  6
CONTINUOUS
 62
     5
 10
225.11025179915299
 20
1568.2953276906351
 30
0.0
  0
SEQEND
  8
DETAIL
  6
CONTINUOUS
 62
     5
  0
POLYLINE
  8
DETAIL
  6
CONTINUOUS
 62
     5
 66
     1
 10
0.0
 20
0.0
 30
0.0
  0
VERTEX
  8
DETAIL
  6
CONTINUOUS
 62
     5
 10
225.11025179915299
 20
1568.2953276906351
 30
0.0
  0
VERTEX
  8
DETAIL
  6
CONTINUOUS
 62
     5
 10
225.22221358220872
 20
1568.2706964168644
 30
0.0
  0
VERTEX
  8
DETAIL
  6
CONTINUOUS
 62
     5
 10
225.33516893581506
 20
1568.2508179478541
 30
0.0
  0
VERTEX
  8
DETAIL
  6
CONTINUOUS
 62
     5
 10
225.44896244588813
 20
1568.2362070639908
 30
0.0
  0
VERTEX
  8
DETAIL
  6
CONTINUOUS
 62
     5
 10
225.56341671358535
 20
1568.2274215363775
 30
0.0
  0
VERTEX
  8
DETAIL
  6
CONTINUOUS
 62
     5
 10
225.67815804345781
 20
1568.2254029898172
 30
0.0
  0
VERTEX
  8
DETAIL
  6
CONTINUOUS
 62
     5
 10
225.79270953184465
 20
1568.2312948705076
 30
0.0
  0
VERTEX
  8
DETAIL
  6
CONTINUOUS
 62
     5
 10
225.90635964384913
 20
1568.2468926570969
 30
0.0
  0
VERTEX
  8
DETAIL
  6
CONTINUOUS
 62
     5
 10
226.01706560049803
 20
1568.277695621395
 30
0.0
  0
VERTEX
  8
DETAIL
  6
CONTINUOUS
 62
     5
 10
226.12129573303434
 20
1568.330484037848
 30
0.0
  0
VERTEX
  8
DETAIL
  6
CONTINUOUS
 62
     5
 10
226.20211245425159
 20
1568.4116644802359
 30
0.0
  0
SEQEND
  8
DETAIL
  6
CONTINUOUS
 62
     5
  0
POLYLINE
  8
DETAIL
  6
CONTINUOUS
 62
     5
 66
     1
 10
0.0
 20
0.0
 30
0.0
  0
VERTEX
  8
DETAIL
  6
CONTINUOUS
 62
     5
 10
221.98045090365491
 20
1574.8203060075371
 30
0.0
  0
VERTEX
  8
DETAIL
  6
CONTINUOUS
 62
     5
 10
224.37148896080311
 20
1574.837073517612
 30
0.0
  0
VERTEX
  8
DETAIL
  6
CONTINUOUS
 62
     5
 10
226.76253051496479
 20
1574.853340975269
 30
0.0
  0
VERTEX
  8
DETAIL
  6
CONTINUOUS
 62
     5
 10
229.1535755219702
 20
1574.8691078521629
 30
0.0
  0
VERTEX
  8
DETAIL
  6
CONTINUOUS
 62
     5
 10
231.54462388280203
 20
1574.8843688175023
 30
0.0
  0
VERTEX
  8
DETAIL
  6
CONTINUOUS
 62
     5
 10
233.93567548341866
 20
1574.8991172249657
 30
0.0
  0
VERTEX
  8
DETAIL
  6
CONTINUOUS
 62
     5
 10
236.32673020977813
 20
1574.9133464281972
 30
0.0
  0
VERTEX
  8
DETAIL
  6
CONTINUOUS
 62
     5
 10
238.71778794783827
 20
1574.9270497808393
 30
0.0
  0
VERTEX
  8
DETAIL
  6
CONTINUOUS
 62
     5
 10
241.10884858355709
 20
1574.940220636536
 30
0.0
  0
SEQEND
  8
DETAIL
  6
CONTINUOUS
 62
     5
  0
POLYLINE
  8
DETAIL
  6
CONTINUOUS
 62
     5
 66
     1
 10
0.0
 20
0.0
 30
0.0
  0
VERTEX
  8
DETAIL
  6
CONTINUOUS
 62
     5
 10
149.50000000005821
 20
93.007179676935266
 30
0.0
  0
VERTEX
  8
DETAIL
  6
CONTINUOUS
 62
     5
 10
149.80198706987912
 20
93.014722560742783
 30
0.0
  0
VERTEX
  8
DETAIL
  6
CONTINUOUS
 62
     5
 10
150.10342876055458
 20
93.037747967401955
 30
0.0
  0
VERTEX
  8
DETAIL
  6
CONTINUOUS
 62
     5
 10
150.40348148015926
 20
93.076851029767823
 30
0.0
  0
VERTEX
  8
DETAIL
  6
CONTINUOUS
 62
     5
 10
150.70129965786995
 20
93.13262896666788
 30
0.0
  0
VERTEX
  8
DETAIL
  6
CONTINUOUS
 62
     5
 10
150.99548410488006
 20
93.206262570215699
 30
0.0
  0
VERTEX
  8
DETAIL
  6
CONTINUOUS
 62
     5
 10
151.28332701049615
 20
93.30031206165765
 30
0.0
  0
VERTEX
  8
DETAIL
  6
CONTINUOUS
 62
     5
 10
151.56193152983943
 20
93.417536924735145
 30
0.0
  0
VERTEX
  8
DETAIL
  6
CONTINUOUS
 62
     5
 10
151.82790740328016
 20
93.561036225936064
 30
0.0
  0
VERTEX
  8
DETAIL
  6
CONTINUOUS
 62
     5
 10
152.0739189960222
 20
93.736577834736039
 30
0.0
  0
VERTEX
  8
DETAIL
  6
CONTINUOUS
 62
     5
 10
152.28647341047372
 20
93.951400893932529
 30
0.0
  0
VERTEX
  8
DETAIL
  6
CONTINUOUS
 62
     5
 10
152.44097312241385
 20
94.211066779138022
 30
0.0
  0
VERTEX
  8
DETAIL
  6
CONTINUOUS
 62
     5
 10
152.50000000005821
 20
94.507179676935266
 30
0.0
  0
SEQEND
  8
DETAIL
  6
CONTINUOUS
 62
     5
  0
POLYLINE
  8
DETAIL
  6
CONTINUOUS
 62
     5
 66
     1
 10
0.0
 20
0.0
 30
0.0
  0
VERTEX
  8
DETAIL
  6
CONTINUOUS
 62
     5
 10
-229.49999999994179
 20
94.507179676935266
 30
0.0
  0
VERTEX
  8
DETAIL
  6
CONTINUOUS
 62
     5
 10
-229.44097312222797
 20
94.211066779138022
 30
0.0
  0
VERTEX
  8
DETAIL
  6
CONTINUOUS
 62
     5
 10
-229.28647341026283
 20
93.951400893932529
 30
0.0
  0
VERTEX
  8
DETAIL
  6
CONTINUOUS
 62
     5
 10
-229.07391899581128
 20
93.736577834736053
 30
0.0
  0
VERTEX
  8
DETAIL
  6
CONTINUOUS
 62
     5
 10
-228.82790740306916
 20
93.561036225936064
 30
0.0
  0
VERTEX
  8
DETAIL
  6
CONTINUOUS
 62
     5
 10
-228.56193152962848
 20
93.417536924735131
 30
0.0
  0
VERTEX
  8
DETAIL
  6
CONTINUOUS
 62
     5
 10
-228.28332701028521
 20
93.30031206165765
 30
0.0
  0
VERTEX
  8
DETAIL
  6
CONTINUOUS
 62
     5
 10
-227.99548410466915
 20
93.206262570215713
 30
0.0
  0
VERTEX
  8
DETAIL
  6
CONTINUOUS
 62
     5
 10
-227.70129965765898
 20
93.132628966667895
 30
0.0
  0
VERTEX
  8
DETAIL
  6
CONTINUOUS
 62
     5
 10
-227.40348147994919
 20
93.076851029767838
 30
0.0
  0
VERTEX
  8
DETAIL
  6
CONTINUOUS
 62
     5
 10
-227.10342876035375
 20
93.037747967401941
 30
0.0
  0
VERTEX
  8
DETAIL
  6
CONTINUOUS
 62
     5
 10
-226.8019870697062
 20
93.014722560742783
 30
0.0
  0
VERTEX
  8
DETAIL
  6
CONTINUOUS
 62
     5
 10
-226.49999999994179
 20
93.007179676935266
 30
0.0
  0
SEQEND
  8
DETAIL
  6
CONTINUOUS
 62
     5
  0
POLYLINE
  8
DETAIL
  6
CONTINUOUS
 62
     5
 66
     1
 10
0.0
 20
0.0
 30
0.0
210
0.0
220
0.0
230
1.0
  0
VERTEX
  8
DETAIL
  6
CONTINUOUS
 62
     5
 10
-197.00555459704631
 20
696.39999999993745
 30
0.0
 42
0.1164179597020441
  0
VERTEX
  8
DETAIL
  6
CONTINUOUS
 62
     5
 10
-197.4528363157188
 20
696.29442719097733
 30
0.0
 42
0.0806076878196758
  0
VERTEX
  8
DETAIL
  6
CONTINUOUS
 62
     5
 10
-197.71276909043118
 20
696.10710678116072
 30
0.0
 42
0.0806154534022203
  0
VERTEX
  8
DETAIL
  6
CONTINUOUS
 62
     5
 10
-197.90011803439131
 20
695.84721359545756
 30
0.0
 42
0.1164496846417489
  0
VERTEX
  8
DETAIL
  6
CONTINUOUS
 62
     5
 10
-198.00570692504633
 20
695.39999999993779
 30
0.0
 42
0.1164496846417489
  0
SEQEND
  8
DETAIL
  6
CONTINUOUS
 62
     5
  0
POLYLINE
  8
DETAIL
  6
CONTINUOUS
 62
     5
 66
     1
 10
0.0
 20
0.0
 30
0.0
210
0.0
220
0.0
230
1.0
  0
VERTEX
  8
DETAIL
  6
CONTINUOUS
 62
     5
 10
-198.49999999994179
 20
685.49999999993634
 30
0.0
 42
0.0319522183045663
  0
VERTEX
  8
DETAIL
  6
CONTINUOUS
 62
     5
 10
-198.50780614227577
 20
685.39442719097622
 30
0.0
 42
0.0040634238667855
  0
VERTEX
  8
DETAIL
  6
CONTINUOUS
 62
     5
 10
-198.51234259469928
 20
685.20710678115938
 30
0.0
 42
0.0021305956403807
  0
VERTEX
  8
DETAIL
  6
CONTINUOUS
 62
     5
 10
-198.51561228460972
 20
684.94721359545622
 30
0.0
 42
0.0021439871142308
  0
VERTEX
  8
DETAIL
  6
CONTINUOUS
 62
     5
 10
-198.51625359936253
 20
684.86459016796414
 30
0.0
 42
0.0016909401962015
  0
SEQEND
  8
DETAIL
  6
CONTINUOUS
 62
     5
  0
POLYLINE
  8
DETAIL
  6
CONTINUOUS
 62
     5
 66
     1
 10
0.0
 20
0.0
 30
0.0
210
0.0
220
0.0
230
1.0
  0
VERTEX
  8
DETAIL
  6
CONTINUOUS
 62
     5
 10
-188.57601919003059
 20
701.40362889136657
 30
0.0
 42
0.0153224062305534
  0
VERTEX
  8
DETAIL
  6
CONTINUOUS
 62
     5
 10
-188.577011406282
 20
701.35082746506919
 30
0.0
 42
0.0020317988716358
  0
VERTEX
  8
DETAIL
  6
CONTINUOUS
 62
     5
 10
-188.57651005587587
 20
701.25714747050711
 30
0.0
 42
0.0010650165595497
  0
VERTEX
  8
DETAIL
  6
CONTINUOUS
 62
     5
 10
-188.57505868183679
 20
701.12718661480437
 30
0.0
 42
0.0010715985351637
  0
VERTEX
  8
DETAIL
  6
CONTINUOUS
 62
     5
 10
-188.57306630128494
 20
700.99047201865096
 30
0.0
 42
0.0003841577387285
  0
SEQEND
  8
DETAIL
  6
CONTINUOUS
 62
     5
  0
POLYLINE
  8
DETAIL
  6
CONTINUOUS
 62
     5
 66
     1
 10
0.0
 20
0.0
 30
0.0
210
0.0
220
0.0
230
1.0
  0
VERTEX
  8
DETAIL
  6
CONTINUOUS
 62
     5
 10
-198.02316198994231
 20
685.49999999993634
 30
0.0
 42
0.0319522183045663
  0
VERTEX
  8
DETAIL
  6
CONTINUOUS
 62
     5
 10
-198.01535584760833
 20
685.60557280889645
 30
0.0
 42
0.0040634238667855
  0
VERTEX
  8
DETAIL
  6
CONTINUOUS
 62
     5
 10
-198.01081939518482
 20
685.79289321871329
 30
0.0
 42
0.0021305956403807
  0
VERTEX
  8
DETAIL
  6
CONTINUOUS
 62
     5
 10
-198.00754970527439
 20
686.05278640441645
 30
0.0
 42
0.0021439871142308
  0
VERTEX
  8
DETAIL
  6
CONTINUOUS
 62
     5
 10
-198.00570692504232
 20
686.49999999993634
 30
0.0
 42
0.0021439871142308
  0
VERTEX
  8
DETAIL
  6
CONTINUOUS
 62
     5
 10
-198.00570692504232
 20
686.49999999993634
 30
0.0
 42
0.0021439871142308
  0
SEQEND
  8
DETAIL
  6
CONTINUOUS
 62
     5
  0
LINE
  8
DETAIL
  6
CONTINUOUS
 62
     5
 10
-365.49999999994179
 20
94.999999999936335
 30
0.0
 11
-363.95064030264621
 21
94.999999999936335
 31
0.0
  0
LINE
  8
DETAIL
  6
CONTINUOUS
 62
     5
 10
-364.49999999994179
 20
121.99999999993631
 30
0.0
 11
-364.49999999994179
 21
99.999999999936335
 31
0.0
  0
ARC
  8
DETAIL
  6
CONTINUOUS
 62
     5
 10
-359.49999999994179
 20
99.999999999936335
 30
0.0
 40
5.0
 50
180.0
 51
270.0
  0
LINE
  8
DETAIL
  6
CONTINUOUS
 62
     5
 10
-319.160336152112
 20
121.99999999993631
 30
0.0
 11
-364.49999999994179
 21
121.99999999993631
 31
0.0
  0
LINE
  8
DETAIL
  6
CONTINUOUS
 62
     5
 10
-355.49999999994179
 20
92.699999999937049
 30
0.0
 11
-318.99999999994179
 21
92.699999999937049
 31
0.0
  0
LINE
  8
DETAIL
  6
CONTINUOUS
 62
     5
 10
-359.49999999994179
 20
94.999999999936335
 30
0.0
 11
-311.05805119076098
 21
94.999999999936335
 31
0.0
  0
LINE
  8
DETAIL
  6
CONTINUOUS
 62
     5
 10
-355.49999999994179
 20
94.999999999936335
 30
0.0
 11
-355.49999999994179
 21
92.699999999937049
 31
0.0
  0
LINE
  8
DETAIL
  6
CONTINUOUS
 62
     5
 10
-332.99999999994179
 20
92.699999999937049
 30
0.0
 11
-332.99999999994179
 21
90.699999999937063
 31
0.0
  0
LINE
  8
DETAIL
  6
CONTINUOUS
 62
     5
 10
-337.99999999994179
 20
92.699999999937049
 30
0.0
 11
-337.99999999994179
 21
90.699999999937063
 31
0.0
  0
ARC
  8
DETAIL
  6
CONTINUOUS
 62
     5
 10
-318.99999999994179
 20
91.499999999936335
 30
0.0
 40
1.1999999999999991
 50
0.0
 51
90.0
  0
LINE
  8
DETAIL
  6
CONTINUOUS
 62
     5
 10
-312.7999999999447
 20
89.999999999936335
 30
0.0
 11
-317.7999999999447
 21
89.999999999936335
 31
0.0
  0
LINE
  8
DETAIL
  6
CONTINUOUS
 62
     5
 10
-312.7999999999447
 20
89.999999999936335
 30
0.0
 11
-312.7999999999447
 21
94.999999999936335
 31
0.0
  0
ARC
  8
DETAIL
  6
CONTINUOUS
 62
     5
 10
-318.99999999994179
 20
91.499999999936335
 30
0.0
 40
3.5
 50
0.0
 51
90.0
  0
LINE
  8
DETAIL
  6
CONTINUOUS
 62
     5
 10
-315.49999999994179
 20
91.499999999936335
 30
0.0
 11
-315.49999999994179
 21
89.999999999936335
 31
0.0
  0
POLYLINE
  8
DETAIL
  6
CONTINUOUS
 62
     5
 66
     1
 10
0.0
 20
0.0
 30
0.0
  0
VERTEX
  8
DETAIL
  6
CONTINUOUS
 62
     5
 10
-365.49999999994179
 20
139.89414143385329
 30
0.0
  0
VERTEX
  8
DETAIL
  6
CONTINUOUS
 62
     5
 10
-359.3820046573486
 20
141.05023494328668
 30
0.0
  0
VERTEX
  8
DETAIL
  6
CONTINUOUS
 62
     5
 10
-353.37126303249187
 20
142.03544025551423
 30
0.0
  0
VERTEX
  8
DETAIL
  6
CONTINUOUS
 62
     5
 10
-347.57502884310844
 20
142.67886917332987
 30
0.0
  0
VERTEX
  8
DETAIL
  6
CONTINUOUS
 62
     5
 10
-344.79086882351186
 20
142.81901492270643
 30
0.0
  0
VERTEX
  8
DETAIL
  6
CONTINUOUS
 62
     5
 10
-342.10055580693472
 20
142.80963349952782
 30
0.0
  0
VERTEX
  8
DETAIL
  6
CONTINUOUS
 62
     5
 10
-339.51749650809421
 20
142.62936387914326
 30
0.0
  0
VERTEX
  8
DETAIL
  6
CONTINUOUS
 62
     5
 10
-337.05509764170733
 20
142.25684503690204
 30
0.0
  0
VERTEX
  8
DETAIL
  6
CONTINUOUS
 62
     5
 10
-334.72676592249132
 20
141.67071594815349
 30
0.0
  0
VERTEX
  8
DETAIL
  6
CONTINUOUS
 62
     5
 10
-332.54590806516302
 20
140.84961558824676
 30
0.0
  0
VERTEX
  8
DETAIL
  6
CONTINUOUS
 62
     5
 10
-330.52593078443959
 20
139.77218293253117
 30
0.0
  0
VERTEX
  8
DETAIL
  6
CONTINUOUS
 62
     5
 10
-328.68024079503812
 20
138.41705695635596
 30
0.0
  0
VERTEX
  8
DETAIL
  6
CONTINUOUS
 62
     5
 10
-327.02058212296384
 20
136.76548274075373
 30
0.0
  0
VERTEX
  8
DETAIL
  6
CONTINUOUS
 62
     5
 10
-325.53369238004962
 20
134.83790053156972
 30
0.0
  0
VERTEX
  8
DETAIL
  6
CONTINUOUS
 62
     5
 10
-324.18699368755244
 20
132.68502576050145
 30
0.0
  0
VERTEX
  8
DETAIL
  6
CONTINUOUS
 62
     5
 10
-322.94740750689414
 20
130.35835859569906
 30
0.0
  0
VERTEX
  8
DETAIL
  6
CONTINUOUS
 62
     5
 10
-320.65725852678162
 20
125.38964775749224
 30
0.0
  0
VERTEX
  8
DETAIL
  6
CONTINUOUS
 62
     5
 10
-316.10681690192979
 20
115.43569526731066
 30
0.0
  0
VERTEX
  8
DETAIL
  6
CONTINUOUS
 62
     5
 10
-313.99083848449061
 20
110.61076324980083
 30
0.0
  0
VERTEX
  8
DETAIL
  6
CONTINUOUS
 62
     5
 10
-313.07604543805297
 20
108.20061238429639
 30
0.0
  0
VERTEX
  8
DETAIL
  6
CONTINUOUS
 62
     5
 10
-312.29730595375122
 20
105.77721969040117
 30
0.0
  0
VERTEX
  8
DETAIL
  6
CONTINUOUS
 62
     5
 10
-311.68506212204636
 20
103.32949622519702
 30
0.0
  0
VERTEX
  8
DETAIL
  6
CONTINUOUS
 62
     5
 10
-311.26972448366911
 20
100.84636110138132
 30
0.0
  0
VERTEX
  8
DETAIL
  6
CONTINUOUS
 62
     5
 10
-311.06461707183769
 20
98.321096142123139
 30
0.0
  0
VERTEX
  8
DETAIL
  6
CONTINUOUS
 62
     5
 10
-311.03778674113642
 20
95.758543825757812
 30
0.0
  0
VERTEX
  8
DETAIL
  6
CONTINUOUS
 62
     5
 10
-311.36148555756245
 20
90.54851993618469
 30
0.0
  0
VERTEX
  8
DETAIL
  6
CONTINUOUS
 62
     5
 10
-311.92587740182404
 20
85.270175061619767
 30
0.0
  0
VERTEX
  8
DETAIL
  6
CONTINUOUS
 62
     5
 10
-312.41601874279752
 20
79.977394831020874
 30
0.0
  0
VERTEX
  8
DETAIL
  6
CONTINUOUS
 62
     5
 10
-312.53482562107519
 20
77.342430716258008
 30
0.0
  0
VERTEX
  8
DETAIL
  6
CONTINUOUS
 62
     5
 10
-312.51696604935955
 20
74.724064873345839
 30
0.0
  0
VERTEX
  8
DETAIL
  6
CONTINUOUS
 62
     5
 10
-312.32307208626014
 20
72.129033005904077
 30
0.0
  0
VERTEX
  8
DETAIL
  6
CONTINUOUS
 62
     5
 10
-311.91617201268582
 20
69.563709581747077
 30
0.0
  0
VERTEX
  8
DETAIL
  6
CONTINUOUS
 62
     5
 10
-310.63178662979772
 20
64.499999999936335
 30
0.0
  0
SEQEND
  8
DETAIL
  6
CONTINUOUS
 62
     5
  0
LINE
  8
DETAIL
  6
CONTINUOUS
 62
     5
 10
-325.1687313331422
 20
67.799999999935594
 30
0.0
 11
-363.9506403025444
 21
94.999999999936335
 31
0.0
  0
LINE
  8
DETAIL
  6
CONTINUOUS
 62
     5
 10
-337.49812993174419
 20
90.199999999937049
 30
0.0
 11
-333.50187006814667
 21
90.199999999937049
 31
0.0
  0
LINE
  8
DETAIL
  6
CONTINUOUS
 62
     5
 10
-337.99999999994179
 20
90.699999999937063
 30
0.0
 11
-332.99999999994179
 21
90.699999999937063
 31
0.0
  0
LINE
  8
DETAIL
  6
CONTINUOUS
 62
     5
 10
-332.99999999994179
 20
90.699999999937063
 30
0.0
 11
-333.49999999994179
 21
90.199999999937049
 31
0.0
  0
LINE
  8
DETAIL
  6
CONTINUOUS
 62
     5
 10
-317.7999999999447
 20
91.499999999936335
 30
0.0
 11
-317.7999999999447
 21
63.499999999936342
 31
0.0
  0
LINE
  8
DETAIL
  6
CONTINUOUS
 62
     5
 10
-337.99999999994179
 20
90.699999999937063
 30
0.0
 11
-337.49999999994179
 21
90.199999999937049
 31
0.0
  0
LINE
  8
DETAIL
  6
CONTINUOUS
 62
     5
 10
-300.7999999999447
 20
64.499999999936335
 30
0.0
 11
-317.7999999999447
 21
64.499999999936335
 31
0.0
  0
LINE
  8
NOTE
  6
CONTINUOUS
 62
     4
 10
-249.56083839463821
 20
1998.394382026368
 30
0.0
 11
-199.56083839463821
 21
1948.498336671671
 31
0.0
  0
LINE
  8
NOTE
  6
CONTINUOUS
 62
     4
 10
-299.56083839464549
 20
1948.498336671671
 30
0.0
 11
-249.56083839463821
 21
1998.394382026368
 31
0.0
  0
LINE
  8
NOTE
  6
CONTINUOUS
 62
     4
 10
-299.56083839464549
 20
1948.498336671671
 30
0.0
 11
-274.56083839463821
 21
1948.498336671671
 31
0.0
  0
LINE
  8
NOTE
  6
CONTINUOUS
 62
     4
 10
-224.56083839463821
 20
1948.498336671671
 30
0.0
 11
-199.56083839463821
 21
1948.498336671671
 31
0.0
  0
LINE
  8
NOTE
  6
CONTINUOUS
 62
     4
 10
-224.56083839463821
 20
1948.498336671671
 30
0.0
 11
-224.56083839463821
 21
1907.812249250173
 31
0.0
  0
LINE
  8
NOTE
  6
CONTINUOUS
 62
     4
 10
-274.56083839463821
 20
1948.498336671671
 30
0.0
 11
-274.56083839463821
 21
1907.812249250173
 31
0.0
  0
LINE
  8
NOTE
  6
CONTINUOUS
 62
     4
 10
-224.56083839463821
 20
1907.812249250173
 30
0.0
 11
-274.56083839463821
 21
1907.812249250173
 31
0.0
  0
LINE
  8
NOTE
  6
CONTINUOUS
 62
     4
 10
232.0909506933167
 20
1907.812249250173
 30
0.0
 11
282.0909506933167
 21
1907.812249250173
 31
0.0
  0
LINE
  8
NOTE
  6
CONTINUOUS
 62
     4
 10
282.0909506933167
 20
1948.498336671671
 30
0.0
 11
282.0909506933167
 21
1907.812249250173
 31
0.0
  0
LINE
  8
NOTE
  6
CONTINUOUS
 62
     4
 10
232.0909506933167
 20
1948.498336671671
 30
0.0
 11
232.0909506933167
 21
1907.812249250173
 31
0.0
  0
LINE
  8
NOTE
  6
CONTINUOUS
 62
     4
 10
232.0909506933167
 20
1948.498336671671
 30
0.0
 11
207.0909506933167
 21
1948.498336671671
 31
0.0
  0
LINE
  8
NOTE
  6
CONTINUOUS
 62
     4
 10
307.0909506933167
 20
1948.498336671671
 30
0.0
 11
282.0909506933167
 21
1948.498336671671
 31
0.0
  0
LINE
  8
NOTE
  6
CONTINUOUS
 62
     4
 10
307.0909506933167
 20
1948.498336671671
 30
0.0
 11
257.0909506933167
 21
1998.394382026368
 31
0.0
  0
LINE
  8
NOTE
  6
CONTINUOUS
 62
     4
 10
257.0909506933167
 20
1998.394382026368
 30
0.0
 11
207.0909506933167
 21
1948.498336671671
 31
0.0
  0
LINE
  8
DETAIL
  6
CONTINUOUS
 62
     5
 10
93.775443059705154
 20
876.44179051300489
 30
0.0
 11
93.775443059705154
 21
729.46520653673542
 31
0.0
  0
LINE
  8
DETAIL
  6
CONTINUOUS
 62
     5
 10
78.77544305970514
 20
869.97425406140417
 30
0.0
 11
78.77544305970514
 21
733.77562932574619
 31
0.0
  0
LINE
  8
DETAIL
  6
CONTINUOUS
 62
     5
 10
63.77544305970514
 20
863.50671760980356
 30
0.0
 11
63.77544305970514
 21
738.08605211475515
 31
0.0
  0
LINE
  8
DETAIL
  6
CONTINUOUS
 62
     5
 10
48.77544305970514
 20
857.03918115820477
 30
0.0
 11
48.77544305970514
 21
742.39647490376592
 31
0.0
  0
LINE
  8
DETAIL
  6
CONTINUOUS
 62
     5
 10
-177.97645262818691
 20
1479.823703335243
 30
0.0
 11
-177.97645262818691
 21
1332.8471193589739
 31
0.0
  0
LINE
  8
DETAIL
  6
CONTINUOUS
 62
     5
 10
-162.97645262818691
 20
1473.3561668836419
 30
0.0
 11
-162.97645262818691
 21
1337.157542147984
 31
0.0
  0
LINE
  8
DETAIL
  6
CONTINUOUS
 62
     5
 10
-147.97645262818691
 20
1466.888630432042
 30
0.0
 11
-147.97645262818691
 21
1341.4679649369939
 31
0.0
  0
LINE
  8
DETAIL
  6
CONTINUOUS
 62
     5
 10
-132.97645262818691
 20
1460.4210939804429
 30
0.0
 11
-132.97645262818691
 21
1345.778387726004
 31
0.0
  0
LINE
  8
SIZE
  6
CONTINUOUS
 62
    30
 10
369.50000000005821
 20
-151.85749528979611
 30
0.0
 11
369.50000000005821
 21
-311.44349863027128
 31
0.0
  0
LINE
  8
SIZE
  6
CONTINUOUS
 62
    30
 10
309.50000000005821
 20
-15.803839137237439
 30
0.0
 11
309.50000000005821
 21
-311.44349863027128
 31
0.0
  0
LINE
  8
SIZE
  6
CONTINUOUS
 62
    30
 10
309.50000000005821
 20
-291.44349863027128
 30
0.0
 11
369.50000000005821
 21
-291.44349863027128
 31
0.0
  0
LINE
  8
SIZE
  6
CONTINUOUS
 62
    30
 10
369.50000000005821
 20
-291.44349863027128
 30
0.0
 11
523.50000000006025
 21
-291.44349863027128
 31
0.0
  0
CIRCLE
  8
SIZE
  6
CONTINUOUS
 62
    30
 10
309.50000000005821
 20
-291.44349863027128
 30
0.0
 40
7.5
  0
CIRCLE
  8
SIZE
  6
CONTINUOUS
 62
    30
 10
369.50000000005821
 20
-291.44349863027128
 30
0.0
 40
7.5
  0
TEXT
  8
SIZE
  6
CONTINUOUS
 62
    30
 10
440.51714285720311
 20
-271.44349863027128
 30
0.0
 40
40.0
  1
60
 50
0.0
 41
0.9
 51
0.0
  7
STANDARD
 71
     0
 72
     1
 11
474.35714285720309
 21
-271.44349863027128
 31
0.0
210
0.0
220
0.0
230
1.0
  0
POINT
  8
DEFPOINTS
  6
CONTINUOUS
 62
    30
 10
369.50000000005821
 20
-131.85749528979611
 30
0.0
  0
POINT
  8
DEFPOINTS
  6
CONTINUOUS
 62
    30
 10
309.50000000005821
 20
4.1961608627625528
 30
0.0
  0
POINT
  8
DEFPOINTS
  6
CONTINUOUS
 62
    30
 10
309.50000000005821
 20
-291.44349863027128
 30
0.0
  0
LINE
  8
SIZE
  6
CONTINUOUS
 62
    30
 10
-369.49999999994179
 20
-151.85749528979611
 30
0.0
 11
-369.49999999994179
 21
-311.44349863027128
 31
0.0
  0
LINE
  8
SIZE
  6
CONTINUOUS
 62
    30
 10
-309.49999999994179
 20
-16.500000000063661
 30
0.0
 11
-309.49999999994179
 21
-311.44349863027128
 31
0.0
  0
LINE
  8
SIZE
  6
CONTINUOUS
 62
    30
 10
-309.49999999994179
 20
-291.44349863027128
 30
0.0
 11
-369.49999999994179
 21
-291.44349863027128
 31
0.0
  0
LINE
  8
SIZE
  6
CONTINUOUS
 62
    30
 10
-369.49999999994179
 20
-291.44349863027128
 30
0.0
 11
-523.49999999994384
 21
-291.44349863027128
 31
0.0
  0
CIRCLE
  8
SIZE
  6
CONTINUOUS
 62
    30
 10
-309.49999999994179
 20
-291.44349863027128
 30
0.0
 40
7.5
  0
CIRCLE
  8
SIZE
  6
CONTINUOUS
 62
    30
 10
-369.49999999994179
 20
-291.44349863027128
 30
0.0
 40
7.5
  0
TEXT
  8
SIZE
  6
CONTINUOUS
 62
    30
 10
-508.19714285708659
 20
-271.44349863027128
 30
0.0
 40
40.0
  1
60
 50
0.0
 41
0.9
 51
0.0
  7
STANDARD
 71
     0
 72
     1
 11
-474.35714285708661
 21
-271.44349863027128
 31
0.0
210
0.0
220
0.0
230
1.0
  0
POINT
  8
DEFPOINTS
  6
CONTINUOUS
 62
    30
 10
-369.49999999994179
 20
-131.85749528979611
 30
0.0
  0
POINT
  8
DEFPOINTS
  6
CONTINUOUS
 62
    30
 10
-309.49999999994179
 20
3.4999999999363349
 30
0.0
  0
POINT
  8
DEFPOINTS
  6
CONTINUOUS
 62
    30
 10
-309.49999999994179
 20
-291.44349863027128
 30
0.0
  0
LINE
  8
SIZE
  6
CONTINUOUS
 62
    30
 10
315.50000000005821
 20
44.499999999936328
 30
0.0
 11
315.50000000005821
 21
-395.37493912572791
 31
0.0
  0
LINE
  8
SIZE
  6
CONTINUOUS
 62
    30
 10
369.50000000005821
 20
-151.85749528979611
 30
0.0
 11
369.50000000005821
 21
-395.37493912572791
 31
0.0
  0
LINE
  8
SIZE
  6
CONTINUOUS
 62
    30
 10
315.50000000005821
 20
-375.37493912572791
 30
0.0
 11
369.50000000005821
 21
-375.37493912572791
 31
0.0
  0
LINE
  8
SIZE
  6
CONTINUOUS
 62
    30
 10
369.50000000005821
 20
-375.37493912572791
 30
0.0
 11
524.35714285720314
 21
-375.37493912572791
 31
0.0
  0
CIRCLE
  8
SIZE
  6
CONTINUOUS
 62
    30
 10
315.50000000005821
 20
-375.37493912572791
 30
0.0
 40
7.5
  0
CIRCLE
  8
SIZE
  6
CONTINUOUS
 62
    30
 10
369.50000000005821
 20
-375.37493912572791
 30
0.0
 40
7.5
  0
TEXT
  8
SIZE
  6
CONTINUOUS
 62
    30
 10
440.51714285720311
 20
-355.37493912572791
 30
0.0
 40
40.0
  1
54
 50
0.0
 41
0.9
 51
0.0
  7
STANDARD
 71
     0
 72
     1
 11
474.35714285720309
 21
-355.37493912572791
 31
0.0
210
0.0
220
0.0
230
1.0
  0
POINT
  8
DEFPOINTS
  6
CONTINUOUS
 62
    30
 10
315.50000000005821
 20
64.499999999936335
 30
0.0
  0
POINT
  8
DEFPOINTS
  6
CONTINUOUS
 62
    30
 10
369.50000000005821
 20
-131.85749528979611
 30
0.0
  0
POINT
  8
DEFPOINTS
  6
CONTINUOUS
 62
    30
 10
369.50000000005821
 20
-375.37493912572791
 30
0.0
  0
LINE
  8
SIZE
  6
CONTINUOUS
 62
    30
 10
295.80000000005379
 20
49.499999999936328
 30
0.0
 11
295.80000000005379
 21
-119.86129591672029
 31
0.0
  0
LINE
  8
SIZE
  6
CONTINUOUS
 62
    30
 10
-295.7999999999447
 20
49.499999999936328
 30
0.0
 11
-295.7999999999447
 21
-119.86129591672029
 31
0.0
  0
LINE
  8
SIZE
  6
CONTINUOUS
 62
    30
 10
295.80000000005379
 20
-99.861295916720337
 30
0.0
 11
-295.7999999999447
 21
-99.861295916720337
 31
0.0
  0
CIRCLE
  8
SIZE
  6
CONTINUOUS
 62
    30
 10
295.80000000005379
 20
-99.861295916720337
 30
0.0
 40
7.5
  0
CIRCLE
  8
SIZE
  6
CONTINUOUS
 62
    30
 10
-295.7999999999447
 20
-99.861295916720337
 30
0.0
 40
7.5
  0
TEXT
  8
SIZE
  6
CONTINUOUS
 62
    30
 10
-63.99708537915896
 20
-79.861295916720337
 30
0.0
 40
40.0
  1
592
 50
0.0
 41
0.9
 51
0.0
  7
STANDARD
 71
     0
 72
     1
 11
-13.777085379158962
 21
-79.861295916720337
 31
0.0
210
0.0
220
0.0
230
1.0
  0
POINT
  8
DEFPOINTS
  6
CONTINUOUS
 62
    30
 10
295.80000000005379
 20
69.499999999936335
 30
0.0
  0
POINT
  8
DEFPOINTS
  6
CONTINUOUS
 62
    30
 10
-295.7999999999447
 20
69.499999999936335
 30
0.0
  0
POINT
  8
DEFPOINTS
  6
CONTINUOUS
 62
    30
 10
-295.7999999999447
 20
-99.861295916720337
 30
0.0
  0
LINE
  8
SIZE
  6
CONTINUOUS
 62
    30
 10
-389.49999999994179
 20
59.999999999936328
 30
0.0
 11
-600.61773395229829
 21
59.999999999936399
 31
0.0
  0
LINE
  8
SIZE
  6
CONTINUOUS
 62
    30
 10
-385.49999999994179
 20
94.999999999936335
 30
0.0
 11
-600.61773395229829
 21
94.999999999936378
 31
0.0
  0
LINE
  8
SIZE
  6
CONTINUOUS
 62
    30
 10
-580.61773395229818
 20
94.999999999936378
 30
0.0
 11
-580.61773395229818
 21
124.99999999993641
 31
0.0
  0
LINE
  8
SIZE
  6
CONTINUOUS
 62
    30
 10
-580.61773395229818
 20
59.999999999936392
 30
0.0
 11
-580.61773395229818
 21
-124.0000000000547
 31
0.0
  0
LINE
  8
SIZE
  6
CONTINUOUS
 62
    30
 10
-580.61773395229818
 20
94.999999999936378
 30
0.0
 11
-580.61773395229818
 21
59.999999999936392
 31
0.0
  0
CIRCLE
  8
SIZE
  6
CONTINUOUS
 62
    30
 10
-580.61773395229818
 20
94.999999999936378
 30
0.0
 40
7.5
  0
CIRCLE
  8
SIZE
  6
CONTINUOUS
 62
    30
 10
-580.61773395229818
 20
59.999999999936392
 30
0.0
 40
7.5
  0
TEXT
  8
SIZE
  6
CONTINUOUS
 62
    30
 10
-600.61773395229829
 20
-108.3371428571977
 30
0.0
 40
40.0
  1
35
 50
90.0
 41
0.9
 51
0.0
  7
STANDARD
 71
     0
 72
     1
 11
-600.61773395229829
 21
-74.857142857197687
 31
0.0
210
0.0
220
0.0
230
1.0
  0
POINT
  8
DEFPOINTS
  6
CONTINUOUS
 62
    30
 10
-369.49999999994179
 20
59.999999999936328
 30
0.0
  0
POINT
  8
DEFPOINTS
  6
CONTINUOUS
 62
    30
 10
-365.49999999994179
 20
94.999999999936335
 30
0.0
  0
POINT
  8
DEFPOINTS
  6
CONTINUOUS
 62
    30
 10
-580.61773395229818
 20
94.999999999936378
 30
0.0
  0
LINE
  8
SIZE
  6
CONTINUOUS
 62
    30
 10
-315.49999999994179
 20
44.499999999936328
 30
0.0
 11
-315.49999999994179
 21
-395.29102053784482
 31
0.0
  0
LINE
  8
SIZE
  6
CONTINUOUS
 62
    30
 10
-369.49999999994179
 20
-20.000000000063661
 30
0.0
 11
-369.49999999994179
 21
-395.29102053784482
 31
0.0
  0
LINE
  8
SIZE
  6
CONTINUOUS
 62
    30
 10
-315.49999999994179
 20
-375.29102053784482
 30
0.0
 11
-369.49999999994179
 21
-375.29102053784482
 31
0.0
  0
LINE
  8
SIZE
  6
CONTINUOUS
 62
    30
 10
-369.49999999994179
 20
-375.29102053784482
 30
0.0
 11
-524.35714285708661
 21
-375.29102053784482
 31
0.0
  0
CIRCLE
  8
SIZE
  6
CONTINUOUS
 62
    30
 10
-315.49999999994179
 20
-375.29102053784482
 30
0.0
 40
7.5
  0
CIRCLE
  8
SIZE
  6
CONTINUOUS
 62
    30
 10
-369.49999999994179
 20
-375.29102053784482
 30
0.0
 40
7.5
  0
TEXT
  8
SIZE
  6
CONTINUOUS
 62
    30
 10
-508.19714285708659
 20
-355.29102053784482
 30
0.0
 40
40.0
  1
54
 50
0.0
 41
0.9
 51
0.0
  7
STANDARD
 71
     0
 72
     1
 11
-474.35714285708661
 21
-355.29102053784482
 31
0.0
210
0.0
220
0.0
230
1.0
  0
POINT
  8
DEFPOINTS
  6
CONTINUOUS
 62
    30
 10
-315.49999999994179
 20
64.499999999936335
 30
0.0
  0
POINT
  8
DEFPOINTS
  6
CONTINUOUS
 62
    30
 10
-369.49999999994179
 20
-0.0000000000636646
 30
0.0
  0
POINT
  8
DEFPOINTS
  6
CONTINUOUS
 62
    30
 10
-369.49999999994179
 20
-375.29102053784482
 30
0.0
  0
LINE
  8
DETAIL
  6
CONTINUOUS
 62
     5
 10
-319.35355339053791
 20
1522.4999999999361
 30
0.0
 11
-319.35355339053791
 21
122.43071874572161
 31
0.0
  0
LINE
  8
DETAIL
  6
CONTINUOUS
 62
     5
 10
-318.29289321873512
 20
1522.4999999999361
 30
0.0
 11
-318.29289321873512
 21
120.1060364327095
 31
0.0
  0
LINE
  8
DETAIL
  6
CONTINUOUS
 62
     5
 10
318.29289321885881
 20
1522.4999999999361
 30
0.0
 11
318.29289321885881
 21
64.499999999936335
 31
0.0
  0
LINE
  8
DETAIL
  6
CONTINUOUS
 62
     5
 10
319.3535533906616
 20
1522.4999999999361
 30
0.0
 11
319.3535533906616
 21
64.499999999936335
 31
0.0
  0
LINE
  8
OUTLINE
  6
CONTINUOUS
 62
     3
 10
369.50000000005821
 20
2.2999999999356069
 30
0.0
 11
317.00000000005821
 21
2.2999999999356069
 31
0.0
  0
LINE
  8
OUTLINE
  6
CONTINUOUS
 62
     3
 10
-316.99999999994179
 20
2.2999999999356069
 30
0.0
 11
-369.49999999994179
 21
2.2999999999356069
 31
0.0
  0
LINE
  8
OUTLINE
  6
CONTINUOUS
 62
     3
 10
-369.49999999994179
 20
2.2999999999356069
 30
0.0
 11
-369.49999999994179
 21
-0.0000000000636646
 31
0.0
  0
LINE
  8
OUTLINE
  6
CONTINUOUS
 62
     3
 10
-369.49999999994179
 20
57.699999999937063
 30
0.0
 11
-369.49999999994179
 21
62.299999999935608
 31
0.0
  0
LINE
  8
OUTLINE
  6
CONTINUOUS
 62
     3
 10
-367.49999999994179
 20
57.699999999937063
 30
0.0
 11
-367.49999999994179
 21
2.2999999999356069
 31
0.0
  0
LINE
  8
OUTLINE
  6
CONTINUOUS
 62
     3
 10
-370.28091039814171
 20
1522.4999999999361
 30
0.0
 11
-369.99760774914461
 21
1553.963268127836
 31
0.0
  0
LINE
  8
OUTLINE
  6
CONTINUOUS
 62
     3
 10
-365.02656217934418
 20
1641.074277792535
 30
0.0
 11
-367.38842298794771
 21
1559.254987546037
 31
0.0
  0
LINE
  8
OUTLINE
  6
CONTINUOUS
 62
     3
 10
-365.02656205934181
 20
1641.074280214636
 30
0.0
 11
-360.02855335244379
 21
1755.5474998459381
 31
0.0
  0
LINE
  8
OUTLINE
  6
CONTINUOUS
 62
     3
 10
369.50000000005821
 20
57.699999999937063
 30
0.0
 11
317.00000000005821
 21
57.699999999937063
 31
0.0
  0
LINE
  8
OUTLINE
  6
CONTINUOUS
 62
     3
 10
-316.99999999994179
 20
57.699999999937063
 30
0.0
 11
-369.49999999994179
 21
57.699999999937063
 31
0.0
  0
LINE
  8
DETAIL
  6
CONTINUOUS
 62
     5
 10
319.00000000005821
 20
59.999999999936328
 30
0.0
 11
311.80000000006112
 21
59.999999999934523
 31
0.0
  0
LINE
  8
OUTLINE
  6
CONTINUOUS
 62
     3
 10
-369.49999999994179
 20
62.299999999935608
 30
0.0
 11
-318.99999999994179
 21
62.299999999935608
 31
0.0
  0
LINE
  8
OUTLINE
  6
CONTINUOUS
 62
     3
 10
319.00000000005821
 20
62.299999999935608
 30
0.0
 11
369.50000000005821
 21
62.299999999935608
 31
0.0
  0
LINE
  8
OUTLINE
  6
CONTINUOUS
 62
     3
 10
320.46357325975259
 20
64.499999999936335
 30
0.0
 11
300.8000000000539
 21
64.499999999936335
 31
0.0
  0
LINE
  8
OUTLINE
  6
CONTINUOUS
 62
     3
 10
295.80000000005379
 20
87.999999999936335
 30
0.0
 11
-295.7999999999447
 21
87.999999999936335
 31
0.0
  0
LINE
  8
OUTLINE
  6
CONTINUOUS
 62
     3
 10
365.50000000005821
 20
94.999999999936335
 30
0.0
 11
363.95064030275529
 21
94.999999999936335
 31
0.0
  0
LINE
  8
OUTLINE
  6
CONTINUOUS
 62
     3
 10
-365.49999999994179
 20
94.999999999936335
 30
0.0
 11
-365.49999999994179
 21
1522.4999999999361
 31
0.0
  0
LINE
  8
OUTLINE
  6
CONTINUOUS
 62
     3
 10
-362.99999999994179
 20
1834.5999999999369
 30
0.0
 11
-362.99999999994179
 21
1817.0999999999369
 31
0.0
  0
LINE
  8
OUTLINE
  6
CONTINUOUS
 62
     3
 10
-362.99999999994179
 20
1813.7999999999349
 30
0.0
 11
-362.99999999994179
 21
1815.6999999999371
 31
0.0
  0
LINE
  8
OUTLINE
  6
CONTINUOUS
 62
     3
 10
-359.99999999994179
 20
1817.0999999999369
 30
0.0
 11
-359.99999999994179
 21
1816.9999999999361
 31
0.0
  0
LINE
  8
OUTLINE
  6
CONTINUOUS
 62
     3
 10
-359.99999999994179
 20
1811.4999999999361
 30
0.0
 11
-359.99999999994179
 21
1756.237603585037
 31
0.0
  0
LINE
  8
OUTLINE
  6
CONTINUOUS
 62
     3
 10
-357.99999999994179
 20
1838.5999999999369
 30
0.0
 11
-357.99999999994179
 21
1857.5999999999369
 31
0.0
  0
LINE
  8
OUTLINE
  6
CONTINUOUS
 62
     3
 10
-317.7999999999447
 20
63.499999999936342
 30
0.0
 11
-317.7999999999447
 21
64.499999999936335
 31
0.0
  0
LINE
  8
OUTLINE
  6
CONTINUOUS
 62
     3
 10
-315.7999999999447
 20
3.4999999999363349
 30
0.0
 11
-315.7999999999447
 21
56.499999999936328
 31
0.0
  0
LINE
  8
OUTLINE
  6
CONTINUOUS
 62
     3
 10
-315.49999999994179
 20
63.499999999936342
 30
0.0
 11
-315.49999999994179
 21
64.499999999936335
 31
0.0
  0
LINE
  8
DETAIL
  6
CONTINUOUS
 62
     5
 10
-313.49999999994179
 20
3.4999999999363349
 30
0.0
 11
-313.49999999994179
 21
56.499999999936328
 31
0.0
  0
LINE
  8
OUTLINE
  6
CONTINUOUS
 62
     3
 10
-295.7999999999447
 20
69.499999999936335
 30
0.0
 11
-295.7999999999447
 21
87.999999999936335
 31
0.0
  0
LINE
  8
OUTLINE
  6
CONTINUOUS
 62
     3
 10
295.80000000005379
 20
87.999999999936335
 30
0.0
 11
295.80000000005379
 21
69.499999999936335
 31
0.0
  0
LINE
  8
DETAIL
  6
CONTINUOUS
 62
     5
 10
313.50000000005821
 20
56.499999999936328
 30
0.0
 11
313.50000000005821
 21
3.4999999999363349
 31
0.0
  0
LINE
  8
OUTLINE
  6
CONTINUOUS
 62
     3
 10
315.50000000005821
 20
64.499999999936335
 30
0.0
 11
315.50000000005821
 21
63.499999999936342
 31
0.0
  0
LINE
  8
OUTLINE
  6
CONTINUOUS
 62
     3
 10
315.8000000000539
 20
56.499999999936328
 30
0.0
 11
315.8000000000539
 21
3.4999999999363349
 31
0.0
  0
LINE
  8
OUTLINE
  6
CONTINUOUS
 62
     3
 10
317.8000000000539
 20
64.499999999936335
 30
0.0
 11
317.8000000000539
 21
63.499999999936342
 31
0.0
  0
LINE
  8
OUTLINE
  6
CONTINUOUS
 62
     3
 10
365.02656205955282
 20
1641.074280214636
 30
0.0
 11
360.02855335265491
 21
1755.5474998459381
 31
0.0
  0
LINE
  8
OUTLINE
  6
CONTINUOUS
 62
     3
 10
367.38842298815138
 20
1559.254987546037
 30
0.0
 11
365.02656217955519
 21
1641.074277792535
 31
0.0
  0
LINE
  8
OUTLINE
  6
CONTINUOUS
 62
     3
 10
370.28091039835272
 20
1522.4999999999361
 30
0.0
 11
369.99760774935572
 21
1553.963268124937
 31
0.0
  0
LINE
  8
OUTLINE
  6
CONTINUOUS
 62
     3
 10
358.00000000005821
 20
1838.5999999999369
 30
0.0
 11
358.00000000005821
 21
1857.5999999999369
 31
0.0
  0
LINE
  8
OUTLINE
  6
CONTINUOUS
 62
     3
 10
360.00000000005821
 20
1811.4999999999361
 30
0.0
 11
360.00000000005821
 21
1756.237604085238
 31
0.0
  0
LINE
  8
OUTLINE
  6
CONTINUOUS
 62
     3
 10
363.00000000005821
 20
1834.5999999999369
 30
0.0
 11
363.00000000005821
 21
1817.0999999999369
 31
0.0
  0
LINE
  8
OUTLINE
  6
CONTINUOUS
 62
     3
 10
363.00000000005821
 20
1815.6999999999371
 30
0.0
 11
363.00000000005821
 21
1813.7999999999349
 31
0.0
  0
LINE
  8
OUTLINE
  6
CONTINUOUS
 62
     3
 10
365.50000000005821
 20
94.999999999936335
 30
0.0
 11
365.50000000005821
 21
1522.4999999999361
 31
0.0
  0
LINE
  8
OUTLINE
  6
CONTINUOUS
 62
     3
 10
367.50000000005821
 20
2.2999999999356069
 30
0.0
 11
367.50000000005821
 21
57.699999999937063
 31
0.0
  0
LINE
  8
OUTLINE
  6
CONTINUOUS
 62
     3
 10
369.50000000005821
 20
2.2999999999356069
 30
0.0
 11
369.50000000005821
 21
-0.0000000000636646
 31
0.0
  0
LINE
  8
OUTLINE
  6
CONTINUOUS
 62
     3
 10
369.50000000005821
 20
57.699999999937063
 30
0.0
 11
369.50000000005821
 21
62.299999999935608
 31
0.0
  0
LINE
  8
OUTLINE
  6
CONTINUOUS
 62
     3
 10
365.50000000005821
 20
1522.4999999999361
 30
0.0
 11
-370.28091039814171
 21
1522.4999999999361
 31
0.0
  0
LINE
  8
OUTLINE
  6
CONTINUOUS
 62
     3
 10
363.95064030275529
 20
94.999999999936335
 30
0.0
 11
320.46357325975259
 21
64.499999999936335
 31
0.0
  0
LINE
  8
OUTLINE
  6
CONTINUOUS
 62
     3
 10
362.7000000000553
 20
1813.4999999999361
 30
0.0
 11
361.71537032412022
 21
1813.499999999937
 31
0.0
  0
LINE
  8
OUTLINE
  6
CONTINUOUS
 62
     3
 10
-361.9999083582079
 20
1813.4999999978361
 30
0.0
 11
-362.6999999999461
 21
1813.4999999999361
 31
0.0
  0
LINE
  8
OUTLINE
  6
CONTINUOUS
 62
     3
 10
-360.9995889217098
 20
1816.0000000841981
 30
0.0
 11
-362.6999999999461
 21
1815.9999999999361
 31
0.0
  0
LINE
  8
OUTLINE
  6
CONTINUOUS
 62
     3
 10
-359.99999999994179
 20
1817.0999999999381
 30
0.0
 11
-362.99999999994179
 21
1817.0999999999369
 31
0.0
  0
LINE
  8
OUTLINE
  6
CONTINUOUS
 62
     3
 10
-359.99999999994179
 20
1836.599999999936
 30
0.0
 11
-360.99999999994179
 21
1836.599999999936
 31
0.0
  0
LINE
  8
OUTLINE
  6
CONTINUOUS
 62
     3
 10
-357.49999999994179
 20
1858.0999999999369
 30
0.0
 11
357.50000000005821
 21
1858.0999999999369
 31
0.0
  0
ARC
  8
OUTLINE
  6
CONTINUOUS
 62
     3
 10
-300.7999999999447
 20
69.499999999936335
 30
0.0
 40
5.0
 50
270.0
 51
0.0
  0
ARC
  8
OUTLINE
  6
CONTINUOUS
 62
     3
 10
-318.99999999994179
 20
63.499999999936342
 30
0.0
 40
3.5
 50
270.0
 51
0.0
  0
ARC
  8
DETAIL
  6
CONTINUOUS
 62
     5
 10
-316.99999999994179
 20
56.499999999936328
 30
0.0
 40
3.5
 50
0.0
 51
90.0
  0
ARC
  8
DETAIL
  6
CONTINUOUS
 62
     5
 10
-316.99999999994179
 20
3.4999999999363349
 30
0.0
 40
3.5
 50
270.0
 51
0.0
  0
ARC
  8
OUTLINE
  6
CONTINUOUS
 62
     3
 10
-318.99999999994179
 20
63.499999999936342
 30
0.0
 40
1.1999999999999991
 50
270.0
 51
0.0
  0
ARC
  8
OUTLINE
  6
CONTINUOUS
 62
     3
 10
-316.99999999994179
 20
56.499999999936328
 30
0.0
 40
1.1999999999999991
 50
0.0
 51
90.0
  0
ARC
  8
OUTLINE
  6
CONTINUOUS
 62
     3
 10
-316.99999999994179
 20
3.4999999999363349
 30
0.0
 40
1.1999999999999991
 50
270.0
 51
0.0
  0
ARC
  8
OUTLINE
  6
CONTINUOUS
 62
     3
 10
-372.8905307157475
 20
1559.5252304067931
 30
0.0
 40
5.5086739276738674
 50
305.99575701917229
 51
357.18809227684159
  0
ARC
  8
OUTLINE
  6
CONTINUOUS
 62
     3
 10
-367.99768376194697
 20
1553.9458312266379
 30
0.0
 40
2.0
 50
145.85603046158809
 51
179.49999999993099
  0
ARC
  8
OUTLINE
  6
CONTINUOUS
 62
     3
 10
-389.99999999994179
 20
1756.856081466836
 30
0.0
 40
30.0
 50
357.50000000002899
 51
0.0
  0
ARC
  8
OUTLINE
  6
CONTINUOUS
 62
     3
 10
-360.99999996704719
 20
1834.5999999999369
 30
0.0
 40
2.0
 50
90.000000941735635
 51
180.0
  0
ARC
  8
OUTLINE
  6
CONTINUOUS
 62
     3
 10
-359.99999999994179
 20
1838.5999999999369
 30
0.0
 40
2.0
 50
270.0
 51
0.0
  0
ARC
  8
OUTLINE
  6
CONTINUOUS
 62
     3
 10
-361.99999999784632
 20
1811.500000002035
 30
0.0
 40
1.9999999978999989
 50
0.000000622612764
 51
89.997374717740513
  0
ARC
  8
OUTLINE
  6
CONTINUOUS
 62
     3
 10
-360.99999943884899
 20
1816.9999994388361
 30
0.0
 40
0.9999994388999999
 50
270.02352091349741
 51
0.0000321472041358
  0
ARC
  8
OUTLINE
  6
CONTINUOUS
 62
     3
 10
-357.50000000224833
 20
1857.5999999999369
 30
0.0
 40
0.5
 50
89.999999728610035
 51
180.0
  0
ARC
  8
OUTLINE
  6
CONTINUOUS
 62
     3
 10
-362.6999999999461
 20
1815.6999999999371
 30
0.0
 40
0.3
 50
90.0
 51
180.0
  0
ARC
  8
OUTLINE
  6
CONTINUOUS
 62
     3
 10
-362.6999999999461
 20
1813.7999999999349
 30
0.0
 40
0.3
 50
180.0
 51
270.0
  0
ARC
  8
OUTLINE
  6
CONTINUOUS
 62
     3
 10
300.8000000000539
 20
69.499999999936335
 30
0.0
 40
5.0
 50
180.0
 51
270.0
  0
ARC
  8
OUTLINE
  6
CONTINUOUS
 62
     3
 10
319.00000000005821
 20
63.499999999936342
 30
0.0
 40
3.5
 50
180.0
 51
270.0
  0
ARC
  8
DETAIL
  6
CONTINUOUS
 62
     5
 10
317.00000000005821
 20
3.4999999999363349
 30
0.0
 40
3.5
 50
180.0
 51
270.0
  0
ARC
  8
DETAIL
  6
CONTINUOUS
 62
     5
 10
317.00000000005821
 20
56.499999999936328
 30
0.0
 40
3.5
 50
90.0
 51
180.0
  0
ARC
  8
OUTLINE
  6
CONTINUOUS
 62
     3
 10
319.00000000005821
 20
63.499999999936342
 30
0.0
 40
1.1999999999999991
 50
180.0
 51
270.0
  0
ARC
  8
OUTLINE
  6
CONTINUOUS
 62
     3
 10
317.00000000005821
 20
3.4999999999363349
 30
0.0
 40
1.1999999999999991
 50
180.0
 51
270.0
  0
ARC
  8
OUTLINE
  6
CONTINUOUS
 62
     3
 10
317.00000000005821
 20
56.499999999936328
 30
0.0
 40
1.1999999999999991
 50
90.0
 51
180.0
  0
ARC
  8
OUTLINE
  6
CONTINUOUS
 62
     3
 10
372.38657282435452
 20
1559.3992675948371
 30
0.0
 40
5.0001653733999989
 50
181.65348041249271
 51
231.17312119017501
  0
ARC
  8
OUTLINE
  6
CONTINUOUS
 62
     3
 10
367.99768376205611
 20
1553.9458312278359
 30
0.0
 40
2.0
 50
0.5000000000689419
 51
51.173123656595507
  0
ARC
  8
OUTLINE
  6
CONTINUOUS
 62
     3
 10
390.00000000005821
 20
1756.856081466836
 30
0.0
 40
30.0
 50
180.0
 51
182.4999999999709
  0
ARC
  8
OUTLINE
  6
CONTINUOUS
 62
     3
 10
362.04178533155209
 20
1811.484414853006
 30
0.0
 40
2.0418448133011471
 50
99.198932121778185
 51
179.56266420985679
  0
ARC
  8
OUTLINE
  6
CONTINUOUS
 62
     3
 10
361.00000000005821
 20
1834.5999999999369
 30
0.0
 40
2.0
 50
0.0
 51
90.0
  0
ARC
  8
OUTLINE
  6
CONTINUOUS
 62
     3
 10
360.00000000005821
 20
1838.5999999999369
 30
0.0
 40
2.0
 50
180.0
 51
270.0
  0
ARC
  8
OUTLINE
  6
CONTINUOUS
 62
     3
 10
357.50000000285218
 20
1857.5999999999369
 30
0.0
 40
0.5
 50
0.0
 51
90.000000317663833
  0
ARC
  8
OUTLINE
  6
CONTINUOUS
 62
     3
 10
362.7000000000553
 20
1813.7999999999349
 30
0.0
 40
0.3
 50
270.0
 51
0.0
  0
LINE
  8
OUTLINE
  6
CONTINUOUS
 62
     3
 10
-365.49999999994179
 20
94.999999999936335
 30
0.0
 11
-363.95064030264621
 21
94.999999999936335
 31
0.0
  0
LINE
  8
OUTLINE
  6
CONTINUOUS
 62
     3
 10
-318.03016192623909
 20
62.793307626414389
 30
0.0
 11
-363.9506403025444
 21
94.999999999936335
 31
0.0
  0
LINE
  8
OUTLINE
  6
CONTINUOUS
 62
     3
 10
-300.7999999999447
 20
64.499999999936335
 30
0.0
 11
-317.7999999999447
 21
64.499999999936335
 31
0.0
  0
LINE
  8
DETAIL
  6
CONTINUOUS
 62
     5
 10
369.65294346098381
 20
1555.0683798143641
 30
0.0
 11
-369.65294346005982
 21
1555.0683798143641
 31
0.0
  0
LINE
  8
OUTLINE
  6
CONTINUOUS
 62
     3
 10
361.00000000005821
 20
1836.599999999936
 30
0.0
 11
360.00000000005821
 21
1836.599999999936
 31
0.0
  0
LINE
  8
NOTE
  6
CONTINUOUS
 62
     4
 10
153.00294372525241
 20
175.99999999993631
 30
0.0
 11
224.00294372525241
 21
175.99999999993631
 31
0.0
  0
LINE
  8
NOTE
  6
CONTINUOUS
 62
     4
 10
188.50294372525241
 20
140.49999999993631
 30
0.0
 11
188.50294372525241
 21
211.49999999993631
 31
0.0
  0
LINE
  8
SIZE
  6
CONTINUOUS
 62
    30
 10
188.50294372525241
 20
231.49999999993639
 30
0.0
 11
188.50294372525241
 21
508.54016252522518
 31
0.0
  0
LINE
  8
SIZE
  6
CONTINUOUS
 62
    30
 10
369.50000000005821
 20
19.999999999936328
 30
0.0
 11
369.50000000005832
 21
508.54016252522518
 31
0.0
  0
LINE
  8
SIZE
  6
CONTINUOUS
 62
    30
 10
188.50294372525241
 20
488.54016252522518
 30
0.0
 11
369.50000000005832
 21
488.54016252522518
 31
0.0
  0
LINE
  8
SIZE
  6
CONTINUOUS
 62
    30
 10
369.50000000005832
 20
488.54016252522518
 30
0.0
 11
509.78571428577249
 21
488.54016252522518
 31
0.0
  0
CIRCLE
  8
SIZE
  6
CONTINUOUS
 62
    30
 10
188.50294372525241
 20
488.54016252522518
 30
0.0
 40
7.5
  0
CIRCLE
  8
SIZE
  6
CONTINUOUS
 62
    30
 10
369.50000000005832
 20
488.54016252522518
 30
0.0
 40
7.5
  0
TEXT
  8
SIZE
  6
CONTINUOUS
 62
    30
 10
411.62285714291539
 20
508.54016252522524
 30
0.0
 40
40.0
  1
181
 50
0.0
 41
0.9
 51
0.0
  7
STANDARD
 71
     0
 72
     1
 11
454.64285714291537
 21
508.54016252522524
 31
0.0
210
0.0
220
0.0
230
1.0
  0
POINT
  8
DEFPOINTS
  6
CONTINUOUS
 62
    30
 10
188.50294372525241
 20
211.49999999993631
 30
0.0
  0
POINT
  8
DEFPOINTS
  6
CONTINUOUS
 62
    30
 10
369.50000000005821
 20
-0.0000000000636646
 30
0.0
  0
POINT
  8
DEFPOINTS
  6
CONTINUOUS
 62
    30
 10
369.50000000005832
 20
488.54016252522518
 30
0.0
  0
LINE
  8
SIZE
  6
CONTINUOUS
 62
    30
 10
295.80000000005379
 20
49.499999999936328
 30
0.0
 11
295.80000000005379
 21
-119.86129591672029
 31
0.0
  0
LINE
  8
SIZE
  6
CONTINUOUS
 62
    30
 10
315.8000000000539
 20
-16.500000000063661
 30
0.0
 11
315.8000000000539
 21
-119.86129591672029
 31
0.0
  0
LINE
  8
SIZE
  6
CONTINUOUS
 62
    30
 10
295.80000000005379
 20
-99.861295916720337
 30
0.0
 11
265.8000000000539
 21
-99.861295916720337
 31
0.0
  0
LINE
  8
SIZE
  6
CONTINUOUS
 62
    30
 10
315.8000000000539
 20
-99.861295916720337
 30
0.0
 11
474.08571428576812
 21
-99.861295916720337
 31
0.0
  0
LINE
  8
SIZE
  6
CONTINUOUS
 62
    30
 10
295.80000000005379
 20
-99.861295916720337
 30
0.0
 11
315.8000000000539
 21
-99.861295916720337
 31
0.0
  0
CIRCLE
  8
SIZE
  6
CONTINUOUS
 62
    30
 10
295.80000000005379
 20
-99.861295916720337
 30
0.0
 40
7.5
  0
CIRCLE
  8
SIZE
  6
CONTINUOUS
 62
    30
 10
315.8000000000539
 20
-99.861295916720337
 30
0.0
 40
7.5
  0
TEXT
  8
SIZE
  6
CONTINUOUS
 62
    30
 10
391.10285714291092
 20
-79.861295916720337
 30
0.0
 40
40.0
  1
20
 50
0.0
 41
0.9
 51
0.0
  7
STANDARD
 71
     0
 72
     1
 11
424.9428571429109
 21
-79.861295916720337
 31
0.0
210
0.0
220
0.0
230
1.0
  0
POINT
  8
DEFPOINTS
  6
CONTINUOUS
 62
    30
 10
295.80000000005379
 20
69.499999999936335
 30
0.0
  0
POINT
  8
DEFPOINTS
  6
CONTINUOUS
 62
    30
 10
315.8000000000539
 20
3.4999999999363349
 30
0.0
  0
POINT
  8
DEFPOINTS
  6
CONTINUOUS
 62
    30
 10
315.8000000000539
 20
-99.861295916720337
 30
0.0
  0
LINE
  8
SIZE
  6
CONTINUOUS
 62
    30
 10
-295.7999999999447
 20
49.499999999936328
 30
0.0
 11
-295.7999999999447
 21
-119.86129591672029
 31
0.0
  0
LINE
  8
SIZE
  6
CONTINUOUS
 62
    30
 10
-315.7999999999447
 20
-16.500000000063661
 30
0.0
 11
-315.7999999999447
 21
-119.86129591672029
 31
0.0
  0
LINE
  8
SIZE
  6
CONTINUOUS
 62
    30
 10
-295.7999999999447
 20
-99.861295916720337
 30
0.0
 11
-265.7999999999447
 21
-99.861295916720337
 31
0.0
  0
LINE
  8
SIZE
  6
CONTINUOUS
 62
    30
 10
-315.7999999999447
 20
-99.861295916720337
 30
0.0
 11
-474.08571428565892
 21
-99.861295916720337
 31
0.0
  0
LINE
  8
SIZE
  6
CONTINUOUS
 62
    30
 10
-295.7999999999447
 20
-99.861295916720337
 30
0.0
 11
-315.7999999999447
 21
-99.861295916720337
 31
0.0
  0
CIRCLE
  8
SIZE
  6
CONTINUOUS
 62
    30
 10
-295.7999999999447
 20
-99.861295916720337
 30
0.0
 40
7.5
  0
CIRCLE
  8
SIZE
  6
CONTINUOUS
 62
    30
 10
-315.7999999999447
 20
-99.861295916720337
 30
0.0
 40
7.5
  0
TEXT
  8
SIZE
  6
CONTINUOUS
 62
    30
 10
-458.78285714280167
 20
-79.861295916720337
 30
0.0
 40
40.0
  1
20
 50
0.0
 41
0.9
 51
0.0
  7
STANDARD
 71
     0
 72
     1
 11
-424.9428571428017
 21
-79.861295916720337
 31
0.0
210
0.0
220
0.0
230
1.0
  0
POINT
  8
DEFPOINTS
  6
CONTINUOUS
 62
    30
 10
-295.7999999999447
 20
69.499999999936335
 30
0.0
  0
POINT
  8
DEFPOINTS
  6
CONTINUOUS
 62
    30
 10
-315.7999999999447
 20
3.4999999999363349
 30
0.0
  0
POINT
  8
DEFPOINTS
  6
CONTINUOUS
 62
    30
 10
-315.7999999999447
 20
-99.861295916720337
 30
0.0
  0
CIRCLE
  8
FIX
  6
CONTINUOUS
 62
    11
 10
340.00000000005821
 20
-0.0000000000636646
 30
0.0
 40
11.0
  0
LINE
  8
NOTE
  6
CONTINUOUS
 62
     4
 10
340.00000000005821
 20
-20.112755905533049
 30
0.0
 11
340.00000000005821
 21
20.11275590540572
 31
0.0
  0
CIRCLE
  8
FIX
  6
CONTINUOUS
 62
    11
 10
-339.99999999994179
 20
-0.0000000000636646
 30
0.0
 40
11.0
  0
LINE
  8
NOTE
  6
CONTINUOUS
 62
     4
 10
-339.99999999994179
 20
-20.112755905533049
 30
0.0
 11
-339.99999999994179
 21
20.11275590540572
 31
0.0
  0
LINE
  8
SIZE
  6
CONTINUOUS
 62
    30
 10
340.00000000005821
 20
-40.112755905533049
 30
0.0
 11
340.00000000005821
 21
-229.97252547161591
 31
0.0
  0
LINE
  8
SIZE
  6
CONTINUOUS
 62
    30
 10
369.50000000005821
 20
-20.000000000063661
 30
0.0
 11
369.50000000005821
 21
-229.97252547161591
 31
0.0
  0
LINE
  8
SIZE
  6
CONTINUOUS
 62
    30
 10
340.00000000005821
 20
-209.97252547161591
 30
0.0
 11
310.00000000005821
 21
-209.97252547161591
 31
0.0
  0
LINE
  8
SIZE
  6
CONTINUOUS
 62
    30
 10
369.50000000005821
 20
-209.97252547161591
 30
0.0
 11
579.21428571434387
 21
-209.97252547161591
 31
0.0
  0
LINE
  8
SIZE
  6
CONTINUOUS
 62
    30
 10
340.00000000005821
 20
-209.97252547161591
 30
0.0
 11
369.50000000005821
 21
-209.97252547161591
 31
0.0
  0
CIRCLE
  8
SIZE
  6
CONTINUOUS
 62
    30
 10
340.00000000005821
 20
-209.97252547161591
 30
0.0
 40
7.5
  0
CIRCLE
  8
SIZE
  6
CONTINUOUS
 62
    30
 10
369.50000000005821
 20
-209.97252547161591
 30
0.0
 40
7.5
  0
TEXT
  8
SIZE
  6
CONTINUOUS
 62
    30
 10
445.49714285720097
 20
-189.97252547161591
 30
0.0
 40
40.0
  1
29.5
 50
0.0
 41
0.9
 51
0.0
  7
STANDARD
 71
     0
 72
     1
 11
504.35714285720098
 21
-189.97252547161591
 31
0.0
210
0.0
220
0.0
230
1.0
  0
POINT
  8
DEFPOINTS
  6
CONTINUOUS
 62
    30
 10
340.00000000005821
 20
-20.112755905533049
 30
0.0
  0
POINT
  8
DEFPOINTS
  6
CONTINUOUS
 62
    30
 10
369.50000000005821
 20
-0.0000000000636646
 30
0.0
  0
POINT
  8
DEFPOINTS
  6
CONTINUOUS
 62
    30
 10
369.50000000005821
 20
-209.97252547161591
 30
0.0
  0
LINE
  8
SIZE
  6
CONTINUOUS
 62
    30
 10
-339.99999999994179
 20
-40.112755905533049
 30
0.0
 11
-339.99999999994179
 21
-229.97252547161591
 31
0.0
  0
LINE
  8
SIZE
  6
CONTINUOUS
 62
    30
 10
-369.49999999994179
 20
-20.000000000063661
 30
0.0
 11
-369.49999999994179
 21
-229.97252547161591
 31
0.0
  0
LINE
  8
SIZE
  6
CONTINUOUS
 62
    30
 10
-339.99999999994179
 20
-209.97252547161591
 30
0.0
 11
-309.99999999994179
 21
-209.97252547161591
 31
0.0
  0
LINE
  8
SIZE
  6
CONTINUOUS
 62
    30
 10
-369.49999999994179
 20
-209.97252547161591
 30
0.0
 11
-579.21428571422734
 21
-209.97252547161591
 31
0.0
  0
LINE
  8
SIZE
  6
CONTINUOUS
 62
    30
 10
-339.99999999994179
 20
-209.97252547161591
 30
0.0
 11
-369.49999999994179
 21
-209.97252547161591
 31
0.0
  0
CIRCLE
  8
SIZE
  6
CONTINUOUS
 62
    30
 10
-339.99999999994179
 20
-209.97252547161591
 30
0.0
 40
7.5
  0
CIRCLE
  8
SIZE
  6
CONTINUOUS
 62
    30
 10
-369.49999999994179
 20
-209.97252547161591
 30
0.0
 40
7.5
  0
TEXT
  8
SIZE
  6
CONTINUOUS
 62
    30
 10
-563.21714285708458
 20
-189.97252547161591
 30
0.0
 40
40.0
  1
29.5
 50
0.0
 41
0.9
 51
0.0
  7
STANDARD
 71
     0
 72
     1
 11
-504.35714285708457
 21
-189.97252547161591
 31
0.0
210
0.0
220
0.0
230
1.0
  0
POINT
  8
DEFPOINTS
  6
CONTINUOUS
 62
    30
 10
-339.99999999994179
 20
-20.112755905533049
 30
0.0
  0
POINT
  8
DEFPOINTS
  6
CONTINUOUS
 62
    30
 10
-369.49999999994179
 20
-0.0000000000636646
 30
0.0
  0
POINT
  8
DEFPOINTS
  6
CONTINUOUS
 62
    30
 10
-369.49999999994179
 20
-209.97252547161591
 30
0.0
  0
LINE
  8
SIZE
  6
CONTINUOUS
 62
    30
 10
-339.99999999994179
 20
-40.112755905533049
 30
0.0
 11
-339.99999999994179
 21
-229.97252547161591
 31
0.0
  0
LINE
  8
SIZE
  6
CONTINUOUS
 62
    30
 10
340.00000000005821
 20
-40.112755905533049
 30
0.0
 11
340.00000000005821
 21
-229.97252547161591
 31
0.0
  0
LINE
  8
SIZE
  6
CONTINUOUS
 62
    30
 10
-339.99999999994179
 20
-209.97252547161591
 30
0.0
 11
340.00000000005821
 21
-209.97252547161591
 31
0.0
  0
CIRCLE
  8
SIZE
  6
CONTINUOUS
 62
    30
 10
-339.99999999994179
 20
-209.97252547161591
 30
0.0
 40
7.5
  0
CIRCLE
  8
SIZE
  6
CONTINUOUS
 62
    30
 10
340.00000000005821
 20
-209.97252547161591
 30
0.0
 40
7.5
  0
TEXT
  8
SIZE
  6
CONTINUOUS
 62
    30
 10
-193.31999999994176
 20
-179.4963349954254
 30
0.0
 40
40.0
  1
681(678~684)
 50
0.0
 41
0.9
 51
0.0
  7
STANDARD
 71
     0
 72
     1
 11
0.0000000000582077
 21
-179.4963349954254
 31
0.0
210
0.0
220
0.0
230
1.0
  0
POINT
  8
DEFPOINTS
  6
CONTINUOUS
 62
    30
 10
-339.99999999994179
 20
-20.112755905533049
 30
0.0
  0
POINT
  8
DEFPOINTS
  6
CONTINUOUS
 62
    30
 10
340.00000000005821
 20
-20.112755905533049
 30
0.0
  0
POINT
  8
DEFPOINTS
  6
CONTINUOUS
 62
    30
 10
340.00000000005821
 20
-209.97252547161591
 30
0.0
  0
TEXT
  8
SIZE
  6
CONTINUOUS
 62
    30
 10
-217.24829548249551
 20
-263.2495858912207
 30
0.0
 40
53.0
  1
(Mounting pitch) 
 50
0.0000025045208307
 41
0.51
  7
KAIGAI_STANDARD_1
  0
LINE
  8
SIZE
  6
CONTINUOUS
 62
    30
 10
369.50000000005821
 20
-20.000000000063661
 30
0.0
 11
369.50000000005821
 21
-507.90998146672609
 31
0.0
  0
LINE
  8
SIZE
  6
CONTINUOUS
 62
    30
 10
-369.49999999994179
 20
-20.000000000063661
 30
0.0
 11
-369.49999999994179
 21
-507.90998146672609
 31
0.0
  0
LINE
  8
SIZE
  6
CONTINUOUS
 62
    30
 10
369.50000000005821
 20
-487.90998146672598
 30
0.0
 11
-369.49999999994179
 21
-487.90998146672598
 31
0.0
  0
CIRCLE
  8
SIZE
  6
CONTINUOUS
 62
    30
 10
369.50000000005821
 20
-487.90998146672598
 30
0.0
 40
7.5
  0
CIRCLE
  8
SIZE
  6
CONTINUOUS
 62
    30
 10
-369.49999999994179
 20
-487.90998146672598
 30
0.0
 40
7.5
  0
TEXT
  8
SIZE
  6
CONTINUOUS
 62
    30
 10
-74.699999999941852
 20
-457.43379099053561
 30
0.0
 40
40.0
  1
(740)
 50
0.0
 41
0.9
 51
0.0
  7
STANDARD
 71
     0
 72
     1
 11
0.0000000000581508
 21
-457.43379099053561
 31
0.0
210
0.0
220
0.0
230
1.0
  0
POINT
  8
DEFPOINTS
  6
CONTINUOUS
 62
    30
 10
369.50000000005821
 20
-0.0000000000636646
 30
0.0
  0
POINT
  8
DEFPOINTS
  6
CONTINUOUS
 62
    30
 10
-369.49999999994179
 20
-0.0000000000636646
 30
0.0
  0
POINT
  8
DEFPOINTS
  6
CONTINUOUS
 62
    30
 10
-369.49999999994179
 20
-487.90998146672598
 30
0.0
  0
LINE
  8
BASIS
  6
DASHDOT
 62
     6
 10
0.0000000000582077
 20
-22.855693145056652
 30
0.0
 11
0.0000000000582077
 21
1899.574261272415
 31
0.0
  0
CIRCLE
  8
ARRANGE
  6
CONTINUOUS
 62
     1
 10
0.0
 20
0.0
 30
0.0
 40
20.0
  0
LINE
  8
ARRANGE
  6
CONTINUOUS
 62
     1
 10
-28.28427124746668
 20
28.284271247463039
 30
0.0
 11
28.284271247452129
 21
-28.28427124746668
 31
0.0
  0
LINE
  8
ARRANGE
  6
CONTINUOUS
 62
     1
 10
28.28427124746668
 20
28.284271247463039
 30
0.0
 11
-28.28427124746668
 21
-28.28427124746122
 31
0.0
  0
TEXT
  8
NOTE
  6
CONTINUOUS
 62
     4
 10
-157.51903181009399
 20
1933.3737974149719
 30
0.0
 40
53.0
  1
Discharge air
 50
0.0000025045208307
 41
0.51
  7
KAIGAI_STANDARD_1
  0
LINE
  8
NOTE
  6
CONTINUOUS
 62
     4
 10
597.92816912614205
 20
1045.829108336193
 30
0.0
 11
597.92816912614205
 21
1095.829108336193
 31
0.0
  0
LINE
  8
NOTE
  6
CONTINUOUS
 62
     4
 10
557.24208212614747
 20
1095.829108336193
 30
0.0
 11
597.92816912614205
 21
1095.829108336193
 31
0.0
  0
LINE
  8
NOTE
  6
CONTINUOUS
 62
     4
 10
557.24208212614747
 20
1045.829108336193
 30
0.0
 11
597.92816912614205
 21
1045.829108336193
 31
0.0
  0
LINE
  8
NOTE
  6
CONTINUOUS
 62
     4
 10
557.24208212614747
 20
1045.829108336193
 30
0.0
 11
557.24208212614747
 21
1020.829108336193
 31
0.0
  0
LINE
  8
NOTE
  6
CONTINUOUS
 62
     4
 10
557.24208212614747
 20
1120.8291083361919
 30
0.0
 11
557.24208212614747
 21
1095.829108336193
 31
0.0
  0
LINE
  8
NOTE
  6
CONTINUOUS
 62
     4
 10
557.24208212614747
 20
1120.8291083361919
 30
0.0
 11
507.3460371261462
 21
1070.829108336193
 31
0.0
  0
LINE
  8
NOTE
  6
CONTINUOUS
 62
     4
 10
507.3460371261462
 20
1070.829108336193
 30
0.0
 11
557.24208212614747
 21
1020.829108336193
 31
0.0
  0
LINE
  8
NOTE
  6
CONTINUOUS
 62
     4
 10
597.92816912614205
 20
1316.1644273361919
 30
0.0
 11
597.92816912614205
 21
1366.1644273361919
 31
0.0
  0
LINE
  8
NOTE
  6
CONTINUOUS
 62
     4
 10
557.24208212614747
 20
1366.1644273361919
 30
0.0
 11
597.92816912614205
 21
1366.1644273361919
 31
0.0
  0
LINE
  8
NOTE
  6
CONTINUOUS
 62
     4
 10
557.24208212614747
 20
1316.1644273361919
 30
0.0
 11
597.92816912614205
 21
1316.1644273361919
 31
0.0
  0
LINE
  8
NOTE
  6
CONTINUOUS
 62
     4
 10
557.24208212614747
 20
1316.1644273361919
 30
0.0
 11
557.24208212614747
 21
1291.1644273361919
 31
0.0
  0
LINE
  8
NOTE
  6
CONTINUOUS
 62
     4
 10
557.24208212614747
 20
1391.1644273361919
 30
0.0
 11
557.24208212614747
 21
1366.1644273361919
 31
0.0
  0
LINE
  8
NOTE
  6
CONTINUOUS
 62
     4
 10
557.24208212614747
 20
1391.1644273361919
 30
0.0
 11
507.34603612613859
 21
1341.1644273361919
 31
0.0
  0
LINE
  8
NOTE
  6
CONTINUOUS
 62
     4
 10
507.34603612613859
 20
1341.1644273361919
 30
0.0
 11
557.24208212614747
 21
1291.1644273361919
 31
0.0
  0
TEXT
  8
NOTE
  6
CONTINUOUS
 62
     4
 10
511.17733552170091
 20
1216.9810318316979
 30
0.0
 40
53.0
  1
Intake
 50
0.0000025045208307
 41
0.51
  7
KAIGAI_STANDARD_1
  0
TEXT
  8
NOTE
  6
CONTINUOUS
 62
     4
 10
515.333834574143
 20
1156.3712426526049
 30
0.0
 40
53.0
  1
air
 50
0.0000025045208307
 41
0.51
  7
KAIGAI_STANDARD_1
  0
LINE
  8
NOTE
  6
CONTINUOUS
 62
     4
 10
-612.04789885968785
 20
1045.829108336193
 30
0.0
 11
-612.04789885968785
 21
1095.829108336193
 31
0.0
  0
LINE
  8
NOTE
  6
CONTINUOUS
 62
     4
 10
-571.36181185968587
 20
1095.829108336193
 30
0.0
 11
-612.04789885968785
 21
1095.829108336193
 31
0.0
  0
LINE
  8
NOTE
  6
CONTINUOUS
 62
     4
 10
-571.36181185968587
 20
1045.829108336193
 30
0.0
 11
-612.04789885968785
 21
1045.829108336193
 31
0.0
  0
LINE
  8
NOTE
  6
CONTINUOUS
 62
     4
 10
-571.36181185968587
 20
1045.829108336193
 30
0.0
 11
-571.36181185968587
 21
1020.829108336193
 31
0.0
  0
LINE
  8
NOTE
  6
CONTINUOUS
 62
     4
 10
-571.36181185968587
 20
1120.8291083361919
 30
0.0
 11
-571.36181185968587
 21
1095.829108336193
 31
0.0
  0
LINE
  8
NOTE
  6
CONTINUOUS
 62
     4
 10
-571.36181185968587
 20
1120.8291083361919
 30
0.0
 11
-521.46576685968466
 21
1070.829108336193
 31
0.0
  0
LINE
  8
NOTE
  6
CONTINUOUS
 62
     4
 10
-521.46576685968466
 20
1070.829108336193
 30
0.0
 11
-571.36181185968587
 21
1020.829108336193
 31
0.0
  0
LINE
  8
NOTE
  6
CONTINUOUS
 62
     4
 10
-612.04789885968046
 20
1316.1644273361919
 30
0.0
 11
-612.04789885968046
 21
1366.1644273361919
 31
0.0
  0
LINE
  8
NOTE
  6
CONTINUOUS
 62
     4
 10
-571.3618118596786
 20
1366.1644273361919
 30
0.0
 11
-612.04789885968046
 21
1366.1644273361919
 31
0.0
  0
LINE
  8
NOTE
  6
CONTINUOUS
 62
     4
 10
-571.3618118596786
 20
1316.1644273361919
 30
0.0
 11
-612.04789885968046
 21
1316.1644273361919
 31
0.0
  0
LINE
  8
NOTE
  6
CONTINUOUS
 62
     4
 10
-571.3618118596786
 20
1316.1644273361919
 30
0.0
 11
-571.3618118596786
 21
1291.1644273361919
 31
0.0
  0
LINE
  8
NOTE
  6
CONTINUOUS
 62
     4
 10
-571.3618118596786
 20
1391.1644273361919
 30
0.0
 11
-571.3618118596786
 21
1366.1644273361919
 31
0.0
  0
LINE
  8
NOTE
  6
CONTINUOUS
 62
     4
 10
-571.3618118596786
 20
1391.1644273361919
 30
0.0
 11
-521.46576585968432
 21
1341.1644273361919
 31
0.0
  0
LINE
  8
NOTE
  6
CONTINUOUS
 62
     4
 10
-521.46576585968432
 20
1341.1644273361919
 30
0.0
 11
-571.3618118596786
 21
1291.1644273361919
 31
0.0
  0
TEXT
  8
NOTE
  6
CONTINUOUS
 62
     4
 10
-677.86849382666685
 20
1216.981038500807
 30
0.0
 40
53.0
  1
Intake
 50
0.0000025045208307
 41
0.51
  7
KAIGAI_STANDARD_1
  0
TEXT
  8
NOTE
  6
CONTINUOUS
 62
     4
 10
-674.19596078317397
 20
1158.3937016481079
 30
0.0
 40
53.0
  1
air
 50
0.0000025045208307
 41
0.51
  7
KAIGAI_STANDARD_1
  0
LINE
  8
SIZE
  6
CONTINUOUS
 62
    30
 10
377.50000000005821
 20
1858.0999999999369
 30
0.0
 11
853.16536756373534
 21
1858.099999999936
 31
0.0
  0
LINE
  8
SIZE
  6
CONTINUOUS
 62
    30
 10
389.65294346098381
 20
1555.0683798143641
 30
0.0
 11
853.16536756373534
 21
1555.068379814363
 31
0.0
  0
LINE
  8
SIZE
  6
CONTINUOUS
 62
    30
 10
833.16536756373546
 20
1858.099999999936
 30
0.0
 11
833.16536756373534
 21
1555.068379814363
 31
0.0
  0
CIRCLE
  8
SIZE
  6
CONTINUOUS
 62
    30
 10
833.16536756373546
 20
1858.099999999936
 30
0.0
 40
7.5
  0
CIRCLE
  8
SIZE
  6
CONTINUOUS
 62
    30
 10
833.16536756373534
 20
1555.068379814363
 30
0.0
 40
7.5
  0
TEXT
  8
SIZE
  6
CONTINUOUS
 62
    30
 10
813.16536756373512
 20
1656.0041899071498
 30
0.0
 40
40.0
  1
303
 50
90.0
 41
0.9
 51
0.0
  7
STANDARD
 71
     0
 72
     1
 11
813.16536756373512
 21
1706.5841899071499
 31
0.0
210
0.0
220
0.0
230
1.0
  0
POINT
  8
DEFPOINTS
  6
CONTINUOUS
 62
    30
 10
357.50000000005821
 20
1858.0999999999369
 30
0.0
  0
POINT
  8
DEFPOINTS
  6
CONTINUOUS
 62
    30
 10
369.65294346098381
 20
1555.0683798143641
 30
0.0
  0
POINT
  8
DEFPOINTS
  6
CONTINUOUS
 62
    30
 10
833.16536756373534
 20
1555.068379814363
 30
0.0
  0
LINE
  8
SIZE
  6
CONTINUOUS
 62
    30
 10
389.65294346098381
 20
1555.0683798143641
 30
0.0
 11
853.16536756380845
 21
1555.068379814363
 31
0.0
  0
LINE
  8
SIZE
  6
CONTINUOUS
 62
    30
 10
389.50000000005821
 20
59.999999999936328
 30
0.0
 11
853.16536756380799
 21
59.9999999999362
 31
0.0
  0
LINE
  8
SIZE
  6
CONTINUOUS
 62
    30
 10
833.16536756380845
 20
1555.068379814363
 30
0.0
 11
833.1653675638081
 21
59.999999999936207
 31
0.0
  0
CIRCLE
  8
SIZE
  6
CONTINUOUS
 62
    30
 10
833.16536756380845
 20
1555.068379814363
 30
0.0
 40
7.5
  0
CIRCLE
  8
SIZE
  6
CONTINUOUS
 62
    30
 10
833.1653675638081
 20
59.999999999936207
 30
0.0
 40
7.5
  0
TEXT
  8
SIZE
  6
CONTINUOUS
 62
    30
 10
813.1653675638081
 20
743.81418990714985
 30
0.0
 40
40.0
  1
1495
 50
90.0
 41
0.9
 51
0.0
  7
STANDARD
 71
     0
 72
     1
 11
813.1653675638081
 21
807.53418990714988
 31
0.0
210
0.0
220
0.0
230
1.0
  0
POINT
  8
DEFPOINTS
  6
CONTINUOUS
 62
    30
 10
369.65294346098381
 20
1555.0683798143641
 30
0.0
  0
POINT
  8
DEFPOINTS
  6
CONTINUOUS
 62
    30
 10
369.50000000005821
 20
59.999999999936328
 30
0.0
  0
POINT
  8
DEFPOINTS
  6
CONTINUOUS
 62
    30
 10
833.1653675638081
 20
59.999999999936207
 30
0.0
  0
LINE
  8
SIZE
  6
CONTINUOUS
 62
    30
 10
389.50000000005821
 20
59.999999999936328
 30
0.0
 11
972.23840618858185
 21
59.999999999936172
 31
0.0
  0
LINE
  8
SIZE
  6
CONTINUOUS
 62
    30
 10
377.50000000005821
 20
1858.0999999999369
 30
0.0
 11
972.23840618858219
 21
1858.099999999936
 31
0.0
  0
LINE
  8
SIZE
  6
CONTINUOUS
 62
    30
 10
952.23840618858173
 20
59.999999999936172
 30
0.0
 11
952.2384061885823
 21
1858.099999999936
 31
0.0
  0
CIRCLE
  8
SIZE
  6
CONTINUOUS
 62
    30
 10
952.23840618858173
 20
59.999999999936172
 30
0.0
 40
7.5
  0
CIRCLE
  8
SIZE
  6
CONTINUOUS
 62
    30
 10
952.2384061885823
 20
1858.099999999936
 30
0.0
 40
7.5
  0
TEXT
  8
SIZE
  6
CONTINUOUS
 62
    30
 10
932.23840618858185
 20
895.68999999993639
 30
0.0
 40
40.0
  1
1798
 50
90.0
 41
0.9
 51
0.0
  7
STANDARD
 71
     0
 72
     1
 11
932.23840618858185
 21
959.0499999999364
 31
0.0
210
0.0
220
0.0
230
1.0
  0
POINT
  8
DEFPOINTS
  6
CONTINUOUS
 62
    30
 10
369.50000000005821
 20
59.999999999936328
 30
0.0
  0
POINT
  8
DEFPOINTS
  6
CONTINUOUS
 62
    30
 10
357.50000000005821
 20
1858.0999999999369
 30
0.0
  0
POINT
  8
DEFPOINTS
  6
CONTINUOUS
 62
    30
 10
952.2384061885823
 20
1858.099999999936
 30
0.0
  0
LINE
  8
SIZE
  6
CONTINUOUS
 62
    30
 10
389.50000000005821
 20
-0.0000000000636703
 30
0.0
 11
1091.4867226389749
 21
-0.0000000000638692
 31
0.0
  0
LINE
  8
SIZE
  6
CONTINUOUS
 62
    30
 10
377.50000000005821
 20
1858.0999999999369
 30
0.0
 11
1091.4867226389761
 21
1858.099999999936
 31
0.0
  0
LINE
  8
SIZE
  6
CONTINUOUS
 62
    30
 10
1071.4867226389749
 20
-0.0000000000638635
 30
0.0
 11
1071.4867226389761
 21
1858.099999999936
 31
0.0
  0
CIRCLE
  8
SIZE
  6
CONTINUOUS
 62
    30
 10
1071.4867226389749
 20
-0.0000000000638635
 30
0.0
 40
7.5
  0
CIRCLE
  8
SIZE
  6
CONTINUOUS
 62
    30
 10
1071.4867226389761
 20
1858.099999999936
 30
0.0
 40
7.5
  0
TEXT
  8
SIZE
  6
CONTINUOUS
 62
    30
 10
1051.4867226389749
 20
865.68999999993628
 30
0.0
 40
40.0
  1
1858
 50
90.0
 41
0.9
 51
0.0
  7
STANDARD
 71
     0
 72
     1
 11
1051.4867226389749
 21
929.04999999993629
 31
0.0
210
0.0
220
0.0
230
1.0
  0
POINT
  8
DEFPOINTS
  6
CONTINUOUS
 62
    30
 10
369.50000000005821
 20
-0.0000000000636646
 30
0.0
  0
POINT
  8
DEFPOINTS
  6
CONTINUOUS
 62
    30
 10
357.50000000005821
 20
1858.0999999999369
 30
0.0
  0
POINT
  8
DEFPOINTS
  6
CONTINUOUS
 62
    30
 10
1071.4867226389761
 20
1858.099999999936
 30
0.0
  0
LINE
  8
SIZE
  6
CONTINUOUS
 62
    30
 10
389.50000000005821
 20
-0.0000000000636703
 30
0.0
 11
972.23840618861129
 21
-0.0000000000638354
 31
0.0
  0
LINE
  8
SIZE
  6
CONTINUOUS
 62
    30
 10
952.23840618861141
 20
59.999999999932697
 30
0.0
 11
952.23840618861141
 21
-0.0000000000638297
 31
0.0
  0
LINE
  8
SIZE
  6
CONTINUOUS
 62
    30
 10
952.23840618861141
 20
-0.0000000000638297
 30
0.0
 11
952.23840618861141
 21
-174.57142857149231
 31
0.0
  0
CIRCLE
  8
SIZE
  6
CONTINUOUS
 62
    30
 10
952.23840618861141
 20
59.999999999932697
 30
0.0
 40
7.5
  0
CIRCLE
  8
SIZE
  6
CONTINUOUS
 62
    30
 10
952.23840618861141
 20
-0.0000000000638297
 30
0.0
 40
7.5
  0
TEXT
  8
SIZE
  6
CONTINUOUS
 62
    30
 10
921.76221571242093
 20
-159.88571428577791
 30
0.0
 40
40.0
  1
(60)
 50
90.0
 41
0.9
 51
0.0
  7
STANDARD
 71
     0
 72
     1
 11
921.76221571242093
 21
-102.2857142857779
 31
0.0
210
0.0
220
0.0
230
1.0
  0
POINT
  8
DEFPOINTS
  6
CONTINUOUS
 62
    30
 10
952.23840618852398
 20
59.999999999932697
 30
0.0
  0
POINT
  8
DEFPOINTS
  6
CONTINUOUS
 62
    30
 10
369.50000000005821
 20
-0.0000000000636646
 30
0.0
  0
POINT
  8
DEFPOINTS
  6
CONTINUOUS
 62
    30
 10
952.23840618861141
 20
-0.0000000000638297
 30
0.0
  0
LINE
  8
NOTE
  6
CONTINUOUS
 62
     4
 10
-355.68319665260788
 20
26.80773086872432
 30
0.0
 11
-339.99999999994179
 21
-0.0000000000636646
 31
0.0
  0
LINE
  8
NOTE
  6
CONTINUOUS
 62
     4
 10
-339.99999999994179
 20
-0.0000000000636646
 30
0.0
 11
-366.98591207834397
 21
15.374577746213619
 31
0.0
  0
LINE
  8
NOTE
  6
CONTINUOUS
 62
     4
 10
-339.99999999994179
 20
-0.0000000000636646
 30
0.0
 11
-361.33455436547229
 21
21.091154307468969
 31
0.0
  0
LINE
  8
NOTE
  6
CONTINUOUS
 62
     4
 10
-361.33455436547229
 20
21.091154307468969
 30
0.0
 11
-536.53386526984832
 21
194.29166450079541
 31
0.0
  0
LINE
  8
NOTE
  6
CONTINUOUS
 62
     4
 10
-536.53386526984832
 20
194.29166450079541
 30
0.0
 11
-1689.6141285493941
 21
194.29166450079541
 31
0.0
  0
TEXT
  8
NOTE
  6
CONTINUOUS
 62
     4
 10
-1677.9037021426191
 20
215.8482584732738
 30
0.0
 40
53.0
  1
2X3-14X20 Oval hole(without detachable leg)
 50
0.0000025045208307
 41
0.51
  7
KAIGAI_STANDARD_1
  0
TEXT
  8
NOTE
  6
CONTINUOUS
 62
     4
 10
-1679.664018368414
 20
279.19851535641828
 30
0.0
 40
53.0
  1
2x3-14x31 Oval hole
 50
0.0000025045208307
 41
0.51
  7
KAIGAI_STANDARD_1
  0
TEXT
  8
ETC
  6
CONTINUOUS
 62
    61
 10
-1134.117171975289
 20
2049.158154926919
 30
0.0
 40
70.0
  1
PUHY-EM500YNW-A1_5
 41
0.9
  0
LINE
  8
OUTLINE
  6
CONTINUOUS
 62
     3
 10
370.28091039835272
 20
1522.4999999999361
 30
0.0
 11
365.50000000005821
 21
1522.4999999999361
 31
0.0
  0
LINE
  8
OUTLINE
  6
CONTINUOUS
 62
     3
 10
360.00000000005821
 20
1817.0999999999369
 30
0.0
 11
363.00000000005821
 21
1817.0999999999369
 31
0.0
  0
LINE
  8
OUTLINE
  6
CONTINUOUS
 62
     3
 10
-369.65294346005248
 20
1555.06837981437
 30
0.0
 11
369.65294346097647
 21
1555.0683798143671
 31
0.0
  0
LINE
  8
OUTLINE
  6
CONTINUOUS
 62
     3
 10
-311.7999999999447
 20
-0.0000000000636646
 30
0.0
 11
-369.49999999994179
 21
-0.0000000000636646
 31
0.0
  0
LINE
  8
DETAIL
  6
CONTINUOUS
 62
     5
 10
-309.49999999994179
 20
2.2999999999356069
 30
0.0
 11
-309.49999999994179
 21
57.699999999935237
 31
0.0
  0
LINE
  8
DETAIL
  6
CONTINUOUS
 62
     5
 10
309.50000000005821
 20
2.2999999999356069
 30
0.0
 11
309.50000000005821
 21
57.699999999935237
 31
0.0
  0
ARC
  8
DETAIL
  6
CONTINUOUS
 62
     5
 10
-311.7999999999447
 20
2.2999999999356069
 30
0.0
 40
2.2999999999999989
 50
270.0
 51
0.0
  0
ARC
  8
DETAIL
  6
CONTINUOUS
 62
     5
 10
-311.7999999999447
 20
57.699999999935237
 30
0.0
 40
2.2999999999999989
 50
0.0
 51
90.0
  0
ARC
  8
DETAIL
  6
CONTINUOUS
 62
     5
 10
311.80000000006112
 20
2.2999999999356069
 30
0.0
 40
2.2999999999999989
 50
180.0
 51
270.0
  0
ARC
  8
DETAIL
  6
CONTINUOUS
 62
     5
 10
311.80000000006112
 20
57.699999999935237
 30
0.0
 40
2.2999999999999989
 50
90.0
 51
180.0
  0
LINE
  8
OUTLINE
  6
CONTINUOUS
 62
     3
 10
311.80000000006112
 20
-0.0000000000636646
 30
0.0
 11
369.50000000005821
 21
-0.0000000000636646
 31
0.0
  0
LINE
  8
DETAIL
  6
CONTINUOUS
 62
     5
 10
-311.7999999999447
 20
59.999999999934523
 30
0.0
 11
-318.99999999994179
 21
59.999999999936328
 31
0.0
  0
LINE
  8
OUTLINE
  6
CONTINUOUS
 62
     3
 10
-311.7999999999447
 20
59.999999999934523
 30
0.0
 11
-318.99999999994179
 21
59.999999999936328
 31
0.0
  0
LINE
  8
OUTLINE
  6
CONTINUOUS
 62
     3
 10
319.00000000005821
 20
59.999999999936328
 30
0.0
 11
311.80000000006112
 21
59.999999999934523
 31
0.0
  0
LINE
  8
NOTE
  6
CONTINUOUS
 62
     4
 10
319.88724409459252
 20
-0.0000000000636646
 30
0.0
 11
360.1127559055239
 21
-0.0000000000636646
 31
0.0
  0
LINE
  8
NOTE
  6
CONTINUOUS
 62
     4
 10
-360.76275590540899
 20
-0.0000000000636646
 30
0.0
 11
-320.5372440944775
 21
-0.0000000000636646
 31
0.0
  0
LINE
  8
SIZE
  6
CONTINUOUS
 62
    30
 10
244.00294372525241
 20
175.99999999993631
 30
0.0
 11
647.22338403068704
 21
175.99999999993619
 31
0.0
  0
LINE
  8
SIZE
  6
CONTINUOUS
 62
    30
 10
389.50000000005821
 20
59.999999999936328
 30
0.0
 11
647.22338403068704
 21
59.999999999936257
 31
0.0
  0
LINE
  8
SIZE
  6
CONTINUOUS
 62
    30
 10
627.22338403068716
 20
175.99999999993619
 30
0.0
 11
627.22338403068716
 21
59.999999999936257
 31
0.0
  0
CIRCLE
  8
SIZE
  6
CONTINUOUS
 62
    30
 10
627.22338403068716
 20
175.99999999993619
 30
0.0
 40
7.5
  0
CIRCLE
  8
SIZE
  6
CONTINUOUS
 62
    30
 10
627.22338403068716
 20
59.999999999936257
 30
0.0
 40
7.5
  0
TEXT
  8
SIZE
  6
CONTINUOUS
 62
    30
 10
607.22338403068704
 20
74.979999999936325
 30
0.0
 40
40.0
  1
116
 50
90.0
 41
0.9
 51
0.0
  7
STANDARD
 71
     0
 72
     1
 11
607.22338403068704
 21
117.99999999993631
 31
0.0
210
0.0
220
0.0
230
1.0
  0
POINT
  8
DEFPOINTS
  6
CONTINUOUS
 62
    30
 10
224.00294372525241
 20
175.99999999993631
 30
0.0
  0
POINT
  8
DEFPOINTS
  6
CONTINUOUS
 62
    30
 10
369.50000000005821
 20
59.999999999936328
 30
0.0
  0
POINT
  8
DEFPOINTS
  6
CONTINUOUS
 62
    30
 10
627.22338403068716
 20
59.999999999936257
 30
0.0
  0
LINE
  8
NOTE
  6
CONTINUOUS
 62
     4
 10
164.5827421343638
 20
195.81012487159751
 30
0.0
 11
188.50294372525241
 21
175.99999999993631
 31
0.0
  0
LINE
  8
NOTE
  6
CONTINUOUS
 62
     4
 10
188.50294372525241
 20
175.99999999993631
 30
0.0
 11
157.88237907164151
 21
181.19597073440491
 31
0.0
  0
LINE
  8
NOTE
  6
CONTINUOUS
 62
     4
 10
188.50294372525241
 20
175.99999999993631
 30
0.0
 11
161.23256060300619
 21
188.5030478030003
 31
0.0
  0
LINE
  8
NOTE
  6
CONTINUOUS
 62
     4
 10
161.23256060300619
 20
188.5030478030003
 30
0.0
 11
-536.53386526984832
 21
508.4181343990403
 31
0.0
  0
LINE
  8
NOTE
  6
CONTINUOUS
 62
     4
 10
-536.53386526984832
 20
508.4181343990403
 30
0.0
 11
-1324.833294668708
 21
508.4181343990403
 31
0.0
  0
LINE
  8
NOTE
  6
CONTINUOUS
 62
     4
 10
166.51475359645701
 20
212.31880936115519
 30
0.0
 11
184.50294372525241
 21
186.99999999993631
 31
0.0
  0
LINE
  8
NOTE
  6
CONTINUOUS
 62
     4
 10
184.50294372525241
 20
186.99999999993631
 30
0.0
 11
156.26530948367139
 21
199.93263716403089
 31
0.0
  0
LINE
  8
NOTE
  6
CONTINUOUS
 62
     4
 10
184.50294372525241
 20
186.99999999993631
 30
0.0
 11
161.39003154006059
 21
206.12572326259209
 31
0.0
  0
LINE
  8
NOTE
  6
CONTINUOUS
 62
     4
 10
161.39003154006059
 20
206.12572326259209
 30
0.0
 11
-535.09311614542821
 21
782.45915251659414
 31
0.0
  0
LINE
  8
NOTE
  6
CONTINUOUS
 62
     4
 10
-535.09311614542821
 20
782.45915251659414
 30
0.0
 11
-1324.833294668708
 21
782.45915251659414
 31
0.0
  0
TEXT
  8
NOTE
  6
CONTINUOUS
 62
     4
 10
-1306.8826752345119
 20
530.26161334691824
 30
0.0
 40
53.0
  1
Service valve %%C28.58<Gas> 
 50
359.99999749547919
 41
0.51
  7
KAIGAI_STANDARD_1
  0
TEXT
  8
NOTE
  6
CONTINUOUS
 62
     4
 10
-1306.6596100493989
 20
608.5140035789791
 30
0.0
 40
53.0
  1
For Refrigerant pipe %%C28.58
 50
359.99999749547919
 41
0.51
  7
KAIGAI_STANDARD_1
  0
TEXT
  8
NOTE
  6
CONTINUOUS
 62
     4
 10
-1310.1744835806669
 20
793.84819226556101
 30
0.0
 40
53.0
  1
Service valve %%C15.88<Liquid> 
 50
359.99999749547919
 41
0.51
  7
KAIGAI_STANDARD_1
  0
TEXT
  8
NOTE
  6
CONTINUOUS
 62
     4
 10
-1310.1339770935961
 20
872.10058131607911
 30
0.0
 40
53.0
  1
For Refrigerant pipe %%C15.88 
 50
359.99999749547919
 41
0.51
  7
KAIGAI_STANDARD_1
  0
LINE
  8
OUTLINE
  6
CONTINUOUS
 62
     3
 10
360.00000000005821
 20
1817.0999999999369
 30
0.0
 11
360.00000000005821
 21
1816.9999999999361
 31
0.0
  0
LINE
  8
OUTLINE
  6
CONTINUOUS
 62
     3
 10
362.7000000000553
 20
1815.9999999999361
 30
0.0
 11
360.99973351350491
 21
1816.000000035335
 31
0.0
  0
ARC
  8
OUTLINE
  6
CONTINUOUS
 62
     3
 10
360.99999996325641
 20
1816.9999999644369
 30
0.0
 40
0.9999999645999999
 50
179.99999796957781
 51
269.98473355318879
  0
ARC
  8
OUTLINE
  6
CONTINUOUS
 62
     3
 10
362.7000000000553
 20
1815.6999999999371
 30
0.0
 40
0.3
 50
0.0
 51
90.0
  0
LINE
  8
NOTE
  6
CONTINUOUS
 62
     4
 10
149.00294372525241
 20
186.99999999993631
 30
0.0
 11
220.00294372525241
 21
186.99999999993631
 31
0.0
  0
LINE
  8
NOTE
  6
CONTINUOUS
 62
     4
 10
184.50294372525241
 20
151.49999999993631
 30
0.0
 11
184.50294372525241
 21
222.49999999993631
 31
0.0
  0
LINE
  8
SIZE
  6
CONTINUOUS
 62
    30
 10
184.50294372525241
 20
242.49999999993631
 30
0.0
 11
184.50294372525241
 21
603.37124399071945
 31
0.0
  0
LINE
  8
SIZE
  6
CONTINUOUS
 62
    30
 10
369.50000000005821
 20
195.99999999993631
 30
0.0
 11
369.50000000005821
 21
603.37124399071945
 31
0.0
  0
LINE
  8
SIZE
  6
CONTINUOUS
 62
    30
 10
184.50294372525241
 20
583.37124399071945
 30
0.0
 11
369.50000000005821
 21
583.37124399071945
 31
0.0
  0
LINE
  8
SIZE
  6
CONTINUOUS
 62
    30
 10
369.50000000005821
 20
583.37124399071945
 30
0.0
 11
525.21428571434603
 21
583.37124399071945
 31
0.0
  0
CIRCLE
  8
SIZE
  6
CONTINUOUS
 62
    30
 10
184.50294372525241
 20
583.37124399071945
 30
0.0
 40
7.5
  0
CIRCLE
  8
SIZE
  6
CONTINUOUS
 62
    30
 10
369.50000000005821
 20
583.37124399071945
 30
0.0
 40
7.5
  0
TEXT
  8
SIZE
  6
CONTINUOUS
 62
    30
 10
415.73714285720308
 20
603.37124399071945
 30
0.0
 40
40.0
  1
185
 50
0.0
 41
0.9
 51
0.0
  7
STANDARD
 71
     0
 72
     1
 11
462.35714285720309
 21
603.37124399071945
 31
0.0
210
0.0
220
0.0
230
1.0
  0
POINT
  8
DEFPOINTS
  6
CONTINUOUS
 62
    30
 10
184.50294372525241
 20
222.49999999993631
 30
0.0
  0
POINT
  8
DEFPOINTS
  6
CONTINUOUS
 62
    30
 10
369.50000000005821
 20
175.99999999993631
 30
0.0
  0
POINT
  8
DEFPOINTS
  6
CONTINUOUS
 62
    30
 10
369.50000000005821
 20
583.37124399071945
 30
0.0
  0
LINE
  8
SIZE
  6
CONTINUOUS
 62
    30
 10
240.00294372525241
 20
186.99999999993631
 30
0.0
 11
759.89114255195454
 21
186.99999999993619
 31
0.0
  0
LINE
  8
SIZE
  6
CONTINUOUS
 62
    30
 10
389.50000000005821
 20
59.999999999936328
 30
0.0
 11
759.89114255195454
 21
59.999999999936222
 31
0.0
  0
LINE
  8
SIZE
  6
CONTINUOUS
 62
    30
 10
739.89114255195454
 20
186.99999999993619
 30
0.0
 11
739.89114255195454
 21
59.999999999936229
 31
0.0
  0
CIRCLE
  8
SIZE
  6
CONTINUOUS
 62
    30
 10
739.89114255195454
 20
186.99999999993619
 30
0.0
 40
7.5
  0
CIRCLE
  8
SIZE
  6
CONTINUOUS
 62
    30
 10
739.89114255195454
 20
59.999999999936229
 30
0.0
 40
7.5
  0
TEXT
  8
SIZE
  6
CONTINUOUS
 62
    30
 10
719.89114255195454
 20
76.879999999936302
 30
0.0
 40
40.0
  1
127
 50
90.0
 41
0.9
 51
0.0
  7
STANDARD
 71
     0
 72
     1
 11
719.89114255195454
 21
123.49999999993631
 31
0.0
210
0.0
220
0.0
230
1.0
  0
POINT
  8
DEFPOINTS
  6
CONTINUOUS
 62
    30
 10
220.00294372525241
 20
186.99999999993631
 30
0.0
  0
POINT
  8
DEFPOINTS
  6
CONTINUOUS
 62
    30
 10
369.50000000005821
 20
59.999999999936328
 30
0.0
  0
POINT
  8
DEFPOINTS
  6
CONTINUOUS
 62
    30
 10
739.89114255195454
 20
59.999999999936229
 30
0.0
  0
ENDSEC
  0
EOF

