  0
SECTION
  2
HEADER
  9
$ACADVER
  1
AC1006
  9
$INSBASE
 10
0.0
 20
0.0
 30
0.0
  9
$EXTMIN
 10
-1268.2380368776321
 20
-508.48240149521371
  9
$EXTMAX
 10
1520.3517481985909
 20
2119.4368683546381
  9
$LIMMIN
 10
-4267.1522210604817
 20
-2696.0832101984129
  9
$LIMMAX
 10
7190.7174225864646
 20
5141.155363923066
  9
$ORTHOMODE
 70
     0
  9
$REGENMODE
 70
     1
  9
$FILLMODE
 70
     1
  9
$QTEXTMODE
 70
     0
  9
$MIRRTEXT
 70
     0
  9
$LTSCALE
 40
20.0
  9
$ATTMODE
 70
     1
  9
$TEXTSIZE
 40
53.0
  9
$TRACEWID
 40
0.05
  9
$TEXTSTYLE
  7
KAIGAI_STANDARD_1
  9
$CLAYER
  8
NOTE
  9
$CELTYPE
  6
CONTINUOUS
  9
$CECOLOR
 62
     7
  9
$DIMSCALE
 40
1.0
  9
$DIMASZ
 40
30.0
  9
$DIMEXO
 40
20.0
  9
$DIMDLI
 40
80.0
  9
$DIMRND
 40
0.0
  9
$DIMDLE
 40
0.0
  9
$DIMEXE
 40
20.0
  9
$DIMTP
 40
0.0
  9
$DIMTM
 40
0.0
  9
$DIMTXT
 40
40.0
  9
$DIMCEN
 40
0.09
  9
$DIMTSZ
 40
0.0
  9
$DIMTOL
 70
     0
  9
$DIMLIM
 70
     0
  9
$DIMTIH
 70
     0
  9
$DIMTOH
 70
     0
  9
$DIMSE1
 70
     0
  9
$DIMSE2
 70
     0
  9
$DIMTAD
 70
     1
  9
$DIMZIN
 70
     8
  9
$DIMBLK
  1

  9
$DIMASO
 70
     1
  9
$DIMSHO
 70
     0
  9
$DIMPOST
  1

  9
$DIMAPOST
  1

  9
$DIMALT
 70
     0
  9
$DIMALTD
 70
     2
  9
$DIMALTF
 40
25.399999999999999
  9
$DIMLFAC
 40
1.0
  9
$DIMTOFL
 70
     1
  9
$DIMTVP
 40
0.0
  9
$DIMTIX
 70
     0
  9
$DIMSOXD
 70
     0
  9
$DIMSAH
 70
     0
  9
$DIMBLK1
  1

  9
$DIMBLK2
  1

  9
$LUNITS
 70
     2
  9
$LUPREC
 70
     4
  9
$SKETCHINC
 40
0.1
  9
$FILLETRAD
 40
0.0
  9
$AUNITS
 70
     1
  9
$AUPREC
 70
     3
  9
$MENU
  1
ACAD
  9
$ELEVATION
 40
0.0
  9
$THICKNESS
 40
0.0
  9
$LIMCHECK
 70
     0
  9
$CHAMFERA
 40
0.0
  9
$CHAMFERB
 40
0.0
  9
$SKPOLY
 70
     0
  9
$TDCREATE
 40
2455902.607169062
  9
$TDUPDATE
 40
2457837.413215579
  9
$TDINDWG
 40
1.637997037
  9
$TDUSRTIMER
 40
1.6379934375
  9
$USRTIMER
 70
     1
  9
$ANGBASE
 50
0.0
  9
$ANGDIR
 70
     0
  9
$PDMODE
 70
     3
  9
$PDSIZE
 40
-2.0
  9
$PLINEWID
 40
0.0
  9
$SPLFRAME
 70
     0
  9
$SPLINETYPE
 70
     6
  9
$SPLINESEGS
 70
     8
  9
$SURFTAB1
 70
     6
  9
$SURFTAB2
 70
     6
  9
$SURFTYPE
 70
     6
  9
$SURFU
 70
     6
  9
$SURFV
 70
     6
  9
$UCSNAME
  2

  9
$UCSORG
 10
0.0
 20
0.0
 30
0.0
  9
$UCSXDIR
 10
1.0
 20
0.0
 30
0.0
  9
$UCSYDIR
 10
0.0
 20
1.0
 30
0.0
  9
$USERI1
 70
     0
  9
$USERI2
 70
     0
  9
$USERI3
 70
     0
  9
$USERI4
 70
     0
  9
$USERI5
 70
     0
  9
$USERR1
 40
20.0
  9
$USERR2
 40
0.0
  9
$USERR3
 40
0.0
  9
$USERR4
 40
0.0
  9
$USERR5
 40
0.0
  9
$WORLDVIEW
 70
     1
  9
$ATTDIA
 70
     0
  9
$ATTREQ
 70
     1
  9
$BLIPMODE
 70
     1
  9
$COORDS
 70
     1
  9
$DRAGMODE
 70
     2
  9
$OSMODE
 70
     0
  9
$HANDLING
 70
     0
  9
$HANDSEED
  5
99C53
  0
ENDSEC
  0
SECTION
  2
TABLES
  0
TABLE
  2
LTYPE
 70
     2
  0
LTYPE
  2
CONTINUOUS
 70
     0
  3
実線
 72
    65
 73
     0
 40
0.0
  0
LTYPE
  2
DASHDOT
 70
     0
  3
____ _ ____ _ ____ _ ____ _ ____ _ ____ _ ____
 72
    65
 73
     4
 40
5.5
 49
4.0
 49
-0.6
 49
0.3
 49
-0.6
  0
ENDTAB
  0
TABLE
  2
LAYER
 70
    12
  0
LAYER
  2
0
 70
     0
 62
     7
  6
CONTINUOUS
  0
LAYER
  2
OUTLINE
 70
     0
 62
     3
  6
CONTINUOUS
  0
LAYER
  2
DETAIL
 70
     0
 62
     5
  6
CONTINUOUS
  0
LAYER
  2
BASIS
 70
     0
 62
     6
  6
DASHDOT
  0
LAYER
  2
SIZE
 70
     0
 62
    30
  6
CONTINUOUS
  0
LAYER
  2
NOTE
 70
     0
 62
     4
  6
CONTINUOUS
  0
LAYER
  2
ARRANGE
 70
     0
 62
     1
  6
CONTINUOUS
  0
LAYER
  2
FIX
 70
     0
 62
    11
  6
CONTINUOUS
  0
LAYER
  2
SERVICESPACE
 70
     0
 62
     2
  6
DASHDOT
  0
LAYER
  2
ETC
 70
     0
 62
    61
  6
CONTINUOUS
  0
LAYER
  2
SYMBOLLINE
 70
     0
 62
    15
  6
CONTINUOUS
  0
LAYER
  2
DEFPOINTS
 70
     0
 62
     7
  6
CONTINUOUS
  0
ENDTAB
  0
TABLE
  2
STYLE
 70
     2
  0
STYLE
  2
STANDARD
 70
     0
 40
0.0
 41
0.9
 50
0.0
 71
     0
 42
64.0
  3
SIMPLEX
  4
BIGFONT
  0
STYLE
  2
KAIGAI_STANDARD_1
 70
     0
 40
53.0
 41
0.51
 50
0.0
 71
     0
 42
53.0
  3
MONOTXT.shx
  4
BIGFONT.shx
  0
ENDTAB
  0
TABLE
  2
VIEW
 70
     1
  0
VIEW
  2
ALL
 70
     0
 40
9000.0
 10
241.50664699999999
 20
0.0
 41
12483.01
 11
0.0
 21
0.0
 31
1.0
 12
0.0
 22
0.0
 32
0.0
 42
50.0
 43
0.0
 44
0.0
 50
0.0
 71
     0
  0
ENDTAB
  0
TABLE
  2
UCS
 70
     0
  0
ENDTAB
  0
TABLE
  2
VPORT
 70
     1
  0
VPORT
  2
*ACTIVE
 70
     0
 10
0.0
 20
0.0
 11
1.0
 21
1.0
 12
126.0568556604792
 22
805.47723342971233
 13
0.0
 23
0.0
 14
50.0
 24
50.0
 15
100.0
 25
100.0
 16
0.0
 26
0.0
 36
1.0
 17
0.0
 27
0.0
 37
0.0
 40
2648.0052770079401
 41
2.3073979591836729
 42
50.0
 43
0.0
 44
0.0
 50
0.0
 51
0.0
 71
     0
 72
  1000
 73
     1
 74
     0
 75
     0
 76
     0
 77
     0
 78
     0
  0
ENDTAB
  0
TABLE
  2
DWGMGR
 70
     0
  0
ENDTAB
  0
ENDSEC
  0
SECTION
  2
BLOCKS
  0
ENDSEC
  0
SECTION
  2
ENTITIES
  0
LINE
  8
DETAIL
  6
CONTINUOUS
 62
     5
 10
306.80940107665077
 20
70.499999999936335
 30
0.0
 11
309.11880215344718
 21
74.499999999936335
 31
0.0
  0
LINE
  8
DETAIL
  6
CONTINUOUS
 62
     5
 10
299.8811978463491
 20
74.499999999936335
 30
0.0
 11
302.19059892316
 21
78.499999999936335
 31
0.0
  0
LINE
  8
DETAIL
  6
CONTINUOUS
 62
     5
 10
312.80940107665077
 20
106.99999999993631
 30
0.0
 11
315.11880215344718
 21
110.99999999993631
 31
0.0
  0
LINE
  8
DETAIL
  6
CONTINUOUS
 62
     5
 10
305.8811978463491
 20
110.99999999993631
 30
0.0
 11
308.19059892316
 21
114.99999999993631
 31
0.0
  0
LINE
  8
DETAIL
  6
CONTINUOUS
 62
     5
 10
246.8094010766508
 20
106.99999999993631
 30
0.0
 11
249.11880215344721
 21
110.99999999993631
 31
0.0
  0
LINE
  8
DETAIL
  6
CONTINUOUS
 62
     5
 10
239.8811978463491
 20
110.99999999993631
 30
0.0
 11
242.19059892316
 21
114.99999999993631
 31
0.0
  0
LINE
  8
DETAIL
  6
CONTINUOUS
 62
     5
 10
-369.50000000005087
 20
-0.0000000000636646
 30
0.0
 11
-317.00000000005087
 21
-0.0000000000636646
 31
0.0
  0
LINE
  8
DETAIL
  6
CONTINUOUS
 62
     5
 10
316.99999999994179
 20
-0.0000000000636646
 30
0.0
 11
369.49999999994179
 21
-0.0000000000636646
 31
0.0
  0
LINE
  8
DETAIL
  6
CONTINUOUS
 62
     5
 10
-369.50000000005087
 20
2.2999999999356069
 30
0.0
 11
-317.00000000005087
 21
2.2999999999356069
 31
0.0
  0
LINE
  8
DETAIL
  6
CONTINUOUS
 62
     5
 10
316.99999999994179
 20
2.2999999999356069
 30
0.0
 11
369.49999999994179
 21
2.2999999999356069
 31
0.0
  0
LINE
  8
DETAIL
  6
CONTINUOUS
 62
     5
 10
-319.50000000005087
 20
3.9999999999363349
 30
0.0
 11
-315.80000000004662
 21
3.9999999999363349
 31
0.0
  0
LINE
  8
DETAIL
  6
CONTINUOUS
 62
     5
 10
315.79999999995931
 20
3.9999999999363349
 30
0.0
 11
319.49999999994179
 21
3.9999999999363349
 31
0.0
  0
LINE
  8
DETAIL
  6
CONTINUOUS
 62
     5
 10
284.30940107665077
 20
300.99999999993628
 30
0.0
 11
286.61880215344718
 21
304.99999999993628
 31
0.0
  0
LINE
  8
DETAIL
  6
CONTINUOUS
 62
     5
 10
277.3811978463491
 20
304.99999999993628
 30
0.0
 11
279.69059892316
 21
308.99999999993628
 31
0.0
  0
LINE
  8
DETAIL
  6
CONTINUOUS
 62
     5
 10
369.49999999994179
 20
2.2999999999356069
 30
0.0
 11
369.49999999994179
 21
-0.0000000000636646
 31
0.0
  0
LINE
  8
DETAIL
  6
CONTINUOUS
 62
     5
 10
369.49999999994179
 20
57.699999999937063
 30
0.0
 11
369.49999999994179
 21
62.299999999935608
 31
0.0
  0
LINE
  8
DETAIL
  6
CONTINUOUS
 62
     5
 10
367.49999999994179
 20
57.699999999937063
 30
0.0
 11
367.49999999994179
 21
2.2999999999356069
 31
0.0
  0
LINE
  8
DETAIL
  6
CONTINUOUS
 62
     5
 10
370.28091039814171
 20
1522.4999999999361
 30
0.0
 11
369.99760774915922
 21
1553.963268127836
 31
0.0
  0
LINE
  8
DETAIL
  6
CONTINUOUS
 62
     5
 10
365.0265621793514
 20
1641.074277792535
 30
0.0
 11
367.38842298794771
 21
1559.254987546037
 31
0.0
  0
LINE
  8
DETAIL
  6
CONTINUOUS
 62
     5
 10
365.02656205935642
 20
1641.074280214636
 30
0.0
 11
360.0285533524584
 21
1755.5474998459381
 31
0.0
  0
LINE
  8
DETAIL
  6
CONTINUOUS
 62
     5
 10
-319.50000000005087
 20
55.999999999936342
 30
0.0
 11
-315.80000000004662
 21
55.999999999936342
 31
0.0
  0
LINE
  8
DETAIL
  6
CONTINUOUS
 62
     5
 10
315.79999999995931
 20
55.999999999936342
 30
0.0
 11
319.49999999994179
 21
55.999999999936342
 31
0.0
  0
LINE
  8
DETAIL
  6
CONTINUOUS
 62
     5
 10
-369.50000000005087
 20
57.699999999937063
 30
0.0
 11
-317.00000000005087
 21
57.699999999937063
 31
0.0
  0
LINE
  8
DETAIL
  6
CONTINUOUS
 62
     5
 10
316.99999999994179
 20
57.699999999937063
 30
0.0
 11
369.49999999994179
 21
57.699999999937063
 31
0.0
  0
LINE
  8
DETAIL
  6
CONTINUOUS
 62
     5
 10
-369.50000000005087
 20
59.999999999936328
 30
0.0
 11
-317.00000000005087
 21
59.999999999936328
 31
0.0
  0
LINE
  8
DETAIL
  6
CONTINUOUS
 62
     5
 10
316.99999999994179
 20
59.999999999936328
 30
0.0
 11
369.49999999994179
 21
59.999999999936328
 31
0.0
  0
LINE
  8
DETAIL
  6
CONTINUOUS
 62
     5
 10
369.49999999994179
 20
62.299999999935608
 30
0.0
 11
318.99999999994179
 21
62.299999999935608
 31
0.0
  0
LINE
  8
DETAIL
  6
CONTINUOUS
 62
     5
 10
-319.00000000005087
 20
62.299999999935608
 30
0.0
 11
-369.50000000005087
 21
62.299999999935608
 31
0.0
  0
LINE
  8
DETAIL
  6
CONTINUOUS
 62
     5
 10
-320.46357325974532
 20
64.499999999936335
 30
0.0
 11
-300.80000000004662
 21
64.499999999936335
 31
0.0
  0
LINE
  8
DETAIL
  6
CONTINUOUS
 62
     5
 10
-306.80940107684728
 20
70.499999999936335
 30
0.0
 11
-302.19059892334923
 21
70.499999999936335
 31
0.0
  0
LINE
  8
DETAIL
  6
CONTINUOUS
 62
     5
 10
302.19059892316
 20
70.499999999936335
 30
0.0
 11
306.80940107665077
 21
70.499999999936335
 31
0.0
  0
LINE
  8
DETAIL
  6
CONTINUOUS
 62
     5
 10
304.79999999995931
 20
72.499999999936335
 30
0.0
 11
304.19999999995338
 21
72.499999999936335
 31
0.0
  0
LINE
  8
DETAIL
  6
CONTINUOUS
 62
     5
 10
-304.20000000004802
 20
72.499999999936335
 30
0.0
 11
-304.80000000004662
 21
72.499999999936335
 31
0.0
  0
LINE
  8
DETAIL
  6
CONTINUOUS
 62
     5
 10
306.49999999994179
 20
74.199999999937063
 30
0.0
 11
304.79999999995931
 21
74.199999999937063
 31
0.0
  0
LINE
  8
DETAIL
  6
CONTINUOUS
 62
     5
 10
304.19999999995338
 20
74.199999999937063
 30
0.0
 11
302.49999999994179
 21
74.199999999937063
 31
0.0
  0
LINE
  8
DETAIL
  6
CONTINUOUS
 62
     5
 10
-302.50000000005087
 20
74.199999999937063
 30
0.0
 11
-304.20000000004802
 21
74.199999999937063
 31
0.0
  0
LINE
  8
DETAIL
  6
CONTINUOUS
 62
     5
 10
-304.80000000004662
 20
74.199999999937063
 30
0.0
 11
-306.50000000005087
 21
74.199999999937063
 31
0.0
  0
LINE
  8
DETAIL
  6
CONTINUOUS
 62
     5
 10
-306.50000000005087
 20
74.799999999935608
 30
0.0
 11
-304.80000000004662
 21
74.799999999935608
 31
0.0
  0
LINE
  8
DETAIL
  6
CONTINUOUS
 62
     5
 10
-304.20000000004802
 20
74.799999999935608
 30
0.0
 11
-302.50000000005087
 21
74.799999999935608
 31
0.0
  0
LINE
  8
DETAIL
  6
CONTINUOUS
 62
     5
 10
302.49999999994179
 20
74.799999999935608
 30
0.0
 11
304.19999999995338
 21
74.799999999935608
 31
0.0
  0
LINE
  8
DETAIL
  6
CONTINUOUS
 62
     5
 10
304.79999999995931
 20
74.799999999935608
 30
0.0
 11
306.49999999994179
 21
74.799999999935608
 31
0.0
  0
LINE
  8
DETAIL
  6
CONTINUOUS
 62
     5
 10
-304.80000000004662
 20
76.499999999936335
 30
0.0
 11
-304.20000000004802
 21
76.499999999936335
 31
0.0
  0
LINE
  8
DETAIL
  6
CONTINUOUS
 62
     5
 10
304.19999999995338
 20
76.499999999936335
 30
0.0
 11
304.79999999995931
 21
76.499999999936335
 31
0.0
  0
LINE
  8
DETAIL
  6
CONTINUOUS
 62
     5
 10
-306.80940107684728
 20
78.499999999936335
 30
0.0
 11
-302.19059892334923
 21
78.499999999936335
 31
0.0
  0
LINE
  8
DETAIL
  6
CONTINUOUS
 62
     5
 10
302.19059892316
 20
78.499999999936335
 30
0.0
 11
306.80940107665077
 21
78.499999999936335
 31
0.0
  0
LINE
  8
DETAIL
  6
CONTINUOUS
 62
     5
 10
-295.80000000004651
 20
87.999999999936335
 30
0.0
 11
295.79999999995931
 21
87.999999999936335
 31
0.0
  0
LINE
  8
DETAIL
  6
CONTINUOUS
 62
     5
 10
295.79999999995931
 20
93.007179676935266
 30
0.0
 11
-149.5000000000509
 21
93.007179676935266
 31
0.0
  0
LINE
  8
DETAIL
  6
CONTINUOUS
 62
     5
 10
297.49999999994179
 20
94.999999999936335
 30
0.0
 11
295.79999999995931
 21
94.999999999936335
 31
0.0
  0
LINE
  8
DETAIL
  6
CONTINUOUS
 62
     5
 10
-365.50000000005087
 20
94.999999999936335
 30
0.0
 11
-363.95064030274813
 21
94.999999999936335
 31
0.0
  0
LINE
  8
DETAIL
  6
CONTINUOUS
 62
     5
 10
-296.50000000005087
 20
94.999999999936335
 30
0.0
 11
-295.80000000004651
 21
94.999999999936335
 31
0.0
  0
LINE
  8
DETAIL
  6
CONTINUOUS
 62
     5
 10
-295.80000000004651
 20
94.999999999936335
 30
0.0
 11
-152.5000000000509
 21
94.999999999936335
 31
0.0
  0
LINE
  8
DETAIL
  6
CONTINUOUS
 62
     5
 10
-160.09996405425039
 20
96.999999999936335
 30
0.0
 11
-152.5000000000509
 21
96.999999999936335
 31
0.0
  0
LINE
  8
DETAIL
  6
CONTINUOUS
 62
     5
 10
-291.50000000005087
 20
99.999999999936335
 30
0.0
 11
-166.5000000000509
 21
99.999999999936335
 31
0.0
  0
LINE
  8
DETAIL
  6
CONTINUOUS
 62
     5
 10
-176.80940107684731
 20
106.99999999993631
 30
0.0
 11
-172.1905989233492
 21
106.99999999993631
 31
0.0
  0
LINE
  8
DETAIL
  6
CONTINUOUS
 62
     5
 10
-112.80940107684729
 20
106.99999999993631
 30
0.0
 11
-108.1905989233491
 21
106.99999999993631
 31
0.0
  0
LINE
  8
DETAIL
  6
CONTINUOUS
 62
     5
 10
242.19059892316
 20
106.99999999993631
 30
0.0
 11
246.8094010766508
 21
106.99999999993631
 31
0.0
  0
LINE
  8
DETAIL
  6
CONTINUOUS
 62
     5
 10
308.19059892316
 20
106.99999999993631
 30
0.0
 11
312.80940107665077
 21
106.99999999993631
 31
0.0
  0
LINE
  8
DETAIL
  6
CONTINUOUS
 62
     5
 10
310.7999999999592
 20
108.99999999993631
 30
0.0
 11
310.19999999995338
 21
108.99999999993631
 31
0.0
  0
LINE
  8
DETAIL
  6
CONTINUOUS
 62
     5
 10
244.79999999995931
 20
108.99999999993631
 30
0.0
 11
244.19999999995341
 21
108.99999999993631
 31
0.0
  0
LINE
  8
DETAIL
  6
CONTINUOUS
 62
     5
 10
-110.20000000004799
 20
108.99999999993631
 30
0.0
 11
-110.8000000000465
 21
108.99999999993631
 31
0.0
  0
LINE
  8
DETAIL
  6
CONTINUOUS
 62
     5
 10
-174.20000000004799
 20
108.99999999993631
 30
0.0
 11
-174.80000000004651
 21
108.99999999993631
 31
0.0
  0
LINE
  8
DETAIL
  6
CONTINUOUS
 62
     5
 10
312.49999999994179
 20
110.69999999993701
 30
0.0
 11
310.7999999999592
 21
110.69999999993701
 31
0.0
  0
LINE
  8
DETAIL
  6
CONTINUOUS
 62
     5
 10
310.19999999995338
 20
110.69999999993701
 30
0.0
 11
308.49999999994179
 21
110.69999999993701
 31
0.0
  0
LINE
  8
DETAIL
  6
CONTINUOUS
 62
     5
 10
246.49999999994179
 20
110.69999999993701
 30
0.0
 11
244.79999999995931
 21
110.69999999993701
 31
0.0
  0
LINE
  8
DETAIL
  6
CONTINUOUS
 62
     5
 10
244.19999999995341
 20
110.69999999993701
 30
0.0
 11
242.49999999994179
 21
110.69999999993701
 31
0.0
  0
LINE
  8
DETAIL
  6
CONTINUOUS
 62
     5
 10
-108.5000000000509
 20
110.69999999993701
 30
0.0
 11
-110.20000000004799
 21
110.69999999993701
 31
0.0
  0
LINE
  8
DETAIL
  6
CONTINUOUS
 62
     5
 10
-110.8000000000465
 20
110.69999999993701
 30
0.0
 11
-112.5000000000509
 21
110.69999999993701
 31
0.0
  0
LINE
  8
DETAIL
  6
CONTINUOUS
 62
     5
 10
-172.5000000000509
 20
110.69999999993701
 30
0.0
 11
-174.20000000004799
 21
110.69999999993701
 31
0.0
  0
LINE
  8
DETAIL
  6
CONTINUOUS
 62
     5
 10
-174.80000000004651
 20
110.69999999993701
 30
0.0
 11
-176.5000000000509
 21
110.69999999993701
 31
0.0
  0
LINE
  8
DETAIL
  6
CONTINUOUS
 62
     5
 10
-176.5000000000509
 20
111.29999999993559
 30
0.0
 11
-174.80000000004651
 21
111.29999999993559
 31
0.0
  0
LINE
  8
DETAIL
  6
CONTINUOUS
 62
     5
 10
-174.20000000004799
 20
111.29999999993559
 30
0.0
 11
-172.5000000000509
 21
111.29999999993559
 31
0.0
  0
LINE
  8
DETAIL
  6
CONTINUOUS
 62
     5
 10
-112.5000000000509
 20
111.29999999993559
 30
0.0
 11
-110.8000000000465
 21
111.29999999993559
 31
0.0
  0
LINE
  8
DETAIL
  6
CONTINUOUS
 62
     5
 10
-110.20000000004799
 20
111.29999999993559
 30
0.0
 11
-108.5000000000509
 21
111.29999999993559
 31
0.0
  0
LINE
  8
DETAIL
  6
CONTINUOUS
 62
     5
 10
242.49999999994179
 20
111.29999999993559
 30
0.0
 11
244.19999999995341
 21
111.29999999993559
 31
0.0
  0
LINE
  8
DETAIL
  6
CONTINUOUS
 62
     5
 10
244.79999999995931
 20
111.29999999993559
 30
0.0
 11
246.49999999994179
 21
111.29999999993559
 31
0.0
  0
LINE
  8
DETAIL
  6
CONTINUOUS
 62
     5
 10
308.49999999994179
 20
111.29999999993559
 30
0.0
 11
310.19999999995338
 21
111.29999999993559
 31
0.0
  0
LINE
  8
DETAIL
  6
CONTINUOUS
 62
     5
 10
310.7999999999592
 20
111.29999999993559
 30
0.0
 11
312.49999999994179
 21
111.29999999993559
 31
0.0
  0
LINE
  8
DETAIL
  6
CONTINUOUS
 62
     5
 10
-174.80000000004651
 20
112.99999999993631
 30
0.0
 11
-174.20000000004799
 21
112.99999999993631
 31
0.0
  0
LINE
  8
DETAIL
  6
CONTINUOUS
 62
     5
 10
-110.8000000000465
 20
112.99999999993631
 30
0.0
 11
-110.20000000004799
 21
112.99999999993631
 31
0.0
  0
LINE
  8
DETAIL
  6
CONTINUOUS
 62
     5
 10
244.19999999995341
 20
112.99999999993631
 30
0.0
 11
244.79999999995931
 21
112.99999999993631
 31
0.0
  0
LINE
  8
DETAIL
  6
CONTINUOUS
 62
     5
 10
310.19999999995338
 20
112.99999999993631
 30
0.0
 11
310.7999999999592
 21
112.99999999993631
 31
0.0
  0
LINE
  8
DETAIL
  6
CONTINUOUS
 62
     5
 10
-159.30000000004651
 20
113.99999999993631
 30
0.0
 11
-160.10000000004939
 21
113.99999999993631
 31
0.0
  0
LINE
  8
DETAIL
  6
CONTINUOUS
 62
     5
 10
293.29999999995931
 20
113.99999999993631
 30
0.0
 11
294.09999999994761
 21
113.99999999993631
 31
0.0
  0
LINE
  8
DETAIL
  6
CONTINUOUS
 62
     5
 10
-176.80940107684731
 20
114.99999999993631
 30
0.0
 11
-172.1905989233492
 21
114.99999999993631
 31
0.0
  0
LINE
  8
DETAIL
  6
CONTINUOUS
 62
     5
 10
-112.80940107684729
 20
114.99999999993631
 30
0.0
 11
-108.1905989233491
 21
114.99999999993631
 31
0.0
  0
LINE
  8
DETAIL
  6
CONTINUOUS
 62
     5
 10
242.19059892316
 20
114.99999999993631
 30
0.0
 11
246.8094010766508
 21
114.99999999993631
 31
0.0
  0
LINE
  8
DETAIL
  6
CONTINUOUS
 62
     5
 10
308.19059892316
 20
114.99999999993631
 30
0.0
 11
312.80940107665077
 21
114.99999999993631
 31
0.0
  0
LINE
  8
DETAIL
  6
CONTINUOUS
 62
     5
 10
-159.30000000004651
 20
116.99999999993631
 30
0.0
 11
-161.5896296815481
 21
116.99999999993631
 31
0.0
  0
LINE
  8
DETAIL
  6
CONTINUOUS
 62
     5
 10
-163.5000000000509
 20
116.99999999993631
 30
0.0
 11
-161.5896296815481
 21
116.99999999993631
 31
0.0
  0
LINE
  8
DETAIL
  6
CONTINUOUS
 62
     5
 10
293.29999999995931
 20
116.99999999993631
 30
0.0
 11
295.58962968134438
 21
116.99999999993631
 31
0.0
  0
LINE
  8
DETAIL
  6
CONTINUOUS
 62
     5
 10
295.58962968134438
 20
116.99999999993631
 30
0.0
 11
297.49999999994179
 21
116.99999999993631
 31
0.0
  0
LINE
  8
DETAIL
  6
CONTINUOUS
 62
     5
 10
365.79999999995931
 20
301.0448456432369
 30
0.0
 11
365.79999999995931
 21
308.95515435653761
 31
0.0
  0
LINE
  8
DETAIL
  6
CONTINUOUS
 62
     5
 10
365.49999999994179
 20
94.999999999936335
 30
0.0
 11
365.49999999994179
 21
1522.4999999999361
 31
0.0
  0
LINE
  8
DETAIL
  6
CONTINUOUS
 62
     5
 10
362.99999999994179
 20
1834.5999999999369
 30
0.0
 11
362.99999999994179
 21
1817.0999999999369
 31
0.0
  0
LINE
  8
DETAIL
  6
CONTINUOUS
 62
     5
 10
362.99999999994179
 20
1813.7999999999349
 30
0.0
 11
362.99999999994179
 21
1815.6999999999371
 31
0.0
  0
LINE
  8
DETAIL
  6
CONTINUOUS
 62
     5
 10
359.99999999994179
 20
1817.0999999999369
 30
0.0
 11
359.99999999994179
 21
1816.9999999999361
 31
0.0
  0
LINE
  8
DETAIL
  6
CONTINUOUS
 62
     5
 10
359.99999999994179
 20
1811.4999999999361
 30
0.0
 11
359.99999999994179
 21
1756.237603585037
 31
0.0
  0
LINE
  8
DETAIL
  6
CONTINUOUS
 62
     5
 10
357.99999999994179
 20
1838.5999999999369
 30
0.0
 11
357.99999999994179
 21
1857.5999999999369
 31
0.0
  0
LINE
  8
DETAIL
  6
CONTINUOUS
 62
     5
 10
347.15685424936242
 20
1493.9999999999361
 30
0.0
 11
347.15685424936242
 21
1343.9999999999361
 31
0.0
  0
LINE
  8
DETAIL
  6
CONTINUOUS
 62
     5
 10
347.15685424936242
 20
1293.9999999999361
 30
0.0
 11
347.15685424936242
 21
1143.9999999999361
 31
0.0
  0
LINE
  8
DETAIL
  6
CONTINUOUS
 62
     5
 10
347.15685424936242
 20
1093.9999999999361
 30
0.0
 11
347.15685424936242
 21
943.99999999993634
 31
0.0
  0
LINE
  8
DETAIL
  6
CONTINUOUS
 62
     5
 10
347.15685424936242
 20
893.99999999993634
 30
0.0
 11
347.15685424936242
 21
758.99999999993634
 31
0.0
  0
LINE
  8
DETAIL
  6
CONTINUOUS
 62
     5
 10
334.51471862565091
 20
1493.9999999999361
 30
0.0
 11
334.51471862565091
 21
1343.9999999999361
 31
0.0
  0
LINE
  8
DETAIL
  6
CONTINUOUS
 62
     5
 10
334.51471862565091
 20
1293.9999999999361
 30
0.0
 11
334.51471862565091
 21
1143.9999999999361
 31
0.0
  0
LINE
  8
DETAIL
  6
CONTINUOUS
 62
     5
 10
334.51471862565091
 20
1093.9999999999361
 30
0.0
 11
334.51471862565091
 21
943.99999999993634
 31
0.0
  0
LINE
  8
DETAIL
  6
CONTINUOUS
 62
     5
 10
334.51471862565091
 20
893.99999999993634
 30
0.0
 11
334.51471862565091
 21
758.99999999993634
 31
0.0
  0
LINE
  8
DETAIL
  6
CONTINUOUS
 62
     5
 10
319.49999999994179
 20
57.699999999937063
 30
0.0
 11
319.49999999994179
 21
55.999999999936342
 31
0.0
  0
LINE
  8
DETAIL
  6
CONTINUOUS
 62
     5
 10
319.49999999994179
 20
3.9999999999363349
 30
0.0
 11
319.49999999994179
 21
2.2999999999356069
 31
0.0
  0
LINE
  8
DETAIL
  6
CONTINUOUS
 62
     5
 10
317.79999999995931
 20
63.499999999936342
 30
0.0
 11
317.79999999995931
 21
64.499999999936335
 31
0.0
  0
LINE
  8
DETAIL
  6
CONTINUOUS
 62
     5
 10
315.79999999995931
 20
3.4999999999363349
 30
0.0
 11
315.79999999995931
 21
56.499999999936328
 31
0.0
  0
LINE
  8
DETAIL
  6
CONTINUOUS
 62
     5
 10
315.49999999994179
 20
63.499999999936342
 30
0.0
 11
315.49999999994179
 21
64.499999999936335
 31
0.0
  0
LINE
  8
DETAIL
  6
CONTINUOUS
 62
     5
 10
313.49999999994179
 20
3.4999999999363349
 30
0.0
 11
313.49999999994179
 21
56.499999999936328
 31
0.0
  0
LINE
  8
DETAIL
  6
CONTINUOUS
 62
     5
 10
306.49999999994179
 20
74.799999999935608
 30
0.0
 11
306.49999999994179
 21
74.199999999937063
 31
0.0
  0
LINE
  8
DETAIL
  6
CONTINUOUS
 62
     5
 10
304.79999999995931
 20
76.499999999936335
 30
0.0
 11
304.79999999995931
 21
74.799999999935608
 31
0.0
  0
LINE
  8
DETAIL
  6
CONTINUOUS
 62
     5
 10
304.79999999995931
 20
74.199999999937063
 30
0.0
 11
304.79999999995931
 21
72.499999999936335
 31
0.0
  0
LINE
  8
DETAIL
  6
CONTINUOUS
 62
     5
 10
304.19999999995338
 20
72.499999999936335
 30
0.0
 11
304.19999999995338
 21
74.199999999937063
 31
0.0
  0
LINE
  8
DETAIL
  6
CONTINUOUS
 62
     5
 10
304.19999999995338
 20
74.799999999935608
 30
0.0
 11
304.19999999995338
 21
76.499999999936335
 31
0.0
  0
LINE
  8
DETAIL
  6
CONTINUOUS
 62
     5
 10
302.49999999994179
 20
74.199999999937063
 30
0.0
 11
302.49999999994179
 21
74.799999999935608
 31
0.0
  0
LINE
  8
DETAIL
  6
CONTINUOUS
 62
     5
 10
296.49999999994179
 20
69.499999999936335
 30
0.0
 11
296.49999999994179
 21
94.999999999936335
 31
0.0
  0
LINE
  8
DETAIL
  6
CONTINUOUS
 62
     5
 10
295.79999999995931
 20
69.499999999936335
 30
0.0
 11
295.79999999995931
 21
94.999999999936335
 31
0.0
  0
LINE
  8
DETAIL
  6
CONTINUOUS
 62
     5
 10
315.11880215344718
 20
1516.5999999999369
 30
0.0
 11
312.80940107665077
 21
1520.5999999999369
 31
0.0
  0
LINE
  8
DETAIL
  6
CONTINUOUS
 62
     5
 10
308.19059892316
 20
1512.5999999999369
 30
0.0
 11
305.8811978463491
 21
1516.5999999999369
 31
0.0
  0
LINE
  8
DETAIL
  6
CONTINUOUS
 62
     5
 10
365.99999999994179
 20
184.99999999993631
 30
0.0
 11
365.49999999994179
 21
184.99999999993631
 31
0.0
  0
LINE
  8
DETAIL
  6
CONTINUOUS
 62
     5
 10
284.30940107665077
 20
640.99999999993634
 30
0.0
 11
286.61880215344718
 21
644.99999999993634
 31
0.0
  0
LINE
  8
DETAIL
  6
CONTINUOUS
 62
     5
 10
277.3811978463491
 20
644.99999999993634
 30
0.0
 11
279.69059892316
 21
648.99999999993634
 31
0.0
  0
LINE
  8
DETAIL
  6
CONTINUOUS
 62
     5
 10
-108.1905989233491
 20
106.99999999993631
 30
0.0
 11
-105.8811978465455
 21
110.99999999993631
 31
0.0
  0
LINE
  8
DETAIL
  6
CONTINUOUS
 62
     5
 10
-115.1188021536436
 20
110.99999999993631
 30
0.0
 11
-112.80940107684729
 21
114.99999999993631
 31
0.0
  0
LINE
  8
DETAIL
  6
CONTINUOUS
 62
     5
 10
-172.1905989233492
 20
106.99999999993631
 30
0.0
 11
-169.88119784654549
 21
110.99999999993631
 31
0.0
  0
LINE
  8
DETAIL
  6
CONTINUOUS
 62
     5
 10
-179.1188021536436
 20
110.99999999993631
 30
0.0
 11
-176.80940107684731
 21
114.99999999993631
 31
0.0
  0
LINE
  8
DETAIL
  6
CONTINUOUS
 62
     5
 10
246.0380785451562
 20
711.54007549323615
 30
0.0
 11
246.03747415245741
 21
711.51994724543499
 31
0.0
  0
LINE
  8
DETAIL
  6
CONTINUOUS
 62
     5
 10
245.7733844621543
 20
696.39999999993768
 30
0.0
 11
246.01493199035761
 21
710.23772170163636
 31
0.0
  0
LINE
  8
DETAIL
  6
CONTINUOUS
 62
     5
 10
245.28983744155269
 20
701.69489490063643
 30
0.0
 11
245.33880259766011
 21
704.49999999993634
 31
0.0
  0
LINE
  8
DETAIL
  6
CONTINUOUS
 62
     5
 10
245.49999999994179
 20
696.39999999993768
 30
0.0
 11
245.57306630125089
 21
700.9904720187368
 31
0.0
  0
LINE
  8
DETAIL
  6
CONTINUOUS
 62
     5
 10
312.49999999994179
 20
1516.899999999938
 30
0.0
 11
312.49999999994179
 21
1516.2999999999361
 31
0.0
  0
LINE
  8
DETAIL
  6
CONTINUOUS
 62
     5
 10
312.49999999994179
 20
111.29999999993559
 30
0.0
 11
312.49999999994179
 21
110.69999999993701
 31
0.0
  0
LINE
  8
DETAIL
  6
CONTINUOUS
 62
     5
 10
310.7999999999592
 20
1518.5999999999369
 30
0.0
 11
310.7999999999592
 21
1516.899999999938
 31
0.0
  0
LINE
  8
DETAIL
  6
CONTINUOUS
 62
     5
 10
310.7999999999592
 20
1516.2999999999361
 30
0.0
 11
310.7999999999592
 21
1514.599999999936
 31
0.0
  0
LINE
  8
DETAIL
  6
CONTINUOUS
 62
     5
 10
310.7999999999592
 20
112.99999999993631
 30
0.0
 11
310.7999999999592
 21
111.29999999993559
 31
0.0
  0
LINE
  8
DETAIL
  6
CONTINUOUS
 62
     5
 10
310.7999999999592
 20
110.69999999993701
 30
0.0
 11
310.7999999999592
 21
108.99999999993631
 31
0.0
  0
LINE
  8
DETAIL
  6
CONTINUOUS
 62
     5
 10
310.19999999995338
 20
108.99999999993631
 30
0.0
 11
310.19999999995338
 21
110.69999999993701
 31
0.0
  0
LINE
  8
DETAIL
  6
CONTINUOUS
 62
     5
 10
310.19999999995338
 20
111.29999999993559
 30
0.0
 11
310.19999999995338
 21
112.99999999993631
 31
0.0
  0
LINE
  8
DETAIL
  6
CONTINUOUS
 62
     5
 10
310.19999999995338
 20
1514.599999999936
 30
0.0
 11
310.19999999995338
 21
1516.2999999999361
 31
0.0
  0
LINE
  8
DETAIL
  6
CONTINUOUS
 62
     5
 10
310.19999999995338
 20
1516.899999999938
 30
0.0
 11
310.19999999995338
 21
1518.5999999999369
 31
0.0
  0
LINE
  8
DETAIL
  6
CONTINUOUS
 62
     5
 10
308.49999999994179
 20
110.69999999993701
 30
0.0
 11
308.49999999994179
 21
111.29999999993559
 31
0.0
  0
LINE
  8
DETAIL
  6
CONTINUOUS
 62
     5
 10
308.49999999994179
 20
1516.2999999999361
 30
0.0
 11
308.49999999994179
 21
1516.899999999938
 31
0.0
  0
LINE
  8
DETAIL
  6
CONTINUOUS
 62
     5
 10
297.49999999994179
 20
94.999999999936335
 30
0.0
 11
297.49999999994179
 21
116.99999999993631
 31
0.0
  0
LINE
  8
DETAIL
  6
CONTINUOUS
 62
     5
 10
295.49999999994179
 20
116.99999999993631
 30
0.0
 11
295.49999999994179
 21
1522.4999999999361
 31
0.0
  0
LINE
  8
DETAIL
  6
CONTINUOUS
 62
     5
 10
294.49999999994179
 20
678.49999999993634
 30
0.0
 11
294.49999999994179
 21
116.99999999993631
 31
0.0
  0
LINE
  8
DETAIL
  6
CONTINUOUS
 62
     5
 10
294.09999999994761
 20
113.99999999993631
 30
0.0
 11
294.09999999994761
 21
99.270831300742444
 31
0.0
  0
LINE
  8
DETAIL
  6
CONTINUOUS
 62
     5
 10
293.29999999995931
 20
684.86396103063635
 30
0.0
 11
293.29999999995931
 21
678.49999999993634
 31
0.0
  0
LINE
  8
DETAIL
  6
CONTINUOUS
 62
     5
 10
293.29999999995931
 20
113.99999999993631
 30
0.0
 11
293.29999999995931
 21
116.99999999993631
 31
0.0
  0
LINE
  8
DETAIL
  6
CONTINUOUS
 62
     5
 10
283.99999999994179
 20
645.29999999993561
 30
0.0
 11
283.99999999994179
 21
644.69999999993695
 31
0.0
  0
LINE
  8
DETAIL
  6
CONTINUOUS
 62
     5
 10
283.99999999994179
 20
305.29999999993561
 30
0.0
 11
283.99999999994179
 21
304.69999999993712
 31
0.0
  0
LINE
  8
DETAIL
  6
CONTINUOUS
 62
     5
 10
282.29999999995931
 20
646.99999999993634
 30
0.0
 11
282.29999999995931
 21
645.29999999993561
 31
0.0
  0
LINE
  8
DETAIL
  6
CONTINUOUS
 62
     5
 10
282.29999999995931
 20
644.69999999993695
 30
0.0
 11
282.29999999995931
 21
642.99999999993634
 31
0.0
  0
LINE
  8
DETAIL
  6
CONTINUOUS
 62
     5
 10
282.29999999995931
 20
306.99999999993628
 30
0.0
 11
282.29999999995931
 21
305.29999999993561
 31
0.0
  0
LINE
  8
DETAIL
  6
CONTINUOUS
 62
     5
 10
282.29999999995931
 20
304.69999999993712
 30
0.0
 11
282.29999999995931
 21
302.99999999993628
 31
0.0
  0
LINE
  8
DETAIL
  6
CONTINUOUS
 62
     5
 10
281.69999999995338
 20
302.99999999993628
 30
0.0
 11
281.69999999995338
 21
304.69999999993712
 31
0.0
  0
LINE
  8
DETAIL
  6
CONTINUOUS
 62
     5
 10
281.69999999995338
 20
305.29999999993561
 30
0.0
 11
281.69999999995338
 21
306.99999999993628
 31
0.0
  0
LINE
  8
DETAIL
  6
CONTINUOUS
 62
     5
 10
281.69999999995338
 20
642.99999999993634
 30
0.0
 11
281.69999999995338
 21
644.69999999993695
 31
0.0
  0
LINE
  8
DETAIL
  6
CONTINUOUS
 62
     5
 10
281.69999999995338
 20
645.29999999993561
 30
0.0
 11
281.69999999995338
 21
646.99999999993634
 31
0.0
  0
LINE
  8
DETAIL
  6
CONTINUOUS
 62
     5
 10
279.99999999994179
 20
304.69999999993712
 30
0.0
 11
279.99999999994179
 21
305.29999999993561
 31
0.0
  0
LINE
  8
DETAIL
  6
CONTINUOUS
 62
     5
 10
279.99999999994179
 20
644.69999999993695
 30
0.0
 11
279.99999999994179
 21
645.29999999993561
 31
0.0
  0
LINE
  8
DETAIL
  6
CONTINUOUS
 62
     5
 10
274.49999999994179
 20
684.86396103063635
 30
0.0
 11
274.49999999994179
 21
1519.9999999999361
 31
0.0
  0
LINE
  8
DETAIL
  6
CONTINUOUS
 62
     5
 10
255.0057069250615
 20
695.39999999993779
 30
0.0
 11
255.0057069250615
 21
686.49999999993634
 31
0.0
  0
LINE
  8
DETAIL
  6
CONTINUOUS
 62
     5
 10
253.49999999994179
 20
684.86396103063635
 30
0.0
 11
253.49999999994179
 21
696.39999999993768
 31
0.0
  0
LINE
  8
DETAIL
  6
CONTINUOUS
 62
     5
 10
246.49999999994179
 20
111.29999999993559
 30
0.0
 11
246.49999999994179
 21
110.69999999993701
 31
0.0
  0
LINE
  8
DETAIL
  6
CONTINUOUS
 62
     5
 10
244.79999999995931
 20
112.99999999993631
 30
0.0
 11
244.79999999995931
 21
111.29999999993559
 31
0.0
  0
LINE
  8
DETAIL
  6
CONTINUOUS
 62
     5
 10
244.79999999995931
 20
110.69999999993701
 30
0.0
 11
244.79999999995931
 21
108.99999999993631
 31
0.0
  0
LINE
  8
DETAIL
  6
CONTINUOUS
 62
     5
 10
244.19999999995341
 20
108.99999999993631
 30
0.0
 11
244.19999999995341
 21
110.69999999993701
 31
0.0
  0
LINE
  8
DETAIL
  6
CONTINUOUS
 62
     5
 10
244.19999999995341
 20
111.29999999993559
 30
0.0
 11
244.19999999995341
 21
112.99999999993631
 31
0.0
  0
LINE
  8
DETAIL
  6
CONTINUOUS
 62
     5
 10
242.49999999994179
 20
110.69999999993701
 30
0.0
 11
242.49999999994179
 21
111.29999999993559
 31
0.0
  0
LINE
  8
DETAIL
  6
CONTINUOUS
 62
     5
 10
167.85142435415759
 20
1857.5999999999369
 30
0.0
 11
167.85142435415759
 21
1836.599999999936
 31
0.0
  0
LINE
  8
DETAIL
  6
CONTINUOUS
 62
     5
 10
4.6188021534471773
 20
1824.7999999999349
 30
0.0
 11
2.3094010766508291
 21
1828.7999999999361
 31
0.0
  0
LINE
  8
DETAIL
  6
CONTINUOUS
 62
     5
 10
-2.3094010768400031
 20
1820.7999999999349
 30
0.0
 11
-4.6188021536509041
 21
1824.7999999999349
 31
0.0
  0
LINE
  8
DETAIL
  6
CONTINUOUS
 62
     5
 10
-161.5000000000509
 20
273.99999999993628
 30
0.0
 11
-160.5000000000509
 21
273.99999999993628
 31
0.0
  0
LINE
  8
DETAIL
  6
CONTINUOUS
 62
     5
 10
294.49999999994179
 20
278.99999999993628
 30
0.0
 11
295.49999999994179
 21
278.99999999993628
 31
0.0
  0
LINE
  8
DETAIL
  6
CONTINUOUS
 62
     5
 10
-150.30940107684731
 20
300.99999999993628
 30
0.0
 11
-145.69059892334911
 21
300.99999999993628
 31
0.0
  0
LINE
  8
DETAIL
  6
CONTINUOUS
 62
     5
 10
279.69059892316
 20
300.99999999993628
 30
0.0
 11
284.30940107665077
 21
300.99999999993628
 31
0.0
  0
LINE
  8
DETAIL
  6
CONTINUOUS
 62
     5
 10
282.29999999995931
 20
302.99999999993628
 30
0.0
 11
281.69999999995338
 21
302.99999999993628
 31
0.0
  0
LINE
  8
DETAIL
  6
CONTINUOUS
 62
     5
 10
-147.70000000004799
 20
302.99999999993628
 30
0.0
 11
-148.30000000004651
 21
302.99999999993628
 31
0.0
  0
LINE
  8
DETAIL
  6
CONTINUOUS
 62
     5
 10
283.99999999994179
 20
304.69999999993712
 30
0.0
 11
282.29999999995931
 21
304.69999999993712
 31
0.0
  0
LINE
  8
DETAIL
  6
CONTINUOUS
 62
     5
 10
281.69999999995338
 20
304.69999999993712
 30
0.0
 11
279.99999999994179
 21
304.69999999993712
 31
0.0
  0
LINE
  8
DETAIL
  6
CONTINUOUS
 62
     5
 10
-146.0000000000509
 20
304.69999999993712
 30
0.0
 11
-147.70000000004799
 21
304.69999999993712
 31
0.0
  0
LINE
  8
DETAIL
  6
CONTINUOUS
 62
     5
 10
-148.30000000004651
 20
304.69999999993712
 30
0.0
 11
-150.0000000000509
 21
304.69999999993712
 31
0.0
  0
LINE
  8
DETAIL
  6
CONTINUOUS
 62
     5
 10
-150.0000000000509
 20
305.29999999993561
 30
0.0
 11
-148.30000000004651
 21
305.29999999993561
 31
0.0
  0
LINE
  8
DETAIL
  6
CONTINUOUS
 62
     5
 10
-147.70000000004799
 20
305.29999999993561
 30
0.0
 11
-146.0000000000509
 21
305.29999999993561
 31
0.0
  0
LINE
  8
DETAIL
  6
CONTINUOUS
 62
     5
 10
279.99999999994179
 20
305.29999999993561
 30
0.0
 11
281.69999999995338
 21
305.29999999993561
 31
0.0
  0
LINE
  8
DETAIL
  6
CONTINUOUS
 62
     5
 10
282.29999999995931
 20
305.29999999993561
 30
0.0
 11
283.99999999994179
 21
305.29999999993561
 31
0.0
  0
LINE
  8
DETAIL
  6
CONTINUOUS
 62
     5
 10
-148.30000000004651
 20
306.99999999993628
 30
0.0
 11
-147.70000000004799
 21
306.99999999993628
 31
0.0
  0
LINE
  8
DETAIL
  6
CONTINUOUS
 62
     5
 10
281.69999999995338
 20
306.99999999993628
 30
0.0
 11
282.29999999995931
 21
306.99999999993628
 31
0.0
  0
LINE
  8
DETAIL
  6
CONTINUOUS
 62
     5
 10
-150.30940107684731
 20
308.99999999993628
 30
0.0
 11
-145.69059892334911
 21
308.99999999993628
 31
0.0
  0
LINE
  8
DETAIL
  6
CONTINUOUS
 62
     5
 10
279.69059892316
 20
308.99999999993628
 30
0.0
 11
284.30940107665077
 21
308.99999999993628
 31
0.0
  0
LINE
  8
DETAIL
  6
CONTINUOUS
 62
     5
 10
237.49999999994179
 20
330.99999999993628
 30
0.0
 11
238.49999999994179
 21
330.99999999993628
 31
0.0
  0
LINE
  8
DETAIL
  6
CONTINUOUS
 62
     5
 10
-161.5000000000509
 20
335.99999999993628
 30
0.0
 11
-160.5000000000509
 21
335.99999999993628
 31
0.0
  0
LINE
  8
DETAIL
  6
CONTINUOUS
 62
     5
 10
-145.69059892334911
 20
300.99999999993628
 30
0.0
 11
-143.38119784654549
 21
304.99999999993628
 31
0.0
  0
LINE
  8
DETAIL
  6
CONTINUOUS
 62
     5
 10
-152.6188021536436
 20
304.99999999993628
 30
0.0
 11
-150.30940107684731
 21
308.99999999993628
 31
0.0
  0
LINE
  8
DETAIL
  6
CONTINUOUS
 62
     5
 10
-302.19059892334923
 20
70.499999999936335
 30
0.0
 11
-299.8811978465456
 21
74.499999999936335
 31
0.0
  0
LINE
  8
DETAIL
  6
CONTINUOUS
 62
     5
 10
-309.11880215364363
 20
74.499999999936335
 30
0.0
 11
-306.80940107684728
 21
78.499999999936335
 31
0.0
  0
LINE
  8
DETAIL
  6
CONTINUOUS
 62
     5
 10
9.9999999999417923
 20
1835.183202319836
 30
0.0
 11
9.9999999999417923
 21
1817.0999999999369
 31
0.0
  0
LINE
  8
DETAIL
  6
CONTINUOUS
 62
     5
 10
1.9999999999417919
 20
1825.0999999999369
 30
0.0
 11
1.9999999999417919
 21
1824.4999999999361
 31
0.0
  0
LINE
  8
DETAIL
  6
CONTINUOUS
 62
     5
 10
0.2999999999592546
 20
1826.7999999999361
 30
0.0
 11
0.2999999999592546
 21
1825.0999999999369
 31
0.0
  0
LINE
  8
DETAIL
  6
CONTINUOUS
 62
     5
 10
0.2999999999592546
 20
1824.4999999999361
 30
0.0
 11
0.2999999999592546
 21
1822.7999999999349
 31
0.0
  0
LINE
  8
DETAIL
  6
CONTINUOUS
 62
     5
 10
-0.3000000000465661
 20
1822.7999999999349
 30
0.0
 11
-0.3000000000465661
 21
1824.4999999999361
 31
0.0
  0
LINE
  8
DETAIL
  6
CONTINUOUS
 62
     5
 10
-0.3000000000465661
 20
1825.0999999999369
 30
0.0
 11
-0.3000000000465661
 21
1826.7999999999361
 31
0.0
  0
LINE
  8
DETAIL
  6
CONTINUOUS
 62
     5
 10
-2.0000000000582072
 20
1824.4999999999361
 30
0.0
 11
-2.0000000000582072
 21
1825.0999999999369
 31
0.0
  0
LINE
  8
DETAIL
  6
CONTINUOUS
 62
     5
 10
-10.000000000058209
 20
1835.1831927068361
 30
0.0
 11
-10.000000000058209
 21
1817.0999999999369
 31
0.0
  0
LINE
  8
DETAIL
  6
CONTINUOUS
 62
     5
 10
-178.9459669147472
 20
1581.3573677695369
 30
0.0
 11
-179.08029197114951
 21
1581.5741929763369
 31
0.0
  0
LINE
  8
DETAIL
  6
CONTINUOUS
 62
     5
 10
-145.69059892334911
 20
640.99999999993634
 30
0.0
 11
-143.38119784654549
 21
644.99999999993634
 31
0.0
  0
LINE
  8
DETAIL
  6
CONTINUOUS
 62
     5
 10
-152.6188021536436
 20
644.99999999993634
 30
0.0
 11
-150.30940107684731
 21
648.99999999993634
 31
0.0
  0
LINE
  8
DETAIL
  6
CONTINUOUS
 62
     5
 10
-142.1905989233492
 20
685.49999999993634
 30
0.0
 11
-139.88119784654549
 21
689.49999999993634
 31
0.0
  0
LINE
  8
DETAIL
  6
CONTINUOUS
 62
     5
 10
-149.1188021536436
 20
689.49999999993634
 30
0.0
 11
-146.80940107684731
 21
693.49999999993634
 31
0.0
  0
LINE
  8
DETAIL
  6
CONTINUOUS
 62
     5
 10
-108.5000000000509
 20
111.29999999993559
 30
0.0
 11
-108.5000000000509
 21
110.69999999993701
 31
0.0
  0
LINE
  8
DETAIL
  6
CONTINUOUS
 62
     5
 10
-110.20000000004799
 20
112.99999999993631
 30
0.0
 11
-110.20000000004799
 21
111.29999999993559
 31
0.0
  0
LINE
  8
DETAIL
  6
CONTINUOUS
 62
     5
 10
-110.20000000004799
 20
110.69999999993701
 30
0.0
 11
-110.20000000004799
 21
108.99999999993631
 31
0.0
  0
LINE
  8
DETAIL
  6
CONTINUOUS
 62
     5
 10
-110.8000000000465
 20
108.99999999993631
 30
0.0
 11
-110.8000000000465
 21
110.69999999993701
 31
0.0
  0
LINE
  8
DETAIL
  6
CONTINUOUS
 62
     5
 10
-110.8000000000465
 20
111.29999999993559
 30
0.0
 11
-110.8000000000465
 21
112.99999999993631
 31
0.0
  0
LINE
  8
DETAIL
  6
CONTINUOUS
 62
     5
 10
-112.5000000000509
 20
110.69999999993701
 30
0.0
 11
-112.5000000000509
 21
111.29999999993559
 31
0.0
  0
LINE
  8
DETAIL
  6
CONTINUOUS
 62
     5
 10
-133.5000000000509
 20
1522.4999999999361
 30
0.0
 11
-133.5000000000509
 21
684.86396103063635
 31
0.0
  0
LINE
  8
DETAIL
  6
CONTINUOUS
 62
     5
 10
-142.5000000000509
 20
689.79999999993561
 30
0.0
 11
-142.5000000000509
 21
689.19999999993695
 31
0.0
  0
LINE
  8
DETAIL
  6
CONTINUOUS
 62
     5
 10
-144.20000000004799
 20
691.49999999993634
 30
0.0
 11
-144.20000000004799
 21
689.79999999993561
 31
0.0
  0
LINE
  8
DETAIL
  6
CONTINUOUS
 62
     5
 10
-144.20000000004799
 20
689.19999999993695
 30
0.0
 11
-144.20000000004799
 21
687.49999999993634
 31
0.0
  0
LINE
  8
DETAIL
  6
CONTINUOUS
 62
     5
 10
-144.80000000004651
 20
687.49999999993634
 30
0.0
 11
-144.80000000004651
 21
689.19999999993695
 31
0.0
  0
LINE
  8
DETAIL
  6
CONTINUOUS
 62
     5
 10
-144.80000000004651
 20
689.79999999993561
 30
0.0
 11
-144.80000000004651
 21
691.49999999993634
 31
0.0
  0
LINE
  8
DETAIL
  6
CONTINUOUS
 62
     5
 10
-146.0000000000509
 20
645.29999999993561
 30
0.0
 11
-146.0000000000509
 21
644.69999999993695
 31
0.0
  0
LINE
  8
DETAIL
  6
CONTINUOUS
 62
     5
 10
-146.0000000000509
 20
305.29999999993561
 30
0.0
 11
-146.0000000000509
 21
304.69999999993712
 31
0.0
  0
LINE
  8
DETAIL
  6
CONTINUOUS
 62
     5
 10
-146.5000000000509
 20
689.19999999993695
 30
0.0
 11
-146.5000000000509
 21
689.79999999993561
 31
0.0
  0
LINE
  8
DETAIL
  6
CONTINUOUS
 62
     5
 10
-256.88119784654549
 20
1516.5999999999369
 30
0.0
 11
-259.19059892334923
 21
1520.5999999999369
 31
0.0
  0
LINE
  8
DETAIL
  6
CONTINUOUS
 62
     5
 10
-263.80940107684728
 20
1512.5999999999369
 30
0.0
 11
-266.11880215364363
 21
1516.5999999999369
 31
0.0
  0
LINE
  8
DETAIL
  6
CONTINUOUS
 62
     5
 10
286.61880215344718
 20
644.99999999993634
 30
0.0
 11
284.30940107665077
 21
648.99999999993634
 31
0.0
  0
LINE
  8
DETAIL
  6
CONTINUOUS
 62
     5
 10
-226.06450480864439
 20
1568.189539596136
 30
0.0
 11
-226.2021129426503
 21
1568.4116642905369
 31
0.0
  0
LINE
  8
DETAIL
  6
CONTINUOUS
 62
     5
 10
-282.3934905323477
 20
1574.503624898136
 30
0.0
 11
-282.52756783214869
 21
1574.7200501803361
 31
0.0
  0
LINE
  8
DETAIL
  6
CONTINUOUS
 62
     5
 10
-161.5000000000509
 20
619.62638114763649
 30
0.0
 11
-160.5000000000509
 21
619.57397336833674
 31
0.0
  0
LINE
  8
DETAIL
  6
CONTINUOUS
 62
     5
 10
-161.5000000000509
 20
613.99999999993634
 30
0.0
 11
-160.5000000000509
 21
613.99999999993634
 31
0.0
  0
LINE
  8
DETAIL
  6
CONTINUOUS
 62
     5
 10
294.49999999994179
 20
618.99999999993634
 30
0.0
 11
295.49999999994179
 21
618.99999999993634
 31
0.0
  0
LINE
  8
DETAIL
  6
CONTINUOUS
 62
     5
 10
294.49999999994179
 20
636.17274692213675
 30
0.0
 11
295.49999999994179
 21
636.17274692213675
 31
0.0
  0
LINE
  8
DETAIL
  6
CONTINUOUS
 62
     5
 10
-150.30940107684731
 20
640.99999999993634
 30
0.0
 11
-145.69059892334911
 21
640.99999999993634
 31
0.0
  0
LINE
  8
DETAIL
  6
CONTINUOUS
 62
     5
 10
279.69059892316
 20
640.99999999993634
 30
0.0
 11
284.30940107665077
 21
640.99999999993634
 31
0.0
  0
LINE
  8
DETAIL
  6
CONTINUOUS
 62
     5
 10
282.29999999995931
 20
642.99999999993634
 30
0.0
 11
281.69999999995338
 21
642.99999999993634
 31
0.0
  0
LINE
  8
DETAIL
  6
CONTINUOUS
 62
     5
 10
-147.70000000004799
 20
642.99999999993634
 30
0.0
 11
-148.30000000004651
 21
642.99999999993634
 31
0.0
  0
LINE
  8
DETAIL
  6
CONTINUOUS
 62
     5
 10
283.99999999994179
 20
644.69999999993695
 30
0.0
 11
282.29999999995931
 21
644.69999999993695
 31
0.0
  0
LINE
  8
DETAIL
  6
CONTINUOUS
 62
     5
 10
281.69999999995338
 20
644.69999999993695
 30
0.0
 11
279.99999999994179
 21
644.69999999993695
 31
0.0
  0
LINE
  8
DETAIL
  6
CONTINUOUS
 62
     5
 10
-146.0000000000509
 20
644.69999999993695
 30
0.0
 11
-147.70000000004799
 21
644.69999999993695
 31
0.0
  0
LINE
  8
DETAIL
  6
CONTINUOUS
 62
     5
 10
-148.30000000004651
 20
644.69999999993695
 30
0.0
 11
-150.0000000000509
 21
644.69999999993695
 31
0.0
  0
LINE
  8
DETAIL
  6
CONTINUOUS
 62
     5
 10
-150.0000000000509
 20
645.29999999993561
 30
0.0
 11
-148.30000000004651
 21
645.29999999993561
 31
0.0
  0
LINE
  8
DETAIL
  6
CONTINUOUS
 62
     5
 10
-147.70000000004799
 20
645.29999999993561
 30
0.0
 11
-146.0000000000509
 21
645.29999999993561
 31
0.0
  0
LINE
  8
DETAIL
  6
CONTINUOUS
 62
     5
 10
279.99999999994179
 20
645.29999999993561
 30
0.0
 11
281.69999999995338
 21
645.29999999993561
 31
0.0
  0
LINE
  8
DETAIL
  6
CONTINUOUS
 62
     5
 10
282.29999999995931
 20
645.29999999993561
 30
0.0
 11
283.99999999994179
 21
645.29999999993561
 31
0.0
  0
LINE
  8
DETAIL
  6
CONTINUOUS
 62
     5
 10
-148.30000000004651
 20
646.99999999993634
 30
0.0
 11
-147.70000000004799
 21
646.99999999993634
 31
0.0
  0
LINE
  8
DETAIL
  6
CONTINUOUS
 62
     5
 10
281.69999999995338
 20
646.99999999993634
 30
0.0
 11
282.29999999995931
 21
646.99999999993634
 31
0.0
  0
LINE
  8
DETAIL
  6
CONTINUOUS
 62
     5
 10
-150.30940107684731
 20
648.99999999993634
 30
0.0
 11
-145.69059892334911
 21
648.99999999993634
 31
0.0
  0
LINE
  8
DETAIL
  6
CONTINUOUS
 62
     5
 10
279.69059892316
 20
648.99999999993634
 30
0.0
 11
284.30940107665077
 21
648.99999999993634
 31
0.0
  0
LINE
  8
DETAIL
  6
CONTINUOUS
 62
     5
 10
312.80940107665077
 20
1512.5999999999369
 30
0.0
 11
315.11880215344718
 21
1516.5999999999369
 31
0.0
  0
LINE
  8
DETAIL
  6
CONTINUOUS
 62
     5
 10
305.8811978463491
 20
1516.5999999999369
 30
0.0
 11
308.19059892316
 21
1520.5999999999369
 31
0.0
  0
LINE
  8
DETAIL
  6
CONTINUOUS
 62
     5
 10
-147.70000000004799
 20
646.99999999993634
 30
0.0
 11
-147.70000000004799
 21
645.29999999993561
 31
0.0
  0
LINE
  8
DETAIL
  6
CONTINUOUS
 62
     5
 10
-147.70000000004799
 20
644.69999999993695
 30
0.0
 11
-147.70000000004799
 21
642.99999999993634
 31
0.0
  0
LINE
  8
DETAIL
  6
CONTINUOUS
 62
     5
 10
-147.70000000004799
 20
306.99999999993628
 30
0.0
 11
-147.70000000004799
 21
305.29999999993561
 31
0.0
  0
LINE
  8
DETAIL
  6
CONTINUOUS
 62
     5
 10
-147.70000000004799
 20
304.69999999993712
 30
0.0
 11
-147.70000000004799
 21
302.99999999993628
 31
0.0
  0
LINE
  8
DETAIL
  6
CONTINUOUS
 62
     5
 10
-148.30000000004651
 20
302.99999999993628
 30
0.0
 11
-148.30000000004651
 21
304.69999999993712
 31
0.0
  0
LINE
  8
DETAIL
  6
CONTINUOUS
 62
     5
 10
-148.30000000004651
 20
305.29999999993561
 30
0.0
 11
-148.30000000004651
 21
306.99999999993628
 31
0.0
  0
LINE
  8
DETAIL
  6
CONTINUOUS
 62
     5
 10
-148.30000000004651
 20
642.99999999993634
 30
0.0
 11
-148.30000000004651
 21
644.69999999993695
 31
0.0
  0
LINE
  8
DETAIL
  6
CONTINUOUS
 62
     5
 10
-148.30000000004651
 20
645.29999999993561
 30
0.0
 11
-148.30000000004651
 21
646.99999999993634
 31
0.0
  0
LINE
  8
DETAIL
  6
CONTINUOUS
 62
     5
 10
-150.0000000000509
 20
304.69999999993712
 30
0.0
 11
-150.0000000000509
 21
305.29999999993561
 31
0.0
  0
LINE
  8
DETAIL
  6
CONTINUOUS
 62
     5
 10
-150.0000000000509
 20
644.69999999993695
 30
0.0
 11
-150.0000000000509
 21
645.29999999993561
 31
0.0
  0
LINE
  8
DETAIL
  6
CONTINUOUS
 62
     5
 10
-152.5000000000509
 20
94.507179676935266
 30
0.0
 11
-152.5000000000509
 21
96.999999999936335
 31
0.0
  0
LINE
  8
DETAIL
  6
CONTINUOUS
 62
     5
 10
-159.30000000004651
 20
113.99999999993631
 30
0.0
 11
-159.30000000004651
 21
116.99999999993631
 31
0.0
  0
LINE
  8
DETAIL
  6
CONTINUOUS
 62
     5
 10
-159.30000000004651
 20
678.49999999993634
 30
0.0
 11
-159.30000000004651
 21
684.86396103063635
 31
0.0
  0
LINE
  8
DETAIL
  6
CONTINUOUS
 62
     5
 10
-160.10000000004939
 20
96.999999999936335
 30
0.0
 11
-160.10000000004939
 21
113.99999999993631
 31
0.0
  0
LINE
  8
DETAIL
  6
CONTINUOUS
 62
     5
 10
-160.5000000000509
 20
116.99999999993631
 30
0.0
 11
-160.5000000000509
 21
142.49362949340139
 31
0.0
  0
LINE
  8
DETAIL
  6
CONTINUOUS
 62
     5
 10
-160.5000000000509
 20
142.49362949340139
 30
0.0
 11
-160.5000000000509
 21
678.49999999993634
 31
0.0
  0
LINE
  8
DETAIL
  6
CONTINUOUS
 62
     5
 10
-161.5000000000509
 20
116.99999999993631
 30
0.0
 11
-161.5000000000509
 21
142.51904081946671
 31
0.0
  0
LINE
  8
DETAIL
  6
CONTINUOUS
 62
     5
 10
-161.5000000000509
 20
142.51904081946671
 30
0.0
 11
-161.5000000000509
 21
1522.4999999999361
 31
0.0
  0
LINE
  8
DETAIL
  6
CONTINUOUS
 62
     5
 10
-163.5000000000509
 20
116.99999999993631
 30
0.0
 11
-163.5000000000509
 21
102.99999999993631
 31
0.0
  0
LINE
  8
DETAIL
  6
CONTINUOUS
 62
     5
 10
-167.85142435434679
 20
1836.5999999999351
 30
0.0
 11
-167.85142435434679
 21
1857.5999999999369
 31
0.0
  0
LINE
  8
DETAIL
  6
CONTINUOUS
 62
     5
 10
-172.5000000000509
 20
111.29999999993559
 30
0.0
 11
-172.5000000000509
 21
110.69999999993701
 31
0.0
  0
LINE
  8
DETAIL
  6
CONTINUOUS
 62
     5
 10
-174.20000000004799
 20
112.99999999993631
 30
0.0
 11
-174.20000000004799
 21
111.29999999993559
 31
0.0
  0
LINE
  8
DETAIL
  6
CONTINUOUS
 62
     5
 10
-174.20000000004799
 20
110.69999999993701
 30
0.0
 11
-174.20000000004799
 21
108.99999999993631
 31
0.0
  0
LINE
  8
DETAIL
  6
CONTINUOUS
 62
     5
 10
-174.80000000004651
 20
108.99999999993631
 30
0.0
 11
-174.80000000004651
 21
110.69999999993701
 31
0.0
  0
LINE
  8
DETAIL
  6
CONTINUOUS
 62
     5
 10
-174.80000000004651
 20
111.29999999993559
 30
0.0
 11
-174.80000000004651
 21
112.99999999993631
 31
0.0
  0
LINE
  8
DETAIL
  6
CONTINUOUS
 62
     5
 10
-176.5000000000509
 20
110.69999999993701
 30
0.0
 11
-176.5000000000509
 21
111.29999999993559
 31
0.0
  0
LINE
  8
DETAIL
  6
CONTINUOUS
 62
     5
 10
279.69059892316
 20
640.99999999993634
 30
0.0
 11
277.3811978463491
 21
644.99999999993634
 31
0.0
  0
LINE
  8
DETAIL
  6
CONTINUOUS
 62
     5
 10
-161.5000000000509
 20
636.64971102963682
 30
0.0
 11
-160.5000000000509
 21
636.59730325033695
 31
0.0
  0
LINE
  8
DETAIL
  6
CONTINUOUS
 62
     5
 10
294.49999999994179
 20
670.99999999993634
 30
0.0
 11
295.49999999994179
 21
670.99999999993634
 31
0.0
  0
LINE
  8
DETAIL
  6
CONTINUOUS
 62
     5
 10
-161.5000000000509
 20
675.99999999993634
 30
0.0
 11
-160.5000000000509
 21
675.99999999993634
 31
0.0
  0
LINE
  8
DETAIL
  6
CONTINUOUS
 62
     5
 10
294.49999999994179
 20
678.49999999993634
 30
0.0
 11
293.29999999995931
 21
678.49999999993634
 31
0.0
  0
LINE
  8
DETAIL
  6
CONTINUOUS
 62
     5
 10
-159.30000000004651
 20
678.49999999993634
 30
0.0
 11
-160.5000000000509
 21
678.49999999993634
 31
0.0
  0
LINE
  8
DETAIL
  6
CONTINUOUS
 62
     5
 10
293.29999999995931
 20
684.86396103063635
 30
0.0
 11
-159.30000000004651
 21
684.86396103063635
 31
0.0
  0
LINE
  8
DETAIL
  6
CONTINUOUS
 62
     5
 10
255.49999999994179
 20
685.49999999993634
 30
0.0
 11
255.02316198995689
 21
685.49999999993634
 31
0.0
  0
LINE
  8
DETAIL
  6
CONTINUOUS
 62
     5
 10
-146.80940107684731
 20
685.49999999993634
 30
0.0
 11
-142.1905989233492
 21
685.49999999993634
 31
0.0
  0
LINE
  8
DETAIL
  6
CONTINUOUS
 62
     5
 10
-144.20000000004799
 20
687.49999999993634
 30
0.0
 11
-144.80000000004651
 21
687.49999999993634
 31
0.0
  0
LINE
  8
DETAIL
  6
CONTINUOUS
 62
     5
 10
-142.5000000000509
 20
689.19999999993695
 30
0.0
 11
-144.20000000004799
 21
689.19999999993695
 31
0.0
  0
LINE
  8
DETAIL
  6
CONTINUOUS
 62
     5
 10
-144.80000000004651
 20
689.19999999993695
 30
0.0
 11
-146.5000000000509
 21
689.19999999993695
 31
0.0
  0
LINE
  8
DETAIL
  6
CONTINUOUS
 62
     5
 10
-146.5000000000509
 20
689.79999999993561
 30
0.0
 11
-144.80000000004651
 21
689.79999999993561
 31
0.0
  0
LINE
  8
DETAIL
  6
CONTINUOUS
 62
     5
 10
-144.20000000004799
 20
689.79999999993561
 30
0.0
 11
-142.5000000000509
 21
689.79999999993561
 31
0.0
  0
LINE
  8
DETAIL
  6
CONTINUOUS
 62
     5
 10
-144.80000000004651
 20
691.49999999993634
 30
0.0
 11
-144.20000000004799
 21
691.49999999993634
 31
0.0
  0
LINE
  8
DETAIL
  6
CONTINUOUS
 62
     5
 10
-146.80940107684731
 20
693.49999999993634
 30
0.0
 11
-142.1905989233492
 21
693.49999999993634
 31
0.0
  0
LINE
  8
DETAIL
  6
CONTINUOUS
 62
     5
 10
245.49999999994179
 20
696.39999999993768
 30
0.0
 11
254.00555459705359
 21
696.39999999993768
 31
0.0
  0
LINE
  8
DETAIL
  6
CONTINUOUS
 62
     5
 10
245.33880259766011
 20
704.49999999993634
 30
0.0
 11
-133.5000000000509
 21
704.49999999993634
 31
0.0
  0
LINE
  8
DETAIL
  6
CONTINUOUS
 62
     5
 10
305.6293224930414
 20
712.49999999993634
 30
0.0
 11
303.37067750675487
 21
712.49999999993634
 31
0.0
  0
LINE
  8
DETAIL
  6
CONTINUOUS
 62
     5
 10
274.49999999994179
 20
712.49999999993634
 30
0.0
 11
247.04144368134439
 21
712.49999999993634
 31
0.0
  0
LINE
  8
DETAIL
  6
CONTINUOUS
 62
     5
 10
-259.50000000005099
 20
1516.899999999938
 30
0.0
 11
-259.50000000005099
 21
1516.2999999999361
 31
0.0
  0
LINE
  8
DETAIL
  6
CONTINUOUS
 62
     5
 10
-261.20000000004802
 20
1518.5999999999369
 30
0.0
 11
-261.20000000004802
 21
1516.899999999938
 31
0.0
  0
LINE
  8
DETAIL
  6
CONTINUOUS
 62
     5
 10
-261.20000000004802
 20
1516.2999999999361
 30
0.0
 11
-261.20000000004802
 21
1514.599999999936
 31
0.0
  0
LINE
  8
DETAIL
  6
CONTINUOUS
 62
     5
 10
-261.80000000004662
 20
1514.599999999936
 30
0.0
 11
-261.80000000004662
 21
1516.2999999999361
 31
0.0
  0
LINE
  8
DETAIL
  6
CONTINUOUS
 62
     5
 10
-261.80000000004662
 20
1516.899999999938
 30
0.0
 11
-261.80000000004662
 21
1518.5999999999369
 31
0.0
  0
LINE
  8
DETAIL
  6
CONTINUOUS
 62
     5
 10
-263.50000000005087
 20
1516.2999999999361
 30
0.0
 11
-263.50000000005087
 21
1516.899999999938
 31
0.0
  0
LINE
  8
DETAIL
  6
CONTINUOUS
 62
     5
 10
-295.80000000004651
 20
94.999999999936335
 30
0.0
 11
-295.80000000004651
 21
69.499999999936335
 31
0.0
  0
LINE
  8
DETAIL
  6
CONTINUOUS
 62
     5
 10
-296.50000000005087
 20
69.499999999936335
 30
0.0
 11
-296.50000000005087
 21
94.999999999936335
 31
0.0
  0
LINE
  8
DETAIL
  6
CONTINUOUS
 62
     5
 10
-302.50000000005087
 20
74.799999999935608
 30
0.0
 11
-302.50000000005087
 21
74.199999999937063
 31
0.0
  0
LINE
  8
DETAIL
  6
CONTINUOUS
 62
     5
 10
-304.20000000004802
 20
76.499999999936335
 30
0.0
 11
-304.20000000004802
 21
74.799999999935608
 31
0.0
  0
LINE
  8
DETAIL
  6
CONTINUOUS
 62
     5
 10
-304.20000000004802
 20
74.199999999937063
 30
0.0
 11
-304.20000000004802
 21
72.499999999936335
 31
0.0
  0
LINE
  8
DETAIL
  6
CONTINUOUS
 62
     5
 10
-304.80000000004662
 20
72.499999999936335
 30
0.0
 11
-304.80000000004662
 21
74.199999999937063
 31
0.0
  0
LINE
  8
DETAIL
  6
CONTINUOUS
 62
     5
 10
-304.80000000004662
 20
74.799999999935608
 30
0.0
 11
-304.80000000004662
 21
76.499999999936335
 31
0.0
  0
LINE
  8
DETAIL
  6
CONTINUOUS
 62
     5
 10
-306.50000000005087
 20
74.199999999937063
 30
0.0
 11
-306.50000000005087
 21
74.799999999935608
 31
0.0
  0
LINE
  8
DETAIL
  6
CONTINUOUS
 62
     5
 10
-313.50000000005099
 20
56.499999999936328
 30
0.0
 11
-313.50000000005099
 21
3.4999999999363349
 31
0.0
  0
LINE
  8
DETAIL
  6
CONTINUOUS
 62
     5
 10
-315.50000000005087
 20
64.499999999936335
 30
0.0
 11
-315.50000000005087
 21
63.499999999936342
 31
0.0
  0
LINE
  8
DETAIL
  6
CONTINUOUS
 62
     5
 10
-315.80000000004662
 20
56.499999999936328
 30
0.0
 11
-315.80000000004662
 21
3.4999999999363349
 31
0.0
  0
LINE
  8
DETAIL
  6
CONTINUOUS
 62
     5
 10
-317.80000000004662
 20
64.499999999936335
 30
0.0
 11
-317.80000000004662
 21
63.499999999936342
 31
0.0
  0
LINE
  8
DETAIL
  6
CONTINUOUS
 62
     5
 10
-319.50000000005087
 20
2.2999999999356069
 30
0.0
 11
-319.50000000005087
 21
3.9999999999363349
 31
0.0
  0
LINE
  8
DETAIL
  6
CONTINUOUS
 62
     5
 10
-319.50000000005087
 20
55.999999999936342
 30
0.0
 11
-319.50000000005087
 21
57.699999999937063
 31
0.0
  0
LINE
  8
DETAIL
  6
CONTINUOUS
 62
     5
 10
286.61880215344718
 20
304.99999999993628
 30
0.0
 11
284.30940107665077
 21
308.99999999993628
 31
0.0
  0
LINE
  8
DETAIL
  6
CONTINUOUS
 62
     5
 10
279.69059892316
 20
300.99999999993628
 30
0.0
 11
277.3811978463491
 21
304.99999999993628
 31
0.0
  0
LINE
  8
DETAIL
  6
CONTINUOUS
 62
     5
 10
-143.0000000000509
 20
757.5999999999367
 30
0.0
 11
-140.0000000000509
 21
757.5999999999367
 31
0.0
  0
LINE
  8
DETAIL
  6
CONTINUOUS
 62
     5
 10
-140.0000000000509
 20
763.59999999993659
 30
0.0
 11
-143.0000000000509
 21
763.59999999993659
 31
0.0
  0
LINE
  8
DETAIL
  6
CONTINUOUS
 62
     5
 10
-151.0000000000509
 20
783.99999999993634
 30
0.0
 11
-148.0000000000509
 21
783.99999999993634
 31
0.0
  0
LINE
  8
DETAIL
  6
CONTINUOUS
 62
     5
 10
-148.0000000000509
 20
789.99999999993634
 30
0.0
 11
-151.0000000000509
 21
789.99999999993634
 31
0.0
  0
LINE
  8
DETAIL
  6
CONTINUOUS
 62
     5
 10
-365.0265620595456
 20
1641.074280214636
 30
0.0
 11
-360.02855335264758
 21
1755.5474998459381
 31
0.0
  0
LINE
  8
DETAIL
  6
CONTINUOUS
 62
     5
 10
-367.38842298814421
 20
1559.254987546037
 30
0.0
 11
-365.02656217954791
 21
1641.074277792535
 31
0.0
  0
LINE
  8
DETAIL
  6
CONTINUOUS
 62
     5
 10
-370.28091039834538
 20
1522.4999999999361
 30
0.0
 11
-369.99760774934839
 21
1553.963268124937
 31
0.0
  0
LINE
  8
DETAIL
  6
CONTINUOUS
 62
     5
 10
-358.00000000005087
 20
1838.5999999999369
 30
0.0
 11
-358.00000000005087
 21
1857.5999999999369
 31
0.0
  0
LINE
  8
DETAIL
  6
CONTINUOUS
 62
     5
 10
-360.00000000005087
 20
1817.0999999999369
 30
0.0
 11
-360.00000000005087
 21
1816.9999999999361
 31
0.0
  0
LINE
  8
DETAIL
  6
CONTINUOUS
 62
     5
 10
-360.00000000005087
 20
1811.4999999999361
 30
0.0
 11
-360.00000000005087
 21
1756.237604085238
 31
0.0
  0
LINE
  8
DETAIL
  6
CONTINUOUS
 62
     5
 10
-363.00000000005087
 20
1834.5999999999369
 30
0.0
 11
-363.00000000005087
 21
1817.0999999999369
 31
0.0
  0
LINE
  8
DETAIL
  6
CONTINUOUS
 62
     5
 10
-363.00000000005087
 20
1815.6999999999371
 30
0.0
 11
-363.00000000005087
 21
1813.7999999999349
 31
0.0
  0
LINE
  8
DETAIL
  6
CONTINUOUS
 62
     5
 10
-365.50000000005087
 20
94.999999999936335
 30
0.0
 11
-365.50000000005087
 21
1522.4999999999361
 31
0.0
  0
LINE
  8
DETAIL
  6
CONTINUOUS
 62
     5
 10
-367.50000000005087
 20
2.2999999999356069
 30
0.0
 11
-367.50000000005087
 21
57.699999999937063
 31
0.0
  0
LINE
  8
DETAIL
  6
CONTINUOUS
 62
     5
 10
-369.50000000005087
 20
2.2999999999356069
 30
0.0
 11
-369.50000000005087
 21
-0.0000000000636646
 31
0.0
  0
LINE
  8
DETAIL
  6
CONTINUOUS
 62
     5
 10
-369.50000000005087
 20
57.699999999937063
 30
0.0
 11
-369.50000000005087
 21
62.299999999935608
 31
0.0
  0
LINE
  8
DETAIL
  6
CONTINUOUS
 62
     5
 10
309.11880215344718
 20
74.499999999936335
 30
0.0
 11
306.80940107665077
 21
78.499999999936335
 31
0.0
  0
LINE
  8
DETAIL
  6
CONTINUOUS
 62
     5
 10
299.8811978463491
 20
74.499999999936335
 30
0.0
 11
302.19059892316
 21
70.499999999936335
 31
0.0
  0
LINE
  8
DETAIL
  6
CONTINUOUS
 62
     5
 10
315.11880215344718
 20
110.99999999993631
 30
0.0
 11
312.80940107665077
 21
114.99999999993631
 31
0.0
  0
LINE
  8
DETAIL
  6
CONTINUOUS
 62
     5
 10
308.19059892316
 20
106.99999999993631
 30
0.0
 11
305.8811978463491
 21
110.99999999993631
 31
0.0
  0
LINE
  8
DETAIL
  6
CONTINUOUS
 62
     5
 10
-139.88119784654549
 20
689.49999999993634
 30
0.0
 11
-142.1905989233492
 21
693.49999999993634
 31
0.0
  0
LINE
  8
DETAIL
  6
CONTINUOUS
 62
     5
 10
249.11880215344721
 20
110.99999999993631
 30
0.0
 11
246.8094010766508
 21
114.99999999993631
 31
0.0
  0
LINE
  8
DETAIL
  6
CONTINUOUS
 62
     5
 10
-146.80940107684731
 20
685.49999999993634
 30
0.0
 11
-149.1188021536436
 21
689.49999999993634
 31
0.0
  0
LINE
  8
DETAIL
  6
CONTINUOUS
 62
     5
 10
242.19059892316
 20
106.99999999993631
 30
0.0
 11
239.8811978463491
 21
110.99999999993631
 31
0.0
  0
LINE
  8
DETAIL
  6
CONTINUOUS
 62
     5
 10
245.28983744155269
 20
701.69489490063643
 30
0.0
 11
245.5760191900481
 21
701.40362889143751
 31
0.0
  0
LINE
  8
DETAIL
  6
CONTINUOUS
 62
     5
 10
-151.0000000000509
 20
909.5999999999367
 30
0.0
 11
-148.0000000000509
 21
909.5999999999367
 31
0.0
  0
LINE
  8
DETAIL
  6
CONTINUOUS
 62
     5
 10
-148.0000000000509
 20
915.59999999993659
 30
0.0
 11
-151.0000000000509
 21
915.59999999993659
 31
0.0
  0
LINE
  8
DETAIL
  6
CONTINUOUS
 62
     5
 10
2.3094010766508291
 20
1820.7999999999349
 30
0.0
 11
4.6188021534471773
 21
1824.7999999999349
 31
0.0
  0
LINE
  8
DETAIL
  6
CONTINUOUS
 62
     5
 10
-4.6188021536509041
 20
1824.7999999999349
 30
0.0
 11
-2.3094010768400031
 21
1828.7999999999361
 31
0.0
  0
LINE
  8
DETAIL
  6
CONTINUOUS
 62
     5
 10
-143.38119784654549
 20
644.99999999993634
 30
0.0
 11
-145.69059892334911
 21
648.99999999993634
 31
0.0
  0
LINE
  8
DETAIL
  6
CONTINUOUS
 62
     5
 10
-150.30940107684731
 20
640.99999999993634
 30
0.0
 11
-152.6188021536436
 21
644.99999999993634
 31
0.0
  0
LINE
  8
DETAIL
  6
CONTINUOUS
 62
     5
 10
-143.0000000000509
 20
1022.799999999935
 30
0.0
 11
-140.0000000000509
 21
1022.799999999935
 31
0.0
  0
LINE
  8
DETAIL
  6
CONTINUOUS
 62
     5
 10
-140.0000000000509
 20
1028.7999999999349
 30
0.0
 11
-143.0000000000509
 21
1028.7999999999349
 31
0.0
  0
LINE
  8
DETAIL
  6
CONTINUOUS
 62
     5
 10
-259.19059892334923
 20
1512.5999999999369
 30
0.0
 11
-256.88119784654549
 21
1516.5999999999369
 31
0.0
  0
LINE
  8
DETAIL
  6
CONTINUOUS
 62
     5
 10
-266.11880215364363
 20
1516.5999999999369
 30
0.0
 11
-263.80940107684728
 21
1520.5999999999369
 31
0.0
  0
LINE
  8
DETAIL
  6
CONTINUOUS
 62
     5
 10
-143.38119784654549
 20
304.99999999993628
 30
0.0
 11
-145.69059892334911
 21
308.99999999993628
 31
0.0
  0
LINE
  8
DETAIL
  6
CONTINUOUS
 62
     5
 10
-150.30940107684731
 20
300.99999999993628
 30
0.0
 11
-152.6188021536436
 21
304.99999999993628
 31
0.0
  0
LINE
  8
DETAIL
  6
CONTINUOUS
 62
     5
 10
-151.0000000000509
 20
1097.9999999999361
 30
0.0
 11
-148.0000000000509
 21
1097.9999999999361
 31
0.0
  0
LINE
  8
DETAIL
  6
CONTINUOUS
 62
     5
 10
-148.0000000000509
 20
1103.9999999999361
 30
0.0
 11
-151.0000000000509
 21
1103.9999999999361
 31
0.0
  0
LINE
  8
DETAIL
  6
CONTINUOUS
 62
     5
 10
-105.8811978465455
 20
110.99999999993631
 30
0.0
 11
-108.1905989233491
 21
114.99999999993631
 31
0.0
  0
LINE
  8
DETAIL
  6
CONTINUOUS
 62
     5
 10
-112.80940107684729
 20
106.99999999993631
 30
0.0
 11
-115.1188021536436
 21
110.99999999993631
 31
0.0
  0
LINE
  8
DETAIL
  6
CONTINUOUS
 62
     5
 10
-169.88119784654549
 20
110.99999999993631
 30
0.0
 11
-172.1905989233492
 21
114.99999999993631
 31
0.0
  0
LINE
  8
DETAIL
  6
CONTINUOUS
 62
     5
 10
-176.80940107684731
 20
106.99999999993631
 30
0.0
 11
-179.1188021536436
 21
110.99999999993631
 31
0.0
  0
LINE
  8
DETAIL
  6
CONTINUOUS
 62
     5
 10
-143.0000000000509
 20
1226.7999999999349
 30
0.0
 11
-140.0000000000509
 21
1226.7999999999349
 31
0.0
  0
LINE
  8
DETAIL
  6
CONTINUOUS
 62
     5
 10
-140.0000000000509
 20
1232.7999999999349
 30
0.0
 11
-143.0000000000509
 21
1232.7999999999349
 31
0.0
  0
LINE
  8
DETAIL
  6
CONTINUOUS
 62
     5
 10
-151.0000000000509
 20
1286.399999999938
 30
0.0
 11
-148.0000000000509
 21
1286.399999999938
 31
0.0
  0
LINE
  8
DETAIL
  6
CONTINUOUS
 62
     5
 10
-148.0000000000509
 20
1292.399999999938
 30
0.0
 11
-151.0000000000509
 21
1292.399999999938
 31
0.0
  0
LINE
  8
DETAIL
  6
CONTINUOUS
 62
     5
 10
-299.8811978465456
 20
74.499999999936335
 30
0.0
 11
-302.19059892334923
 21
78.499999999936335
 31
0.0
  0
LINE
  8
DETAIL
  6
CONTINUOUS
 62
     5
 10
-306.80940107684728
 20
70.499999999936335
 30
0.0
 11
-309.11880215364363
 21
74.499999999936335
 31
0.0
  0
LINE
  8
DETAIL
  6
CONTINUOUS
 62
     5
 10
-143.0000000000509
 20
1451.1999999999371
 30
0.0
 11
-140.0000000000509
 21
1451.1999999999371
 31
0.0
  0
LINE
  8
DETAIL
  6
CONTINUOUS
 62
     5
 10
-140.0000000000509
 20
1457.1999999999371
 30
0.0
 11
-143.0000000000509
 21
1457.1999999999371
 31
0.0
  0
LINE
  8
DETAIL
  6
CONTINUOUS
 62
     5
 10
-151.0000000000509
 20
1490.4999999999361
 30
0.0
 11
-148.0000000000509
 21
1490.4999999999361
 31
0.0
  0
LINE
  8
DETAIL
  6
CONTINUOUS
 62
     5
 10
-152.69567893554631
 20
1491.0299999999349
 30
0.0
 11
-151.80000000004651
 21
1491.0299999999349
 31
0.0
  0
LINE
  8
DETAIL
  6
CONTINUOUS
 62
     5
 10
-148.0000000000509
 20
1496.4999999999361
 30
0.0
 11
-151.0000000000509
 21
1496.4999999999361
 31
0.0
  0
LINE
  8
DETAIL
  6
CONTINUOUS
 62
     5
 10
-263.80940107684728
 20
1512.5999999999369
 30
0.0
 11
-259.19059892334923
 21
1512.5999999999369
 31
0.0
  0
LINE
  8
DETAIL
  6
CONTINUOUS
 62
     5
 10
308.19059892316
 20
1512.5999999999369
 30
0.0
 11
312.80940107665077
 21
1512.5999999999369
 31
0.0
  0
LINE
  8
DETAIL
  6
CONTINUOUS
 62
     5
 10
310.7999999999592
 20
1514.599999999936
 30
0.0
 11
310.19999999995338
 21
1514.599999999936
 31
0.0
  0
LINE
  8
DETAIL
  6
CONTINUOUS
 62
     5
 10
-261.20000000004802
 20
1514.599999999936
 30
0.0
 11
-261.80000000004662
 21
1514.599999999936
 31
0.0
  0
LINE
  8
DETAIL
  6
CONTINUOUS
 62
     5
 10
312.49999999994179
 20
1516.2999999999361
 30
0.0
 11
310.7999999999592
 21
1516.2999999999361
 31
0.0
  0
LINE
  8
DETAIL
  6
CONTINUOUS
 62
     5
 10
310.19999999995338
 20
1516.2999999999361
 30
0.0
 11
308.49999999994179
 21
1516.2999999999361
 31
0.0
  0
LINE
  8
DETAIL
  6
CONTINUOUS
 62
     5
 10
-259.50000000005099
 20
1516.2999999999361
 30
0.0
 11
-261.20000000004802
 21
1516.2999999999361
 31
0.0
  0
LINE
  8
DETAIL
  6
CONTINUOUS
 62
     5
 10
-261.80000000004662
 20
1516.2999999999361
 30
0.0
 11
-263.50000000005087
 21
1516.2999999999361
 31
0.0
  0
LINE
  8
DETAIL
  6
CONTINUOUS
 62
     5
 10
-263.50000000005087
 20
1516.899999999938
 30
0.0
 11
-261.80000000004662
 21
1516.899999999938
 31
0.0
  0
LINE
  8
DETAIL
  6
CONTINUOUS
 62
     5
 10
-261.20000000004802
 20
1516.899999999938
 30
0.0
 11
-259.50000000005099
 21
1516.899999999938
 31
0.0
  0
LINE
  8
DETAIL
  6
CONTINUOUS
 62
     5
 10
308.49999999994179
 20
1516.899999999938
 30
0.0
 11
310.19999999995338
 21
1516.899999999938
 31
0.0
  0
LINE
  8
DETAIL
  6
CONTINUOUS
 62
     5
 10
310.7999999999592
 20
1516.899999999938
 30
0.0
 11
312.49999999994179
 21
1516.899999999938
 31
0.0
  0
LINE
  8
DETAIL
  6
CONTINUOUS
 62
     5
 10
-261.80000000004662
 20
1518.5999999999369
 30
0.0
 11
-261.20000000004802
 21
1518.5999999999369
 31
0.0
  0
LINE
  8
DETAIL
  6
CONTINUOUS
 62
     5
 10
310.19999999995338
 20
1518.5999999999369
 30
0.0
 11
310.7999999999592
 21
1518.5999999999369
 31
0.0
  0
LINE
  8
DETAIL
  6
CONTINUOUS
 62
     5
 10
274.49999999994179
 20
1520.0999999999369
 30
0.0
 11
-133.5000000000509
 21
1520.0999999999369
 31
0.0
  0
LINE
  8
DETAIL
  6
CONTINUOUS
 62
     5
 10
-263.80940107684728
 20
1520.5999999999369
 30
0.0
 11
-259.19059892334923
 21
1520.5999999999369
 31
0.0
  0
LINE
  8
DETAIL
  6
CONTINUOUS
 62
     5
 10
308.19059892316
 20
1520.5999999999369
 30
0.0
 11
312.80940107665077
 21
1520.5999999999369
 31
0.0
  0
LINE
  8
DETAIL
  6
CONTINUOUS
 62
     5
 10
-370.28091039834538
 20
1522.4999999999361
 30
0.0
 11
370.28091039814171
 21
1522.4999999999361
 31
0.0
  0
LINE
  8
DETAIL
  6
CONTINUOUS
 62
     5
 10
-363.95064030274813
 20
94.999999999936335
 30
0.0
 11
-320.46357325974532
 21
64.499999999936335
 31
0.0
  0
LINE
  8
DETAIL
  6
CONTINUOUS
 62
     5
 10
-362.70000000004802
 20
1813.4999999999361
 30
0.0
 11
-361.71537032411288
 21
1813.499999999937
 31
0.0
  0
LINE
  8
DETAIL
  6
CONTINUOUS
 62
     5
 10
362.00009158700408
 20
1813.4999999978379
 30
0.0
 11
362.69999999995338
 21
1813.4999999999361
 31
0.0
  0
LINE
  8
DETAIL
  6
CONTINUOUS
 62
     5
 10
-362.70000000004802
 20
1815.9999999999361
 30
0.0
 11
-360.99973351158411
 21
1816.000000035335
 31
0.0
  0
LINE
  8
DETAIL
  6
CONTINUOUS
 62
     5
 10
360.9995889217243
 20
1816.0000000841981
 30
0.0
 11
362.69999999995338
 21
1815.9999999999361
 31
0.0
  0
LINE
  8
DETAIL
  6
CONTINUOUS
 62
     5
 10
-363.00000000005087
 20
1817.0999999999369
 30
0.0
 11
362.99999999994179
 21
1817.0999999999369
 31
0.0
  0
LINE
  8
DETAIL
  6
CONTINUOUS
 62
     5
 10
-2.3094010768400031
 20
1820.7999999999349
 30
0.0
 11
2.3094010766508291
 21
1820.7999999999349
 31
0.0
  0
LINE
  8
DETAIL
  6
CONTINUOUS
 62
     5
 10
0.2999999999592546
 20
1822.7999999999349
 30
0.0
 11
-0.3000000000465661
 21
1822.7999999999349
 31
0.0
  0
LINE
  8
DETAIL
  6
CONTINUOUS
 62
     5
 10
1.9999999999417919
 20
1824.4999999999361
 30
0.0
 11
0.2999999999592546
 21
1824.4999999999361
 31
0.0
  0
LINE
  8
DETAIL
  6
CONTINUOUS
 62
     5
 10
-0.3000000000465661
 20
1824.4999999999361
 30
0.0
 11
-2.0000000000582072
 21
1824.4999999999361
 31
0.0
  0
LINE
  8
DETAIL
  6
CONTINUOUS
 62
     5
 10
-2.0000000000582072
 20
1825.0999999999369
 30
0.0
 11
-0.3000000000465661
 21
1825.0999999999369
 31
0.0
  0
LINE
  8
DETAIL
  6
CONTINUOUS
 62
     5
 10
0.2999999999592546
 20
1825.0999999999369
 30
0.0
 11
1.9999999999417919
 21
1825.0999999999369
 31
0.0
  0
LINE
  8
DETAIL
  6
CONTINUOUS
 62
     5
 10
-0.3000000000465661
 20
1826.7999999999361
 30
0.0
 11
0.2999999999592546
 21
1826.7999999999361
 31
0.0
  0
LINE
  8
DETAIL
  6
CONTINUOUS
 62
     5
 10
-2.3094010768400031
 20
1828.7999999999361
 30
0.0
 11
2.3094010766508291
 21
1828.7999999999361
 31
0.0
  0
LINE
  8
DETAIL
  6
CONTINUOUS
 62
     5
 10
-361.00000000005087
 20
1836.599999999936
 30
0.0
 11
-167.85142435434679
 21
1836.599999999936
 31
0.0
  0
LINE
  8
DETAIL
  6
CONTINUOUS
 62
     5
 10
-167.85142435434679
 20
1836.599999999936
 30
0.0
 11
167.85142435415759
 21
1836.599999999936
 31
0.0
  0
LINE
  8
DETAIL
  6
CONTINUOUS
 62
     5
 10
167.85142435415759
 20
1836.599999999936
 30
0.0
 11
360.99999999994179
 21
1836.599999999936
 31
0.0
  0
LINE
  8
DETAIL
  6
CONTINUOUS
 62
     5
 10
357.49999999994179
 20
1858.0999999999369
 30
0.0
 11
-357.50000000005087
 21
1858.0999999999369
 31
0.0
  0
CIRCLE
  8
DETAIL
  6
CONTINUOUS
 62
     5
 10
304.49999999994179
 20
74.499999999936335
 30
0.0
 40
6.0999999999999988
  0
CIRCLE
  8
DETAIL
  6
CONTINUOUS
 62
     5
 10
304.49999999994179
 20
74.499999999936335
 30
0.0
 40
6.0
  0
ARC
  8
DETAIL
  6
CONTINUOUS
 62
     5
 10
300.79999999995931
 20
69.499999999936335
 30
0.0
 40
5.0
 50
180.0
 51
270.0
  0
ARC
  8
DETAIL
  6
CONTINUOUS
 62
     5
 10
301.49999999994179
 20
69.499999999936335
 30
0.0
 40
5.0
 50
180.0
 51
270.0
  0
ARC
  8
DETAIL
  6
CONTINUOUS
 62
     5
 10
318.99999999994179
 20
63.499999999936342
 30
0.0
 40
3.5
 50
180.0
 51
270.0
  0
ARC
  8
DETAIL
  6
CONTINUOUS
 62
     5
 10
316.99999999994179
 20
56.499999999936328
 30
0.0
 40
3.5
 50
90.0
 51
180.0
  0
ARC
  8
DETAIL
  6
CONTINUOUS
 62
     5
 10
316.99999999994179
 20
3.4999999999363349
 30
0.0
 40
3.5
 50
180.0
 51
270.0
  0
ARC
  8
DETAIL
  6
CONTINUOUS
 62
     5
 10
318.99999999994179
 20
63.499999999936342
 30
0.0
 40
1.1999999999999991
 50
180.0
 51
270.0
  0
ARC
  8
DETAIL
  6
CONTINUOUS
 62
     5
 10
316.99999999994179
 20
56.499999999936328
 30
0.0
 40
1.1999999999999991
 50
90.0
 51
180.0
  0
ARC
  8
DETAIL
  6
CONTINUOUS
 62
     5
 10
316.99999999994179
 20
3.4999999999363349
 30
0.0
 40
1.1999999999999991
 50
180.0
 51
270.0
  0
CIRCLE
  8
DETAIL
  6
CONTINUOUS
 62
     5
 10
309.49999999994179
 20
146.49999999993631
 30
0.0
 40
2.2999999999999989
  0
ARC
  8
DETAIL
  6
CONTINUOUS
 62
     5
 10
363.84719540024531
 20
308.95620177943601
 30
0.0
 40
1.9528048806
 50
359.96926835192988
 51
1.310800672179125
  0
ARC
  8
DETAIL
  6
CONTINUOUS
 62
     5
 10
365.07225022335479
 20
309.05569233193643
 30
0.0
 40
0.7212970671
 50
13.921670501900239
 51
15.972476655188499
  0
ARC
  8
DETAIL
  6
CONTINUOUS
 62
     5
 10
365.10841862525558
 20
309.06600134203649
 30
0.0
 40
0.6836881965
 50
15.97596624193829
 51
17.161736796887968
  0
ARC
  8
DETAIL
  6
CONTINUOUS
 62
     5
 10
365.29999999995931
 20
309.11880215343632
 30
0.0
 40
0.5
 50
0.0
 51
66.000001499063814
  0
ARC
  8
DETAIL
  6
CONTINUOUS
 62
     5
 10
365.29999999995931
 20
300.88119784643641
 30
0.0
 40
0.5
 50
293.99999850093621
 51
0.0
  0
ARC
  8
DETAIL
  6
CONTINUOUS
 62
     5
 10
365.32527375034988
 20
309.17626722583549
 30
0.0
 40
0.4369026509000001
 50
62.355928842280647
 51
65.824680824544004
  0
ARC
  8
DETAIL
  6
CONTINUOUS
 62
     5
 10
365.3323265761428
 20
309.1900789404371
 30
0.0
 40
0.4213952633
 50
52.974441463357842
 51
62.334092396856583
  0
CIRCLE
  8
DETAIL
  6
CONTINUOUS
 62
     5
 10
310.49999999994179
 20
110.99999999993631
 30
0.0
 40
6.0999999999999988
  0
CIRCLE
  8
DETAIL
  6
CONTINUOUS
 62
     5
 10
310.49999999994179
 20
110.99999999993631
 30
0.0
 40
6.0
  0
ARC
  8
DETAIL
  6
CONTINUOUS
 62
     5
 10
291.49999999994179
 20
94.999999999936335
 30
0.0
 40
5.0
 50
0.0
 51
58.667748502189689
  0
CIRCLE
  8
DETAIL
  6
CONTINUOUS
 62
     5
 10
281.99999999994179
 20
304.99999999993628
 30
0.0
 40
6.0999999999999988
  0
CIRCLE
  8
DETAIL
  6
CONTINUOUS
 62
     5
 10
281.99999999994179
 20
304.99999999993628
 30
0.0
 40
6.0
  0
CIRCLE
  8
DETAIL
  6
CONTINUOUS
 62
     5
 10
281.99999999994179
 20
644.99999999993634
 30
0.0
 40
6.0999999999999988
  0
CIRCLE
  8
DETAIL
  6
CONTINUOUS
 62
     5
 10
281.99999999994179
 20
644.99999999993634
 30
0.0
 40
6.0
  0
ARC
  8
DETAIL
  6
CONTINUOUS
 62
     5
 10
340.06532333276118
 20
898.84848174513718
 30
0.0
 40
5.1530650344999991
 50
78.223515763639284
 51
78.504258697885746
  0
ARC
  8
DETAIL
  6
CONTINUOUS
 62
     5
 10
340.06532333276118
 20
754.15151825463727
 30
0.0
 40
5.1530650344999991
 50
281.49574130211431
 51
281.77648423636072
  0
ARC
  8
DETAIL
  6
CONTINUOUS
 62
     5
 10
340.07605393935228
 20
754.09538044943645
 30
0.0
 40
5.0959148676999986
 50
276.19787345996991
 51
281.50330415563508
  0
ARC
  8
DETAIL
  6
CONTINUOUS
 62
     5
 10
340.07606315336312
 20
898.90467137473559
 30
0.0
 40
5.0958622468000003
 50
78.496681159457879
 51
83.808624849001006
  0
ARC
  8
DETAIL
  6
CONTINUOUS
 62
     5
 10
341.14752645246341
 20
899.72258578653589
 30
0.0
 40
4.277414349699999
 50
90.014464451508019
 51
97.0152670310068
  0
ARC
  8
DETAIL
  6
CONTINUOUS
 62
     5
 10
341.14752343595319
 20
753.27733886473652
 30
0.0
 40
4.2773390003999996
 50
262.99234104173581
 51
269.98557569920001
  0
CIRCLE
  8
DETAIL
  6
CONTINUOUS
 62
     5
 10
304.49999999994179
 20
714.49999999993634
 30
0.0
 40
2.2999999999999989
  0
CIRCLE
  8
DETAIL
  6
CONTINUOUS
 62
     5
 10
309.49999999994179
 20
821.49999999993634
 30
0.0
 40
2.2999999999999989
  0
CIRCLE
  8
DETAIL
  6
CONTINUOUS
 62
     5
 10
244.49999999994179
 20
110.99999999993631
 30
0.0
 40
6.0999999999999988
  0
CIRCLE
  8
DETAIL
  6
CONTINUOUS
 62
     5
 10
244.49999999994179
 20
110.99999999993631
 30
0.0
 40
6.0
  0
ARC
  8
DETAIL
  6
CONTINUOUS
 62
     5
 10
247.04737231304171
 20
711.48945352183534
 30
0.0
 40
1.010521510999999
 50
120.98015542737841
 51
177.14535385084011
  0
ARC
  8
DETAIL
  6
CONTINUOUS
 62
     5
 10
247.04191625316159
 20
711.50920979793773
 30
0.0
 40
0.9907903145999998
 50
90.027328051477753
 51
121.2977295538853
  0
ARC
  8
DETAIL
  6
CONTINUOUS
 62
     5
 10
340.06532331884961
 20
1339.1515183220361
 30
0.0
 40
5.1530651032999986
 50
281.49574130381069
 51
281.77648423550198
  0
ARC
  8
DETAIL
  6
CONTINUOUS
 62
     5
 10
340.06532333025831
 20
1098.8484817327351
 30
0.0
 40
5.1530650472000001
 50
78.223515763639284
 51
78.504258697885746
  0
ARC
  8
DETAIL
  6
CONTINUOUS
 62
     5
 10
340.06532333155337
 20
939.15151826083638
 30
0.0
 40
5.1530650407999987
 50
281.49574130211431
 51
281.77648423636072
  0
ARC
  8
DETAIL
  6
CONTINUOUS
 62
     5
 10
340.06532333276118
 20
1139.151518254637
 30
0.0
 40
5.1530650344999991
 50
281.49574130211431
 51
281.77648423636072
  0
ARC
  8
DETAIL
  6
CONTINUOUS
 62
     5
 10
340.06532333276118
 20
1298.848481745137
 30
0.0
 40
5.1530650344999991
 50
78.223515763639284
 51
78.504258697885746
  0
ARC
  8
DETAIL
  6
CONTINUOUS
 62
     5
 10
340.07605393925041
 20
1139.0953804497369
 30
0.0
 40
5.0959148680000004
 50
276.19787346081011
 51
281.50330415479732
  0
ARC
  8
DETAIL
  6
CONTINUOUS
 62
     5
 10
340.07605393925041
 20
1339.095380449636
 30
0.0
 40
5.0959148679000004
 50
276.19787346081011
 51
281.50330415479732
  0
ARC
  8
DETAIL
  6
CONTINUOUS
 62
     5
 10
340.07605393935228
 20
939.09538044953649
 30
0.0
 40
5.0959148677999986
 50
276.19787346081011
 51
281.50330415479732
  0
ARC
  8
DETAIL
  6
CONTINUOUS
 62
     5
 10
340.07606315324671
 20
1098.9046713743351
 30
0.0
 40
5.0958622472000004
 50
78.496681159457879
 51
83.808624849001006
  0
ARC
  8
DETAIL
  6
CONTINUOUS
 62
     5
 10
340.07606315336312
 20
1298.9046713745361
 30
0.0
 40
5.0958622469999986
 50
78.496681159457879
 51
83.808624849001006
  0
ARC
  8
DETAIL
  6
CONTINUOUS
 62
     5
 10
341.14752645246341
 20
1099.7225857866381
 30
0.0
 40
4.277414349599999
 50
90.014464451508019
 51
97.0152670310068
  0
ARC
  8
DETAIL
  6
CONTINUOUS
 62
     5
 10
341.14752645246341
 20
1299.722585786536
 30
0.0
 40
4.277414349699999
 50
90.014464451508019
 51
97.0152670310068
  0
ARC
  8
DETAIL
  6
CONTINUOUS
 62
     5
 10
341.14752343595319
 20
938.27733886473652
 30
0.0
 40
4.2773390003999996
 50
262.99234104173581
 51
269.98557569920001
  0
ARC
  8
DETAIL
  6
CONTINUOUS
 62
     5
 10
341.14752343595319
 20
1338.2773388648361
 30
0.0
 40
4.2773390003999996
 50
262.99234104173581
 51
269.98557569920001
  0
ARC
  8
DETAIL
  6
CONTINUOUS
 62
     5
 10
341.14752343595319
 20
1138.2773388647361
 30
0.0
 40
4.2773390002999987
 50
262.99234104173581
 51
269.98557569920001
  0
CIRCLE
  8
DETAIL
  6
CONTINUOUS
 62
     5
 10
247.49999999994179
 20
1098.4999999999361
 30
0.0
 40
2.2999999999999989
  0
ARC
  8
DETAIL
  6
CONTINUOUS
 62
     5
 10
340.06532333276118
 20
1498.848481745137
 30
0.0
 40
5.1530650344999991
 50
78.223515763639284
 51
78.504258697885746
  0
ARC
  8
DETAIL
  6
CONTINUOUS
 62
     5
 10
340.07606315324671
 20
1498.9046713743351
 30
0.0
 40
5.0958622472000004
 50
78.496681159457879
 51
83.808624849001006
  0
ARC
  8
DETAIL
  6
CONTINUOUS
 62
     5
 10
341.14752645246341
 20
1499.722585786536
 30
0.0
 40
4.277414349699999
 50
90.014464451508019
 51
97.0152670310068
  0
CIRCLE
  8
DETAIL
  6
CONTINUOUS
 62
     5
 10
309.49999999994179
 20
1496.4999999999361
 30
0.0
 40
2.2999999999999989
  0
ARC
  8
DETAIL
  6
CONTINUOUS
 62
     5
 10
389.99999999994179
 20
1756.856081466836
 30
0.0
 40
30.0
 50
180.0
 51
182.4999999999709
  0
ARC
  8
DETAIL
  6
CONTINUOUS
 62
     5
 10
360.99999996705452
 20
1834.5999999999369
 30
0.0
 40
2.0
 50
0.0
 51
89.999999058681183
  0
ARC
  8
DETAIL
  6
CONTINUOUS
 62
     5
 10
359.99999999994179
 20
1838.5999999999369
 30
0.0
 40
2.0
 50
180.0
 51
270.0
  0
ARC
  8
DETAIL
  6
CONTINUOUS
 62
     5
 10
361.99999999784632
 20
1811.500000002035
 30
0.0
 40
1.9999999978999989
 50
98.181818133874543
 51
179.99999937738721
  0
ARC
  8
DETAIL
  6
CONTINUOUS
 62
     5
 10
360.99999943884899
 20
1816.9999994388361
 30
0.0
 40
0.9999994388999999
 50
179.99996785279581
 51
260.48885436302942
  0
ARC
  8
DETAIL
  6
CONTINUOUS
 62
     5
 10
357.50000000225549
 20
1857.5999999999369
 30
0.0
 40
0.5
 50
0.0
 51
90.000000271806798
  0
ARC
  8
DETAIL
  6
CONTINUOUS
 62
     5
 10
362.69999999995338
 20
1815.6999999999371
 30
0.0
 40
0.3
 50
0.0
 51
90.0
  0
ARC
  8
DETAIL
  6
CONTINUOUS
 62
     5
 10
362.69999999995338
 20
1813.7999999999349
 30
0.0
 40
0.3
 50
270.0
 51
0.0
  0
ARC
  8
DETAIL
  6
CONTINUOUS
 62
     5
 10
310.49999999994179
 20
1516.5999999999369
 30
0.0
 40
6.0999999999999988
 50
102.1444617173148
 51
77.855538282685202
  0
ARC
  8
DETAIL
  6
CONTINUOUS
 62
     5
 10
310.49999999994179
 20
1516.5999999999369
 30
0.0
 40
6.0
 50
95.663804351021156
 51
84.336195648978858
  0
ARC
  8
DETAIL
  6
CONTINUOUS
 62
     5
 10
277.49999999994179
 20
1519.9999999999361
 30
0.0
 40
3.0
 50
123.4700289162256
 51
180.0
  0
CIRCLE
  8
DETAIL
  6
CONTINUOUS
 62
     5
 10
304.49999999994179
 20
1482.4999999999361
 30
0.0
 40
2.2999999999999989
  0
ARC
  8
DETAIL
  6
CONTINUOUS
 62
     5
 10
167.35142435415759
 20
1857.5999999999369
 30
0.0
 40
0.5
 50
0.0
 51
90.0
  0
ARC
  8
DETAIL
  6
CONTINUOUS
 62
     5
 10
-261.16397222154768
 20
-6151.9737338289633
 30
0.0
 40
7740.6837844605998
 50
89.650351076357467
 51
89.786750828191984
  0
ARC
  8
DETAIL
  6
CONTINUOUS
 62
     5
 10
-198.3093747672464
 20
-5564.4711822979643
 30
0.0
 40
7139.5396893155012
 50
90.343473670165096
 51
90.67284180838908
  0
ARC
  8
DETAIL
  6
CONTINUOUS
 62
     5
 10
-198.63658347694579
 20
-5505.554557964263
 30
0.0
 40
7080.4052500467997
 50
90.342662338870568
 51
90.674728209956299
  0
ARC
  8
DETAIL
  6
CONTINUOUS
 62
     5
 10
-216.06686690395151
 20
-3796.5262054903628
 30
0.0
 40
5385.2072717016999
 50
90.173286668245694
 51
90.594842024686287
  0
CIRCLE
  8
DETAIL
  6
CONTINUOUS
 62
     5
 10
-174.5000000000509
 20
110.99999999993631
 30
0.0
 40
6.0999999999999988
  0
CIRCLE
  8
DETAIL
  6
CONTINUOUS
 62
     5
 10
-110.5000000000509
 20
110.99999999993631
 30
0.0
 40
6.0999999999999988
  0
CIRCLE
  8
DETAIL
  6
CONTINUOUS
 62
     5
 10
-148.0000000000509
 20
304.99999999993628
 30
0.0
 40
6.0999999999999988
  0
CIRCLE
  8
DETAIL
  6
CONTINUOUS
 62
     5
 10
-174.5000000000509
 20
110.99999999993631
 30
0.0
 40
6.0
  0
CIRCLE
  8
DETAIL
  6
CONTINUOUS
 62
     5
 10
-110.5000000000509
 20
110.99999999993631
 30
0.0
 40
6.0
  0
CIRCLE
  8
DETAIL
  6
CONTINUOUS
 62
     5
 10
-148.0000000000509
 20
304.99999999993628
 30
0.0
 40
6.0
  0
ARC
  8
DETAIL
  6
CONTINUOUS
 62
     5
 10
-166.5000000000509
 20
102.99999999993631
 30
0.0
 40
3.0
 50
270.0
 51
0.0
  0
ARC
  8
DETAIL
  6
CONTINUOUS
 62
     5
 10
-144.5000000000509
 20
689.49999999993634
 30
0.0
 40
6.0999999999999988
 50
309.95904380610563
 51
230.0409561938944
  0
CIRCLE
  8
DETAIL
  6
CONTINUOUS
 62
     5
 10
-148.0000000000509
 20
644.99999999993634
 30
0.0
 40
6.0999999999999988
  0
ARC
  8
DETAIL
  6
CONTINUOUS
 62
     5
 10
-144.5000000000509
 20
689.49999999993634
 30
0.0
 40
6.0
 50
309.25026147898518
 51
230.74973852101471
  0
CIRCLE
  8
DETAIL
  6
CONTINUOUS
 62
     5
 10
-148.0000000000509
 20
644.99999999993634
 30
0.0
 40
6.0
  0
ARC
  8
DETAIL
  6
CONTINUOUS
 62
     5
 10
-151.0000000000509
 20
786.99999999993634
 30
0.0
 40
3.0
 50
90.0
 51
270.0
  0
ARC
  8
DETAIL
  6
CONTINUOUS
 62
     5
 10
-148.0000000000509
 20
786.99999999993634
 30
0.0
 40
3.0
 50
270.0
 51
90.0
  0
ARC
  8
DETAIL
  6
CONTINUOUS
 62
     5
 10
-151.0000000000509
 20
912.5999999999367
 30
0.0
 40
3.0
 50
90.0
 51
270.0
  0
ARC
  8
DETAIL
  6
CONTINUOUS
 62
     5
 10
-148.0000000000509
 20
912.5999999999367
 30
0.0
 40
3.0
 50
270.0
 51
90.0
  0
ARC
  8
DETAIL
  6
CONTINUOUS
 62
     5
 10
-143.0000000000509
 20
760.5999999999367
 30
0.0
 40
3.0
 50
90.0
 51
270.0
  0
ARC
  8
DETAIL
  6
CONTINUOUS
 62
     5
 10
-140.0000000000509
 20
760.5999999999367
 30
0.0
 40
3.0
 50
270.0
 51
90.0
  0
CIRCLE
  8
DETAIL
  6
CONTINUOUS
 62
     5
 10
-170.5000000000509
 20
714.49999999993634
 30
0.0
 40
2.2999999999999989
  0
CIRCLE
  8
DETAIL
  6
CONTINUOUS
 62
     5
 10
-304.50000000005087
 20
74.499999999936335
 30
0.0
 40
6.0999999999999988
  0
CIRCLE
  8
DETAIL
  6
CONTINUOUS
 62
     5
 10
-304.50000000005087
 20
74.499999999936335
 30
0.0
 40
6.0
  0
ARC
  8
DETAIL
  6
CONTINUOUS
 62
     5
 10
-300.80000000004662
 20
69.499999999936335
 30
0.0
 40
5.0
 50
270.0
 51
0.0
  0
ARC
  8
DETAIL
  6
CONTINUOUS
 62
     5
 10
-301.50000000005087
 20
69.499999999936335
 30
0.0
 40
5.0
 50
270.0
 51
0.0
  0
ARC
  8
DETAIL
  6
CONTINUOUS
 62
     5
 10
-319.00000000005087
 20
63.499999999936342
 30
0.0
 40
3.5
 50
270.0
 51
0.0
  0
ARC
  8
DETAIL
  6
CONTINUOUS
 62
     5
 10
-317.00000000005087
 20
3.4999999999363349
 30
0.0
 40
3.5
 50
270.0
 51
0.0
  0
ARC
  8
DETAIL
  6
CONTINUOUS
 62
     5
 10
-317.00000000005087
 20
56.499999999936328
 30
0.0
 40
3.5
 50
0.0
 51
90.0
  0
ARC
  8
DETAIL
  6
CONTINUOUS
 62
     5
 10
-319.00000000005087
 20
63.499999999936342
 30
0.0
 40
1.1999999999999991
 50
270.0
 51
0.0
  0
ARC
  8
DETAIL
  6
CONTINUOUS
 62
     5
 10
-317.00000000005087
 20
3.4999999999363349
 30
0.0
 40
1.1999999999999991
 50
270.0
 51
0.0
  0
ARC
  8
DETAIL
  6
CONTINUOUS
 62
     5
 10
-317.00000000005087
 20
56.499999999936328
 30
0.0
 40
1.1999999999999991
 50
0.0
 51
90.0
  0
ARC
  8
DETAIL
  6
CONTINUOUS
 62
     5
 10
-291.50000000005087
 20
94.999999999936335
 30
0.0
 40
5.0
 50
90.0
 51
180.0
  0
CIRCLE
  8
DETAIL
  6
CONTINUOUS
 62
     5
 10
-309.50000000005099
 20
146.49999999993631
 30
0.0
 40
2.2999999999999989
  0
CIRCLE
  8
DETAIL
  6
CONTINUOUS
 62
     5
 10
-309.50000000005099
 20
821.49999999993634
 30
0.0
 40
2.2999999999999989
  0
ARC
  8
DETAIL
  6
CONTINUOUS
 62
     5
 10
-151.0000000000509
 20
1100.9999999999361
 30
0.0
 40
3.0
 50
90.0
 51
270.0
  0
ARC
  8
DETAIL
  6
CONTINUOUS
 62
     5
 10
-148.0000000000509
 20
1100.9999999999361
 30
0.0
 40
3.0
 50
270.0
 51
90.0
  0
ARC
  8
DETAIL
  6
CONTINUOUS
 62
     5
 10
-151.0000000000509
 20
1289.399999999938
 30
0.0
 40
3.0
 50
90.0
 51
270.0
  0
ARC
  8
DETAIL
  6
CONTINUOUS
 62
     5
 10
-148.0000000000509
 20
1289.399999999938
 30
0.0
 40
3.0
 50
270.0
 51
90.0
  0
ARC
  8
DETAIL
  6
CONTINUOUS
 62
     5
 10
-143.0000000000509
 20
1025.7999999999349
 30
0.0
 40
3.0
 50
90.0
 51
270.0
  0
ARC
  8
DETAIL
  6
CONTINUOUS
 62
     5
 10
-140.0000000000509
 20
1025.7999999999349
 30
0.0
 40
3.0
 50
270.0
 51
90.0
  0
ARC
  8
DETAIL
  6
CONTINUOUS
 62
     5
 10
-143.0000000000509
 20
1229.7999999999361
 30
0.0
 40
3.0
 50
90.0
 51
270.0
  0
ARC
  8
DETAIL
  6
CONTINUOUS
 62
     5
 10
-140.0000000000509
 20
1229.7999999999361
 30
0.0
 40
3.0
 50
270.0
 51
90.0
  0
CIRCLE
  8
DETAIL
  6
CONTINUOUS
 62
     5
 10
-170.5000000000509
 20
1098.4999999999361
 30
0.0
 40
2.2999999999999989
  0
CIRCLE
  8
DETAIL
  6
CONTINUOUS
 62
     5
 10
-0.0000000000582077
 20
1824.7999999999349
 30
0.0
 40
6.0999999999999988
  0
CIRCLE
  8
DETAIL
  6
CONTINUOUS
 62
     5
 10
-0.0000000000582077
 20
1824.7999999999349
 30
0.0
 40
6.0
  0
ARC
  8
DETAIL
  6
CONTINUOUS
 62
     5
 10
-151.0000000000509
 20
1493.4999999999361
 30
0.0
 40
3.0
 50
90.0
 51
270.0
  0
ARC
  8
DETAIL
  6
CONTINUOUS
 62
     5
 10
-148.0000000000509
 20
1493.4999999999361
 30
0.0
 40
3.0
 50
270.0
 51
90.0
  0
ARC
  8
DETAIL
  6
CONTINUOUS
 62
     5
 10
-143.0000000000509
 20
1454.1999999999371
 30
0.0
 40
3.0
 50
90.0
 51
270.0
  0
ARC
  8
DETAIL
  6
CONTINUOUS
 62
     5
 10
-140.0000000000509
 20
1454.1999999999371
 30
0.0
 40
3.0
 50
270.0
 51
90.0
  0
CIRCLE
  8
DETAIL
  6
CONTINUOUS
 62
     5
 10
-170.5000000000509
 20
1472.4999999999361
 30
0.0
 40
2.2999999999999989
  0
ARC
  8
DETAIL
  6
CONTINUOUS
 62
     5
 10
-167.35142435434679
 20
1857.5999999999369
 30
0.0
 40
0.5
 50
90.0
 51
180.0
  0
ARC
  8
DETAIL
  6
CONTINUOUS
 62
     5
 10
-261.50000000005099
 20
1516.5999999999369
 30
0.0
 40
6.0999999999999988
 50
102.1444617173148
 51
77.855538282685202
  0
ARC
  8
DETAIL
  6
CONTINUOUS
 62
     5
 10
-261.50000000005099
 20
1516.5999999999369
 30
0.0
 40
6.0
 50
95.663804351021156
 51
84.336195648978858
  0
ARC
  8
DETAIL
  6
CONTINUOUS
 62
     5
 10
-221.6891959600471
 20
1574.4405100951351
 30
0.0
 40
0.3053054789
 50
14.32026752153021
 51
31.74735127781581
  0
ARC
  8
DETAIL
  6
CONTINUOUS
 62
     5
 10
-372.3865728243473
 20
1559.3992675948371
 30
0.0
 40
5.0001653733999989
 50
308.82687880982502
 51
358.3465195875072
  0
CIRCLE
  8
DETAIL
  6
CONTINUOUS
 62
     5
 10
-309.50000000005099
 20
1496.4999999999361
 30
0.0
 40
2.2999999999999989
  0
ARC
  8
DETAIL
  6
CONTINUOUS
 62
     5
 10
-367.99768376204878
 20
1553.9458312278359
 30
0.0
 40
2.0
 50
128.82687634301431
 51
145.8560305025768
  0
ARC
  8
DETAIL
  6
CONTINUOUS
 62
     5
 10
-390.00000000005087
 20
1756.856081466836
 30
0.0
 40
30.0
 50
357.50000000002899
 51
0.0
  0
ARC
  8
DETAIL
  6
CONTINUOUS
 62
     5
 10
-362.04178533154482
 20
1811.484414853006
 30
0.0
 40
2.0418448133011471
 50
0.4373357901431216
 51
80.801067878221843
  0
ARC
  8
DETAIL
  6
CONTINUOUS
 62
     5
 10
-361.00000000005087
 20
1834.5999999999369
 30
0.0
 40
2.0
 50
90.0
 51
180.0
  0
ARC
  8
DETAIL
  6
CONTINUOUS
 62
     5
 10
-360.00000000005087
 20
1838.5999999999369
 30
0.0
 40
2.0
 50
270.0
 51
0.0
  0
ARC
  8
DETAIL
  6
CONTINUOUS
 62
     5
 10
-360.99999996324919
 20
1816.9999999644369
 30
0.0
 40
0.9999999645999999
 50
270.01526655645108
 51
0.0000020304221407
  0
ARC
  8
DETAIL
  6
CONTINUOUS
 62
     5
 10
-357.5000000028449
 20
1857.5999999999369
 30
0.0
 40
0.5
 50
89.999999682336181
 51
180.0
  0
ARC
  8
DETAIL
  6
CONTINUOUS
 62
     5
 10
-362.70000000004802
 20
1813.7999999999349
 30
0.0
 40
0.3
 50
180.0
 51
270.0
  0
ARC
  8
DETAIL
  6
CONTINUOUS
 62
     5
 10
-362.70000000004802
 20
1815.6999999999371
 30
0.0
 40
0.3
 50
90.0
 51
180.0
  0
POLYLINE
  8
DETAIL
  6
CONTINUOUS
 62
     5
 66
     1
 10
0.0
 20
0.0
 30
0.0
  0
VERTEX
  8
DETAIL
  6
CONTINUOUS
 62
     5
 10
365.79999999995931
 20
304.01789451683538
 30
0.0
  0
VERTEX
  8
DETAIL
  6
CONTINUOUS
 62
     5
 10
365.79903970069483
 20
303.88750980651912
 30
0.0
  0
VERTEX
  8
DETAIL
  6
CONTINUOUS
 62
     5
 10
365.79542588350012
 20
303.75709226383395
 30
0.0
  0
VERTEX
  8
DETAIL
  6
CONTINUOUS
 62
     5
 10
365.78805916927348
 20
303.62685647493339
 30
0.0
  0
VERTEX
  8
DETAIL
  6
CONTINUOUS
 62
     5
 10
365.77584017891314
 20
303.49701702597116
 30
0.0
  0
VERTEX
  8
DETAIL
  6
CONTINUOUS
 62
     5
 10
365.75766953330725
 20
303.36778850311146
 30
0.0
  0
VERTEX
  8
DETAIL
  6
CONTINUOUS
 62
     5
 10
365.73222108740032
 20
303.23962988741664
 30
0.0
  0
VERTEX
  8
DETAIL
  6
CONTINUOUS
 62
     5
 10
365.69727125127281
 20
303.11396737284576
 30
0.0
  0
VERTEX
  8
DETAIL
  6
CONTINUOUS
 62
     5
 10
365.65032305327355
 20
302.99250748491107
 30
0.0
  0
VERTEX
  8
DETAIL
  6
CONTINUOUS
 62
     5
 10
365.5877180440919
 20
302.87791678992937
 30
0.0
  0
VERTEX
  8
DETAIL
  6
CONTINUOUS
 62
     5
 10
365.50379070505733
 20
302.77817588343709
 30
0.0
  0
SEQEND
  8
DETAIL
  6
CONTINUOUS
 62
     5
  0
POLYLINE
  8
DETAIL
  6
CONTINUOUS
 62
     5
 66
     1
 10
0.0
 20
0.0
 30
0.0
  0
VERTEX
  8
DETAIL
  6
CONTINUOUS
 62
     5
 10
365.50393320665171
 20
307.22171306893688
 30
0.0
  0
VERTEX
  8
DETAIL
  6
CONTINUOUS
 62
     5
 10
365.5878403253306
 20
307.12197575930162
 30
0.0
  0
VERTEX
  8
DETAIL
  6
CONTINUOUS
 62
     5
 10
365.6503912670442
 20
307.00737638171017
 30
0.0
  0
VERTEX
  8
DETAIL
  6
CONTINUOUS
 62
     5
 10
365.69729035383966
 20
306.8859122274348
 30
0.0
  0
VERTEX
  8
DETAIL
  6
CONTINUOUS
 62
     5
 10
365.73223133191766
 20
306.76026469690663
 30
0.0
  0
VERTEX
  8
DETAIL
  6
CONTINUOUS
 62
     5
 10
365.75768738799189
 20
306.63212881454132
 30
0.0
  0
VERTEX
  8
DETAIL
  6
CONTINUOUS
 62
     5
 10
365.77586064653747
 20
306.50292051645141
 30
0.0
  0
VERTEX
  8
DETAIL
  6
CONTINUOUS
 62
     5
 10
365.78807576766366
 20
306.37309801207914
 30
0.0
  0
VERTEX
  8
DETAIL
  6
CONTINUOUS
 62
     5
 10
365.79543552071863
 20
306.24287732359653
 30
0.0
  0
VERTEX
  8
DETAIL
  6
CONTINUOUS
 62
     5
 10
365.79904267503849
 20
306.11247447316242
 30
0.0
  0
VERTEX
  8
DETAIL
  6
CONTINUOUS
 62
     5
 10
365.79999999995931
 20
305.98210548293542
 30
0.0
  0
SEQEND
  8
DETAIL
  6
CONTINUOUS
 62
     5
  0
POLYLINE
  8
DETAIL
  6
CONTINUOUS
 62
     5
 66
     1
 10
0.0
 20
0.0
 30
0.0
  0
VERTEX
  8
DETAIL
  6
CONTINUOUS
 62
     5
 10
365.79999999995931
 20
301.0448456432369
 30
0.0
  0
VERTEX
  8
DETAIL
  6
CONTINUOUS
 62
     5
 10
365.79987047205424
 20
301.02133099943114
 30
0.0
  0
VERTEX
  8
DETAIL
  6
CONTINUOUS
 62
     5
 10
365.79945589312177
 20
300.99780950754734
 30
0.0
  0
VERTEX
  8
DETAIL
  6
CONTINUOUS
 62
     5
 10
365.798717270336
 20
300.97429265015631
 30
0.0
  0
VERTEX
  8
DETAIL
  6
CONTINUOUS
 62
     5
 10
365.79761561087111
 20
300.95079190982898
 30
0.0
  0
VERTEX
  8
DETAIL
  6
CONTINUOUS
 62
     5
 10
365.79611192190134
 20
300.92731876913615
 30
0.0
  0
VERTEX
  8
DETAIL
  6
CONTINUOUS
 62
     5
 10
365.79416721060079
 20
300.90388471064887
 30
0.0
  0
VERTEX
  8
DETAIL
  6
CONTINUOUS
 62
     5
 10
365.79174248414353
 20
300.88050121693777
 30
0.0
  0
SEQEND
  8
DETAIL
  6
CONTINUOUS
 62
     5
  0
POLYLINE
  8
DETAIL
  6
CONTINUOUS
 62
     5
 66
     1
 10
0.0
 20
0.0
 30
0.0
  0
VERTEX
  8
DETAIL
  6
CONTINUOUS
 62
     5
 10
365.79174248414353
 20
300.88050121693777
 30
0.0
  0
VERTEX
  8
DETAIL
  6
CONTINUOUS
 62
     5
 10
365.7814086889133
 20
300.81142953881317
 30
0.0
  0
VERTEX
  8
DETAIL
  6
CONTINUOUS
 62
     5
 10
365.76532474613668
 20
300.74333188729963
 30
0.0
  0
VERTEX
  8
DETAIL
  6
CONTINUOUS
 62
     5
 10
365.74206163649899
 20
300.67726256265553
 30
0.0
  0
VERTEX
  8
DETAIL
  6
CONTINUOUS
 62
     5
 10
365.71021964324768
 20
300.61428472522164
 30
0.0
  0
VERTEX
  8
DETAIL
  6
CONTINUOUS
 62
     5
 10
365.66947088580417
 20
300.55578562157552
 30
0.0
  0
VERTEX
  8
DETAIL
  6
CONTINUOUS
 62
     5
 10
365.62084210697134
 20
300.50356208961495
 30
0.0
  0
VERTEX
  8
DETAIL
  6
CONTINUOUS
 62
     5
 10
365.56544688337561
 20
300.45943722278645
 30
0.0
  0
VERTEX
  8
DETAIL
  6
CONTINUOUS
 62
     5
 10
365.50439879164333
 20
300.42523411453658
 30
0.0
  0
SEQEND
  8
DETAIL
  6
CONTINUOUS
 62
     5
  0
POLYLINE
  8
DETAIL
  6
CONTINUOUS
 62
     5
 66
     1
 10
0.0
 20
0.0
 30
0.0
  0
VERTEX
  8
DETAIL
  6
CONTINUOUS
 62
     5
 10
365.50409873135499
 20
302.64668884573621
 30
0.0
  0
VERTEX
  8
DETAIL
  6
CONTINUOUS
 62
     5
 10
365.56772106767829
 20
302.61114533319
 30
0.0
  0
VERTEX
  8
DETAIL
  6
CONTINUOUS
 62
     5
 10
365.62504270803328
 20
302.56524684473931
 30
0.0
  0
VERTEX
  8
DETAIL
  6
CONTINUOUS
 62
     5
 10
365.67445396723457
 20
302.51090494890354
 30
0.0
  0
VERTEX
  8
DETAIL
  6
CONTINUOUS
 62
     5
 10
365.71467957124719
 20
302.44999079410309
 30
0.0
  0
VERTEX
  8
DETAIL
  6
CONTINUOUS
 62
     5
 10
365.74591233098062
 20
302.38419808210614
 30
0.0
  0
VERTEX
  8
DETAIL
  6
CONTINUOUS
 62
     5
 10
365.76876719602723
 20
302.31515419868094
 30
0.0
  0
VERTEX
  8
DETAIL
  6
CONTINUOUS
 62
     5
 10
365.78425818567115
 20
302.24412355098525
 30
0.0
  0
VERTEX
  8
DETAIL
  6
CONTINUOUS
 62
     5
 10
365.7937733080712
 20
302.1720280468453
 30
0.0
  0
VERTEX
  8
DETAIL
  6
CONTINUOUS
 62
     5
 10
365.79863366225436
 20
302.09955424890535
 30
0.0
  0
VERTEX
  8
DETAIL
  6
CONTINUOUS
 62
     5
 10
365.79999999995931
 20
302.02695112633768
 30
0.0
  0
SEQEND
  8
DETAIL
  6
CONTINUOUS
 62
     5
  0
POLYLINE
  8
DETAIL
  6
CONTINUOUS
 62
     5
 66
     1
 10
0.0
 20
0.0
 30
0.0
  0
VERTEX
  8
DETAIL
  6
CONTINUOUS
 62
     5
 10
365.79999999995931
 20
307.97304887353681
 30
0.0
  0
VERTEX
  8
DETAIL
  6
CONTINUOUS
 62
     5
 10
365.79863635012742
 20
307.90048310119278
 30
0.0
  0
VERTEX
  8
DETAIL
  6
CONTINUOUS
 62
     5
 10
365.79378163659811
 20
307.82804719686669
 30
0.0
  0
VERTEX
  8
DETAIL
  6
CONTINUOUS
 62
     5
 10
365.7842727498217
 20
307.75599189078963
 30
0.0
  0
VERTEX
  8
DETAIL
  6
CONTINUOUS
 62
     5
 10
365.76879692353577
 20
307.6849974657149
 30
0.0
  0
VERTEX
  8
DETAIL
  6
CONTINUOUS
 62
     5
 10
365.74597917570236
 20
307.61597614194358
 30
0.0
  0
VERTEX
  8
DETAIL
  6
CONTINUOUS
 62
     5
 10
365.71480370807024
 20
307.55019434173261
 30
0.0
  0
VERTEX
  8
DETAIL
  6
CONTINUOUS
 62
     5
 10
365.67463887887175
 20
307.48929483613773
 30
0.0
  0
VERTEX
  8
DETAIL
  6
CONTINUOUS
 62
     5
 10
365.62527965212939
 20
307.43497661403359
 30
0.0
  0
VERTEX
  8
DETAIL
  6
CONTINUOUS
 62
     5
 10
365.56801312575891
 20
307.38907716573516
 30
0.0
  0
VERTEX
  8
DETAIL
  6
CONTINUOUS
 62
     5
 10
365.50446752694552
 20
307.35346564553578
 30
0.0
  0
SEQEND
  8
DETAIL
  6
CONTINUOUS
 62
     5
  0
POLYLINE
  8
DETAIL
  6
CONTINUOUS
 62
     5
 66
     1
 10
0.0
 20
0.0
 30
0.0
  0
VERTEX
  8
DETAIL
  6
CONTINUOUS
 62
     5
 10
365.58607867565303
 20
309.52650700113549
 30
0.0
  0
VERTEX
  8
DETAIL
  6
CONTINUOUS
 62
     5
 10
365.60088546410714
 20
309.51482034113894
 30
0.0
  0
VERTEX
  8
DETAIL
  6
CONTINUOUS
 62
     5
 10
365.61519855600943
 20
309.50251675765065
 30
0.0
  0
VERTEX
  8
DETAIL
  6
CONTINUOUS
 62
     5
 10
365.62903161163672
 20
309.4896425811117
 30
0.0
  0
VERTEX
  8
DETAIL
  6
CONTINUOUS
 62
     5
 10
365.64236735684176
 20
309.47622971809767
 30
0.0
  0
VERTEX
  8
DETAIL
  6
CONTINUOUS
 62
     5
 10
365.65517627905541
 20
309.4623043687468
 30
0.0
  0
VERTEX
  8
DETAIL
  6
CONTINUOUS
 62
     5
 10
365.66742883537825
 20
309.44789271905563
 30
0.0
  0
VERTEX
  8
DETAIL
  6
CONTINUOUS
 62
     5
 10
365.67909548291067
 20
309.43302095502003
 30
0.0
  0
VERTEX
  8
DETAIL
  6
CONTINUOUS
 62
     5
 10
365.69014667875308
 20
309.41771526263619
 30
0.0
  0
SEQEND
  8
DETAIL
  6
CONTINUOUS
 62
     5
  0
POLYLINE
  8
DETAIL
  6
CONTINUOUS
 62
     5
 66
     1
 10
0.0
 20
0.0
 30
0.0
  0
VERTEX
  8
DETAIL
  6
CONTINUOUS
 62
     5
 10
365.69014667875308
 20
309.41771526263619
 30
0.0
  0
VERTEX
  8
DETAIL
  6
CONTINUOUS
 62
     5
 10
365.70162370331474
 20
309.40034539893475
 30
0.0
  0
VERTEX
  8
DETAIL
  6
CONTINUOUS
 62
     5
 10
365.71236206354718
 20
309.38249857727129
 30
0.0
  0
VERTEX
  8
DETAIL
  6
CONTINUOUS
 62
     5
 10
365.72236080369419
 20
309.36420861254192
 30
0.0
  0
VERTEX
  8
DETAIL
  6
CONTINUOUS
 62
     5
 10
365.73162954896003
 20
309.34551996786359
 30
0.0
  0
VERTEX
  8
DETAIL
  6
CONTINUOUS
 62
     5
 10
365.74018137106799
 20
309.32648057478048
 30
0.0
  0
VERTEX
  8
DETAIL
  6
CONTINUOUS
 62
     5
 10
365.74802934361867
 20
309.30713836672606
 30
0.0
  0
VERTEX
  8
DETAIL
  6
CONTINUOUS
 62
     5
 10
365.75518654021249
 20
309.28754127713381
 30
0.0
  0
VERTEX
  8
DETAIL
  6
CONTINUOUS
 62
     5
 10
365.76166603445017
 20
309.26773723943728
 30
0.0
  0
SEQEND
  8
DETAIL
  6
CONTINUOUS
 62
     5
  0
POLYLINE
  8
DETAIL
  6
CONTINUOUS
 62
     5
 66
     1
 10
0.0
 20
0.0
 30
0.0
  0
VERTEX
  8
DETAIL
  6
CONTINUOUS
 62
     5
 10
365.77235958786332
 20
309.22923292333689
 30
0.0
  0
VERTEX
  8
DETAIL
  6
CONTINUOUS
 62
     5
 10
365.77625422736583
 20
309.21272822897237
 30
0.0
  0
VERTEX
  8
DETAIL
  6
CONTINUOUS
 62
     5
 10
365.77978521260678
 20
309.19613495352542
 30
0.0
  0
VERTEX
  8
DETAIL
  6
CONTINUOUS
 62
     5
 10
365.78296853391385
 20
309.17946560779563
 30
0.0
  0
VERTEX
  8
DETAIL
  6
CONTINUOUS
 62
     5
 10
365.78582018161444
 20
309.16273270258233
 30
0.0
  0
VERTEX
  8
DETAIL
  6
CONTINUOUS
 62
     5
 10
365.78835614603634
 20
309.14594874868516
 30
0.0
  0
VERTEX
  8
DETAIL
  6
CONTINUOUS
 62
     5
 10
365.79059241750713
 20
309.12912625690353
 30
0.0
  0
VERTEX
  8
DETAIL
  6
CONTINUOUS
 62
     5
 10
365.79254498635419
 20
309.11227773803688
 30
0.0
  0
SEQEND
  8
DETAIL
  6
CONTINUOUS
 62
     5
  0
POLYLINE
  8
DETAIL
  6
CONTINUOUS
 62
     5
 66
     1
 10
0.0
 20
0.0
 30
0.0
  0
VERTEX
  8
DETAIL
  6
CONTINUOUS
 62
     5
 10
365.79254498635419
 20
309.11227773803688
 30
0.0
  0
VERTEX
  8
DETAIL
  6
CONTINUOUS
 62
     5
 10
365.79413876530953
 20
309.09641083030243
 30
0.0
  0
VERTEX
  8
DETAIL
  6
CONTINUOUS
 62
     5
 10
365.79551212495886
 20
309.0805209339228
 30
0.0
  0
VERTEX
  8
DETAIL
  6
CONTINUOUS
 62
     5
 10
365.79667696893461
 20
309.06461225219192
 30
0.0
  0
VERTEX
  8
DETAIL
  6
CONTINUOUS
 62
     5
 10
365.79764520086934
 20
309.04868898840374
 30
0.0
  0
VERTEX
  8
DETAIL
  6
CONTINUOUS
 62
     5
 10
365.79842872439565
 20
309.03275534585231
 30
0.0
  0
VERTEX
  8
DETAIL
  6
CONTINUOUS
 62
     5
 10
365.79903944314606
 20
309.01681552783162
 30
0.0
  0
VERTEX
  8
DETAIL
  6
CONTINUOUS
 62
     5
 10
365.79948926075298
 20
309.00087373763557
 30
0.0
  0
SEQEND
  8
DETAIL
  6
CONTINUOUS
 62
     5
  0
LINE
  8
DETAIL
  6
CONTINUOUS
 62
     5
 10
246.01493199035761
 20
710.23772170163636
 30
0.0
 11
246.03743211695109
 21
711.51754603123663
 31
0.0
  0
LINE
  8
DETAIL
  6
CONTINUOUS
 62
     5
 10
246.03743211695109
 20
711.51754603123663
 30
0.0
 11
246.03810476596121
 21
711.53977988193765
 31
0.0
  0
POLYLINE
  8
DETAIL
  6
CONTINUOUS
 62
     5
 66
     1
 10
0.0
 20
0.0
 30
0.0
  0
VERTEX
  8
DETAIL
  6
CONTINUOUS
 62
     5
 10
347.15685424936242
 20
1143.9999999999361
 30
0.0
  0
VERTEX
  8
DETAIL
  6
CONTINUOUS
 62
     5
 10
347.11893662033685
 20
1142.963409835746
 30
0.0
  0
VERTEX
  8
DETAIL
  6
CONTINUOUS
 62
     5
 10
347.00407343269796
 20
1141.9308478901573
 30
0.0
  0
VERTEX
  8
DETAIL
  6
CONTINUOUS
 62
     5
 10
346.81059923560281
 20
1140.9089252004674
 30
0.0
  0
VERTEX
  8
DETAIL
  6
CONTINUOUS
 62
     5
 10
346.53677697346416
 20
1139.9044347489403
 30
0.0
  0
VERTEX
  8
DETAIL
  6
CONTINUOUS
 62
     5
 10
346.17983555099198
 20
1138.9267969739326
 30
0.0
  0
VERTEX
  8
DETAIL
  6
CONTINUOUS
 62
     5
 10
345.73622656179231
 20
1137.9874074321544
 30
0.0
  0
VERTEX
  8
DETAIL
  6
CONTINUOUS
 62
     5
 10
345.20236713114775
 20
1137.097804819165
 30
0.0
  0
VERTEX
  8
DETAIL
  6
CONTINUOUS
 62
     5
 10
344.57413745163211
 20
1136.2728137144393
 30
0.0
  0
VERTEX
  8
DETAIL
  6
CONTINUOUS
 62
     5
 10
343.84759609107624
 20
1135.5325558621162
 30
0.0
  0
VERTEX
  8
DETAIL
  6
CONTINUOUS
 62
     5
 10
343.02301299901421
 20
1134.9035270022764
 30
0.0
  0
VERTEX
  8
DETAIL
  6
CONTINUOUS
 62
     5
 10
342.10658119953848
 20
1134.4171729640923
 30
0.0
  0
VERTEX
  8
DETAIL
  6
CONTINUOUS
 62
     5
 10
341.11703443355509
 20
1134.106918864238
 30
0.0
  0
SEQEND
  8
DETAIL
  6
CONTINUOUS
 62
     5
  0
POLYLINE
  8
DETAIL
  6
CONTINUOUS
 62
     5
 66
     1
 10
0.0
 20
0.0
 30
0.0
  0
VERTEX
  8
DETAIL
  6
CONTINUOUS
 62
     5
 10
347.15685424936242
 20
1343.9999999999361
 30
0.0
  0
VERTEX
  8
DETAIL
  6
CONTINUOUS
 62
     5
 10
347.11893662033685
 20
1342.963409835746
 30
0.0
  0
VERTEX
  8
DETAIL
  6
CONTINUOUS
 62
     5
 10
347.00407343269796
 20
1341.9308478901576
 30
0.0
  0
VERTEX
  8
DETAIL
  6
CONTINUOUS
 62
     5
 10
346.81059923560281
 20
1340.9089252004671
 30
0.0
  0
VERTEX
  8
DETAIL
  6
CONTINUOUS
 62
     5
 10
346.53677697346416
 20
1339.9044347489403
 30
0.0
  0
VERTEX
  8
DETAIL
  6
CONTINUOUS
 62
     5
 10
346.17983555099198
 20
1338.9267969739326
 30
0.0
  0
VERTEX
  8
DETAIL
  6
CONTINUOUS
 62
     5
 10
345.73622656179231
 20
1337.9874074321542
 30
0.0
  0
VERTEX
  8
DETAIL
  6
CONTINUOUS
 62
     5
 10
345.20236713114775
 20
1337.097804819165
 30
0.0
  0
VERTEX
  8
DETAIL
  6
CONTINUOUS
 62
     5
 10
344.57413745163211
 20
1336.2728137144393
 30
0.0
  0
VERTEX
  8
DETAIL
  6
CONTINUOUS
 62
     5
 10
343.84759609107624
 20
1335.5325558621162
 30
0.0
  0
VERTEX
  8
DETAIL
  6
CONTINUOUS
 62
     5
 10
343.02301299901421
 20
1334.9035270022766
 30
0.0
  0
VERTEX
  8
DETAIL
  6
CONTINUOUS
 62
     5
 10
342.10658119953848
 20
1334.4171729640925
 30
0.0
  0
VERTEX
  8
DETAIL
  6
CONTINUOUS
 62
     5
 10
341.11703443355509
 20
1334.106918864238
 30
0.0
  0
SEQEND
  8
DETAIL
  6
CONTINUOUS
 62
     5
  0
POLYLINE
  8
DETAIL
  6
CONTINUOUS
 62
     5
 66
     1
 10
0.0
 20
0.0
 30
0.0
  0
VERTEX
  8
DETAIL
  6
CONTINUOUS
 62
     5
 10
340.62567943785689
 20
749.03195221973692
 30
0.0
  0
VERTEX
  8
DETAIL
  6
CONTINUOUS
 62
     5
 10
339.6797027072696
 20
749.2557697613712
 30
0.0
  0
VERTEX
  8
DETAIL
  6
CONTINUOUS
 62
     5
 10
338.79812989263041
 20
749.66648217150396
 30
0.0
  0
VERTEX
  8
DETAIL
  6
CONTINUOUS
 62
     5
 10
338.00214353062154
 20
750.22484515888232
 30
0.0
  0
VERTEX
  8
DETAIL
  6
CONTINUOUS
 62
     5
 10
337.29737219088236
 20
750.89493815116816
 30
0.0
  0
VERTEX
  8
DETAIL
  6
CONTINUOUS
 62
     5
 10
336.68275538258195
 20
751.6482059217725
 30
0.0
  0
VERTEX
  8
DETAIL
  6
CONTINUOUS
 62
     5
 10
336.15394996401682
 20
752.464151687911
 30
0.0
  0
VERTEX
  8
DETAIL
  6
CONTINUOUS
 62
     5
 10
335.70615510098492
 20
753.32704882363214
 30
0.0
  0
VERTEX
  8
DETAIL
  6
CONTINUOUS
 62
     5
 10
335.33486484988941
 20
754.22507953596562
 30
0.0
  0
VERTEX
  8
DETAIL
  6
CONTINUOUS
 62
     5
 10
335.03603778122317
 20
755.15022878306308
 30
0.0
  0
VERTEX
  8
DETAIL
  6
CONTINUOUS
 62
     5
 10
334.80617373057169
 20
756.09650928905478
 30
0.0
  0
VERTEX
  8
DETAIL
  6
CONTINUOUS
 62
     5
 10
334.64346028387121
 20
757.05773945512044
 30
0.0
  0
VERTEX
  8
DETAIL
  6
CONTINUOUS
 62
     5
 10
334.54670555421427
 20
758.02765712089013
 30
0.0
  0
VERTEX
  8
DETAIL
  6
CONTINUOUS
 62
     5
 10
334.51471862565091
 20
758.99999999993634
 30
0.0
  0
SEQEND
  8
DETAIL
  6
CONTINUOUS
 62
     5
  0
POLYLINE
  8
DETAIL
  6
CONTINUOUS
 62
     5
 66
     1
 10
0.0
 20
0.0
 30
0.0
  0
VERTEX
  8
DETAIL
  6
CONTINUOUS
 62
     5
 10
334.51471862565091
 20
893.99999999993634
 30
0.0
  0
VERTEX
  8
DETAIL
  6
CONTINUOUS
 62
     5
 10
334.5467026775064
 20
894.97229894263228
 30
0.0
  0
VERTEX
  8
DETAIL
  6
CONTINUOUS
 62
     5
 10
334.6434486146124
 20
895.94217292840608
 30
0.0
  0
VERTEX
  8
DETAIL
  6
CONTINUOUS
 62
     5
 10
334.80614710927841
 20
896.9033606110869
 30
0.0
  0
VERTEX
  8
DETAIL
  6
CONTINUOUS
 62
     5
 10
335.03598980604113
 20
897.84960077087669
 30
0.0
  0
VERTEX
  8
DETAIL
  6
CONTINUOUS
 62
     5
 10
335.33478885180841
 20
898.77471284221781
 30
0.0
  0
VERTEX
  8
DETAIL
  6
CONTINUOUS
 62
     5
 10
335.70604375694467
 20
899.67271077766338
 30
0.0
  0
VERTEX
  8
DETAIL
  6
CONTINUOUS
 62
     5
 10
336.15379519311216
 20
900.53558099593329
 30
0.0
  0
VERTEX
  8
DETAIL
  6
CONTINUOUS
 62
     5
 10
336.68254829784809
 20
901.35150831019416
 30
0.0
  0
VERTEX
  8
DETAIL
  6
CONTINUOUS
 62
     5
 10
337.2971033280553
 20
902.10476981663987
 30
0.0
  0
VERTEX
  8
DETAIL
  6
CONTINUOUS
 62
     5
 10
338.00180332121357
 20
902.77487399626796
 30
0.0
  0
VERTEX
  8
DETAIL
  6
CONTINUOUS
 62
     5
 10
338.79771075804109
 20
903.33327297079586
 30
0.0
  0
VERTEX
  8
DETAIL
  6
CONTINUOUS
 62
     5
 10
339.67920299993705
 20
903.744054408902
 30
0.0
  0
VERTEX
  8
DETAIL
  6
CONTINUOUS
 62
     5
 10
340.62510952865711
 20
903.96797788583535
 30
0.0
  0
SEQEND
  8
DETAIL
  6
CONTINUOUS
 62
     5
  0
POLYLINE
  8
DETAIL
  6
CONTINUOUS
 62
     5
 66
     1
 10
0.0
 20
0.0
 30
0.0
  0
VERTEX
  8
DETAIL
  6
CONTINUOUS
 62
     5
 10
347.15685424936242
 20
943.99999999993634
 30
0.0
  0
VERTEX
  8
DETAIL
  6
CONTINUOUS
 62
     5
 10
347.11893662033685
 20
942.96340983574589
 30
0.0
  0
VERTEX
  8
DETAIL
  6
CONTINUOUS
 62
     5
 10
347.00407343269796
 20
941.93084789015745
 30
0.0
  0
VERTEX
  8
DETAIL
  6
CONTINUOUS
 62
     5
 10
346.81059923560281
 20
940.90892520046737
 30
0.0
  0
VERTEX
  8
DETAIL
  6
CONTINUOUS
 62
     5
 10
346.53677697346416
 20
939.9044347489405
 30
0.0
  0
VERTEX
  8
DETAIL
  6
CONTINUOUS
 62
     5
 10
346.17983555099198
 20
938.9267969739326
 30
0.0
  0
VERTEX
  8
DETAIL
  6
CONTINUOUS
 62
     5
 10
345.73622656179231
 20
937.98740743215421
 30
0.0
  0
VERTEX
  8
DETAIL
  6
CONTINUOUS
 62
     5
 10
345.20236713114775
 20
937.09780481916437
 30
0.0
  0
VERTEX
  8
DETAIL
  6
CONTINUOUS
 62
     5
 10
344.57413745163211
 20
936.27281371443792
 30
0.0
  0
VERTEX
  8
DETAIL
  6
CONTINUOUS
 62
     5
 10
343.84759609107624
 20
935.53255586211549
 30
0.0
  0
VERTEX
  8
DETAIL
  6
CONTINUOUS
 62
     5
 10
343.02301299901421
 20
934.90352700227641
 30
0.0
  0
VERTEX
  8
DETAIL
  6
CONTINUOUS
 62
     5
 10
342.10658119953848
 20
934.41717296409274
 30
0.0
  0
VERTEX
  8
DETAIL
  6
CONTINUOUS
 62
     5
 10
341.11703443355509
 20
934.10691886423774
 30
0.0
  0
SEQEND
  8
DETAIL
  6
CONTINUOUS
 62
     5
  0
POLYLINE
  8
DETAIL
  6
CONTINUOUS
 62
     5
 66
     1
 10
0.0
 20
0.0
 30
0.0
  0
VERTEX
  8
DETAIL
  6
CONTINUOUS
 62
     5
 10
341.11703443355509
 20
903.89308113563675
 30
0.0
  0
VERTEX
  8
DETAIL
  6
CONTINUOUS
 62
     5
 10
342.10658119953848
 20
903.58282703577981
 30
0.0
  0
VERTEX
  8
DETAIL
  6
CONTINUOUS
 62
     5
 10
343.02301299901427
 20
903.09647299759615
 30
0.0
  0
VERTEX
  8
DETAIL
  6
CONTINUOUS
 62
     5
 10
343.84759609107618
 20
902.46744413775707
 30
0.0
  0
VERTEX
  8
DETAIL
  6
CONTINUOUS
 62
     5
 10
344.57413745163205
 20
901.72718628543475
 30
0.0
  0
VERTEX
  8
DETAIL
  6
CONTINUOUS
 62
     5
 10
345.20236713114775
 20
900.90219518070853
 30
0.0
  0
VERTEX
  8
DETAIL
  6
CONTINUOUS
 62
     5
 10
345.73622656179231
 20
900.01259256771823
 30
0.0
  0
VERTEX
  8
DETAIL
  6
CONTINUOUS
 62
     5
 10
346.17983555099198
 20
899.07320302593712
 30
0.0
  0
VERTEX
  8
DETAIL
  6
CONTINUOUS
 62
     5
 10
346.53677697346416
 20
898.09556525091966
 30
0.0
  0
VERTEX
  8
DETAIL
  6
CONTINUOUS
 62
     5
 10
346.81059923560281
 20
897.09107479937211
 30
0.0
  0
VERTEX
  8
DETAIL
  6
CONTINUOUS
 62
     5
 10
347.00407343269802
 20
896.06915210965997
 30
0.0
  0
VERTEX
  8
DETAIL
  6
CONTINUOUS
 62
     5
 10
347.11893662033685
 20
895.03659016407335
 30
0.0
  0
VERTEX
  8
DETAIL
  6
CONTINUOUS
 62
     5
 10
347.15685424936242
 20
893.99999999993634
 30
0.0
  0
SEQEND
  8
DETAIL
  6
CONTINUOUS
 62
     5
  0
POLYLINE
  8
DETAIL
  6
CONTINUOUS
 62
     5
 66
     1
 10
0.0
 20
0.0
 30
0.0
  0
VERTEX
  8
DETAIL
  6
CONTINUOUS
 62
     5
 10
340.62567943785689
 20
934.03195221973681
 30
0.0
  0
VERTEX
  8
DETAIL
  6
CONTINUOUS
 62
     5
 10
339.6797027072696
 20
934.25576976137131
 30
0.0
  0
VERTEX
  8
DETAIL
  6
CONTINUOUS
 62
     5
 10
338.79812989263041
 20
934.66648217150396
 30
0.0
  0
VERTEX
  8
DETAIL
  6
CONTINUOUS
 62
     5
 10
338.00214353062154
 20
935.22484515888243
 30
0.0
  0
VERTEX
  8
DETAIL
  6
CONTINUOUS
 62
     5
 10
337.29737219088236
 20
935.89493815116816
 30
0.0
  0
VERTEX
  8
DETAIL
  6
CONTINUOUS
 62
     5
 10
336.68275538258195
 20
936.64820592177261
 30
0.0
  0
VERTEX
  8
DETAIL
  6
CONTINUOUS
 62
     5
 10
336.15394996401682
 20
937.46415168791123
 30
0.0
  0
VERTEX
  8
DETAIL
  6
CONTINUOUS
 62
     5
 10
335.70615510098492
 20
938.32704882363225
 30
0.0
  0
VERTEX
  8
DETAIL
  6
CONTINUOUS
 62
     5
 10
335.33486484988941
 20
939.22507953596551
 30
0.0
  0
VERTEX
  8
DETAIL
  6
CONTINUOUS
 62
     5
 10
335.03603778122317
 20
940.15022878306297
 30
0.0
  0
VERTEX
  8
DETAIL
  6
CONTINUOUS
 62
     5
 10
334.80617373057169
 20
941.09650928905467
 30
0.0
  0
VERTEX
  8
DETAIL
  6
CONTINUOUS
 62
     5
 10
334.64346028387121
 20
942.05773945512055
 30
0.0
  0
VERTEX
  8
DETAIL
  6
CONTINUOUS
 62
     5
 10
334.54670555421427
 20
943.02765712089013
 30
0.0
  0
VERTEX
  8
DETAIL
  6
CONTINUOUS
 62
     5
 10
334.51471862565091
 20
943.99999999993634
 30
0.0
  0
SEQEND
  8
DETAIL
  6
CONTINUOUS
 62
     5
  0
POLYLINE
  8
DETAIL
  6
CONTINUOUS
 62
     5
 66
     1
 10
0.0
 20
0.0
 30
0.0
  0
VERTEX
  8
DETAIL
  6
CONTINUOUS
 62
     5
 10
334.51471862565091
 20
1093.9999999999361
 30
0.0
  0
VERTEX
  8
DETAIL
  6
CONTINUOUS
 62
     5
 10
334.5467026775064
 20
1094.9722989426323
 30
0.0
  0
VERTEX
  8
DETAIL
  6
CONTINUOUS
 62
     5
 10
334.6434486146124
 20
1095.9421729284059
 30
0.0
  0
VERTEX
  8
DETAIL
  6
CONTINUOUS
 62
     5
 10
334.80614710927841
 20
1096.9033606110868
 30
0.0
  0
VERTEX
  8
DETAIL
  6
CONTINUOUS
 62
     5
 10
335.03598980604113
 20
1097.8496007708766
 30
0.0
  0
VERTEX
  8
DETAIL
  6
CONTINUOUS
 62
     5
 10
335.33478885180841
 20
1098.7747128422177
 30
0.0
  0
VERTEX
  8
DETAIL
  6
CONTINUOUS
 62
     5
 10
335.70604375694467
 20
1099.6727107776633
 30
0.0
  0
VERTEX
  8
DETAIL
  6
CONTINUOUS
 62
     5
 10
336.15379519311216
 20
1100.5355809959331
 30
0.0
  0
VERTEX
  8
DETAIL
  6
CONTINUOUS
 62
     5
 10
336.68254829784809
 20
1101.3515083101938
 30
0.0
  0
VERTEX
  8
DETAIL
  6
CONTINUOUS
 62
     5
 10
337.2971033280553
 20
1102.1047698166394
 30
0.0
  0
VERTEX
  8
DETAIL
  6
CONTINUOUS
 62
     5
 10
338.00180332121357
 20
1102.7748739962676
 30
0.0
  0
VERTEX
  8
DETAIL
  6
CONTINUOUS
 62
     5
 10
338.79771075804109
 20
1103.3332729707956
 30
0.0
  0
VERTEX
  8
DETAIL
  6
CONTINUOUS
 62
     5
 10
339.67920299993705
 20
1103.7440544089015
 30
0.0
  0
VERTEX
  8
DETAIL
  6
CONTINUOUS
 62
     5
 10
340.62510952865711
 20
1103.9679778858349
 30
0.0
  0
SEQEND
  8
DETAIL
  6
CONTINUOUS
 62
     5
  0
POLYLINE
  8
DETAIL
  6
CONTINUOUS
 62
     5
 66
     1
 10
0.0
 20
0.0
 30
0.0
  0
VERTEX
  8
DETAIL
  6
CONTINUOUS
 62
     5
 10
341.11703443355509
 20
1103.893081135637
 30
0.0
  0
VERTEX
  8
DETAIL
  6
CONTINUOUS
 62
     5
 10
342.10658119949591
 20
1103.5828270357797
 30
0.0
  0
VERTEX
  8
DETAIL
  6
CONTINUOUS
 62
     5
 10
343.02301299897584
 20
1103.0964729975963
 30
0.0
  0
VERTEX
  8
DETAIL
  6
CONTINUOUS
 62
     5
 10
343.8475960910713
 20
1102.4674441377567
 30
0.0
  0
VERTEX
  8
DETAIL
  6
CONTINUOUS
 62
     5
 10
344.57413745163205
 20
1101.7271862854343
 30
0.0
  0
VERTEX
  8
DETAIL
  6
CONTINUOUS
 62
     5
 10
345.20236713114775
 20
1100.9021951807083
 30
0.0
  0
VERTEX
  8
DETAIL
  6
CONTINUOUS
 62
     5
 10
345.73622656179231
 20
1100.012592567718
 30
0.0
  0
VERTEX
  8
DETAIL
  6
CONTINUOUS
 62
     5
 10
346.17983555099198
 20
1099.0732030259369
 30
0.0
  0
VERTEX
  8
DETAIL
  6
CONTINUOUS
 62
     5
 10
346.53677697346416
 20
1098.0955652509194
 30
0.0
  0
VERTEX
  8
DETAIL
  6
CONTINUOUS
 62
     5
 10
346.81059923560281
 20
1097.0910747993721
 30
0.0
  0
VERTEX
  8
DETAIL
  6
CONTINUOUS
 62
     5
 10
347.00407343269802
 20
1096.0691521096599
 30
0.0
  0
VERTEX
  8
DETAIL
  6
CONTINUOUS
 62
     5
 10
347.11893662033685
 20
1095.0365901640735
 30
0.0
  0
VERTEX
  8
DETAIL
  6
CONTINUOUS
 62
     5
 10
347.15685424936242
 20
1093.9999999999361
 30
0.0
  0
SEQEND
  8
DETAIL
  6
CONTINUOUS
 62
     5
  0
POLYLINE
  8
DETAIL
  6
CONTINUOUS
 62
     5
 66
     1
 10
0.0
 20
0.0
 30
0.0
  0
VERTEX
  8
DETAIL
  6
CONTINUOUS
 62
     5
 10
340.62567943785689
 20
1334.0319522197369
 30
0.0
  0
VERTEX
  8
DETAIL
  6
CONTINUOUS
 62
     5
 10
339.6797027072696
 20
1334.2557697613711
 30
0.0
  0
VERTEX
  8
DETAIL
  6
CONTINUOUS
 62
     5
 10
338.79812989263041
 20
1334.666482171504
 30
0.0
  0
VERTEX
  8
DETAIL
  6
CONTINUOUS
 62
     5
 10
338.00214353062154
 20
1335.2248451588825
 30
0.0
  0
VERTEX
  8
DETAIL
  6
CONTINUOUS
 62
     5
 10
337.29737219088236
 20
1335.8949381511682
 30
0.0
  0
VERTEX
  8
DETAIL
  6
CONTINUOUS
 62
     5
 10
336.68275538258195
 20
1336.6482059217728
 30
0.0
  0
VERTEX
  8
DETAIL
  6
CONTINUOUS
 62
     5
 10
336.15394996401682
 20
1337.4641516879112
 30
0.0
  0
VERTEX
  8
DETAIL
  6
CONTINUOUS
 62
     5
 10
335.70615510098492
 20
1338.3270488236385
 30
0.0
  0
VERTEX
  8
DETAIL
  6
CONTINUOUS
 62
     5
 10
335.33486484988941
 20
1339.2250795359942
 30
0.0
  0
VERTEX
  8
DETAIL
  6
CONTINUOUS
 62
     5
 10
335.03603778122317
 20
1340.1502287831149
 30
0.0
  0
VERTEX
  8
DETAIL
  6
CONTINUOUS
 62
     5
 10
334.80617373057169
 20
1341.0965092891063
 30
0.0
  0
VERTEX
  8
DETAIL
  6
CONTINUOUS
 62
     5
 10
334.64346028387121
 20
1342.0577394551533
 30
0.0
  0
VERTEX
  8
DETAIL
  6
CONTINUOUS
 62
     5
 10
334.54670555421427
 20
1343.0276571209006
 30
0.0
  0
VERTEX
  8
DETAIL
  6
CONTINUOUS
 62
     5
 10
334.51471862565091
 20
1343.9999999999361
 30
0.0
  0
SEQEND
  8
DETAIL
  6
CONTINUOUS
 62
     5
  0
POLYLINE
  8
DETAIL
  6
CONTINUOUS
 62
     5
 66
     1
 10
0.0
 20
0.0
 30
0.0
  0
VERTEX
  8
DETAIL
  6
CONTINUOUS
 62
     5
 10
334.51471862565091
 20
1493.9999999999361
 30
0.0
  0
VERTEX
  8
DETAIL
  6
CONTINUOUS
 62
     5
 10
334.5467026775064
 20
1494.9722989426323
 30
0.0
  0
VERTEX
  8
DETAIL
  6
CONTINUOUS
 62
     5
 10
334.6434486146124
 20
1495.9421729284059
 30
0.0
  0
VERTEX
  8
DETAIL
  6
CONTINUOUS
 62
     5
 10
334.80614710927841
 20
1496.9033606110868
 30
0.0
  0
VERTEX
  8
DETAIL
  6
CONTINUOUS
 62
     5
 10
335.03598980604113
 20
1497.8496007708763
 30
0.0
  0
VERTEX
  8
DETAIL
  6
CONTINUOUS
 62
     5
 10
335.33478885180841
 20
1498.7747128422177
 30
0.0
  0
VERTEX
  8
DETAIL
  6
CONTINUOUS
 62
     5
 10
335.70604375694467
 20
1499.672710777663
 30
0.0
  0
VERTEX
  8
DETAIL
  6
CONTINUOUS
 62
     5
 10
336.15379519311216
 20
1500.5355809959328
 30
0.0
  0
VERTEX
  8
DETAIL
  6
CONTINUOUS
 62
     5
 10
336.68254829784809
 20
1501.3515083101938
 30
0.0
  0
VERTEX
  8
DETAIL
  6
CONTINUOUS
 62
     5
 10
337.2971033280553
 20
1502.1047698166394
 30
0.0
  0
VERTEX
  8
DETAIL
  6
CONTINUOUS
 62
     5
 10
338.00180332121357
 20
1502.7748739962733
 30
0.0
  0
VERTEX
  8
DETAIL
  6
CONTINUOUS
 62
     5
 10
338.79771075804109
 20
1503.3332729708397
 30
0.0
  0
VERTEX
  8
DETAIL
  6
CONTINUOUS
 62
     5
 10
339.67920299993705
 20
1503.7440544089527
 30
0.0
  0
VERTEX
  8
DETAIL
  6
CONTINUOUS
 62
     5
 10
340.62510952865711
 20
1503.9679778858349
 30
0.0
  0
SEQEND
  8
DETAIL
  6
CONTINUOUS
 62
     5
  0
POLYLINE
  8
DETAIL
  6
CONTINUOUS
 62
     5
 66
     1
 10
0.0
 20
0.0
 30
0.0
  0
VERTEX
  8
DETAIL
  6
CONTINUOUS
 62
     5
 10
341.11703443355509
 20
1503.893081135637
 30
0.0
  0
VERTEX
  8
DETAIL
  6
CONTINUOUS
 62
     5
 10
342.10658119953848
 20
1503.5828270357797
 30
0.0
  0
VERTEX
  8
DETAIL
  6
CONTINUOUS
 62
     5
 10
343.02301299901427
 20
1503.096472997596
 30
0.0
  0
VERTEX
  8
DETAIL
  6
CONTINUOUS
 62
     5
 10
343.84759609107618
 20
1502.4674441377567
 30
0.0
  0
VERTEX
  8
DETAIL
  6
CONTINUOUS
 62
     5
 10
344.57413745163205
 20
1501.7271862854341
 30
0.0
  0
VERTEX
  8
DETAIL
  6
CONTINUOUS
 62
     5
 10
345.20236713114775
 20
1500.9021951807083
 30
0.0
  0
VERTEX
  8
DETAIL
  6
CONTINUOUS
 62
     5
 10
345.73622656179231
 20
1500.012592567718
 30
0.0
  0
VERTEX
  8
DETAIL
  6
CONTINUOUS
 62
     5
 10
346.17983555099198
 20
1499.0732030259367
 30
0.0
  0
VERTEX
  8
DETAIL
  6
CONTINUOUS
 62
     5
 10
346.53677697346416
 20
1498.0955652509192
 30
0.0
  0
VERTEX
  8
DETAIL
  6
CONTINUOUS
 62
     5
 10
346.81059923560281
 20
1497.0910747993714
 30
0.0
  0
VERTEX
  8
DETAIL
  6
CONTINUOUS
 62
     5
 10
347.00407343269802
 20
1496.0691521096589
 30
0.0
  0
VERTEX
  8
DETAIL
  6
CONTINUOUS
 62
     5
 10
347.11893662033685
 20
1495.0365901640721
 30
0.0
  0
VERTEX
  8
DETAIL
  6
CONTINUOUS
 62
     5
 10
347.15685424936242
 20
1493.9999999999361
 30
0.0
  0
SEQEND
  8
DETAIL
  6
CONTINUOUS
 62
     5
  0
POLYLINE
  8
DETAIL
  6
CONTINUOUS
 62
     5
 66
     1
 10
0.0
 20
0.0
 30
0.0
  0
VERTEX
  8
DETAIL
  6
CONTINUOUS
 62
     5
 10
340.62567943785689
 20
1134.0319522197369
 30
0.0
  0
VERTEX
  8
DETAIL
  6
CONTINUOUS
 62
     5
 10
339.6797027072696
 20
1134.2557697613713
 30
0.0
  0
VERTEX
  8
DETAIL
  6
CONTINUOUS
 62
     5
 10
338.79812989263041
 20
1134.6664821715042
 30
0.0
  0
VERTEX
  8
DETAIL
  6
CONTINUOUS
 62
     5
 10
338.00214353062154
 20
1135.2248451588828
 30
0.0
  0
VERTEX
  8
DETAIL
  6
CONTINUOUS
 62
     5
 10
337.29737219088236
 20
1135.8949381511682
 30
0.0
  0
VERTEX
  8
DETAIL
  6
CONTINUOUS
 62
     5
 10
336.68275538258195
 20
1136.6482059217726
 30
0.0
  0
VERTEX
  8
DETAIL
  6
CONTINUOUS
 62
     5
 10
336.15394996401682
 20
1137.464151687911
 30
0.0
  0
VERTEX
  8
DETAIL
  6
CONTINUOUS
 62
     5
 10
335.70615510098492
 20
1138.3270488236321
 30
0.0
  0
VERTEX
  8
DETAIL
  6
CONTINUOUS
 62
     5
 10
335.33486484988941
 20
1139.2250795359655
 30
0.0
  0
VERTEX
  8
DETAIL
  6
CONTINUOUS
 62
     5
 10
335.03603778122317
 20
1140.1502287830631
 30
0.0
  0
VERTEX
  8
DETAIL
  6
CONTINUOUS
 62
     5
 10
334.80617373057169
 20
1141.0965092890547
 30
0.0
  0
VERTEX
  8
DETAIL
  6
CONTINUOUS
 62
     5
 10
334.64346028387121
 20
1142.0577394551203
 30
0.0
  0
VERTEX
  8
DETAIL
  6
CONTINUOUS
 62
     5
 10
334.54670555421427
 20
1143.0276571208897
 30
0.0
  0
VERTEX
  8
DETAIL
  6
CONTINUOUS
 62
     5
 10
334.51471862565091
 20
1143.9999999999361
 30
0.0
  0
SEQEND
  8
DETAIL
  6
CONTINUOUS
 62
     5
  0
POLYLINE
  8
DETAIL
  6
CONTINUOUS
 62
     5
 66
     1
 10
0.0
 20
0.0
 30
0.0
  0
VERTEX
  8
DETAIL
  6
CONTINUOUS
 62
     5
 10
334.51471862565091
 20
1293.9999999999361
 30
0.0
  0
VERTEX
  8
DETAIL
  6
CONTINUOUS
 62
     5
 10
334.5467026775064
 20
1294.9722989426323
 30
0.0
  0
VERTEX
  8
DETAIL
  6
CONTINUOUS
 62
     5
 10
334.6434486146124
 20
1295.9421729284056
 30
0.0
  0
VERTEX
  8
DETAIL
  6
CONTINUOUS
 62
     5
 10
334.80614710927841
 20
1296.9033606110868
 30
0.0
  0
VERTEX
  8
DETAIL
  6
CONTINUOUS
 62
     5
 10
335.03598980604113
 20
1297.8496007708763
 30
0.0
  0
VERTEX
  8
DETAIL
  6
CONTINUOUS
 62
     5
 10
335.33478885180841
 20
1298.7747128422177
 30
0.0
  0
VERTEX
  8
DETAIL
  6
CONTINUOUS
 62
     5
 10
335.70604375694467
 20
1299.672710777663
 30
0.0
  0
VERTEX
  8
DETAIL
  6
CONTINUOUS
 62
     5
 10
336.15379519311216
 20
1300.5355809959328
 30
0.0
  0
VERTEX
  8
DETAIL
  6
CONTINUOUS
 62
     5
 10
336.68254829784809
 20
1301.3515083101938
 30
0.0
  0
VERTEX
  8
DETAIL
  6
CONTINUOUS
 62
     5
 10
337.2971033280553
 20
1302.1047698166396
 30
0.0
  0
VERTEX
  8
DETAIL
  6
CONTINUOUS
 62
     5
 10
338.00180332121357
 20
1302.7748739962733
 30
0.0
  0
VERTEX
  8
DETAIL
  6
CONTINUOUS
 62
     5
 10
338.79771075804109
 20
1303.3332729708395
 30
0.0
  0
VERTEX
  8
DETAIL
  6
CONTINUOUS
 62
     5
 10
339.67920299993705
 20
1303.7440544089529
 30
0.0
  0
VERTEX
  8
DETAIL
  6
CONTINUOUS
 62
     5
 10
340.62510952865711
 20
1303.9679778858349
 30
0.0
  0
SEQEND
  8
DETAIL
  6
CONTINUOUS
 62
     5
  0
POLYLINE
  8
DETAIL
  6
CONTINUOUS
 62
     5
 66
     1
 10
0.0
 20
0.0
 30
0.0
  0
VERTEX
  8
DETAIL
  6
CONTINUOUS
 62
     5
 10
341.11703443355509
 20
1303.893081135637
 30
0.0
  0
VERTEX
  8
DETAIL
  6
CONTINUOUS
 62
     5
 10
342.10658119953848
 20
1303.5828270357797
 30
0.0
  0
VERTEX
  8
DETAIL
  6
CONTINUOUS
 62
     5
 10
343.02301299901427
 20
1303.096472997596
 30
0.0
  0
VERTEX
  8
DETAIL
  6
CONTINUOUS
 62
     5
 10
343.84759609107618
 20
1302.4674441377567
 30
0.0
  0
VERTEX
  8
DETAIL
  6
CONTINUOUS
 62
     5
 10
344.57413745163205
 20
1301.7271862854343
 30
0.0
  0
VERTEX
  8
DETAIL
  6
CONTINUOUS
 62
     5
 10
345.20236713114775
 20
1300.9021951807081
 30
0.0
  0
VERTEX
  8
DETAIL
  6
CONTINUOUS
 62
     5
 10
345.73622656179231
 20
1300.012592567718
 30
0.0
  0
VERTEX
  8
DETAIL
  6
CONTINUOUS
 62
     5
 10
346.17983555099198
 20
1299.0732030259369
 30
0.0
  0
VERTEX
  8
DETAIL
  6
CONTINUOUS
 62
     5
 10
346.53677697346416
 20
1298.0955652509197
 30
0.0
  0
VERTEX
  8
DETAIL
  6
CONTINUOUS
 62
     5
 10
346.81059923560281
 20
1297.0910747993721
 30
0.0
  0
VERTEX
  8
DETAIL
  6
CONTINUOUS
 62
     5
 10
347.00407343269802
 20
1296.0691521096601
 30
0.0
  0
VERTEX
  8
DETAIL
  6
CONTINUOUS
 62
     5
 10
347.11893662033685
 20
1295.0365901640735
 30
0.0
  0
VERTEX
  8
DETAIL
  6
CONTINUOUS
 62
     5
 10
347.15685424936242
 20
1293.9999999999361
 30
0.0
  0
SEQEND
  8
DETAIL
  6
CONTINUOUS
 62
     5
  0
POLYLINE
  8
DETAIL
  6
CONTINUOUS
 62
     5
 66
     1
 10
0.0
 20
0.0
 30
0.0
  0
VERTEX
  8
DETAIL
  6
CONTINUOUS
 62
     5
 10
347.15685424936242
 20
758.99999999993634
 30
0.0
  0
VERTEX
  8
DETAIL
  6
CONTINUOUS
 62
     5
 10
347.11893662033685
 20
757.96340983574589
 30
0.0
  0
VERTEX
  8
DETAIL
  6
CONTINUOUS
 62
     5
 10
347.00407343269796
 20
756.93084789015734
 30
0.0
  0
VERTEX
  8
DETAIL
  6
CONTINUOUS
 62
     5
 10
346.81059923560281
 20
755.90892520046737
 30
0.0
  0
VERTEX
  8
DETAIL
  6
CONTINUOUS
 62
     5
 10
346.53677697346416
 20
754.90443474894039
 30
0.0
  0
VERTEX
  8
DETAIL
  6
CONTINUOUS
 62
     5
 10
346.17983555099198
 20
753.9267969739326
 30
0.0
  0
VERTEX
  8
DETAIL
  6
CONTINUOUS
 62
     5
 10
345.73622656179231
 20
752.9874074321541
 30
0.0
  0
VERTEX
  8
DETAIL
  6
CONTINUOUS
 62
     5
 10
345.20236713114775
 20
752.09780481916425
 30
0.0
  0
VERTEX
  8
DETAIL
  6
CONTINUOUS
 62
     5
 10
344.57413745163211
 20
751.2728137144378
 30
0.0
  0
VERTEX
  8
DETAIL
  6
CONTINUOUS
 62
     5
 10
343.84759609107624
 20
750.5325558621156
 30
0.0
  0
VERTEX
  8
DETAIL
  6
CONTINUOUS
 62
     5
 10
343.02301299901421
 20
749.90352700227641
 30
0.0
  0
VERTEX
  8
DETAIL
  6
CONTINUOUS
 62
     5
 10
342.10658119953848
 20
749.41717296409274
 30
0.0
  0
VERTEX
  8
DETAIL
  6
CONTINUOUS
 62
     5
 10
341.11703443355509
 20
749.10691886423774
 30
0.0
  0
SEQEND
  8
DETAIL
  6
CONTINUOUS
 62
     5
  0
POLYLINE
  8
DETAIL
  6
CONTINUOUS
 62
     5
 66
     1
 10
0.0
 20
0.0
 30
0.0
  0
VERTEX
  8
DETAIL
  6
CONTINUOUS
 62
     5
 10
-282.52756733274867
 20
1574.720050464837
 30
0.0
  0
VERTEX
  8
DETAIL
  6
CONTINUOUS
 62
     5
 10
-282.55489013799212
 20
1574.787376909487
 30
0.0
  0
VERTEX
  8
DETAIL
  6
CONTINUOUS
 62
     5
 10
-282.5622327464535
 20
1574.8600844763516
 30
0.0
  0
VERTEX
  8
DETAIL
  6
CONTINUOUS
 62
     5
 10
-282.55272650987342
 20
1574.9320766517774
 30
0.0
  0
VERTEX
  8
DETAIL
  6
CONTINUOUS
 62
     5
 10
-282.5305032263617
 20
1575.002017063088
 30
0.0
  0
VERTEX
  8
DETAIL
  6
CONTINUOUS
 62
     5
 10
-282.49977244039115
 20
1575.068974050987
 30
0.0
  0
VERTEX
  8
DETAIL
  6
CONTINUOUS
 62
     5
 10
-282.46369694684694
 20
1575.1324220431338
 30
0.0
  0
VERTEX
  8
DETAIL
  6
CONTINUOUS
 62
     5
 10
-282.42327031223613
 20
1575.1926770202783
 30
0.0
  0
VERTEX
  8
DETAIL
  6
CONTINUOUS
 62
     5
 10
-282.37921673606667
 20
1575.2501594642147
 30
0.0
  0
VERTEX
  8
DETAIL
  6
CONTINUOUS
 62
     5
 10
-282.33226041784661
 20
1575.3052898567371
 30
0.0
  0
SEQEND
  8
DETAIL
  6
CONTINUOUS
 62
     5
  0
POLYLINE
  8
DETAIL
  6
CONTINUOUS
 62
     5
 66
     1
 10
0.0
 20
0.0
 30
0.0
  0
VERTEX
  8
DETAIL
  6
CONTINUOUS
 62
     5
 10
-226.20211245424429
 20
1568.4116644802359
 30
0.0
  0
VERTEX
  8
DETAIL
  6
CONTINUOUS
 62
     5
 10
-226.22299867618642
 20
1568.4564468207013
 30
0.0
  0
VERTEX
  8
DETAIL
  6
CONTINUOUS
 62
     5
 10
-226.23327663674888
 20
1568.5049988887224
 30
0.0
  0
VERTEX
  8
DETAIL
  6
CONTINUOUS
 62
     5
 10
-226.23257422266795
 20
1568.5543689824533
 30
0.0
  0
VERTEX
  8
DETAIL
  6
CONTINUOUS
 62
     5
 10
-226.22267466296063
 20
1568.6028781053594
 30
0.0
  0
VERTEX
  8
DETAIL
  6
CONTINUOUS
 62
     5
 10
-226.2058590424549
 20
1568.6493069330606
 30
0.0
  0
VERTEX
  8
DETAIL
  6
CONTINUOUS
 62
     5
 10
-226.18371769623488
 20
1568.6933500921361
 30
0.0
  0
VERTEX
  8
DETAIL
  6
CONTINUOUS
 62
     5
 10
-226.15750983606623
 20
1568.7351397350362
 30
0.0
  0
VERTEX
  8
DETAIL
  6
CONTINUOUS
 62
     5
 10
-226.12829645339292
 20
1568.7748184893376
 30
0.0
  0
VERTEX
  8
DETAIL
  6
CONTINUOUS
 62
     5
 10
-226.09663706734807
 20
1568.8125487663117
 30
0.0
  0
VERTEX
  8
DETAIL
  6
CONTINUOUS
 62
     5
 10
-226.06301220315069
 20
1568.848496093636
 30
0.0
  0
SEQEND
  8
DETAIL
  6
CONTINUOUS
 62
     5
  0
POLYLINE
  8
DETAIL
  6
CONTINUOUS
 62
     5
 66
     1
 10
0.0
 20
0.0
 30
0.0
  0
VERTEX
  8
DETAIL
  6
CONTINUOUS
 62
     5
 10
-282.33226041784661
 20
1575.3052898567371
 30
0.0
  0
VERTEX
  8
DETAIL
  6
CONTINUOUS
 62
     5
 10
-281.09358537221522
 20
1576.7314813578007
 30
0.0
  0
VERTEX
  8
DETAIL
  6
CONTINUOUS
 62
     5
 10
-279.88961232497019
 20
1578.1875280281033
 30
0.0
  0
VERTEX
  8
DETAIL
  6
CONTINUOUS
 62
     5
 10
-278.71987219583292
 20
1579.6720219278438
 30
0.0
  0
VERTEX
  8
DETAIL
  6
CONTINUOUS
 62
     5
 10
-277.58410831462913
 20
1581.1833478150827
 30
0.0
  0
VERTEX
  8
DETAIL
  6
CONTINUOUS
 62
     5
 10
-276.4821090876639
 20
1582.7198464553856
 30
0.0
  0
VERTEX
  8
DETAIL
  6
CONTINUOUS
 62
     5
 10
-275.41366292124223
 20
1584.2798586143183
 30
0.0
  0
VERTEX
  8
DETAIL
  6
CONTINUOUS
 62
     5
 10
-274.3785582216691
 20
1585.8617250574468
 30
0.0
  0
VERTEX
  8
DETAIL
  6
CONTINUOUS
 62
     5
 10
-273.37658339524933
 20
1587.4637865503371
 30
0.0
  0
SEQEND
  8
DETAIL
  6
CONTINUOUS
 62
     5
  0
POLYLINE
  8
DETAIL
  6
CONTINUOUS
 62
     5
 66
     1
 10
0.0
 20
0.0
 30
0.0
  0
VERTEX
  8
DETAIL
  6
CONTINUOUS
 62
     5
 10
-273.37658339524933
 20
1587.4637865503371
 30
0.0
  0
VERTEX
  8
DETAIL
  6
CONTINUOUS
 62
     5
 10
-273.27875318714376
 20
1587.6072491519571
 30
0.0
  0
VERTEX
  8
DETAIL
  6
CONTINUOUS
 62
     5
 10
-273.16795906825683
 20
1587.7414209406386
 30
0.0
  0
VERTEX
  8
DETAIL
  6
CONTINUOUS
 62
     5
 10
-273.04657754803117
 20
1587.8662078085381
 30
0.0
  0
VERTEX
  8
DETAIL
  6
CONTINUOUS
 62
     5
 10
-272.91623174453946
 20
1587.9812855103955
 30
0.0
  0
VERTEX
  8
DETAIL
  6
CONTINUOUS
 62
     5
 10
-272.77762331186659
 20
1588.0860483226231
 30
0.0
  0
VERTEX
  8
DETAIL
  6
CONTINUOUS
 62
     5
 10
-272.63134877258489
 20
1588.1797633407914
 30
0.0
  0
VERTEX
  8
DETAIL
  6
CONTINUOUS
 62
     5
 10
-272.4775207056407
 20
1588.2606106179069
 30
0.0
  0
VERTEX
  8
DETAIL
  6
CONTINUOUS
 62
     5
 10
-272.31597808134512
 20
1588.3261462250696
 30
0.0
  0
VERTEX
  8
DETAIL
  6
CONTINUOUS
 62
     5
 10
-272.14743774376046
 20
1588.3722851634063
 30
0.0
  0
VERTEX
  8
DETAIL
  6
CONTINUOUS
 62
     5
 10
-271.97482520924677
 20
1588.390846738637
 30
0.0
  0
SEQEND
  8
DETAIL
  6
CONTINUOUS
 62
     5
  0
POLYLINE
  8
DETAIL
  6
CONTINUOUS
 62
     5
 66
     1
 10
0.0
 20
0.0
 30
0.0
  0
VERTEX
  8
DETAIL
  6
CONTINUOUS
 62
     5
 10
-213.9265495228465
 20
1588.565916409136
 30
0.0
  0
VERTEX
  8
DETAIL
  6
CONTINUOUS
 62
     5
 10
-213.7490639831438
 20
1588.5782627859144
 30
0.0
  0
VERTEX
  8
DETAIL
  6
CONTINUOUS
 62
     5
 10
-213.57413067731105
 20
1588.6146430394276
 30
0.0
  0
VERTEX
  8
DETAIL
  6
CONTINUOUS
 62
     5
 10
-213.40463816450512
 20
1588.6709355722801
 30
0.0
  0
VERTEX
  8
DETAIL
  6
CONTINUOUS
 62
     5
 10
-213.24235752363379
 20
1588.7444961552394
 30
0.0
  0
VERTEX
  8
DETAIL
  6
CONTINUOUS
 62
     5
 10
-213.08824860674702
 20
1588.8337530451133
 30
0.0
  0
VERTEX
  8
DETAIL
  6
CONTINUOUS
 62
     5
 10
-212.94340885360572
 20
1588.9373904640991
 30
0.0
  0
VERTEX
  8
DETAIL
  6
CONTINUOUS
 62
     5
 10
-212.80953367034328
 20
1589.054982514951
 30
0.0
  0
VERTEX
  8
DETAIL
  6
CONTINUOUS
 62
     5
 10
-212.68849347297504
 20
1589.1863076483439
 30
0.0
  0
VERTEX
  8
DETAIL
  6
CONTINUOUS
 62
     5
 10
-212.58339053042283
 20
1589.3307895025928
 30
0.0
  0
VERTEX
  8
DETAIL
  6
CONTINUOUS
 62
     5
 10
-212.4989296876447
 20
1589.4873901237349
 30
0.0
  0
SEQEND
  8
DETAIL
  6
CONTINUOUS
 62
     5
  0
POLYLINE
  8
DETAIL
  6
CONTINUOUS
 62
     5
 66
     1
 10
0.0
 20
0.0
 30
0.0
  0
VERTEX
  8
DETAIL
  6
CONTINUOUS
 62
     5
 10
-212.4989296876447
 20
1589.4873901237349
 30
0.0
  0
VERTEX
  8
DETAIL
  6
CONTINUOUS
 62
     5
 10
-212.07747902073058
 20
1590.4449260147323
 30
0.0
  0
VERTEX
  8
DETAIL
  6
CONTINUOUS
 62
     5
 10
-211.66675290268114
 20
1591.407158195251
 30
0.0
  0
VERTEX
  8
DETAIL
  6
CONTINUOUS
 62
     5
 10
-211.26660243600168
 20
1592.3739303820148
 30
0.0
  0
VERTEX
  8
DETAIL
  6
CONTINUOUS
 62
     5
 10
-210.87690529773016
 20
1593.3450390524895
 30
0.0
  0
VERTEX
  8
DETAIL
  6
CONTINUOUS
 62
     5
 10
-210.49754516136284
 20
1594.3202700247518
 30
0.0
  0
VERTEX
  8
DETAIL
  6
CONTINUOUS
 62
     5
 10
-210.12840570039597
 20
1595.2994091168787
 30
0.0
  0
VERTEX
  8
DETAIL
  6
CONTINUOUS
 62
     5
 10
-209.76937058832596
 20
1596.282242146948
 30
0.0
  0
VERTEX
  8
DETAIL
  6
CONTINUOUS
 62
     5
 10
-209.420323498649
 20
1597.2685549330361
 30
0.0
  0
SEQEND
  8
DETAIL
  6
CONTINUOUS
 62
     5
  0
POLYLINE
  8
DETAIL
  6
CONTINUOUS
 62
     5
 66
     1
 10
0.0
 20
0.0
 30
0.0
  0
VERTEX
  8
DETAIL
  6
CONTINUOUS
 62
     5
 10
-209.420323498649
 20
1597.2685549330361
 30
0.0
  0
VERTEX
  8
DETAIL
  6
CONTINUOUS
 62
     5
 10
-209.34789762146136
 20
1597.4378340905323
 30
0.0
  0
VERTEX
  8
DETAIL
  6
CONTINUOUS
 62
     5
 10
-209.25380930486241
 20
1597.5971417203127
 30
0.0
  0
VERTEX
  8
DETAIL
  6
CONTINUOUS
 62
     5
 10
-209.14134509116215
 20
1597.7448115290431
 30
0.0
  0
VERTEX
  8
DETAIL
  6
CONTINUOUS
 62
     5
 10
-209.01356958069593
 20
1597.8791771340946
 30
0.0
  0
VERTEX
  8
DETAIL
  6
CONTINUOUS
 62
     5
 10
-208.87234230202424
 20
1597.9985716679985
 30
0.0
  0
VERTEX
  8
DETAIL
  6
CONTINUOUS
 62
     5
 10
-208.7191157205275
 20
1598.1013280995128
 30
0.0
  0
VERTEX
  8
DETAIL
  6
CONTINUOUS
 62
     5
 10
-208.55533896732146
 20
1598.1856972553592
 30
0.0
  0
VERTEX
  8
DETAIL
  6
CONTINUOUS
 62
     5
 10
-208.382421301905
 20
1598.2488422885085
 30
0.0
  0
VERTEX
  8
DETAIL
  6
CONTINUOUS
 62
     5
 10
-208.20220038003237
 20
1598.2868134590738
 30
0.0
  0
VERTEX
  8
DETAIL
  6
CONTINUOUS
 62
     5
 10
-208.01817921446042
 20
1598.2944311665042
 30
0.0
  0
VERTEX
  8
DETAIL
  6
CONTINUOUS
 62
     5
 10
-207.83621241336527
 20
1598.2653483914435
 30
0.0
  0
VERTEX
  8
DETAIL
  6
CONTINUOUS
 62
     5
 10
-207.66643047105029
 20
1598.194096921836
 30
0.0
  0
SEQEND
  8
DETAIL
  6
CONTINUOUS
 62
     5
  0
POLYLINE
  8
DETAIL
  6
CONTINUOUS
 62
     5
 66
     1
 10
0.0
 20
0.0
 30
0.0
  0
VERTEX
  8
DETAIL
  6
CONTINUOUS
 62
     5
 10
-207.66643047105029
 20
1598.194096921836
 30
0.0
  0
VERTEX
  8
DETAIL
  6
CONTINUOUS
 62
     5
 10
-204.13071805130883
 20
1596.1193625994308
 30
0.0
  0
VERTEX
  8
DETAIL
  6
CONTINUOUS
 62
     5
 10
-200.5931653900318
 20
1594.0477689286624
 30
0.0
  0
VERTEX
  8
DETAIL
  6
CONTINUOUS
 62
     5
 10
-197.05300592779895
 20
1591.9806257789596
 30
0.0
  0
VERTEX
  8
DETAIL
  6
CONTINUOUS
 62
     5
 10
-193.50947310519024
 20
1589.9192430197511
 30
0.0
  0
VERTEX
  8
DETAIL
  6
CONTINUOUS
 62
     5
 10
-189.96176217639956
 20
1587.8650155729533
 30
0.0
  0
VERTEX
  8
DETAIL
  6
CONTINUOUS
 62
     5
 10
-186.40890295364437
 20
1585.8197068491827
 30
0.0
  0
VERTEX
  8
DETAIL
  6
CONTINUOUS
 62
     5
 10
-182.84988045507154
 20
1583.785180028834
 30
0.0
  0
VERTEX
  8
DETAIL
  6
CONTINUOUS
 62
     5
 10
-179.28367969804819
 20
1581.7632982940361
 30
0.0
  0
SEQEND
  8
DETAIL
  6
CONTINUOUS
 62
     5
  0
POLYLINE
  8
DETAIL
  6
CONTINUOUS
 62
     5
 66
     1
 10
0.0
 20
0.0
 30
0.0
  0
VERTEX
  8
DETAIL
  6
CONTINUOUS
 62
     5
 10
-179.28367969804819
 20
1581.7632982940361
 30
0.0
  0
VERTEX
  8
DETAIL
  6
CONTINUOUS
 62
     5
 10
-179.25373028492987
 20
1581.7453785552195
 30
0.0
  0
VERTEX
  8
DETAIL
  6
CONTINUOUS
 62
     5
 10
-179.22474931151416
 20
1581.7258438661304
 30
0.0
  0
VERTEX
  8
DETAIL
  6
CONTINUOUS
 62
     5
 10
-179.19683190641396
 20
1581.7045732270963
 30
0.0
  0
VERTEX
  8
DETAIL
  6
CONTINUOUS
 62
     5
 10
-179.17016302286916
 20
1581.6815946494899
 30
0.0
  0
VERTEX
  8
DETAIL
  6
CONTINUOUS
 62
     5
 10
-179.14495867771163
 20
1581.6569876764127
 30
0.0
  0
VERTEX
  8
DETAIL
  6
CONTINUOUS
 62
     5
 10
-179.12143491760989
 20
1581.6308319004629
 30
0.0
  0
VERTEX
  8
DETAIL
  6
CONTINUOUS
 62
     5
 10
-179.09980778923247
 20
1581.6032069142379
 30
0.0
  0
VERTEX
  8
DETAIL
  6
CONTINUOUS
 62
     5
 10
-179.0802933392479
 20
1581.574192310336
 30
0.0
  0
SEQEND
  8
DETAIL
  6
CONTINUOUS
 62
     5
  0
POLYLINE
  8
DETAIL
  6
CONTINUOUS
 62
     5
 66
     1
 10
0.0
 20
0.0
 30
0.0
  0
VERTEX
  8
DETAIL
  6
CONTINUOUS
 62
     5
 10
-226.06301220315069
 20
1568.848496093636
 30
0.0
  0
VERTEX
  8
DETAIL
  6
CONTINUOUS
 62
     5
 10
-225.46078392220852
 20
1569.4724477365462
 30
0.0
  0
VERTEX
  8
DETAIL
  6
CONTINUOUS
 62
     5
 10
-224.86864589314271
 20
1570.1060813235708
 30
0.0
  0
VERTEX
  8
DETAIL
  6
CONTINUOUS
 62
     5
 10
-224.28649045827274
 20
1570.7490860033283
 30
0.0
  0
VERTEX
  8
DETAIL
  6
CONTINUOUS
 62
     5
 10
-223.71425512445379
 20
1571.4010887461516
 30
0.0
  0
VERTEX
  8
DETAIL
  6
CONTINUOUS
 62
     5
 10
-223.15188730949887
 20
1572.0617028778966
 30
0.0
  0
VERTEX
  8
DETAIL
  6
CONTINUOUS
 62
     5
 10
-222.59933443122128
 20
1572.7305417244215
 30
0.0
  0
VERTEX
  8
DETAIL
  6
CONTINUOUS
 62
     5
 10
-222.05654390743419
 20
1573.4072186115832
 30
0.0
  0
VERTEX
  8
DETAIL
  6
CONTINUOUS
 62
     5
 10
-221.52346315595059
 20
1574.0913468652379
 30
0.0
  0
SEQEND
  8
DETAIL
  6
CONTINUOUS
 62
     5
  0
POLYLINE
  8
DETAIL
  6
CONTINUOUS
 62
     5
 66
     1
 10
0.0
 20
0.0
 30
0.0
  0
VERTEX
  8
DETAIL
  6
CONTINUOUS
 62
     5
 10
-221.52346315595059
 20
1574.0913468652379
 30
0.0
  0
VERTEX
  8
DETAIL
  6
CONTINUOUS
 62
     5
 10
-221.48995374424896
 20
1574.1375229541247
 30
0.0
  0
VERTEX
  8
DETAIL
  6
CONTINUOUS
 62
     5
 10
-221.45940150307692
 20
1574.1858423645272
 30
0.0
  0
VERTEX
  8
DETAIL
  6
CONTINUOUS
 62
     5
 10
-221.43273216895278
 20
1574.2364401946315
 30
0.0
  0
VERTEX
  8
DETAIL
  6
CONTINUOUS
 62
     5
 10
-221.4108714783946
 20
1574.2894515426224
 30
0.0
  0
VERTEX
  8
DETAIL
  6
CONTINUOUS
 62
     5
 10
-221.39475848343855
 20
1574.3449625359251
 30
0.0
  0
VERTEX
  8
DETAIL
  6
CONTINUOUS
 62
     5
 10
-221.38556208230344
 20
1574.4022139918336
 30
0.0
  0
VERTEX
  8
DETAIL
  6
CONTINUOUS
 62
     5
 10
-221.38464519838021
 20
1574.4597331571945
 30
0.0
  0
VERTEX
  8
DETAIL
  6
CONTINUOUS
 62
     5
 10
-221.39337684185011
 20
1574.5160248933371
 30
0.0
  0
SEQEND
  8
DETAIL
  6
CONTINUOUS
 62
     5
  0
POLYLINE
  8
DETAIL
  6
CONTINUOUS
 62
     5
 66
     1
 10
0.0
 20
0.0
 30
0.0
  0
VERTEX
  8
DETAIL
  6
CONTINUOUS
 62
     5
 10
-179.95375108334699
 20
1580.0730310949359
 30
0.0
  0
VERTEX
  8
DETAIL
  6
CONTINUOUS
 62
     5
 10
-185.5599330896421
 20
1578.4947705609559
 30
0.0
  0
VERTEX
  8
DETAIL
  6
CONTINUOUS
 62
     5
 10
-191.16989669667666
 20
1576.929993783622
 30
0.0
  0
VERTEX
  8
DETAIL
  6
CONTINUOUS
 62
     5
 10
-196.78479832391582
 20
1575.3829474491363
 30
0.0
  0
VERTEX
  8
DETAIL
  6
CONTINUOUS
 62
     5
 10
-202.40579439082373
 20
1573.8578782437107
 30
0.0
  0
VERTEX
  8
DETAIL
  6
CONTINUOUS
 62
     5
 10
-208.0340206488608
 20
1572.3592019118221
 30
0.0
  0
VERTEX
  8
DETAIL
  6
CONTINUOUS
 62
     5
 10
-213.67053110371555
 20
1570.8920028546104
 30
0.0
  0
VERTEX
  8
DETAIL
  6
CONTINUOUS
 62
     5
 10
-219.31635955360557
 20
1569.4615307644551
 30
0.0
  0
VERTEX
  8
DETAIL
  6
CONTINUOUS
 62
     5
 10
-224.97253979674861
 20
1568.0730353337369
 30
0.0
  0
SEQEND
  8
DETAIL
  6
CONTINUOUS
 62
     5
  0
POLYLINE
  8
DETAIL
  6
CONTINUOUS
 62
     5
 66
     1
 10
0.0
 20
0.0
 30
0.0
  0
VERTEX
  8
DETAIL
  6
CONTINUOUS
 62
     5
 10
-224.97253979704689
 20
1568.0730353341371
 30
0.0
  0
VERTEX
  8
DETAIL
  6
CONTINUOUS
 62
     5
 10
-225.08451533876575
 20
1568.0483658366288
 30
0.0
  0
VERTEX
  8
DETAIL
  6
CONTINUOUS
 62
     5
 10
-225.19748782046247
 20
1568.0284585720199
 30
0.0
  0
VERTEX
  8
DETAIL
  6
CONTINUOUS
 62
     5
 10
-225.31130086521833
 20
1568.0138291406458
 30
0.0
  0
VERTEX
  8
DETAIL
  6
CONTINUOUS
 62
     5
 10
-225.42577606327691
 20
1568.0050363907617
 30
0.0
  0
VERTEX
  8
DETAIL
  6
CONTINUOUS
 62
     5
 10
-225.54053884014164
 20
1568.0030242193361
 30
0.0
  0
VERTEX
  8
DETAIL
  6
CONTINUOUS
 62
     5
 10
-225.65511172252747
 20
1568.008938501772
 30
0.0
  0
VERTEX
  8
DETAIL
  6
CONTINUOUS
 62
     5
 10
-225.76878038725522
 20
1568.0245792576641
 30
0.0
  0
VERTEX
  8
DETAIL
  6
CONTINUOUS
 62
     5
 10
-225.87949252738437
 20
1568.0554459355399
 30
0.0
  0
VERTEX
  8
DETAIL
  6
CONTINUOUS
 62
     5
 10
-225.98370448745948
 20
1568.1083096734094
 30
0.0
  0
VERTEX
  8
DETAIL
  6
CONTINUOUS
 62
     5
 10
-226.0645043220502
 20
1568.1895397854371
 30
0.0
  0
SEQEND
  8
DETAIL
  6
CONTINUOUS
 62
     5
  0
POLYLINE
  8
DETAIL
  6
CONTINUOUS
 62
     5
 66
     1
 10
0.0
 20
0.0
 30
0.0
  0
VERTEX
  8
DETAIL
  6
CONTINUOUS
 62
     5
 10
-221.84629218574989
 20
1574.6037493016349
 30
0.0
  0
VERTEX
  8
DETAIL
  6
CONTINUOUS
 62
     5
 10
-224.23815680804876
 20
1574.6205871767622
 30
0.0
  0
VERTEX
  8
DETAIL
  6
CONTINUOUS
 62
     5
 10
-226.63002497938865
 20
1574.636919524522
 30
0.0
  0
VERTEX
  8
DETAIL
  6
CONTINUOUS
 62
     5
 10
-229.02189665496482
 20
1574.6527457473569
 30
0.0
  0
VERTEX
  8
DETAIL
  6
CONTINUOUS
 62
     5
 10
-231.41377173351162
 20
1574.668060418305
 30
0.0
  0
VERTEX
  8
DETAIL
  6
CONTINUOUS
 62
     5
 10
-233.80565009829621
 20
1574.6828567874195
 30
0.0
  0
VERTEX
  8
DETAIL
  6
CONTINUOUS
 62
     5
 10
-236.19753163258542
 20
1574.6971281047174
 30
0.0
  0
VERTEX
  8
DETAIL
  6
CONTINUOUS
 62
     5
 10
-238.58941621964601
 20
1574.710867620217
 30
0.0
  0
VERTEX
  8
DETAIL
  6
CONTINUOUS
 62
     5
 10
-240.98130374274481
 20
1574.724068583937
 30
0.0
  0
SEQEND
  8
DETAIL
  6
CONTINUOUS
 62
     5
  0
POLYLINE
  8
DETAIL
  6
CONTINUOUS
 62
     5
 66
     1
 10
0.0
 20
0.0
 30
0.0
  0
VERTEX
  8
DETAIL
  6
CONTINUOUS
 62
     5
 10
-282.01512867985002
 20
1574.3597439952371
 30
0.0
  0
VERTEX
  8
DETAIL
  6
CONTINUOUS
 62
     5
 10
-282.06748191679679
 20
1574.3602955252727
 30
0.0
  0
VERTEX
  8
DETAIL
  6
CONTINUOUS
 62
     5
 10
-282.11980622551442
 20
1574.3639221349829
 30
0.0
  0
VERTEX
  8
DETAIL
  6
CONTINUOUS
 62
     5
 10
-282.17169050372411
 20
1574.3716730449312
 30
0.0
  0
VERTEX
  8
DETAIL
  6
CONTINUOUS
 62
     5
 10
-282.22272364914676
 20
1574.3845974756809
 30
0.0
  0
VERTEX
  8
DETAIL
  6
CONTINUOUS
 62
     5
 10
-282.27246539528278
 20
1574.4037351975362
 30
0.0
  0
VERTEX
  8
DETAIL
  6
CONTINUOUS
 62
     5
 10
-282.31941426370116
 20
1574.4297821098444
 30
0.0
  0
VERTEX
  8
DETAIL
  6
CONTINUOUS
 62
     5
 10
-282.36073078429155
 20
1574.4630005543713
 30
0.0
  0
VERTEX
  8
DETAIL
  6
CONTINUOUS
 62
     5
 10
-282.3934900330496
 20
1574.5036251827371
 30
0.0
  0
SEQEND
  8
DETAIL
  6
CONTINUOUS
 62
     5
  0
POLYLINE
  8
DETAIL
  6
CONTINUOUS
 62
     5
 66
     1
 10
0.0
 20
0.0
 30
0.0
  0
VERTEX
  8
DETAIL
  6
CONTINUOUS
 62
     5
 10
-221.4295713400497
 20
1574.601154087137
 30
0.0
  0
VERTEX
  8
DETAIL
  6
CONTINUOUS
 62
     5
 10
-221.47161860066367
 20
1574.6550736861564
 30
0.0
  0
VERTEX
  8
DETAIL
  6
CONTINUOUS
 62
     5
 10
-221.5233168663483
 20
1574.7002623602793
 30
0.0
  0
VERTEX
  8
DETAIL
  6
CONTINUOUS
 62
     5
 10
-221.58142395946311
 20
1574.7364764994711
 30
0.0
  0
VERTEX
  8
DETAIL
  6
CONTINUOUS
 62
     5
 10
-221.64405891634345
 20
1574.7646849347279
 30
0.0
  0
VERTEX
  8
DETAIL
  6
CONTINUOUS
 62
     5
 10
-221.70954028499921
 20
1574.7860342032272
 30
0.0
  0
VERTEX
  8
DETAIL
  6
CONTINUOUS
 62
     5
 10
-221.77638907598714
 20
1574.8015926569765
 30
0.0
  0
VERTEX
  8
DETAIL
  6
CONTINUOUS
 62
     5
 10
-221.84403454848913
 20
1574.8120779086689
 30
0.0
  0
VERTEX
  8
DETAIL
  6
CONTINUOUS
 62
     5
 10
-221.91216054073954
 20
1574.8181092599416
 30
0.0
  0
VERTEX
  8
DETAIL
  6
CONTINUOUS
 62
     5
 10
-221.98045090364761
 20
1574.8203060075371
 30
0.0
  0
SEQEND
  8
DETAIL
  6
CONTINUOUS
 62
     5
  0
POLYLINE
  8
DETAIL
  6
CONTINUOUS
 62
     5
 66
     1
 10
0.0
 20
0.0
 30
0.0
  0
VERTEX
  8
DETAIL
  6
CONTINUOUS
 62
     5
 10
-221.3873149367501
 20
1574.4822649039361
 30
0.0
  0
VERTEX
  8
DETAIL
  6
CONTINUOUS
 62
     5
 10
-221.40735674159592
 20
1574.4962025010179
 30
0.0
  0
VERTEX
  8
DETAIL
  6
CONTINUOUS
 62
     5
 10
-221.42812738806458
 20
1574.509057879636
 30
0.0
  0
VERTEX
  8
DETAIL
  6
CONTINUOUS
 62
     5
 10
-221.44952702740363
 20
1574.5208773507848
 30
0.0
  0
VERTEX
  8
DETAIL
  6
CONTINUOUS
 62
     5
 10
-221.47147284565878
 20
1574.5317045980707
 30
0.0
  0
VERTEX
  8
DETAIL
  6
CONTINUOUS
 62
     5
 10
-221.49388482971037
 20
1574.541582873112
 30
0.0
  0
VERTEX
  8
DETAIL
  6
CONTINUOUS
 62
     5
 10
-221.51668296643885
 20
1574.5505554275255
 30
0.0
  0
VERTEX
  8
DETAIL
  6
CONTINUOUS
 62
     5
 10
-221.53978724272463
 20
1574.558665512928
 30
0.0
  0
VERTEX
  8
DETAIL
  6
CONTINUOUS
 62
     5
 10
-221.5631176454481
 20
1574.565956380937
 30
0.0
  0
SEQEND
  8
DETAIL
  6
CONTINUOUS
 62
     5
  0
POLYLINE
  8
DETAIL
  6
CONTINUOUS
 62
     5
 66
     1
 10
0.0
 20
0.0
 30
0.0
  0
VERTEX
  8
DETAIL
  6
CONTINUOUS
 62
     5
 10
-221.5631176454481
 20
1574.565956380937
 30
0.0
  0
VERTEX
  8
DETAIL
  6
CONTINUOUS
 62
     5
 10
-221.59766369974457
 20
1574.5752662541415
 30
0.0
  0
VERTEX
  8
DETAIL
  6
CONTINUOUS
 62
     5
 10
-221.63259567619761
 20
1574.5830739494425
 30
0.0
  0
VERTEX
  8
DETAIL
  6
CONTINUOUS
 62
     5
 10
-221.66782625230144
 20
1574.5895017127777
 30
0.0
  0
VERTEX
  8
DETAIL
  6
CONTINUOUS
 62
     5
 10
-221.70329142753928
 20
1574.5946332620333
 30
0.0
  0
VERTEX
  8
DETAIL
  6
CONTINUOUS
 62
     5
 10
-221.73893090520713
 20
1574.5985461963789
 30
0.0
  0
VERTEX
  8
DETAIL
  6
CONTINUOUS
 62
     5
 10
-221.77468438860083
 20
1574.601318114982
 30
0.0
  0
VERTEX
  8
DETAIL
  6
CONTINUOUS
 62
     5
 10
-221.81049158101641
 20
1574.603026617011
 30
0.0
  0
VERTEX
  8
DETAIL
  6
CONTINUOUS
 62
     5
 10
-221.84629218574989
 20
1574.6037493016349
 30
0.0
  0
SEQEND
  8
DETAIL
  6
CONTINUOUS
 62
     5
  0
POLYLINE
  8
DETAIL
  6
CONTINUOUS
 62
     5
 66
     1
 10
0.0
 20
0.0
 30
0.0
  0
VERTEX
  8
DETAIL
  6
CONTINUOUS
 62
     5
 10
-179.0802933392479
 20
1581.574192310336
 30
0.0
  0
VERTEX
  8
DETAIL
  6
CONTINUOUS
 62
     5
 10
-179.02185665861407
 20
1581.4318816836842
 30
0.0
  0
VERTEX
  8
DETAIL
  6
CONTINUOUS
 62
     5
 10
-179.01120876156472
 20
1581.2783859264177
 30
0.0
  0
VERTEX
  8
DETAIL
  6
CONTINUOUS
 62
     5
 10
-179.04243253102126
 20
1581.1277298299804
 30
0.0
  0
VERTEX
  8
DETAIL
  6
CONTINUOUS
 62
     5
 10
-179.10516664875328
 20
1580.987187302467
 30
0.0
  0
VERTEX
  8
DETAIL
  6
CONTINUOUS
 62
     5
 10
-179.19039917622845
 20
1580.8591054842229
 30
0.0
  0
VERTEX
  8
DETAIL
  6
CONTINUOUS
 62
     5
 10
-179.29183322414221
 20
1580.7433789399017
 30
0.0
  0
VERTEX
  8
DETAIL
  6
CONTINUOUS
 62
     5
 10
-179.40599073376319
 20
1580.6396170055625
 30
0.0
  0
VERTEX
  8
DETAIL
  6
CONTINUOUS
 62
     5
 10
-179.53022228762248
 20
1580.5473921676203
 30
0.0
  0
VERTEX
  8
DETAIL
  6
CONTINUOUS
 62
     5
 10
-179.66193865065756
 20
1580.4662975716508
 30
0.0
  0
VERTEX
  8
DETAIL
  6
CONTINUOUS
 62
     5
 10
-179.79946214722668
 20
1580.3962408163015
 30
0.0
  0
VERTEX
  8
DETAIL
  6
CONTINUOUS
 62
     5
 10
-179.94182454796865
 20
1580.3373742320055
 30
0.0
  0
VERTEX
  8
DETAIL
  6
CONTINUOUS
 62
     5
 10
-180.08807632484971
 20
1580.2898566004351
 30
0.0
  0
SEQEND
  8
DETAIL
  6
CONTINUOUS
 62
     5
  0
POLYLINE
  8
DETAIL
  6
CONTINUOUS
 62
     5
 66
     1
 10
0.0
 20
0.0
 30
0.0
  0
VERTEX
  8
DETAIL
  6
CONTINUOUS
 62
     5
 10
-178.94596828244539
 20
1581.357367103735
 30
0.0
  0
VERTEX
  8
DETAIL
  6
CONTINUOUS
 62
     5
 10
-178.88752869580918
 20
1581.2150558056373
 30
0.0
  0
VERTEX
  8
DETAIL
  6
CONTINUOUS
 62
     5
 10
-178.87687532674698
 20
1581.0615587090588
 30
0.0
  0
VERTEX
  8
DETAIL
  6
CONTINUOUS
 62
     5
 10
-178.90809406896295
 20
1580.9108998414272
 30
0.0
  0
VERTEX
  8
DETAIL
  6
CONTINUOUS
 62
     5
 10
-178.97082503915632
 20
1580.7703540350383
 30
0.0
  0
VERTEX
  8
DETAIL
  6
CONTINUOUS
 62
     5
 10
-179.05605630910784
 20
1580.6422693435295
 30
0.0
  0
VERTEX
  8
DETAIL
  6
CONTINUOUS
 62
     5
 10
-179.1574906308629
 20
1580.5265407528532
 30
0.0
  0
VERTEX
  8
DETAIL
  6
CONTINUOUS
 62
     5
 10
-179.27164956036648
 20
1580.4227777860526
 30
0.0
  0
VERTEX
  8
DETAIL
  6
CONTINUOUS
 62
     5
 10
-179.39588344796081
 20
1580.3305530610844
 30
0.0
  0
VERTEX
  8
DETAIL
  6
CONTINUOUS
 62
     5
 10
-179.52760281755317
 20
1580.2494598478443
 30
0.0
  0
VERTEX
  8
DETAIL
  6
CONTINUOUS
 62
     5
 10
-179.66512972879275
 20
1580.1794058023038
 30
0.0
  0
VERTEX
  8
DETAIL
  6
CONTINUOUS
 62
     5
 10
-179.80749573192
 20
1580.1205432817153
 30
0.0
  0
VERTEX
  8
DETAIL
  6
CONTINUOUS
 62
     5
 10
-179.95375108334699
 20
1580.0730310950371
 30
0.0
  0
SEQEND
  8
DETAIL
  6
CONTINUOUS
 62
     5
  0
POLYLINE
  8
DETAIL
  6
CONTINUOUS
 62
     5
 66
     1
 10
0.0
 20
0.0
 30
0.0
  0
VERTEX
  8
DETAIL
  6
CONTINUOUS
 62
     5
 10
-282.14923914664541
 20
1574.5762228150361
 30
0.0
  0
VERTEX
  8
DETAIL
  6
CONTINUOUS
 62
     5
 10
-282.20158507356922
 20
1574.5767750312514
 30
0.0
  0
VERTEX
  8
DETAIL
  6
CONTINUOUS
 62
     5
 10
-282.25390188400223
 20
1574.5803997681171
 30
0.0
  0
VERTEX
  8
DETAIL
  6
CONTINUOUS
 62
     5
 10
-282.30577926421569
 20
1574.5881461585313
 30
0.0
  0
VERTEX
  8
DETAIL
  6
CONTINUOUS
 62
     5
 10
-282.35680690048065
 20
1574.6010633353915
 30
0.0
  0
VERTEX
  8
DETAIL
  6
CONTINUOUS
 62
     5
 10
-282.40654538702915
 20
1574.620191043057
 30
0.0
  0
VERTEX
  8
DETAIL
  6
CONTINUOUS
 62
     5
 10
-282.45349361006231
 20
1574.646226393091
 30
0.0
  0
VERTEX
  8
DETAIL
  6
CONTINUOUS
 62
     5
 10
-282.49481003293226
 20
1574.6794339178377
 30
0.0
  0
VERTEX
  8
DETAIL
  6
CONTINUOUS
 62
     5
 10
-282.52756733274867
 20
1574.720050464837
 30
0.0
  0
SEQEND
  8
DETAIL
  6
CONTINUOUS
 62
     5
  0
POLYLINE
  8
DETAIL
  6
CONTINUOUS
 62
     5
 66
     1
 10
0.0
 20
0.0
 30
0.0
  0
VERTEX
  8
DETAIL
  6
CONTINUOUS
 62
     5
 10
-180.08807632484971
 20
1580.2898566004351
 30
0.0
  0
VERTEX
  8
DETAIL
  6
CONTINUOUS
 62
     5
 10
-185.69444825273555
 20
1578.7113898624311
 30
0.0
  0
VERTEX
  8
DETAIL
  6
CONTINUOUS
 62
     5
 10
-191.30466556219949
 20
1577.1466330076173
 30
0.0
  0
VERTEX
  8
DETAIL
  6
CONTINUOUS
 62
     5
 10
-196.91988674162289
 20
1575.5998452432871
 30
0.0
  0
VERTEX
  8
DETAIL
  6
CONTINUOUS
 62
     5
 10
-202.54127027938594
 20
1574.0752857767436
 30
0.0
  0
VERTEX
  8
DETAIL
  6
CONTINUOUS
 62
     5
 10
-208.16995345319808
 20
1572.5773842066021
 30
0.0
  0
VERTEX
  8
DETAIL
  6
CONTINUOUS
 62
     5
 10
-213.80698965737375
 20
1571.1112439904955
 30
0.0
  0
VERTEX
  8
DETAIL
  6
CONTINUOUS
 62
     5
 10
-219.4534115524956
 20
1569.6821351459862
 30
0.0
  0
VERTEX
  8
DETAIL
  6
CONTINUOUS
 62
     5
 10
-225.1102517991458
 20
1568.2953276906351
 30
0.0
  0
SEQEND
  8
DETAIL
  6
CONTINUOUS
 62
     5
  0
POLYLINE
  8
DETAIL
  6
CONTINUOUS
 62
     5
 66
     1
 10
0.0
 20
0.0
 30
0.0
  0
VERTEX
  8
DETAIL
  6
CONTINUOUS
 62
     5
 10
-225.1102517991458
 20
1568.2953276906351
 30
0.0
  0
VERTEX
  8
DETAIL
  6
CONTINUOUS
 62
     5
 10
-225.22221358220156
 20
1568.2706964168644
 30
0.0
  0
VERTEX
  8
DETAIL
  6
CONTINUOUS
 62
     5
 10
-225.33516893580784
 20
1568.2508179478541
 30
0.0
  0
VERTEX
  8
DETAIL
  6
CONTINUOUS
 62
     5
 10
-225.44896244588091
 20
1568.2362070639908
 30
0.0
  0
VERTEX
  8
DETAIL
  6
CONTINUOUS
 62
     5
 10
-225.56341671357814
 20
1568.2274215363775
 30
0.0
  0
VERTEX
  8
DETAIL
  6
CONTINUOUS
 62
     5
 10
-225.67815804345054
 20
1568.2254029898172
 30
0.0
  0
VERTEX
  8
DETAIL
  6
CONTINUOUS
 62
     5
 10
-225.79270953183735
 20
1568.2312948705076
 30
0.0
  0
VERTEX
  8
DETAIL
  6
CONTINUOUS
 62
     5
 10
-225.90635964384182
 20
1568.2468926570969
 30
0.0
  0
VERTEX
  8
DETAIL
  6
CONTINUOUS
 62
     5
 10
-226.01706560049075
 20
1568.277695621395
 30
0.0
  0
VERTEX
  8
DETAIL
  6
CONTINUOUS
 62
     5
 10
-226.1212957330271
 20
1568.330484037848
 30
0.0
  0
VERTEX
  8
DETAIL
  6
CONTINUOUS
 62
     5
 10
-226.20211245424429
 20
1568.4116644802359
 30
0.0
  0
SEQEND
  8
DETAIL
  6
CONTINUOUS
 62
     5
  0
POLYLINE
  8
DETAIL
  6
CONTINUOUS
 62
     5
 66
     1
 10
0.0
 20
0.0
 30
0.0
  0
VERTEX
  8
DETAIL
  6
CONTINUOUS
 62
     5
 10
-221.98045090364761
 20
1574.8203060075371
 30
0.0
  0
VERTEX
  8
DETAIL
  6
CONTINUOUS
 62
     5
 10
-224.3714889607958
 20
1574.837073517612
 30
0.0
  0
VERTEX
  8
DETAIL
  6
CONTINUOUS
 62
     5
 10
-226.76253051495749
 20
1574.853340975269
 30
0.0
  0
VERTEX
  8
DETAIL
  6
CONTINUOUS
 62
     5
 10
-229.15357552196289
 20
1574.8691078521629
 30
0.0
  0
VERTEX
  8
DETAIL
  6
CONTINUOUS
 62
     5
 10
-231.54462388279472
 20
1574.8843688175023
 30
0.0
  0
VERTEX
  8
DETAIL
  6
CONTINUOUS
 62
     5
 10
-233.93567548341136
 20
1574.8991172249657
 30
0.0
  0
VERTEX
  8
DETAIL
  6
CONTINUOUS
 62
     5
 10
-236.3267302097708
 20
1574.9133464281972
 30
0.0
  0
VERTEX
  8
DETAIL
  6
CONTINUOUS
 62
     5
 10
-238.71778794783097
 20
1574.9270497808393
 30
0.0
  0
VERTEX
  8
DETAIL
  6
CONTINUOUS
 62
     5
 10
-241.10884858354979
 20
1574.940220636536
 30
0.0
  0
SEQEND
  8
DETAIL
  6
CONTINUOUS
 62
     5
  0
POLYLINE
  8
DETAIL
  6
CONTINUOUS
 62
     5
 66
     1
 10
0.0
 20
0.0
 30
0.0
  0
VERTEX
  8
DETAIL
  6
CONTINUOUS
 62
     5
 10
-149.5000000000509
 20
93.007179676935266
 30
0.0
  0
VERTEX
  8
DETAIL
  6
CONTINUOUS
 62
     5
 10
-149.80198706987181
 20
93.014722560742783
 30
0.0
  0
VERTEX
  8
DETAIL
  6
CONTINUOUS
 62
     5
 10
-150.10342876054727
 20
93.037747967401955
 30
0.0
  0
VERTEX
  8
DETAIL
  6
CONTINUOUS
 62
     5
 10
-150.40348148015195
 20
93.076851029767823
 30
0.0
  0
VERTEX
  8
DETAIL
  6
CONTINUOUS
 62
     5
 10
-150.70129965786268
 20
93.13262896666788
 30
0.0
  0
VERTEX
  8
DETAIL
  6
CONTINUOUS
 62
     5
 10
-150.99548410487279
 20
93.206262570215699
 30
0.0
  0
VERTEX
  8
DETAIL
  6
CONTINUOUS
 62
     5
 10
-151.2833270104889
 20
93.30031206165765
 30
0.0
  0
VERTEX
  8
DETAIL
  6
CONTINUOUS
 62
     5
 10
-151.56193152983218
 20
93.417536924735145
 30
0.0
  0
VERTEX
  8
DETAIL
  6
CONTINUOUS
 62
     5
 10
-151.82790740327289
 20
93.561036225936064
 30
0.0
  0
VERTEX
  8
DETAIL
  6
CONTINUOUS
 62
     5
 10
-152.07391899601492
 20
93.736577834736039
 30
0.0
  0
VERTEX
  8
DETAIL
  6
CONTINUOUS
 62
     5
 10
-152.28647341046641
 20
93.951400893932529
 30
0.0
  0
VERTEX
  8
DETAIL
  6
CONTINUOUS
 62
     5
 10
-152.44097312240652
 20
94.211066779138022
 30
0.0
  0
VERTEX
  8
DETAIL
  6
CONTINUOUS
 62
     5
 10
-152.5000000000509
 20
94.507179676935266
 30
0.0
  0
SEQEND
  8
DETAIL
  6
CONTINUOUS
 62
     5
  0
POLYLINE
  8
DETAIL
  6
CONTINUOUS
 62
     5
 66
     1
 10
0.0
 20
0.0
 30
0.0
  0
VERTEX
  8
DETAIL
  6
CONTINUOUS
 62
     5
 10
255.0057069250536
 20
695.39999999993779
 30
0.0
 42
0.1164496846417489
  0
VERTEX
  8
DETAIL
  6
CONTINUOUS
 62
     5
 10
254.90011803439859
 20
695.84721359545756
 30
0.0
 42
0.0806154534022203
  0
VERTEX
  8
DETAIL
  6
CONTINUOUS
 62
     5
 10
254.71276909043846
 20
696.10710678116072
 30
0.0
 42
0.0806076878196758
  0
VERTEX
  8
DETAIL
  6
CONTINUOUS
 62
     5
 10
254.45283631572607
 20
696.29442719097733
 30
0.0
 42
0.1164179597020441
  0
VERTEX
  8
DETAIL
  6
CONTINUOUS
 62
     5
 10
254.00555459705359
 20
696.39999999993745
 30
0.0
 42
0.1164179597020441
  0
VERTEX
  8
DETAIL
  6
CONTINUOUS
 62
     5
 10
254.00555459705359
 20
696.39999999993745
 30
0.0
 42
0.1164179597020441
  0
SEQEND
  8
DETAIL
  6
CONTINUOUS
 62
     5
  0
POLYLINE
  8
DETAIL
  6
CONTINUOUS
 62
     5
 66
     1
 10
0.0
 20
0.0
 30
0.0
  0
VERTEX
  8
DETAIL
  6
CONTINUOUS
 62
     5
 10
255.51625359936253
 20
684.86459016796414
 30
0.0
 42
0.0004727809973606
  0
VERTEX
  8
DETAIL
  6
CONTINUOUS
 62
     5
 10
255.51561228460972
 20
684.94721359545622
 30
0.0
 42
0.0021305956403807
  0
VERTEX
  8
DETAIL
  6
CONTINUOUS
 62
     5
 10
255.51234259469928
 20
685.20710678115938
 30
0.0
 42
0.0040634238667855
  0
VERTEX
  8
DETAIL
  6
CONTINUOUS
 62
     5
 10
255.50780614227577
 20
685.39442719097622
 30
0.0
 42
0.0319522183045663
  0
VERTEX
  8
DETAIL
  6
CONTINUOUS
 62
     5
 10
255.49999999994179
 20
685.49999999993634
 30
0.0
 42
0.0319522183045663
  0
SEQEND
  8
DETAIL
  6
CONTINUOUS
 62
     5
  0
POLYLINE
  8
DETAIL
  6
CONTINUOUS
 62
     5
 66
     1
 10
0.0
 20
0.0
 30
0.0
  0
VERTEX
  8
DETAIL
  6
CONTINUOUS
 62
     5
 10
245.57306630129224
 20
700.99047201865096
 30
0.0
 42
0.0006998834620113
  0
VERTEX
  8
DETAIL
  6
CONTINUOUS
 62
     5
 10
245.5750586818441
 20
701.12718661480437
 30
0.0
 42
0.0010650171952672
  0
VERTEX
  8
DETAIL
  6
CONTINUOUS
 62
     5
 10
245.57651005588318
 20
701.25714747050711
 30
0.0
 42
0.002031799428847
  0
VERTEX
  8
DETAIL
  6
CONTINUOUS
 62
     5
 10
245.5770114062893
 20
701.35082746506919
 30
0.0
 42
0.0160157027697302
  0
VERTEX
  8
DETAIL
  6
CONTINUOUS
 62
     5
 10
245.5760191900379
 20
701.40362889136657
 30
0.0
 42
0.1960789273539949
  0
SEQEND
  8
DETAIL
  6
CONTINUOUS
 62
     5
  0
POLYLINE
  8
DETAIL
  6
CONTINUOUS
 62
     5
 66
     1
 10
0.0
 20
0.0
 30
0.0
  0
VERTEX
  8
DETAIL
  6
CONTINUOUS
 62
     5
 10
255.0057069250569
 20
686.49999999993634
 30
0.0
 42
0.0021439871142308
  0
VERTEX
  8
DETAIL
  6
CONTINUOUS
 62
     5
 10
255.00754970528897
 20
686.05278640441645
 30
0.0
 42
0.0021305956403807
  0
VERTEX
  8
DETAIL
  6
CONTINUOUS
 62
     5
 10
255.01081939519941
 20
685.79289321871329
 30
0.0
 42
0.0040634238667855
  0
VERTEX
  8
DETAIL
  6
CONTINUOUS
 62
     5
 10
255.01535584762291
 20
685.60557280889645
 30
0.0
 42
0.0319522183045663
  0
VERTEX
  8
DETAIL
  6
CONTINUOUS
 62
     5
 10
255.02316198995689
 20
685.49999999993634
 30
0.0
 42
0.0319522183045663
  0
VERTEX
  8
DETAIL
  6
CONTINUOUS
 62
     5
 10
255.02316198995689
 20
685.49999999993634
 30
0.0
 42
0.0319522183045663
  0
SEQEND
  8
DETAIL
  6
CONTINUOUS
 62
     5
  0
LINE
  8
DETAIL
  6
CONTINUOUS
 62
     5
 10
365.49999999994179
 20
94.999999999936335
 30
0.0
 11
363.95064030264621
 21
94.999999999936335
 31
0.0
  0
LINE
  8
DETAIL
  6
CONTINUOUS
 62
     5
 10
364.49999999994179
 20
121.99999999993631
 30
0.0
 11
364.49999999994179
 21
99.999999999936335
 31
0.0
  0
ARC
  8
DETAIL
  6
CONTINUOUS
 62
     5
 10
359.49999999994179
 20
99.999999999936335
 30
0.0
 40
5.0
 50
270.0
 51
0.0
  0
LINE
  8
DETAIL
  6
CONTINUOUS
 62
     5
 10
319.1603361521266
 20
121.99999999993631
 30
0.0
 11
364.49999999994179
 21
121.99999999993631
 31
0.0
  0
LINE
  8
DETAIL
  6
CONTINUOUS
 62
     5
 10
355.49999999994179
 20
92.699999999937049
 30
0.0
 11
318.99999999994179
 21
92.699999999937049
 31
0.0
  0
LINE
  8
DETAIL
  6
CONTINUOUS
 62
     5
 10
359.49999999994179
 20
94.999999999936335
 30
0.0
 11
311.05805119077559
 21
94.999999999936335
 31
0.0
  0
LINE
  8
DETAIL
  6
CONTINUOUS
 62
     5
 10
355.49999999994179
 20
94.999999999936335
 30
0.0
 11
355.49999999994179
 21
92.699999999937049
 31
0.0
  0
LINE
  8
DETAIL
  6
CONTINUOUS
 62
     5
 10
332.99999999994179
 20
92.699999999937049
 30
0.0
 11
332.99999999994179
 21
90.699999999937063
 31
0.0
  0
LINE
  8
DETAIL
  6
CONTINUOUS
 62
     5
 10
337.99999999994179
 20
92.699999999937049
 30
0.0
 11
337.99999999994179
 21
90.699999999937063
 31
0.0
  0
ARC
  8
DETAIL
  6
CONTINUOUS
 62
     5
 10
318.99999999994179
 20
91.499999999936335
 30
0.0
 40
1.1999999999999991
 50
90.0
 51
180.0
  0
LINE
  8
DETAIL
  6
CONTINUOUS
 62
     5
 10
312.7999999999592
 20
89.999999999936335
 30
0.0
 11
317.79999999995931
 21
89.999999999936335
 31
0.0
  0
LINE
  8
DETAIL
  6
CONTINUOUS
 62
     5
 10
312.7999999999592
 20
89.999999999936335
 30
0.0
 11
312.7999999999592
 21
94.999999999936335
 31
0.0
  0
ARC
  8
DETAIL
  6
CONTINUOUS
 62
     5
 10
318.99999999994179
 20
91.499999999936335
 30
0.0
 40
3.5
 50
90.0
 51
180.0
  0
LINE
  8
DETAIL
  6
CONTINUOUS
 62
     5
 10
315.49999999994179
 20
91.499999999936335
 30
0.0
 11
315.49999999994179
 21
89.999999999936335
 31
0.0
  0
POLYLINE
  8
DETAIL
  6
CONTINUOUS
 62
     5
 66
     1
 10
0.0
 20
0.0
 30
0.0
  0
VERTEX
  8
DETAIL
  6
CONTINUOUS
 62
     5
 10
365.49999999994179
 20
139.89414143385329
 30
0.0
  0
VERTEX
  8
DETAIL
  6
CONTINUOUS
 62
     5
 10
359.38200465734911
 20
141.05023494328631
 30
0.0
  0
VERTEX
  8
DETAIL
  6
CONTINUOUS
 62
     5
 10
353.37126303249318
 20
142.03544025551341
 30
0.0
  0
VERTEX
  8
DETAIL
  6
CONTINUOUS
 62
     5
 10
347.57502884311054
 20
142.67886917332848
 30
0.0
  0
VERTEX
  8
DETAIL
  6
CONTINUOUS
 62
     5
 10
344.79086882351436
 20
142.81901492270467
 30
0.0
  0
VERTEX
  8
DETAIL
  6
CONTINUOUS
 62
     5
 10
342.10055580693779
 20
142.80963349952566
 30
0.0
  0
VERTEX
  8
DETAIL
  6
CONTINUOUS
 62
     5
 10
339.51749650809779
 20
142.62936387914061
 30
0.0
  0
VERTEX
  8
DETAIL
  6
CONTINUOUS
 62
     5
 10
337.05509764171148
 20
142.25684503689891
 30
0.0
  0
VERTEX
  8
DETAIL
  6
CONTINUOUS
 62
     5
 10
334.72676592249621
 20
141.67071594814971
 30
0.0
  0
VERTEX
  8
DETAIL
  6
CONTINUOUS
 62
     5
 10
332.54590806516865
 20
140.84961558824227
 30
0.0
  0
VERTEX
  8
DETAIL
  6
CONTINUOUS
 62
     5
 10
330.52593078444607
 20
139.77218293252591
 30
0.0
  0
VERTEX
  8
DETAIL
  6
CONTINUOUS
 62
     5
 10
328.68024079504556
 20
138.4170569563498
 30
0.0
  0
VERTEX
  8
DETAIL
  6
CONTINUOUS
 62
     5
 10
327.0205821229722
 20
136.76548274074662
 30
0.0
  0
VERTEX
  8
DETAIL
  6
CONTINUOUS
 62
     5
 10
325.53369238005899
 20
134.83790053156187
 30
0.0
  0
VERTEX
  8
DETAIL
  6
CONTINUOUS
 62
     5
 10
324.18699368756245
 20
132.68502576049298
 30
0.0
  0
VERTEX
  8
DETAIL
  6
CONTINUOUS
 62
     5
 10
322.94740750690477
 20
130.35835859569022
 30
0.0
  0
VERTEX
  8
DETAIL
  6
CONTINUOUS
 62
     5
 10
320.6572585267927
 20
125.38964775748337
 30
0.0
  0
VERTEX
  8
DETAIL
  6
CONTINUOUS
 62
     5
 10
316.10681690193917
 20
115.43569526730381
 30
0.0
  0
VERTEX
  8
DETAIL
  6
CONTINUOUS
 62
     5
 10
313.99083848449885
 20
110.61076324979517
 30
0.0
  0
VERTEX
  8
DETAIL
  6
CONTINUOUS
 62
     5
 10
313.07604543806076
 20
108.20061238429132
 30
0.0
  0
VERTEX
  8
DETAIL
  6
CONTINUOUS
 62
     5
 10
312.29730595375861
 20
105.77721969039669
 30
0.0
  0
VERTEX
  8
DETAIL
  6
CONTINUOUS
 62
     5
 10
311.68506212205341
 20
103.32949622519304
 30
0.0
  0
VERTEX
  8
DETAIL
  6
CONTINUOUS
 62
     5
 10
311.26972448367593
 20
100.84636110137775
 30
0.0
  0
VERTEX
  8
DETAIL
  6
CONTINUOUS
 62
     5
 10
311.0646170718444
 20
98.321096142119941
 30
0.0
  0
VERTEX
  8
DETAIL
  6
CONTINUOUS
 62
     5
 10
311.03778674114307
 20
95.758543825754955
 30
0.0
  0
VERTEX
  8
DETAIL
  6
CONTINUOUS
 62
     5
 10
311.36148555756921
 20
90.548519936182387
 30
0.0
  0
VERTEX
  8
DETAIL
  6
CONTINUOUS
 62
     5
 10
311.92587740183086
 20
85.270175061617948
 30
0.0
  0
VERTEX
  8
DETAIL
  6
CONTINUOUS
 62
     5
 10
312.41601874280457
 20
79.977394831019495
 30
0.0
  0
VERTEX
  8
DETAIL
  6
CONTINUOUS
 62
     5
 10
312.53482562108229
 20
77.342430716256828
 30
0.0
  0
VERTEX
  8
DETAIL
  6
CONTINUOUS
 62
     5
 10
312.51696604936677
 20
74.724064873344872
 30
0.0
  0
VERTEX
  8
DETAIL
  6
CONTINUOUS
 62
     5
 10
312.32307208626742
 20
72.129033005903352
 30
0.0
  0
VERTEX
  8
DETAIL
  6
CONTINUOUS
 62
     5
 10
311.91617201269304
 20
69.563709581746593
 30
0.0
  0
VERTEX
  8
DETAIL
  6
CONTINUOUS
 62
     5
 10
310.63178662980505
 20
64.499999999936364
 30
0.0
  0
SEQEND
  8
DETAIL
  6
CONTINUOUS
 62
     5
  0
LINE
  8
DETAIL
  6
CONTINUOUS
 62
     5
 10
325.16873133314948
 20
67.799999999935594
 30
0.0
 11
363.9506403025589
 21
94.999999999936335
 31
0.0
  0
LINE
  8
DETAIL
  6
CONTINUOUS
 62
     5
 10
337.49812993174419
 20
90.199999999937049
 30
0.0
 11
333.50187006815401
 21
90.199999999937049
 31
0.0
  0
LINE
  8
DETAIL
  6
CONTINUOUS
 62
     5
 10
337.99999999994179
 20
90.699999999937063
 30
0.0
 11
332.99999999994179
 21
90.699999999937063
 31
0.0
  0
LINE
  8
DETAIL
  6
CONTINUOUS
 62
     5
 10
332.99999999994179
 20
90.699999999937063
 30
0.0
 11
333.49999999994179
 21
90.199999999937049
 31
0.0
  0
LINE
  8
DETAIL
  6
CONTINUOUS
 62
     5
 10
317.79999999995931
 20
91.499999999936335
 30
0.0
 11
317.79999999995931
 21
63.499999999936342
 31
0.0
  0
LINE
  8
DETAIL
  6
CONTINUOUS
 62
     5
 10
337.99999999994179
 20
90.699999999937063
 30
0.0
 11
337.49999999994179
 21
90.199999999937049
 31
0.0
  0
LINE
  8
DETAIL
  6
CONTINUOUS
 62
     5
 10
300.79999999995931
 20
64.499999999936335
 30
0.0
 11
317.79999999995931
 21
64.499999999936335
 31
0.0
  0
LINE
  8
NOTE
  6
CONTINUOUS
 62
     4
 10
249.56083839465279
 20
1998.394382026368
 30
0.0
 11
199.56083839465279
 21
1948.498336671671
 31
0.0
  0
LINE
  8
NOTE
  6
CONTINUOUS
 62
     4
 10
299.56083839465282
 20
1948.498336671671
 30
0.0
 11
249.56083839465279
 21
1998.394382026368
 31
0.0
  0
LINE
  8
NOTE
  6
CONTINUOUS
 62
     4
 10
299.56083839465282
 20
1948.498336671671
 30
0.0
 11
274.56083839465282
 21
1948.498336671671
 31
0.0
  0
LINE
  8
NOTE
  6
CONTINUOUS
 62
     4
 10
224.56083839465279
 20
1948.498336671671
 30
0.0
 11
199.56083839465279
 21
1948.498336671671
 31
0.0
  0
LINE
  8
NOTE
  6
CONTINUOUS
 62
     4
 10
224.56083839465279
 20
1948.498336671671
 30
0.0
 11
224.56083839465279
 21
1907.812249250173
 31
0.0
  0
LINE
  8
NOTE
  6
CONTINUOUS
 62
     4
 10
274.56083839465282
 20
1948.498336671671
 30
0.0
 11
274.56083839465282
 21
1907.812249250173
 31
0.0
  0
LINE
  8
NOTE
  6
CONTINUOUS
 62
     4
 10
224.56083839465279
 20
1907.812249250173
 30
0.0
 11
274.56083839465282
 21
1907.812249250173
 31
0.0
  0
LINE
  8
NOTE
  6
CONTINUOUS
 62
     4
 10
-232.0909506933094
 20
1907.812249250173
 30
0.0
 11
-282.09095069330942
 21
1907.812249250173
 31
0.0
  0
LINE
  8
NOTE
  6
CONTINUOUS
 62
     4
 10
-282.09095069330942
 20
1948.498336671671
 30
0.0
 11
-282.09095069330942
 21
1907.812249250173
 31
0.0
  0
LINE
  8
NOTE
  6
CONTINUOUS
 62
     4
 10
-232.0909506933094
 20
1948.498336671671
 30
0.0
 11
-232.0909506933094
 21
1907.812249250173
 31
0.0
  0
LINE
  8
NOTE
  6
CONTINUOUS
 62
     4
 10
-232.0909506933094
 20
1948.498336671671
 30
0.0
 11
-207.0909506933094
 21
1948.498336671671
 31
0.0
  0
LINE
  8
NOTE
  6
CONTINUOUS
 62
     4
 10
-307.09095069330942
 20
1948.498336671671
 30
0.0
 11
-282.09095069330942
 21
1948.498336671671
 31
0.0
  0
LINE
  8
NOTE
  6
CONTINUOUS
 62
     4
 10
-307.09095069330942
 20
1948.498336671671
 30
0.0
 11
-257.09095069330942
 21
1998.394382026368
 31
0.0
  0
LINE
  8
NOTE
  6
CONTINUOUS
 62
     4
 10
-257.09095069330942
 20
1998.394382026368
 30
0.0
 11
-207.0909506933094
 21
1948.498336671671
 31
0.0
  0
LINE
  8
SIZE
  6
CONTINUOUS
 62
    30
 10
-369.50000000005087
 20
-151.85749528979611
 30
0.0
 11
-369.50000000005087
 21
-311.44349863027128
 31
0.0
  0
LINE
  8
SIZE
  6
CONTINUOUS
 62
    30
 10
-309.50000000005099
 20
-15.803839137237439
 30
0.0
 11
-309.50000000005099
 21
-311.44349863027128
 31
0.0
  0
LINE
  8
SIZE
  6
CONTINUOUS
 62
    30
 10
-309.50000000005099
 20
-291.44349863027128
 30
0.0
 11
-369.50000000005087
 21
-291.44349863027128
 31
0.0
  0
LINE
  8
SIZE
  6
CONTINUOUS
 62
    30
 10
-369.50000000005087
 20
-291.44349863027128
 30
0.0
 11
-523.50000000005286
 21
-291.44349863027128
 31
0.0
  0
CIRCLE
  8
SIZE
  6
CONTINUOUS
 62
    30
 10
-309.50000000005099
 20
-291.44349863027128
 30
0.0
 40
7.5
  0
CIRCLE
  8
SIZE
  6
CONTINUOUS
 62
    30
 10
-369.50000000005087
 20
-291.44349863027128
 30
0.0
 40
7.5
  0
TEXT
  8
SIZE
  6
CONTINUOUS
 62
    30
 10
-508.19714285719579
 20
-271.44349863027128
 30
0.0
 40
40.0
  1
60
 50
0.0
 41
0.9
 51
0.0
  7
STANDARD
 71
     0
 72
     1
 11
-474.35714285719581
 21
-271.44349863027128
 31
0.0
210
0.0
220
0.0
230
1.0
  0
POINT
  8
DEFPOINTS
  6
CONTINUOUS
 62
    30
 10
-369.50000000005087
 20
-131.85749528979611
 30
0.0
  0
POINT
  8
DEFPOINTS
  6
CONTINUOUS
 62
    30
 10
-309.50000000005099
 20
4.1961608627625528
 30
0.0
  0
POINT
  8
DEFPOINTS
  6
CONTINUOUS
 62
    30
 10
-309.50000000005099
 20
-291.44349863027128
 30
0.0
  0
LINE
  8
SIZE
  6
CONTINUOUS
 62
    30
 10
369.49999999994179
 20
-151.85749528979611
 30
0.0
 11
369.49999999994179
 21
-311.44349863027128
 31
0.0
  0
LINE
  8
SIZE
  6
CONTINUOUS
 62
    30
 10
309.49999999994179
 20
-16.500000000063661
 30
0.0
 11
309.49999999994179
 21
-311.44349863027128
 31
0.0
  0
LINE
  8
SIZE
  6
CONTINUOUS
 62
    30
 10
309.49999999994179
 20
-291.44349863027128
 30
0.0
 11
369.49999999994179
 21
-291.44349863027128
 31
0.0
  0
LINE
  8
SIZE
  6
CONTINUOUS
 62
    30
 10
369.49999999994179
 20
-291.44349863027128
 30
0.0
 11
523.49999999994384
 21
-291.44349863027128
 31
0.0
  0
CIRCLE
  8
SIZE
  6
CONTINUOUS
 62
    30
 10
309.49999999994179
 20
-291.44349863027128
 30
0.0
 40
7.5
  0
CIRCLE
  8
SIZE
  6
CONTINUOUS
 62
    30
 10
369.49999999994179
 20
-291.44349863027128
 30
0.0
 40
7.5
  0
TEXT
  8
SIZE
  6
CONTINUOUS
 62
    30
 10
440.51714285708664
 20
-271.44349863027128
 30
0.0
 40
40.0
  1
60
 50
0.0
 41
0.9
 51
0.0
  7
STANDARD
 71
     0
 72
     1
 11
474.35714285708661
 21
-271.44349863027128
 31
0.0
210
0.0
220
0.0
230
1.0
  0
POINT
  8
DEFPOINTS
  6
CONTINUOUS
 62
    30
 10
369.49999999994179
 20
-131.85749528979611
 30
0.0
  0
POINT
  8
DEFPOINTS
  6
CONTINUOUS
 62
    30
 10
309.49999999994179
 20
3.4999999999363349
 30
0.0
  0
POINT
  8
DEFPOINTS
  6
CONTINUOUS
 62
    30
 10
309.49999999994179
 20
-291.44349863027128
 30
0.0
  0
LINE
  8
SIZE
  6
CONTINUOUS
 62
    30
 10
-315.50000000005087
 20
44.499999999936328
 30
0.0
 11
-315.50000000005087
 21
-395.37493912572791
 31
0.0
  0
LINE
  8
SIZE
  6
CONTINUOUS
 62
    30
 10
-369.50000000005087
 20
-151.85749528979611
 30
0.0
 11
-369.50000000005087
 21
-395.37493912572791
 31
0.0
  0
LINE
  8
SIZE
  6
CONTINUOUS
 62
    30
 10
-315.50000000005087
 20
-375.37493912572791
 30
0.0
 11
-369.50000000005087
 21
-375.37493912572791
 31
0.0
  0
LINE
  8
SIZE
  6
CONTINUOUS
 62
    30
 10
-369.50000000005087
 20
-375.37493912572791
 30
0.0
 11
-524.35714285719575
 21
-375.37493912572791
 31
0.0
  0
CIRCLE
  8
SIZE
  6
CONTINUOUS
 62
    30
 10
-315.50000000005087
 20
-375.37493912572791
 30
0.0
 40
7.5
  0
CIRCLE
  8
SIZE
  6
CONTINUOUS
 62
    30
 10
-369.50000000005087
 20
-375.37493912572791
 30
0.0
 40
7.5
  0
TEXT
  8
SIZE
  6
CONTINUOUS
 62
    30
 10
-508.19714285719579
 20
-355.37493912572791
 30
0.0
 40
40.0
  1
54
 50
0.0
 41
0.9
 51
0.0
  7
STANDARD
 71
     0
 72
     1
 11
-474.35714285719581
 21
-355.37493912572791
 31
0.0
210
0.0
220
0.0
230
1.0
  0
POINT
  8
DEFPOINTS
  6
CONTINUOUS
 62
    30
 10
-315.50000000005087
 20
64.499999999936335
 30
0.0
  0
POINT
  8
DEFPOINTS
  6
CONTINUOUS
 62
    30
 10
-369.50000000005087
 20
-131.85749528979611
 30
0.0
  0
POINT
  8
DEFPOINTS
  6
CONTINUOUS
 62
    30
 10
-369.50000000005087
 20
-375.37493912572791
 30
0.0
  0
LINE
  8
SIZE
  6
CONTINUOUS
 62
    30
 10
-295.80000000004651
 20
49.499999999936328
 30
0.0
 11
-295.80000000004651
 21
-119.86129591672029
 31
0.0
  0
LINE
  8
SIZE
  6
CONTINUOUS
 62
    30
 10
295.79999999995931
 20
49.499999999936328
 30
0.0
 11
295.79999999995931
 21
-119.86129591672029
 31
0.0
  0
LINE
  8
SIZE
  6
CONTINUOUS
 62
    30
 10
-295.80000000004651
 20
-99.861295916720337
 30
0.0
 11
295.79999999995931
 21
-99.861295916720337
 31
0.0
  0
CIRCLE
  8
SIZE
  6
CONTINUOUS
 62
    30
 10
-295.80000000004651
 20
-99.861295916720337
 30
0.0
 40
7.5
  0
CIRCLE
  8
SIZE
  6
CONTINUOUS
 62
    30
 10
295.79999999995931
 20
-99.861295916720337
 30
0.0
 40
7.5
  0
TEXT
  8
SIZE
  6
CONTINUOUS
 62
    30
 10
-36.442914620826485
 20
-79.861295916720337
 30
0.0
 40
40.0
  1
592
 50
0.0
 41
0.9
 51
0.0
  7
STANDARD
 71
     0
 72
     1
 11
13.777085379173514
 21
-79.861295916720337
 31
0.0
210
0.0
220
0.0
230
1.0
  0
POINT
  8
DEFPOINTS
  6
CONTINUOUS
 62
    30
 10
-295.80000000004651
 20
69.499999999936335
 30
0.0
  0
POINT
  8
DEFPOINTS
  6
CONTINUOUS
 62
    30
 10
295.79999999995931
 20
69.499999999936335
 30
0.0
  0
POINT
  8
DEFPOINTS
  6
CONTINUOUS
 62
    30
 10
295.79999999995931
 20
-99.861295916720337
 30
0.0
  0
LINE
  8
SIZE
  6
CONTINUOUS
 62
    30
 10
389.49999999994179
 20
59.999999999936328
 30
0.0
 11
665.16686920530617
 21
59.99999999993625
 31
0.0
  0
LINE
  8
SIZE
  6
CONTINUOUS
 62
    30
 10
385.49999999994179
 20
94.999999999936335
 30
0.0
 11
665.16686920530617
 21
94.999999999936264
 31
0.0
  0
LINE
  8
SIZE
  6
CONTINUOUS
 62
    30
 10
645.16686920530617
 20
94.999999999936264
 30
0.0
 11
645.16686920530617
 21
124.99999999993619
 31
0.0
  0
LINE
  8
SIZE
  6
CONTINUOUS
 62
    30
 10
645.16686920530617
 20
59.999999999936257
 30
0.0
 11
645.16686920530617
 21
-124.00000000005311
 31
0.0
  0
LINE
  8
SIZE
  6
CONTINUOUS
 62
    30
 10
645.16686920530617
 20
94.999999999936264
 30
0.0
 11
645.16686920530617
 21
59.999999999936257
 31
0.0
  0
CIRCLE
  8
SIZE
  6
CONTINUOUS
 62
    30
 10
645.16686920530617
 20
94.999999999936264
 30
0.0
 40
7.5
  0
CIRCLE
  8
SIZE
  6
CONTINUOUS
 62
    30
 10
645.16686920530617
 20
59.999999999936257
 30
0.0
 40
7.5
  0
TEXT
  8
SIZE
  6
CONTINUOUS
 62
    30
 10
625.16686920530628
 20
-108.33714285719589
 30
0.0
 40
40.0
  1
35
 50
90.0
 41
0.9
 51
0.0
  7
STANDARD
 71
     0
 72
     1
 11
625.16686920530628
 21
-74.857142857195868
 31
0.0
210
0.0
220
0.0
230
1.0
  0
POINT
  8
DEFPOINTS
  6
CONTINUOUS
 62
    30
 10
369.49999999994179
 20
59.999999999936328
 30
0.0
  0
POINT
  8
DEFPOINTS
  6
CONTINUOUS
 62
    30
 10
365.49999999994179
 20
94.999999999936335
 30
0.0
  0
POINT
  8
DEFPOINTS
  6
CONTINUOUS
 62
    30
 10
645.16686920530617
 20
94.999999999936264
 30
0.0
  0
LINE
  8
SIZE
  6
CONTINUOUS
 62
    30
 10
315.49999999994179
 20
43.999999999936328
 30
0.0
 11
315.49999999994179
 21
-395.29102053784482
 31
0.0
  0
LINE
  8
SIZE
  6
CONTINUOUS
 62
    30
 10
369.49999999994179
 20
-20.000000000063661
 30
0.0
 11
369.49999999994179
 21
-395.29102053784482
 31
0.0
  0
LINE
  8
SIZE
  6
CONTINUOUS
 62
    30
 10
315.49999999994179
 20
-375.29102053784482
 30
0.0
 11
369.49999999994179
 21
-375.29102053784482
 31
0.0
  0
LINE
  8
SIZE
  6
CONTINUOUS
 62
    30
 10
369.49999999994179
 20
-375.29102053784482
 30
0.0
 11
524.35714285710117
 21
-375.29102053784482
 31
0.0
  0
CIRCLE
  8
SIZE
  6
CONTINUOUS
 62
    30
 10
315.49999999994179
 20
-375.29102053784482
 30
0.0
 40
7.5
  0
CIRCLE
  8
SIZE
  6
CONTINUOUS
 62
    30
 10
369.49999999994179
 20
-375.29102053784482
 30
0.0
 40
7.5
  0
TEXT
  8
SIZE
  6
CONTINUOUS
 62
    30
 10
440.51714285710125
 20
-355.29102053784482
 30
0.0
 40
40.0
  1
54
 50
0.0
 41
0.9
 51
0.0
  7
STANDARD
 71
     0
 72
     1
 11
474.35714285710122
 21
-355.29102053784482
 31
0.0
210
0.0
220
0.0
230
1.0
  0
POINT
  8
DEFPOINTS
  6
CONTINUOUS
 62
    30
 10
315.49999999994179
 20
63.999999999936328
 30
0.0
  0
POINT
  8
DEFPOINTS
  6
CONTINUOUS
 62
    30
 10
369.49999999994179
 20
-0.0000000000636646
 30
0.0
  0
POINT
  8
DEFPOINTS
  6
CONTINUOUS
 62
    30
 10
369.49999999994179
 20
-375.29102053784482
 30
0.0
  0
LINE
  8
DETAIL
  6
CONTINUOUS
 62
     5
 10
319.35355339053791
 20
1522.4999999999361
 30
0.0
 11
319.35355339053791
 21
122.43071874572161
 31
0.0
  0
LINE
  8
DETAIL
  6
CONTINUOUS
 62
     5
 10
318.29289321874973
 20
1522.4999999999361
 30
0.0
 11
318.29289321874973
 21
120.1060364327095
 31
0.0
  0
LINE
  8
DETAIL
  6
CONTINUOUS
 62
     5
 10
-318.29289321885148
 20
1522.4999999999361
 30
0.0
 11
-318.29289321885148
 21
64.499999999936335
 31
0.0
  0
LINE
  8
DETAIL
  6
CONTINUOUS
 62
     5
 10
-319.35355339065433
 20
1522.4999999999361
 30
0.0
 11
-319.35355339065433
 21
64.499999999936335
 31
0.0
  0
LINE
  8
OUTLINE
  6
CONTINUOUS
 62
     3
 10
-369.50000000005087
 20
2.2999999999356069
 30
0.0
 11
-317.00000000005087
 21
2.2999999999356069
 31
0.0
  0
LINE
  8
OUTLINE
  6
CONTINUOUS
 62
     3
 10
316.99999999994179
 20
2.2999999999356069
 30
0.0
 11
369.49999999994179
 21
2.2999999999356069
 31
0.0
  0
LINE
  8
OUTLINE
  6
CONTINUOUS
 62
     3
 10
369.49999999994179
 20
2.2999999999356069
 30
0.0
 11
369.49999999994179
 21
-0.0000000000636646
 31
0.0
  0
LINE
  8
OUTLINE
  6
CONTINUOUS
 62
     3
 10
369.49999999994179
 20
57.699999999937063
 30
0.0
 11
369.49999999994179
 21
62.299999999935608
 31
0.0
  0
LINE
  8
OUTLINE
  6
CONTINUOUS
 62
     3
 10
367.49999999994179
 20
57.699999999937063
 30
0.0
 11
367.49999999994179
 21
2.2999999999356069
 31
0.0
  0
LINE
  8
OUTLINE
  6
CONTINUOUS
 62
     3
 10
370.28091039814171
 20
1522.4999999999361
 30
0.0
 11
369.99760774915922
 21
1553.963268127836
 31
0.0
  0
LINE
  8
OUTLINE
  6
CONTINUOUS
 62
     3
 10
365.0265621793514
 20
1641.074277792535
 30
0.0
 11
367.38842298794771
 21
1559.254987546037
 31
0.0
  0
LINE
  8
OUTLINE
  6
CONTINUOUS
 62
     3
 10
365.02656205935642
 20
1641.074280214636
 30
0.0
 11
360.0285533524584
 21
1755.5474998459381
 31
0.0
  0
LINE
  8
OUTLINE
  6
CONTINUOUS
 62
     3
 10
-369.50000000005087
 20
57.699999999937063
 30
0.0
 11
-317.00000000005087
 21
57.699999999937063
 31
0.0
  0
LINE
  8
OUTLINE
  6
CONTINUOUS
 62
     3
 10
316.99999999994179
 20
57.699999999937063
 30
0.0
 11
369.49999999994179
 21
57.699999999937063
 31
0.0
  0
LINE
  8
DETAIL
  6
CONTINUOUS
 62
     5
 10
-319.00000000005087
 20
59.999999999936328
 30
0.0
 11
-311.8000000000539
 21
59.999999999934523
 31
0.0
  0
LINE
  8
OUTLINE
  6
CONTINUOUS
 62
     3
 10
369.49999999994179
 20
62.299999999935608
 30
0.0
 11
318.99999999994179
 21
62.299999999935608
 31
0.0
  0
LINE
  8
OUTLINE
  6
CONTINUOUS
 62
     3
 10
-319.00000000005087
 20
62.299999999935608
 30
0.0
 11
-369.50000000005087
 21
62.299999999935608
 31
0.0
  0
LINE
  8
OUTLINE
  6
CONTINUOUS
 62
     3
 10
-320.46357325974532
 20
64.499999999936335
 30
0.0
 11
-300.80000000004662
 21
64.499999999936335
 31
0.0
  0
LINE
  8
OUTLINE
  6
CONTINUOUS
 62
     3
 10
-295.80000000004651
 20
87.999999999936335
 30
0.0
 11
295.79999999995931
 21
87.999999999936335
 31
0.0
  0
LINE
  8
OUTLINE
  6
CONTINUOUS
 62
     3
 10
-365.50000000005087
 20
94.999999999936335
 30
0.0
 11
-363.95064030274813
 21
94.999999999936335
 31
0.0
  0
LINE
  8
OUTLINE
  6
CONTINUOUS
 62
     3
 10
365.49999999994179
 20
94.999999999936335
 30
0.0
 11
365.49999999994179
 21
1522.4999999999361
 31
0.0
  0
LINE
  8
OUTLINE
  6
CONTINUOUS
 62
     3
 10
362.99999999994179
 20
1834.5999999999369
 30
0.0
 11
362.99999999994179
 21
1817.0999999999369
 31
0.0
  0
LINE
  8
OUTLINE
  6
CONTINUOUS
 62
     3
 10
362.99999999994179
 20
1813.7999999999349
 30
0.0
 11
362.99999999994179
 21
1815.6999999999371
 31
0.0
  0
LINE
  8
OUTLINE
  6
CONTINUOUS
 62
     3
 10
359.99999999994179
 20
1817.0999999999369
 30
0.0
 11
359.99999999994179
 21
1816.9999999999361
 31
0.0
  0
LINE
  8
OUTLINE
  6
CONTINUOUS
 62
     3
 10
359.99999999994179
 20
1811.4999999999361
 30
0.0
 11
359.99999999994179
 21
1756.237603585037
 31
0.0
  0
LINE
  8
OUTLINE
  6
CONTINUOUS
 62
     3
 10
357.99999999994179
 20
1838.5999999999369
 30
0.0
 11
357.99999999994179
 21
1857.5999999999369
 31
0.0
  0
LINE
  8
OUTLINE
  6
CONTINUOUS
 62
     3
 10
317.79999999995931
 20
63.499999999936342
 30
0.0
 11
317.79999999995931
 21
64.499999999936335
 31
0.0
  0
LINE
  8
OUTLINE
  6
CONTINUOUS
 62
     3
 10
315.79999999995931
 20
3.4999999999363349
 30
0.0
 11
315.79999999995931
 21
56.499999999936328
 31
0.0
  0
LINE
  8
OUTLINE
  6
CONTINUOUS
 62
     3
 10
315.49999999994179
 20
63.499999999936342
 30
0.0
 11
315.49999999994179
 21
64.499999999936335
 31
0.0
  0
LINE
  8
DETAIL
  6
CONTINUOUS
 62
     5
 10
313.49999999994179
 20
3.4999999999363349
 30
0.0
 11
313.49999999994179
 21
56.499999999936328
 31
0.0
  0
LINE
  8
OUTLINE
  6
CONTINUOUS
 62
     3
 10
295.79999999995931
 20
69.499999999936335
 30
0.0
 11
295.79999999995931
 21
87.999999999936335
 31
0.0
  0
LINE
  8
OUTLINE
  6
CONTINUOUS
 62
     3
 10
-295.80000000004651
 20
87.999999999936335
 30
0.0
 11
-295.80000000004651
 21
69.499999999936335
 31
0.0
  0
LINE
  8
DETAIL
  6
CONTINUOUS
 62
     5
 10
-313.50000000005099
 20
56.499999999936328
 30
0.0
 11
-313.50000000005099
 21
3.4999999999363349
 31
0.0
  0
LINE
  8
OUTLINE
  6
CONTINUOUS
 62
     3
 10
-315.50000000005087
 20
64.499999999936335
 30
0.0
 11
-315.50000000005087
 21
63.499999999936342
 31
0.0
  0
LINE
  8
OUTLINE
  6
CONTINUOUS
 62
     3
 10
-315.80000000004662
 20
56.499999999936328
 30
0.0
 11
-315.80000000004662
 21
3.4999999999363349
 31
0.0
  0
LINE
  8
OUTLINE
  6
CONTINUOUS
 62
     3
 10
-317.80000000004662
 20
64.499999999936335
 30
0.0
 11
-317.80000000004662
 21
63.499999999936342
 31
0.0
  0
LINE
  8
OUTLINE
  6
CONTINUOUS
 62
     3
 10
-365.0265620595456
 20
1641.074280214636
 30
0.0
 11
-360.02855335264758
 21
1755.5474998459381
 31
0.0
  0
LINE
  8
OUTLINE
  6
CONTINUOUS
 62
     3
 10
-367.38842298814421
 20
1559.254987546037
 30
0.0
 11
-365.02656217954791
 21
1641.074277792535
 31
0.0
  0
LINE
  8
OUTLINE
  6
CONTINUOUS
 62
     3
 10
-370.28091039834538
 20
1522.4999999999361
 30
0.0
 11
-369.99760774934839
 21
1553.963268124937
 31
0.0
  0
LINE
  8
OUTLINE
  6
CONTINUOUS
 62
     3
 10
-358.00000000005087
 20
1838.5999999999369
 30
0.0
 11
-358.00000000005087
 21
1857.5999999999369
 31
0.0
  0
LINE
  8
OUTLINE
  6
CONTINUOUS
 62
     3
 10
-360.00000000005087
 20
1811.4999999999361
 30
0.0
 11
-360.00000000005087
 21
1756.237604085238
 31
0.0
  0
LINE
  8
OUTLINE
  6
CONTINUOUS
 62
     3
 10
-363.00000000005087
 20
1834.5999999999369
 30
0.0
 11
-363.00000000005087
 21
1817.0999999999369
 31
0.0
  0
LINE
  8
OUTLINE
  6
CONTINUOUS
 62
     3
 10
-363.00000000005087
 20
1815.6999999999371
 30
0.0
 11
-363.00000000005087
 21
1813.7999999999349
 31
0.0
  0
LINE
  8
OUTLINE
  6
CONTINUOUS
 62
     3
 10
-365.50000000005087
 20
94.999999999936335
 30
0.0
 11
-365.50000000005087
 21
1522.4999999999361
 31
0.0
  0
LINE
  8
OUTLINE
  6
CONTINUOUS
 62
     3
 10
-367.50000000005087
 20
2.2999999999356069
 30
0.0
 11
-367.50000000005087
 21
57.699999999937063
 31
0.0
  0
LINE
  8
OUTLINE
  6
CONTINUOUS
 62
     3
 10
-369.50000000005087
 20
2.2999999999356069
 30
0.0
 11
-369.50000000005087
 21
-0.0000000000636646
 31
0.0
  0
LINE
  8
OUTLINE
  6
CONTINUOUS
 62
     3
 10
-369.50000000005087
 20
57.699999999937063
 30
0.0
 11
-369.50000000005087
 21
62.299999999935608
 31
0.0
  0
LINE
  8
OUTLINE
  6
CONTINUOUS
 62
     3
 10
-365.50000000005087
 20
1522.4999999999361
 30
0.0
 11
370.28091039814171
 21
1522.4999999999361
 31
0.0
  0
LINE
  8
OUTLINE
  6
CONTINUOUS
 62
     3
 10
-363.95064030274813
 20
94.999999999936335
 30
0.0
 11
-320.46357325974532
 21
64.499999999936335
 31
0.0
  0
LINE
  8
OUTLINE
  6
CONTINUOUS
 62
     3
 10
-362.70000000004802
 20
1813.4999999999361
 30
0.0
 11
-361.71537032411288
 21
1813.499999999937
 31
0.0
  0
LINE
  8
OUTLINE
  6
CONTINUOUS
 62
     3
 10
361.9999083582079
 20
1813.4999999978361
 30
0.0
 11
362.69999999995338
 21
1813.4999999999361
 31
0.0
  0
LINE
  8
OUTLINE
  6
CONTINUOUS
 62
     3
 10
360.9995889217243
 20
1816.0000000841981
 30
0.0
 11
362.69999999995338
 21
1815.9999999999361
 31
0.0
  0
LINE
  8
OUTLINE
  6
CONTINUOUS
 62
     3
 10
359.99999999994179
 20
1817.0999999999381
 30
0.0
 11
362.99999999994179
 21
1817.0999999999369
 31
0.0
  0
LINE
  8
OUTLINE
  6
CONTINUOUS
 62
     3
 10
359.99999999994179
 20
1836.599999999936
 30
0.0
 11
360.99999999994179
 21
1836.599999999936
 31
0.0
  0
LINE
  8
OUTLINE
  6
CONTINUOUS
 62
     3
 10
357.49999999994179
 20
1858.0999999999369
 30
0.0
 11
-357.50000000005087
 21
1858.0999999999369
 31
0.0
  0
ARC
  8
OUTLINE
  6
CONTINUOUS
 62
     3
 10
300.79999999995931
 20
69.499999999936335
 30
0.0
 40
5.0
 50
180.0
 51
270.0
  0
ARC
  8
OUTLINE
  6
CONTINUOUS
 62
     3
 10
318.99999999994179
 20
63.499999999936342
 30
0.0
 40
3.5
 50
180.0
 51
270.0
  0
ARC
  8
DETAIL
  6
CONTINUOUS
 62
     5
 10
316.99999999994179
 20
56.499999999936328
 30
0.0
 40
3.5
 50
90.0
 51
180.0
  0
ARC
  8
DETAIL
  6
CONTINUOUS
 62
     5
 10
316.99999999994179
 20
3.4999999999363349
 30
0.0
 40
3.5
 50
180.0
 51
270.0
  0
ARC
  8
OUTLINE
  6
CONTINUOUS
 62
     3
 10
318.99999999994179
 20
63.499999999936342
 30
0.0
 40
1.1999999999999991
 50
180.0
 51
270.0
  0
ARC
  8
OUTLINE
  6
CONTINUOUS
 62
     3
 10
316.99999999994179
 20
56.499999999936328
 30
0.0
 40
1.1999999999999991
 50
90.0
 51
180.0
  0
ARC
  8
OUTLINE
  6
CONTINUOUS
 62
     3
 10
316.99999999994179
 20
3.4999999999363349
 30
0.0
 40
1.1999999999999991
 50
180.0
 51
270.0
  0
ARC
  8
OUTLINE
  6
CONTINUOUS
 62
     3
 10
372.89053071575472
 20
1559.5252304067931
 30
0.0
 40
5.5086739276738674
 50
182.8119077231583
 51
234.00424298082771
  0
ARC
  8
OUTLINE
  6
CONTINUOUS
 62
     3
 10
367.99768376196153
 20
1553.9458312266379
 30
0.0
 40
2.0
 50
0.5000000000689419
 51
34.143969538584336
  0
ARC
  8
OUTLINE
  6
CONTINUOUS
 62
     3
 10
389.99999999994179
 20
1756.856081466836
 30
0.0
 40
30.0
 50
180.0
 51
182.4999999999709
  0
ARC
  8
OUTLINE
  6
CONTINUOUS
 62
     3
 10
360.99999996705452
 20
1834.5999999999369
 30
0.0
 40
2.0
 50
0.0
 51
89.999999058681183
  0
ARC
  8
OUTLINE
  6
CONTINUOUS
 62
     3
 10
359.99999999994179
 20
1838.5999999999369
 30
0.0
 40
2.0
 50
180.0
 51
270.0
  0
ARC
  8
OUTLINE
  6
CONTINUOUS
 62
     3
 10
361.99999999784632
 20
1811.500000002035
 30
0.0
 40
1.9999999978999989
 50
90.00262528225953
 51
179.99999937738721
  0
ARC
  8
OUTLINE
  6
CONTINUOUS
 62
     3
 10
360.99999943884899
 20
1816.9999994388361
 30
0.0
 40
0.9999994388999999
 50
179.99996785279581
 51
269.97647908650259
  0
ARC
  8
OUTLINE
  6
CONTINUOUS
 62
     3
 10
357.50000000225549
 20
1857.5999999999369
 30
0.0
 40
0.5
 50
0.0
 51
90.000000271806798
  0
ARC
  8
OUTLINE
  6
CONTINUOUS
 62
     3
 10
362.69999999995338
 20
1815.6999999999371
 30
0.0
 40
0.3
 50
0.0
 51
90.0
  0
ARC
  8
OUTLINE
  6
CONTINUOUS
 62
     3
 10
362.69999999995338
 20
1813.7999999999349
 30
0.0
 40
0.3
 50
270.0
 51
0.0
  0
ARC
  8
OUTLINE
  6
CONTINUOUS
 62
     3
 10
-300.80000000004662
 20
69.499999999936335
 30
0.0
 40
5.0
 50
270.0
 51
0.0
  0
ARC
  8
OUTLINE
  6
CONTINUOUS
 62
     3
 10
-319.00000000005087
 20
63.499999999936342
 30
0.0
 40
3.5
 50
270.0
 51
0.0
  0
ARC
  8
DETAIL
  6
CONTINUOUS
 62
     5
 10
-317.00000000005087
 20
3.4999999999363349
 30
0.0
 40
3.5
 50
270.0
 51
0.0
  0
ARC
  8
DETAIL
  6
CONTINUOUS
 62
     5
 10
-317.00000000005087
 20
56.499999999936328
 30
0.0
 40
3.5
 50
0.0
 51
90.0
  0
ARC
  8
OUTLINE
  6
CONTINUOUS
 62
     3
 10
-319.00000000005087
 20
63.499999999936342
 30
0.0
 40
1.1999999999999991
 50
270.0
 51
0.0
  0
ARC
  8
OUTLINE
  6
CONTINUOUS
 62
     3
 10
-317.00000000005087
 20
3.4999999999363349
 30
0.0
 40
1.1999999999999991
 50
270.0
 51
0.0
  0
ARC
  8
OUTLINE
  6
CONTINUOUS
 62
     3
 10
-317.00000000005087
 20
56.499999999936328
 30
0.0
 40
1.1999999999999991
 50
0.0
 51
90.0
  0
ARC
  8
OUTLINE
  6
CONTINUOUS
 62
     3
 10
-372.3865728243473
 20
1559.3992675948371
 30
0.0
 40
5.0001653733999989
 50
308.82687880982502
 51
358.3465195875072
  0
ARC
  8
OUTLINE
  6
CONTINUOUS
 62
     3
 10
-367.99768376204878
 20
1553.9458312278359
 30
0.0
 40
2.0
 50
128.82687634301431
 51
179.49999999993099
  0
ARC
  8
OUTLINE
  6
CONTINUOUS
 62
     3
 10
-390.00000000005087
 20
1756.856081466836
 30
0.0
 40
30.0
 50
357.50000000002899
 51
0.0
  0
ARC
  8
OUTLINE
  6
CONTINUOUS
 62
     3
 10
-362.04178533154482
 20
1811.484414853006
 30
0.0
 40
2.0418448133011471
 50
0.4373357901431216
 51
80.801067878221843
  0
ARC
  8
OUTLINE
  6
CONTINUOUS
 62
     3
 10
-361.00000000005087
 20
1834.5999999999369
 30
0.0
 40
2.0
 50
90.0
 51
180.0
  0
ARC
  8
OUTLINE
  6
CONTINUOUS
 62
     3
 10
-360.00000000005087
 20
1838.5999999999369
 30
0.0
 40
2.0
 50
270.0
 51
0.0
  0
ARC
  8
OUTLINE
  6
CONTINUOUS
 62
     3
 10
-357.5000000028449
 20
1857.5999999999369
 30
0.0
 40
0.5
 50
89.999999682336181
 51
180.0
  0
ARC
  8
OUTLINE
  6
CONTINUOUS
 62
     3
 10
-362.70000000004802
 20
1813.7999999999349
 30
0.0
 40
0.3
 50
180.0
 51
270.0
  0
LINE
  8
OUTLINE
  6
CONTINUOUS
 62
     3
 10
365.49999999994179
 20
94.999999999936335
 30
0.0
 11
363.95064030264621
 21
94.999999999936335
 31
0.0
  0
LINE
  8
OUTLINE
  6
CONTINUOUS
 62
     3
 10
318.03016192624642
 20
62.793307626414389
 30
0.0
 11
363.9506403025589
 21
94.999999999936335
 31
0.0
  0
LINE
  8
OUTLINE
  6
CONTINUOUS
 62
     3
 10
300.79999999995931
 20
64.499999999936335
 30
0.0
 11
317.79999999995931
 21
64.499999999936335
 31
0.0
  0
LINE
  8
DETAIL
  6
CONTINUOUS
 62
     5
 10
-369.65294346097647
 20
1555.0683798143641
 30
0.0
 11
369.65294346006698
 21
1555.0683798143641
 31
0.0
  0
LINE
  8
OUTLINE
  6
CONTINUOUS
 62
     3
 10
-361.00000000005087
 20
1836.599999999936
 30
0.0
 11
-360.00000000005087
 21
1836.599999999936
 31
0.0
  0
LINE
  8
NOTE
  6
CONTINUOUS
 62
     4
 10
-153.0029437252451
 20
175.99999999993631
 30
0.0
 11
-224.0029437252451
 21
175.99999999993631
 31
0.0
  0
LINE
  8
NOTE
  6
CONTINUOUS
 62
     4
 10
-188.5029437252451
 20
140.49999999993631
 30
0.0
 11
-188.5029437252451
 21
211.49999999993631
 31
0.0
  0
LINE
  8
SIZE
  6
CONTINUOUS
 62
    30
 10
-188.5029437252451
 20
231.49999999993639
 30
0.0
 11
-188.5029437252451
 21
460.76257941230318
 31
0.0
  0
LINE
  8
SIZE
  6
CONTINUOUS
 62
    30
 10
-369.50000000005087
 20
19.999999999936328
 30
0.0
 11
-369.50000000005087
 21
460.76257941230318
 31
0.0
  0
LINE
  8
SIZE
  6
CONTINUOUS
 62
    30
 10
-188.5029437252451
 20
440.76257941230318
 30
0.0
 11
-369.50000000005087
 21
440.76257941230318
 31
0.0
  0
LINE
  8
SIZE
  6
CONTINUOUS
 62
    30
 10
-369.50000000005087
 20
440.76257941230318
 30
0.0
 11
-509.78571428576521
 21
440.76257941230318
 31
0.0
  0
CIRCLE
  8
SIZE
  6
CONTINUOUS
 62
    30
 10
-188.5029437252451
 20
440.76257941230318
 30
0.0
 40
7.5
  0
CIRCLE
  8
SIZE
  6
CONTINUOUS
 62
    30
 10
-369.50000000005087
 20
440.76257941230318
 30
0.0
 40
7.5
  0
TEXT
  8
SIZE
  6
CONTINUOUS
 62
    30
 10
-497.66285714290797
 20
460.76257941230318
 30
0.0
 40
40.0
  1
181
 50
0.0
 41
0.9
 51
0.0
  7
STANDARD
 71
     0
 72
     1
 11
-454.64285714290799
 21
460.76257941230318
 31
0.0
210
0.0
220
0.0
230
1.0
  0
POINT
  8
DEFPOINTS
  6
CONTINUOUS
 62
    30
 10
-188.5029437252451
 20
211.49999999993631
 30
0.0
  0
POINT
  8
DEFPOINTS
  6
CONTINUOUS
 62
    30
 10
-369.50000000005087
 20
-0.0000000000636646
 30
0.0
  0
POINT
  8
DEFPOINTS
  6
CONTINUOUS
 62
    30
 10
-369.50000000005087
 20
440.76257941230318
 30
0.0
  0
LINE
  8
SIZE
  6
CONTINUOUS
 62
    30
 10
-295.80000000004651
 20
49.499999999936328
 30
0.0
 11
-295.80000000004651
 21
-119.86129591672029
 31
0.0
  0
LINE
  8
SIZE
  6
CONTINUOUS
 62
    30
 10
-315.80000000004662
 20
-16.500000000063661
 30
0.0
 11
-315.80000000004662
 21
-119.86129591672029
 31
0.0
  0
LINE
  8
SIZE
  6
CONTINUOUS
 62
    30
 10
-295.80000000004651
 20
-99.861295916720337
 30
0.0
 11
-265.80000000004662
 21
-99.861295916720337
 31
0.0
  0
LINE
  8
SIZE
  6
CONTINUOUS
 62
    30
 10
-315.80000000004662
 20
-99.861295916720337
 30
0.0
 11
-474.08571428576079
 21
-99.861295916720337
 31
0.0
  0
LINE
  8
SIZE
  6
CONTINUOUS
 62
    30
 10
-295.80000000004651
 20
-99.861295916720337
 30
0.0
 11
-315.80000000004662
 21
-99.861295916720337
 31
0.0
  0
CIRCLE
  8
SIZE
  6
CONTINUOUS
 62
    30
 10
-295.80000000004651
 20
-99.861295916720337
 30
0.0
 40
7.5
  0
CIRCLE
  8
SIZE
  6
CONTINUOUS
 62
    30
 10
-315.80000000004662
 20
-99.861295916720337
 30
0.0
 40
7.5
  0
TEXT
  8
SIZE
  6
CONTINUOUS
 62
    30
 10
-458.78285714290359
 20
-79.861295916720337
 30
0.0
 40
40.0
  1
20
 50
0.0
 41
0.9
 51
0.0
  7
STANDARD
 71
     0
 72
     1
 11
-424.94285714290362
 21
-79.861295916720337
 31
0.0
210
0.0
220
0.0
230
1.0
  0
POINT
  8
DEFPOINTS
  6
CONTINUOUS
 62
    30
 10
-295.80000000004651
 20
69.499999999936335
 30
0.0
  0
POINT
  8
DEFPOINTS
  6
CONTINUOUS
 62
    30
 10
-315.80000000004662
 20
3.4999999999363349
 30
0.0
  0
POINT
  8
DEFPOINTS
  6
CONTINUOUS
 62
    30
 10
-315.80000000004662
 20
-99.861295916720337
 30
0.0
  0
LINE
  8
SIZE
  6
CONTINUOUS
 62
    30
 10
295.79999999995931
 20
49.499999999936328
 30
0.0
 11
295.79999999995931
 21
-119.86129591672029
 31
0.0
  0
LINE
  8
SIZE
  6
CONTINUOUS
 62
    30
 10
315.79999999995931
 20
-16.500000000063661
 30
0.0
 11
315.79999999995931
 21
-119.86129591672029
 31
0.0
  0
LINE
  8
SIZE
  6
CONTINUOUS
 62
    30
 10
295.79999999995931
 20
-99.861295916720337
 30
0.0
 11
265.79999999995931
 21
-99.861295916720337
 31
0.0
  0
LINE
  8
SIZE
  6
CONTINUOUS
 62
    30
 10
315.79999999995931
 20
-99.861295916720337
 30
0.0
 11
474.08571428567348
 21
-99.861295916720337
 31
0.0
  0
LINE
  8
SIZE
  6
CONTINUOUS
 62
    30
 10
295.79999999995931
 20
-99.861295916720337
 30
0.0
 11
315.79999999995931
 21
-99.861295916720337
 31
0.0
  0
CIRCLE
  8
SIZE
  6
CONTINUOUS
 62
    30
 10
295.79999999995931
 20
-99.861295916720337
 30
0.0
 40
7.5
  0
CIRCLE
  8
SIZE
  6
CONTINUOUS
 62
    30
 10
315.79999999995931
 20
-99.861295916720337
 30
0.0
 40
7.5
  0
TEXT
  8
SIZE
  6
CONTINUOUS
 62
    30
 10
391.10285714281633
 20
-79.861295916720337
 30
0.0
 40
40.0
  1
20
 50
0.0
 41
0.9
 51
0.0
  7
STANDARD
 71
     0
 72
     1
 11
424.94285714281631
 21
-79.861295916720337
 31
0.0
210
0.0
220
0.0
230
1.0
  0
POINT
  8
DEFPOINTS
  6
CONTINUOUS
 62
    30
 10
295.79999999995931
 20
69.499999999936335
 30
0.0
  0
POINT
  8
DEFPOINTS
  6
CONTINUOUS
 62
    30
 10
315.79999999995931
 20
3.4999999999363349
 30
0.0
  0
POINT
  8
DEFPOINTS
  6
CONTINUOUS
 62
    30
 10
315.79999999995931
 20
-99.861295916720337
 30
0.0
  0
CIRCLE
  8
FIX
  6
CONTINUOUS
 62
    11
 10
-340.00000000005087
 20
-0.0000000000636646
 30
0.0
 40
11.0
  0
LINE
  8
NOTE
  6
CONTINUOUS
 62
     4
 10
-340.00000000005087
 20
-20.112755905533049
 30
0.0
 11
-340.00000000005087
 21
20.11275590540572
 31
0.0
  0
CIRCLE
  8
FIX
  6
CONTINUOUS
 62
    11
 10
339.99999999994179
 20
-0.0000000000636646
 30
0.0
 40
11.0
  0
LINE
  8
NOTE
  6
CONTINUOUS
 62
     4
 10
339.99999999994179
 20
-20.112755905533049
 30
0.0
 11
339.99999999994179
 21
20.11275590540572
 31
0.0
  0
LINE
  8
SIZE
  6
CONTINUOUS
 62
    30
 10
-340.00000000005087
 20
-40.112755905533049
 30
0.0
 11
-340.00000000005087
 21
-229.97252547161591
 31
0.0
  0
LINE
  8
SIZE
  6
CONTINUOUS
 62
    30
 10
-369.50000000005087
 20
-20.000000000063661
 30
0.0
 11
-369.50000000005087
 21
-229.97252547161591
 31
0.0
  0
LINE
  8
SIZE
  6
CONTINUOUS
 62
    30
 10
-340.00000000005087
 20
-209.97252547161591
 30
0.0
 11
-310.00000000005087
 21
-209.97252547161591
 31
0.0
  0
LINE
  8
SIZE
  6
CONTINUOUS
 62
    30
 10
-369.50000000005087
 20
-209.97252547161591
 30
0.0
 11
-579.2142857143366
 21
-209.97252547161591
 31
0.0
  0
LINE
  8
SIZE
  6
CONTINUOUS
 62
    30
 10
-340.00000000005087
 20
-209.97252547161591
 30
0.0
 11
-369.50000000005087
 21
-209.97252547161591
 31
0.0
  0
CIRCLE
  8
SIZE
  6
CONTINUOUS
 62
    30
 10
-340.00000000005087
 20
-209.97252547161591
 30
0.0
 40
7.5
  0
CIRCLE
  8
SIZE
  6
CONTINUOUS
 62
    30
 10
-369.50000000005087
 20
-209.97252547161591
 30
0.0
 40
7.5
  0
TEXT
  8
SIZE
  6
CONTINUOUS
 62
    30
 10
-563.21714285719372
 20
-189.97252547161591
 30
0.0
 40
40.0
  1
29.5
 50
0.0
 41
0.9
 51
0.0
  7
STANDARD
 71
     0
 72
     1
 11
-504.35714285719371
 21
-189.97252547161591
 31
0.0
210
0.0
220
0.0
230
1.0
  0
POINT
  8
DEFPOINTS
  6
CONTINUOUS
 62
    30
 10
-340.00000000005087
 20
-20.112755905533049
 30
0.0
  0
POINT
  8
DEFPOINTS
  6
CONTINUOUS
 62
    30
 10
-369.50000000005087
 20
-0.0000000000636646
 30
0.0
  0
POINT
  8
DEFPOINTS
  6
CONTINUOUS
 62
    30
 10
-369.50000000005087
 20
-209.97252547161591
 30
0.0
  0
LINE
  8
SIZE
  6
CONTINUOUS
 62
    30
 10
339.99999999994179
 20
-40.112755905533049
 30
0.0
 11
339.99999999994179
 21
-229.97252547161591
 31
0.0
  0
LINE
  8
SIZE
  6
CONTINUOUS
 62
    30
 10
369.49999999994179
 20
-20.000000000063661
 30
0.0
 11
369.49999999994179
 21
-229.97252547161591
 31
0.0
  0
LINE
  8
SIZE
  6
CONTINUOUS
 62
    30
 10
339.99999999994179
 20
-209.97252547161591
 30
0.0
 11
309.99999999994179
 21
-209.97252547161591
 31
0.0
  0
LINE
  8
SIZE
  6
CONTINUOUS
 62
    30
 10
369.49999999994179
 20
-209.97252547161591
 30
0.0
 11
579.21428571422734
 21
-209.97252547161591
 31
0.0
  0
LINE
  8
SIZE
  6
CONTINUOUS
 62
    30
 10
339.99999999994179
 20
-209.97252547161591
 30
0.0
 11
369.49999999994179
 21
-209.97252547161591
 31
0.0
  0
CIRCLE
  8
SIZE
  6
CONTINUOUS
 62
    30
 10
339.99999999994179
 20
-209.97252547161591
 30
0.0
 40
7.5
  0
CIRCLE
  8
SIZE
  6
CONTINUOUS
 62
    30
 10
369.49999999994179
 20
-209.97252547161591
 30
0.0
 40
7.5
  0
TEXT
  8
SIZE
  6
CONTINUOUS
 62
    30
 10
445.49714285708461
 20
-189.97252547161591
 30
0.0
 40
40.0
  1
29.5
 50
0.0
 41
0.9
 51
0.0
  7
STANDARD
 71
     0
 72
     1
 11
504.35714285708463
 21
-189.97252547161591
 31
0.0
210
0.0
220
0.0
230
1.0
  0
POINT
  8
DEFPOINTS
  6
CONTINUOUS
 62
    30
 10
339.99999999994179
 20
-20.112755905533049
 30
0.0
  0
POINT
  8
DEFPOINTS
  6
CONTINUOUS
 62
    30
 10
369.49999999994179
 20
-0.0000000000636646
 30
0.0
  0
POINT
  8
DEFPOINTS
  6
CONTINUOUS
 62
    30
 10
369.49999999994179
 20
-209.97252547161591
 30
0.0
  0
LINE
  8
SIZE
  6
CONTINUOUS
 62
    30
 10
339.99999999994179
 20
-40.112755905533049
 30
0.0
 11
339.99999999994179
 21
-229.97252547161591
 31
0.0
  0
LINE
  8
SIZE
  6
CONTINUOUS
 62
    30
 10
-340.00000000005087
 20
-40.112755905533049
 30
0.0
 11
-340.00000000005087
 21
-229.97252547161591
 31
0.0
  0
LINE
  8
SIZE
  6
CONTINUOUS
 62
    30
 10
339.99999999994179
 20
-209.97252547161591
 30
0.0
 11
-340.00000000005087
 21
-209.97252547161591
 31
0.0
  0
CIRCLE
  8
SIZE
  6
CONTINUOUS
 62
    30
 10
339.99999999994179
 20
-209.97252547161591
 30
0.0
 40
7.5
  0
CIRCLE
  8
SIZE
  6
CONTINUOUS
 62
    30
 10
-340.00000000005087
 20
-209.97252547161591
 30
0.0
 40
7.5
  0
TEXT
  8
SIZE
  6
CONTINUOUS
 62
    30
 10
-193.32000000005453
 20
-179.4963349954254
 30
0.0
 40
40.0
  1
681(678~684)
 50
0.0
 41
0.9
 51
0.0
  7
STANDARD
 71
     0
 72
     1
 11
-0.0000000000545697
 21
-179.4963349954254
 31
0.0
210
0.0
220
0.0
230
1.0
  0
POINT
  8
DEFPOINTS
  6
CONTINUOUS
 62
    30
 10
339.99999999994179
 20
-20.112755905533049
 30
0.0
  0
POINT
  8
DEFPOINTS
  6
CONTINUOUS
 62
    30
 10
-340.00000000005087
 20
-20.112755905533049
 30
0.0
  0
POINT
  8
DEFPOINTS
  6
CONTINUOUS
 62
    30
 10
-340.00000000005087
 20
-209.97252547161591
 30
0.0
  0
TEXT
  8
SIZE
  6
CONTINUOUS
 62
    30
 10
-215.78027594606101
 20
-263.24956696294072
 30
0.0
 40
53.0
  1
(Mounting pitch) 
 50
0.0000025045208307
 41
0.51
  7
KAIGAI_STANDARD_1
  0
LINE
  8
SIZE
  6
CONTINUOUS
 62
    30
 10
-369.50000000005087
 20
-20.000000000063661
 30
0.0
 11
-369.50000000005099
 21
-507.90998146672609
 31
0.0
  0
LINE
  8
SIZE
  6
CONTINUOUS
 62
    30
 10
369.49999999994179
 20
-20.000000000063661
 30
0.0
 11
369.49999999994179
 21
-507.90998146672609
 31
0.0
  0
LINE
  8
SIZE
  6
CONTINUOUS
 62
    30
 10
-369.50000000005099
 20
-487.90998146672598
 30
0.0
 11
369.49999999994179
 21
-487.90998146672598
 31
0.0
  0
CIRCLE
  8
SIZE
  6
CONTINUOUS
 62
    30
 10
-369.50000000005099
 20
-487.90998146672598
 30
0.0
 40
7.5
  0
CIRCLE
  8
SIZE
  6
CONTINUOUS
 62
    30
 10
369.49999999994179
 20
-487.90998146672598
 30
0.0
 40
7.5
  0
TEXT
  8
SIZE
  6
CONTINUOUS
 62
    30
 10
-74.700000000054629
 20
-457.43379099053561
 30
0.0
 40
40.0
  1
(740)
 50
0.0
 41
0.9
 51
0.0
  7
STANDARD
 71
     0
 72
     1
 11
-0.0000000000546265
 21
-457.43379099053561
 31
0.0
210
0.0
220
0.0
230
1.0
  0
POINT
  8
DEFPOINTS
  6
CONTINUOUS
 62
    30
 10
-369.50000000005087
 20
-0.0000000000636646
 30
0.0
  0
POINT
  8
DEFPOINTS
  6
CONTINUOUS
 62
    30
 10
369.49999999994179
 20
-0.0000000000636646
 30
0.0
  0
POINT
  8
DEFPOINTS
  6
CONTINUOUS
 62
    30
 10
369.49999999994179
 20
-487.90998146672598
 30
0.0
  0
LINE
  8
BASIS
  6
DASHDOT
 62
     6
 10
-0.0000000000582077
 20
-22.855693145056652
 30
0.0
 11
-0.0000000000582077
 21
1899.574261272415
 31
0.0
  0
CIRCLE
  8
ARRANGE
  6
CONTINUOUS
 62
     1
 10
0.0
 20
0.0
 30
0.0
 40
20.0
  0
LINE
  8
ARRANGE
  6
CONTINUOUS
 62
     1
 10
28.284271247481229
 20
28.284271247463039
 30
0.0
 11
-28.284271247452129
 21
-28.28427124746668
 31
0.0
  0
LINE
  8
ARRANGE
  6
CONTINUOUS
 62
     1
 10
-28.284271247452129
 20
28.284271247463039
 30
0.0
 11
28.284271247481229
 21
-28.28427124746122
 31
0.0
  0
TEXT
  8
NOTE
  6
CONTINUOUS
 62
     4
 10
-172.0388388423307
 20
1933.3738123713929
 30
0.0
 40
53.0
  1
Discharge air
 50
0.0000025045208307
 41
0.51
  7
KAIGAI_STANDARD_1
  0
LINE
  8
NOTE
  6
CONTINUOUS
 62
     4
 10
-597.92816912613478
 20
1045.829108336193
 30
0.0
 11
-597.92816912613478
 21
1095.829108336193
 31
0.0
  0
LINE
  8
NOTE
  6
CONTINUOUS
 62
     4
 10
-557.2420821261403
 20
1095.829108336193
 30
0.0
 11
-597.92816912613478
 21
1095.829108336193
 31
0.0
  0
LINE
  8
NOTE
  6
CONTINUOUS
 62
     4
 10
-557.2420821261403
 20
1045.829108336193
 30
0.0
 11
-597.92816912613478
 21
1045.829108336193
 31
0.0
  0
LINE
  8
NOTE
  6
CONTINUOUS
 62
     4
 10
-557.2420821261403
 20
1045.829108336193
 30
0.0
 11
-557.2420821261403
 21
1020.829108336193
 31
0.0
  0
LINE
  8
NOTE
  6
CONTINUOUS
 62
     4
 10
-557.2420821261403
 20
1120.8291083361919
 30
0.0
 11
-557.2420821261403
 21
1095.829108336193
 31
0.0
  0
LINE
  8
NOTE
  6
CONTINUOUS
 62
     4
 10
-557.2420821261403
 20
1120.8291083361919
 30
0.0
 11
-507.34603712613892
 21
1070.829108336193
 31
0.0
  0
LINE
  8
NOTE
  6
CONTINUOUS
 62
     4
 10
-507.34603712613892
 20
1070.829108336193
 30
0.0
 11
-557.2420821261403
 21
1020.829108336193
 31
0.0
  0
LINE
  8
NOTE
  6
CONTINUOUS
 62
     4
 10
-597.92816912613478
 20
1316.1644273361919
 30
0.0
 11
-597.92816912613478
 21
1366.1644273361919
 31
0.0
  0
LINE
  8
NOTE
  6
CONTINUOUS
 62
     4
 10
-557.2420821261403
 20
1366.1644273361919
 30
0.0
 11
-597.92816912613478
 21
1366.1644273361919
 31
0.0
  0
LINE
  8
NOTE
  6
CONTINUOUS
 62
     4
 10
-557.2420821261403
 20
1316.1644273361919
 30
0.0
 11
-597.92816912613478
 21
1316.1644273361919
 31
0.0
  0
LINE
  8
NOTE
  6
CONTINUOUS
 62
     4
 10
-557.2420821261403
 20
1316.1644273361919
 30
0.0
 11
-557.2420821261403
 21
1291.1644273361919
 31
0.0
  0
LINE
  8
NOTE
  6
CONTINUOUS
 62
     4
 10
-557.2420821261403
 20
1391.1644273361919
 30
0.0
 11
-557.2420821261403
 21
1366.1644273361919
 31
0.0
  0
LINE
  8
NOTE
  6
CONTINUOUS
 62
     4
 10
-557.2420821261403
 20
1391.1644273361919
 30
0.0
 11
-507.34603612613142
 21
1341.1644273361919
 31
0.0
  0
LINE
  8
NOTE
  6
CONTINUOUS
 62
     4
 10
-507.34603612613142
 20
1341.1644273361919
 30
0.0
 11
-557.2420821261403
 21
1291.1644273361919
 31
0.0
  0
TEXT
  8
NOTE
  6
CONTINUOUS
 62
     4
 10
-663.74876409312128
 20
1216.981038500807
 30
0.0
 40
53.0
  1
Intake
 50
0.0000025045208307
 41
0.51
  7
KAIGAI_STANDARD_1
  0
TEXT
  8
NOTE
  6
CONTINUOUS
 62
     4
 10
-659.56453137456265
 20
1156.6229760693541
 30
0.0
 40
53.0
  1
air
 50
0.0000025045208307
 41
0.51
  7
KAIGAI_STANDARD_1
  0
LINE
  8
NOTE
  6
CONTINUOUS
 62
     4
 10
597.02146186747996
 20
1045.829108336193
 30
0.0
 11
597.02146186747996
 21
1095.829108336193
 31
0.0
  0
LINE
  8
NOTE
  6
CONTINUOUS
 62
     4
 10
556.33537486747082
 20
1095.829108336193
 30
0.0
 11
597.02146186747996
 21
1095.829108336193
 31
0.0
  0
LINE
  8
NOTE
  6
CONTINUOUS
 62
     4
 10
556.33537486747082
 20
1045.829108336193
 30
0.0
 11
597.02146186747996
 21
1045.829108336193
 31
0.0
  0
LINE
  8
NOTE
  6
CONTINUOUS
 62
     4
 10
556.33537486747082
 20
1045.829108336193
 30
0.0
 11
556.33537486747082
 21
1020.829108336193
 31
0.0
  0
LINE
  8
NOTE
  6
CONTINUOUS
 62
     4
 10
556.33537486747082
 20
1120.8291083361919
 30
0.0
 11
556.33537486747082
 21
1095.829108336193
 31
0.0
  0
LINE
  8
NOTE
  6
CONTINUOUS
 62
     4
 10
556.33537486747082
 20
1120.8291083361919
 30
0.0
 11
506.43932986746938
 21
1070.829108336193
 31
0.0
  0
LINE
  8
NOTE
  6
CONTINUOUS
 62
     4
 10
506.43932986746938
 20
1070.829108336193
 30
0.0
 11
556.33537486747082
 21
1020.829108336193
 31
0.0
  0
LINE
  8
NOTE
  6
CONTINUOUS
 62
     4
 10
597.0214618674654
 20
1316.1644273361919
 30
0.0
 11
597.0214618674654
 21
1366.1644273361919
 31
0.0
  0
LINE
  8
NOTE
  6
CONTINUOUS
 62
     4
 10
556.33537486747082
 20
1366.1644273361919
 30
0.0
 11
597.0214618674654
 21
1366.1644273361919
 31
0.0
  0
LINE
  8
NOTE
  6
CONTINUOUS
 62
     4
 10
556.33537486747082
 20
1316.1644273361919
 30
0.0
 11
597.0214618674654
 21
1316.1644273361919
 31
0.0
  0
LINE
  8
NOTE
  6
CONTINUOUS
 62
     4
 10
556.33537486747082
 20
1316.1644273361919
 30
0.0
 11
556.33537486747082
 21
1291.1644273361919
 31
0.0
  0
LINE
  8
NOTE
  6
CONTINUOUS
 62
     4
 10
556.33537486747082
 20
1391.1644273361919
 30
0.0
 11
556.33537486747082
 21
1366.1644273361919
 31
0.0
  0
LINE
  8
NOTE
  6
CONTINUOUS
 62
     4
 10
556.33537486747082
 20
1391.1644273361919
 30
0.0
 11
506.43932886746188
 21
1341.1644273361919
 31
0.0
  0
LINE
  8
NOTE
  6
CONTINUOUS
 62
     4
 10
506.43932886746188
 20
1341.1644273361919
 30
0.0
 11
556.33537486747082
 21
1291.1644273361919
 31
0.0
  0
TEXT
  8
NOTE
  6
CONTINUOUS
 62
     4
 10
510.27062826300971
 20
1216.9810318316979
 30
0.0
 40
53.0
  1
Intake
 50
0.0000025045208307
 41
0.51
  7
KAIGAI_STANDARD_1
  0
TEXT
  8
NOTE
  6
CONTINUOUS
 62
     4
 10
510.27062826302432
 20
1156.622973446671
 30
0.0
 40
53.0
  1
air
 50
0.0000025045208307
 41
0.51
  7
KAIGAI_STANDARD_1
  0
LINE
  8
SIZE
  6
CONTINUOUS
 62
    30
 10
-377.50000000005087
 20
1858.0999999999369
 30
0.0
 11
-853.16536756372795
 21
1858.0999999999369
 31
0.0
  0
LINE
  8
SIZE
  6
CONTINUOUS
 62
    30
 10
-389.65294346097647
 20
1555.0683798143641
 30
0.0
 11
-853.16536756372807
 21
1555.0683798143641
 31
0.0
  0
LINE
  8
SIZE
  6
CONTINUOUS
 62
    30
 10
-833.16536756372795
 20
1858.0999999999369
 30
0.0
 11
-833.16536756372795
 21
1555.0683798143641
 31
0.0
  0
CIRCLE
  8
SIZE
  6
CONTINUOUS
 62
    30
 10
-833.16536756372795
 20
1858.0999999999369
 30
0.0
 40
7.5
  0
CIRCLE
  8
SIZE
  6
CONTINUOUS
 62
    30
 10
-833.16536756372795
 20
1555.0683798143641
 30
0.0
 40
7.5
  0
TEXT
  8
SIZE
  6
CONTINUOUS
 62
    30
 10
-853.16536756372818
 20
1656.0041899071498
 30
0.0
 40
40.0
  1
303
 50
90.0
 41
0.9
 51
0.0
  7
STANDARD
 71
     0
 72
     1
 11
-853.16536756372818
 21
1706.5841899071499
 31
0.0
210
0.0
220
0.0
230
1.0
  0
POINT
  8
DEFPOINTS
  6
CONTINUOUS
 62
    30
 10
-357.50000000005087
 20
1858.0999999999369
 30
0.0
  0
POINT
  8
DEFPOINTS
  6
CONTINUOUS
 62
    30
 10
-369.65294346097647
 20
1555.0683798143641
 30
0.0
  0
POINT
  8
DEFPOINTS
  6
CONTINUOUS
 62
    30
 10
-833.16536756372795
 20
1555.0683798143641
 30
0.0
  0
LINE
  8
SIZE
  6
CONTINUOUS
 62
    30
 10
-389.65294346097647
 20
1555.0683798143641
 30
0.0
 11
-853.16536756380037
 21
1555.0683798143641
 31
0.0
  0
LINE
  8
SIZE
  6
CONTINUOUS
 62
    30
 10
-389.50000000005087
 20
59.999999999936328
 30
0.0
 11
-853.16536756380083
 21
59.99999999993647
 31
0.0
  0
LINE
  8
SIZE
  6
CONTINUOUS
 62
    30
 10
-833.16536756380049
 20
1555.0683798143641
 30
0.0
 11
-833.16536756380083
 21
59.999999999936463
 31
0.0
  0
CIRCLE
  8
SIZE
  6
CONTINUOUS
 62
    30
 10
-833.16536756380049
 20
1555.0683798143641
 30
0.0
 40
7.5
  0
CIRCLE
  8
SIZE
  6
CONTINUOUS
 62
    30
 10
-833.16536756380083
 20
59.999999999936463
 30
0.0
 40
7.5
  0
TEXT
  8
SIZE
  6
CONTINUOUS
 62
    30
 10
-853.16536756380094
 20
743.81418990714985
 30
0.0
 40
40.0
  1
1495
 50
90.0
 41
0.9
 51
0.0
  7
STANDARD
 71
     0
 72
     1
 11
-853.16536756380094
 21
807.53418990714988
 31
0.0
210
0.0
220
0.0
230
1.0
  0
POINT
  8
DEFPOINTS
  6
CONTINUOUS
 62
    30
 10
-369.65294346097647
 20
1555.0683798143641
 30
0.0
  0
POINT
  8
DEFPOINTS
  6
CONTINUOUS
 62
    30
 10
-369.50000000005087
 20
59.999999999936328
 30
0.0
  0
POINT
  8
DEFPOINTS
  6
CONTINUOUS
 62
    30
 10
-833.16536756380083
 20
59.999999999936463
 30
0.0
  0
LINE
  8
SIZE
  6
CONTINUOUS
 62
    30
 10
-389.50000000005087
 20
59.999999999936328
 30
0.0
 11
-972.23840618857548
 21
59.999999999936499
 31
0.0
  0
LINE
  8
SIZE
  6
CONTINUOUS
 62
    30
 10
-377.50000000005087
 20
1858.0999999999369
 30
0.0
 11
-972.23840618857491
 21
1858.0999999999369
 31
0.0
  0
LINE
  8
SIZE
  6
CONTINUOUS
 62
    30
 10
-952.23840618857548
 20
59.999999999936499
 30
0.0
 11
-952.23840618857503
 21
1858.0999999999369
 31
0.0
  0
CIRCLE
  8
SIZE
  6
CONTINUOUS
 62
    30
 10
-952.23840618857548
 20
59.999999999936499
 30
0.0
 40
7.5
  0
CIRCLE
  8
SIZE
  6
CONTINUOUS
 62
    30
 10
-952.23840618857503
 20
1858.0999999999369
 30
0.0
 40
7.5
  0
TEXT
  8
SIZE
  6
CONTINUOUS
 62
    30
 10
-972.23840618857537
 20
895.68999999993662
 30
0.0
 40
40.0
  1
1798
 50
90.0
 41
0.9
 51
0.0
  7
STANDARD
 71
     0
 72
     1
 11
-972.23840618857537
 21
959.04999999993663
 31
0.0
210
0.0
220
0.0
230
1.0
  0
POINT
  8
DEFPOINTS
  6
CONTINUOUS
 62
    30
 10
-369.50000000005087
 20
59.999999999936328
 30
0.0
  0
POINT
  8
DEFPOINTS
  6
CONTINUOUS
 62
    30
 10
-357.50000000005087
 20
1858.0999999999369
 30
0.0
  0
POINT
  8
DEFPOINTS
  6
CONTINUOUS
 62
    30
 10
-952.23840618857503
 20
1858.0999999999369
 30
0.0
  0
LINE
  8
SIZE
  6
CONTINUOUS
 62
    30
 10
-389.50000000005087
 20
-0.000000000063659
 30
0.0
 11
-1091.486722638969
 21
-0.0000000000634601
 31
0.0
  0
LINE
  8
SIZE
  6
CONTINUOUS
 62
    30
 10
-377.50000000005087
 20
1858.0999999999369
 30
0.0
 11
-1091.486722638969
 21
1858.0999999999369
 31
0.0
  0
LINE
  8
SIZE
  6
CONTINUOUS
 62
    30
 10
-1071.486722638969
 20
-0.0000000000634658
 30
0.0
 11
-1071.486722638969
 21
1858.0999999999369
 31
0.0
  0
CIRCLE
  8
SIZE
  6
CONTINUOUS
 62
    30
 10
-1071.486722638969
 20
-0.0000000000634658
 30
0.0
 40
7.5
  0
CIRCLE
  8
SIZE
  6
CONTINUOUS
 62
    30
 10
-1071.486722638969
 20
1858.0999999999369
 30
0.0
 40
7.5
  0
TEXT
  8
SIZE
  6
CONTINUOUS
 62
    30
 10
-1091.486722638969
 20
865.68999999993684
 30
0.0
 40
40.0
  1
1858
 50
90.0
 41
0.9
 51
0.0
  7
STANDARD
 71
     0
 72
     1
 11
-1091.486722638969
 21
929.04999999993674
 31
0.0
210
0.0
220
0.0
230
1.0
  0
POINT
  8
DEFPOINTS
  6
CONTINUOUS
 62
    30
 10
-369.50000000005087
 20
-0.0000000000636646
 30
0.0
  0
POINT
  8
DEFPOINTS
  6
CONTINUOUS
 62
    30
 10
-357.50000000005087
 20
1858.0999999999369
 30
0.0
  0
POINT
  8
DEFPOINTS
  6
CONTINUOUS
 62
    30
 10
-1071.486722638969
 20
1858.0999999999369
 30
0.0
  0
LINE
  8
SIZE
  6
CONTINUOUS
 62
    30
 10
-389.50000000005087
 20
-0.000000000063659
 30
0.0
 11
-972.23840618860413
 21
-0.0000000000634939
 31
0.0
  0
LINE
  8
SIZE
  6
CONTINUOUS
 62
    30
 10
-952.23840618860413
 20
59.999999999932697
 30
0.0
 11
-952.23840618860413
 21
-0.0000000000634996
 31
0.0
  0
LINE
  8
SIZE
  6
CONTINUOUS
 62
    30
 10
-952.23840618860413
 20
-0.0000000000634996
 30
0.0
 11
-952.23840618860413
 21
-174.57142857149211
 31
0.0
  0
CIRCLE
  8
SIZE
  6
CONTINUOUS
 62
    30
 10
-952.23840618860413
 20
59.999999999932697
 30
0.0
 40
7.5
  0
CIRCLE
  8
SIZE
  6
CONTINUOUS
 62
    30
 10
-952.23840618860413
 20
-0.0000000000634996
 30
0.0
 40
7.5
  0
TEXT
  8
SIZE
  6
CONTINUOUS
 62
    30
 10
-982.71459666479495
 20
-159.88571428577779
 30
0.0
 40
40.0
  1
(60)
 50
90.0
 41
0.9
 51
0.0
  7
STANDARD
 71
     0
 72
     1
 11
-982.71459666479495
 21
-102.28571428577779
 31
0.0
210
0.0
220
0.0
230
1.0
  0
POINT
  8
DEFPOINTS
  6
CONTINUOUS
 62
    30
 10
-952.23840618851671
 20
59.999999999932697
 30
0.0
  0
POINT
  8
DEFPOINTS
  6
CONTINUOUS
 62
    30
 10
-369.50000000005087
 20
-0.0000000000636646
 30
0.0
  0
POINT
  8
DEFPOINTS
  6
CONTINUOUS
 62
    30
 10
-952.23840618860413
 20
-0.0000000000634996
 30
0.0
  0
TEXT
  8
ETC
  6
CONTINUOUS
 62
    61
 10
-1267.865070738058
 20
2049.158154926919
 30
0.0
 40
70.0
  1
PUHY-EM500YNW-A1_4
 41
0.9
  0
LINE
  8
OUTLINE
  6
CONTINUOUS
 62
     3
 10
-370.28091039834538
 20
1522.4999999999361
 30
0.0
 11
-365.50000000005087
 21
1522.4999999999361
 31
0.0
  0
LINE
  8
OUTLINE
  6
CONTINUOUS
 62
     3
 10
-360.00000000005087
 20
1817.0999999999369
 30
0.0
 11
-363.00000000005087
 21
1817.0999999999369
 31
0.0
  0
LINE
  8
OUTLINE
  6
CONTINUOUS
 62
     3
 10
369.65294346006698
 20
1555.06837981437
 30
0.0
 11
-369.65294346096931
 21
1555.0683798143671
 31
0.0
  0
LINE
  8
OUTLINE
  6
CONTINUOUS
 62
     3
 10
311.79999999995931
 20
-0.0000000000636646
 30
0.0
 11
369.49999999994179
 21
-0.0000000000636646
 31
0.0
  0
LINE
  8
DETAIL
  6
CONTINUOUS
 62
     5
 10
309.49999999994179
 20
2.2999999999356069
 30
0.0
 11
309.49999999994179
 21
57.699999999935237
 31
0.0
  0
LINE
  8
DETAIL
  6
CONTINUOUS
 62
     5
 10
-309.50000000005099
 20
2.2999999999356069
 30
0.0
 11
-309.50000000005099
 21
57.699999999935237
 31
0.0
  0
ARC
  8
DETAIL
  6
CONTINUOUS
 62
     5
 10
311.79999999995931
 20
2.2999999999356069
 30
0.0
 40
2.2999999999999989
 50
180.0
 51
270.0
  0
ARC
  8
DETAIL
  6
CONTINUOUS
 62
     5
 10
311.79999999995931
 20
57.699999999935237
 30
0.0
 40
2.2999999999999989
 50
90.0
 51
180.0
  0
ARC
  8
DETAIL
  6
CONTINUOUS
 62
     5
 10
-311.8000000000539
 20
2.2999999999356069
 30
0.0
 40
2.2999999999999989
 50
270.0
 51
0.0
  0
ARC
  8
DETAIL
  6
CONTINUOUS
 62
     5
 10
-311.8000000000539
 20
57.699999999935237
 30
0.0
 40
2.2999999999999989
 50
0.0
 51
90.0
  0
LINE
  8
OUTLINE
  6
CONTINUOUS
 62
     3
 10
-311.8000000000539
 20
-0.0000000000636646
 30
0.0
 11
-369.50000000005087
 21
-0.0000000000636646
 31
0.0
  0
LINE
  8
DETAIL
  6
CONTINUOUS
 62
     5
 10
311.79999999995931
 20
59.999999999934523
 30
0.0
 11
318.99999999994179
 21
59.999999999936328
 31
0.0
  0
LINE
  8
OUTLINE
  6
CONTINUOUS
 62
     3
 10
311.79999999995931
 20
59.999999999934523
 30
0.0
 11
318.99999999994179
 21
59.999999999936328
 31
0.0
  0
LINE
  8
OUTLINE
  6
CONTINUOUS
 62
     3
 10
-319.00000000005087
 20
59.999999999936328
 30
0.0
 11
-311.8000000000539
 21
59.999999999934523
 31
0.0
  0
LINE
  8
NOTE
  6
CONTINUOUS
 62
     4
 10
-319.88724409458518
 20
-0.0000000000636646
 30
0.0
 11
-360.11275590551668
 21
-0.0000000000636646
 31
0.0
  0
LINE
  8
NOTE
  6
CONTINUOUS
 62
     4
 10
360.7627559054236
 20
-0.0000000000636646
 30
0.0
 11
320.5372440944775
 21
-0.0000000000636646
 31
0.0
  0
LINE
  8
SIZE
  6
CONTINUOUS
 62
    30
 10
-244.00294372524519
 20
175.99999999993631
 30
0.0
 11
-603.49688061334007
 21
175.99999999993639
 31
0.0
  0
LINE
  8
SIZE
  6
CONTINUOUS
 62
    30
 10
-389.50000000005087
 20
59.999999999936328
 30
0.0
 11
-603.49688061334007
 21
59.999999999936399
 31
0.0
  0
LINE
  8
SIZE
  6
CONTINUOUS
 62
    30
 10
-583.49688061334007
 20
175.99999999993639
 30
0.0
 11
-583.49688061334007
 21
59.999999999936392
 31
0.0
  0
CIRCLE
  8
SIZE
  6
CONTINUOUS
 62
    30
 10
-583.49688061334007
 20
175.99999999993639
 30
0.0
 40
7.5
  0
CIRCLE
  8
SIZE
  6
CONTINUOUS
 62
    30
 10
-583.49688061334007
 20
59.999999999936392
 30
0.0
 40
7.5
  0
TEXT
  8
SIZE
  6
CONTINUOUS
 62
    30
 10
-603.49688061334018
 20
74.979999999936325
 30
0.0
 40
40.0
  1
116
 50
90.0
 41
0.9
 51
0.0
  7
STANDARD
 71
     0
 72
     1
 11
-603.49688061334018
 21
117.99999999993631
 31
0.0
210
0.0
220
0.0
230
1.0
  0
POINT
  8
DEFPOINTS
  6
CONTINUOUS
 62
    30
 10
-224.0029437252451
 20
175.99999999993631
 30
0.0
  0
POINT
  8
DEFPOINTS
  6
CONTINUOUS
 62
    30
 10
-369.50000000005087
 20
59.999999999936328
 30
0.0
  0
POINT
  8
DEFPOINTS
  6
CONTINUOUS
 62
    30
 10
-583.49688061334007
 20
59.999999999936392
 30
0.0
  0
TEXT
  8
NOTE
  6
CONTINUOUS
 62
     4
 10
411.02818716308678
 20
214.48530398088951
 30
0.0
 40
53.0
  1
2X3-14X20 Oval hole(without detachable leg)
 50
359.99999749547919
 41
0.51
  7
KAIGAI_STANDARD_1
  0
TEXT
  8
NOTE
  6
CONTINUOUS
 62
     4
 10
411.02818716307218
 20
289.86101669295198
 30
0.0
 40
53.0
  1
2x3-14x31 Ovalhole
 50
359.99999749547919
 41
0.51
  7
KAIGAI_STANDARD_1
  0
LINE
  8
NOTE
  6
CONTINUOUS
 62
     4
 10
-158.55296127360629
 20
184.22287314294951
 30
0.0
 11
-188.5029437252451
 21
175.99999999993631
 31
0.0
  0
LINE
  8
NOTE
  6
CONTINUOUS
 62
     4
 10
-188.5029437252451
 20
175.99999999993631
 30
0.0
 11
-166.67693455049451
 21
198.0962081606867
 31
0.0
  0
LINE
  8
NOTE
  6
CONTINUOUS
 62
     4
 10
-188.5029437252451
 20
175.99999999993631
 30
0.0
 11
-162.61494791205041
 21
191.15954065181899
 31
0.0
  0
LINE
  8
NOTE
  6
CONTINUOUS
 62
     4
 10
-162.61494791205041
 20
191.15954065181899
 30
0.0
 11
397.94336735468818
 21
519.41231963697817
 31
0.0
  0
LINE
  8
NOTE
  6
CONTINUOUS
 62
     4
 10
397.94336735468818
 20
519.41231963697817
 30
0.0
 11
1147.2779197861089
 21
519.41231963697817
 31
0.0
  0
LINE
  8
NOTE
  6
CONTINUOUS
 62
     4
 10
-157.69444112631751
 20
202.68187743801539
 30
0.0
 11
-184.5029437252451
 21
186.99999999993631
 31
0.0
  0
LINE
  8
NOTE
  6
CONTINUOUS
 62
     4
 10
-184.5029437252451
 20
186.99999999993631
 30
0.0
 11
-169.12703803377369
 21
213.98515547005451
 31
0.0
  0
LINE
  8
NOTE
  6
CONTINUOUS
 62
     4
 10
-184.5029437252451
 20
186.99999999993631
 30
0.0
 11
-163.4107395800456
 21
208.33351645403491
 31
0.0
  0
LINE
  8
NOTE
  6
CONTINUOUS
 62
     4
 10
-163.4107395800456
 20
208.33351645403491
 30
0.0
 11
397.94336735468818
 21
776.10997994870013
 31
0.0
  0
LINE
  8
NOTE
  6
CONTINUOUS
 62
     4
 10
397.94336735468818
 20
776.10997994870013
 30
0.0
 11
1149.019547555974
 21
776.10997994870013
 31
0.0
  0
TEXT
  8
NOTE
  6
CONTINUOUS
 62
     4
 10
408.21808974190208
 20
541.25576042114881
 30
0.0
 40
53.0
  1
Service valve %%C28.58<Gas> 
 50
0.0000025045208307
 41
0.51
  7
KAIGAI_STANDARD_1
  0
TEXT
  8
NOTE
  6
CONTINUOUS
 62
     4
 10
407.57166497822612
 20
619.50815872705607
 30
0.0
 40
53.0
  1
For Refrigerant pipe %%C28.58
 50
0.0000025045208307
 41
0.51
  7
KAIGAI_STANDARD_1
  0
TEXT
  8
NOTE
  6
CONTINUOUS
 62
     4
 10
410.07548358067282
 20
798.49898035241665
 30
0.0
 40
53.0
  1
Service valve %%C15.88<Liquid> 
 50
0.0000025045208307
 41
0.51
  7
KAIGAI_STANDARD_1
  0
TEXT
  8
NOTE
  6
CONTINUOUS
 62
     4
 10
411.04603202240833
 20
876.75137865832403
 30
0.0
 40
53.0
  1
For Refrigerant pipe %%C15.88
 50
0.0000025045208307
 41
0.51
  7
KAIGAI_STANDARD_1
  0
LINE
  8
NOTE
  6
CONTINUOUS
 62
     4
 10
356.31594605116697
 20
26.227391018213901
 30
0.0
 11
339.99999999994179
 21
-0.2000000000680302
 31
0.0
  0
LINE
  8
NOTE
  6
CONTINUOUS
 62
     4
 10
339.99999999994179
 20
-0.2000000000680302
 30
0.0
 11
340.91632839877269
 21
30.844764998961178
 31
0.0
  0
LINE
  8
NOTE
  6
CONTINUOUS
 62
     4
 10
339.99999999994179
 20
-0.2000000000680302
 30
0.0
 11
348.61613722496259
 21
28.536078008588451
 31
0.0
  0
LINE
  8
NOTE
  6
CONTINUOUS
 62
     4
 10
348.61613722496259
 20
28.536078008588451
 30
0.0
 11
398.39612897114421
 21
194.5596322683686
 31
0.0
  0
LINE
  8
NOTE
  6
CONTINUOUS
 62
     4
 10
398.39612897114421
 20
194.5596322683686
 30
0.0
 11
1519.6684370717851
 21
194.5596322683686
 31
0.0
  0
LINE
  8
OUTLINE
  6
CONTINUOUS
 62
     3
 10
-360.00000000005087
 20
1817.0999999999369
 30
0.0
 11
-360.00000000005087
 21
1816.9999999999361
 31
0.0
  0
LINE
  8
OUTLINE
  6
CONTINUOUS
 62
     3
 10
-362.70000000004802
 20
1815.9999999999361
 30
0.0
 11
-360.99973351158411
 21
1816.000000035335
 31
0.0
  0
ARC
  8
OUTLINE
  6
CONTINUOUS
 62
     3
 10
-360.99999996324919
 20
1816.9999999644369
 30
0.0
 40
0.9999999645999999
 50
270.01526655645108
 51
0.0000020304221407
  0
ARC
  8
OUTLINE
  6
CONTINUOUS
 62
     3
 10
-362.70000000004802
 20
1815.6999999999371
 30
0.0
 40
0.3
 50
90.0
 51
180.0
  0
LINE
  8
NOTE
  6
CONTINUOUS
 62
     4
 10
-149.0029437252451
 20
186.99999999993631
 30
0.0
 11
-220.0029437252451
 21
186.99999999993631
 31
0.0
  0
LINE
  8
NOTE
  6
CONTINUOUS
 62
     4
 10
-184.5029437252451
 20
151.49999999993631
 30
0.0
 11
-184.5029437252451
 21
222.49999999993631
 31
0.0
  0
LINE
  8
SIZE
  6
CONTINUOUS
 62
    30
 10
-184.5029437252451
 20
242.49999999993631
 30
0.0
 11
-184.5029437252451
 21
554.64370866102217
 31
0.0
  0
LINE
  8
SIZE
  6
CONTINUOUS
 62
    30
 10
-369.50000000005087
 20
195.99999999993631
 30
0.0
 11
-369.50000000005087
 21
554.64370866102217
 31
0.0
  0
LINE
  8
SIZE
  6
CONTINUOUS
 62
    30
 10
-184.5029437252451
 20
534.64370866102206
 30
0.0
 11
-369.50000000005087
 21
534.64370866102206
 31
0.0
  0
LINE
  8
SIZE
  6
CONTINUOUS
 62
    30
 10
-369.50000000005087
 20
534.64370866102206
 30
0.0
 11
-525.21428571433864
 21
534.64370866102206
 31
0.0
  0
CIRCLE
  8
SIZE
  6
CONTINUOUS
 62
    30
 10
-184.5029437252451
 20
534.64370866102206
 30
0.0
 40
7.5
  0
CIRCLE
  8
SIZE
  6
CONTINUOUS
 62
    30
 10
-369.50000000005087
 20
534.64370866102206
 30
0.0
 40
7.5
  0
TEXT
  8
SIZE
  6
CONTINUOUS
 62
    30
 10
-508.97714285719582
 20
554.64370866102206
 30
0.0
 40
40.0
  1
185
 50
0.0
 41
0.9
 51
0.0
  7
STANDARD
 71
     0
 72
     1
 11
-462.35714285719581
 21
554.64370866102206
 31
0.0
210
0.0
220
0.0
230
1.0
  0
POINT
  8
DEFPOINTS
  6
CONTINUOUS
 62
    30
 10
-184.5029437252451
 20
222.49999999993631
 30
0.0
  0
POINT
  8
DEFPOINTS
  6
CONTINUOUS
 62
    30
 10
-369.50000000005087
 20
175.99999999993631
 30
0.0
  0
POINT
  8
DEFPOINTS
  6
CONTINUOUS
 62
    30
 10
-369.50000000005087
 20
534.64370866102206
 30
0.0
  0
LINE
  8
SIZE
  6
CONTINUOUS
 62
    30
 10
-240.0029437252451
 20
186.99999999993631
 30
0.0
 11
-716.63538352526666
 21
186.99999999993651
 31
0.0
  0
LINE
  8
SIZE
  6
CONTINUOUS
 62
    30
 10
-389.50000000005087
 20
59.999999999936328
 30
0.0
 11
-716.63538352526666
 21
59.999999999936428
 31
0.0
  0
LINE
  8
SIZE
  6
CONTINUOUS
 62
    30
 10
-696.63538352526655
 20
186.99999999993639
 30
0.0
 11
-696.63538352526655
 21
59.999999999936428
 31
0.0
  0
CIRCLE
  8
SIZE
  6
CONTINUOUS
 62
    30
 10
-696.63538352526655
 20
186.99999999993639
 30
0.0
 40
7.5
  0
CIRCLE
  8
SIZE
  6
CONTINUOUS
 62
    30
 10
-696.63538352526655
 20
59.999999999936428
 30
0.0
 40
7.5
  0
TEXT
  8
SIZE
  6
CONTINUOUS
 62
    30
 10
-716.63538352526666
 20
76.879999999936302
 30
0.0
 40
40.0
  1
127
 50
90.0
 41
0.9
 51
0.0
  7
STANDARD
 71
     0
 72
     1
 11
-716.63538352526666
 21
123.49999999993631
 31
0.0
210
0.0
220
0.0
230
1.0
  0
POINT
  8
DEFPOINTS
  6
CONTINUOUS
 62
    30
 10
-220.0029437252451
 20
186.99999999993631
 30
0.0
  0
POINT
  8
DEFPOINTS
  6
CONTINUOUS
 62
    30
 10
-369.50000000005087
 20
59.999999999936328
 30
0.0
  0
POINT
  8
DEFPOINTS
  6
CONTINUOUS
 62
    30
 10
-696.63538352526655
 20
59.999999999936428
 30
0.0
  0
ENDSEC
  0
EOF

