  0
SECTION
  2
HEADER
  9
$ACADVER
  1
AC1006
  9
$INSBASE
 10
0.0
 20
0.0
 30
0.0
  9
$EXTMIN
 10
-1557.5870096912181
 20
-492.9361213465636
  9
$EXTMAX
 10
967.00461892064038
 20
2112.8595959840568
  9
$LIMMIN
 10
-4267.1522210604817
 20
-2696.0832101984129
  9
$LIMMAX
 10
7190.7174225864646
 20
5141.155363923066
  9
$ORTHOMODE
 70
     0
  9
$REGENMODE
 70
     1
  9
$FILLMODE
 70
     1
  9
$QTEXTMODE
 70
     0
  9
$MIRRTEXT
 70
     0
  9
$LTSCALE
 40
20.0
  9
$ATTMODE
 70
     1
  9
$TEXTSIZE
 40
53.0
  9
$TRACEWID
 40
0.05
  9
$TEXTSTYLE
  7
KAIGAI_STANDARD_1
  9
$CLAYER
  8
NOTE
  9
$CELTYPE
  6
CONTINUOUS
  9
$CECOLOR
 62
     7
  9
$DIMSCALE
 40
1.0
  9
$DIMASZ
 40
30.0
  9
$DIMEXO
 40
20.0
  9
$DIMDLI
 40
80.0
  9
$DIMRND
 40
0.0
  9
$DIMDLE
 40
0.0
  9
$DIMEXE
 40
20.0
  9
$DIMTP
 40
0.0
  9
$DIMTM
 40
0.0
  9
$DIMTXT
 40
40.0
  9
$DIMCEN
 40
0.09
  9
$DIMTSZ
 40
0.0
  9
$DIMTOL
 70
     0
  9
$DIMLIM
 70
     0
  9
$DIMTIH
 70
     0
  9
$DIMTOH
 70
     0
  9
$DIMSE1
 70
     0
  9
$DIMSE2
 70
     0
  9
$DIMTAD
 70
     1
  9
$DIMZIN
 70
     8
  9
$DIMBLK
  1

  9
$DIMASO
 70
     1
  9
$DIMSHO
 70
     0
  9
$DIMPOST
  1

  9
$DIMAPOST
  1

  9
$DIMALT
 70
     0
  9
$DIMALTD
 70
     2
  9
$DIMALTF
 40
25.399999999999999
  9
$DIMLFAC
 40
1.0
  9
$DIMTOFL
 70
     1
  9
$DIMTVP
 40
0.0
  9
$DIMTIX
 70
     0
  9
$DIMSOXD
 70
     0
  9
$DIMSAH
 70
     0
  9
$DIMBLK1
  1

  9
$DIMBLK2
  1

  9
$LUNITS
 70
     2
  9
$LUPREC
 70
     4
  9
$SKETCHINC
 40
0.1
  9
$FILLETRAD
 40
0.0
  9
$AUNITS
 70
     1
  9
$AUPREC
 70
     3
  9
$MENU
  1
ACAD
  9
$ELEVATION
 40
0.0
  9
$THICKNESS
 40
0.0
  9
$LIMCHECK
 70
     0
  9
$CHAMFERA
 40
0.0
  9
$CHAMFERB
 40
0.0
  9
$SKPOLY
 70
     0
  9
$TDCREATE
 40
2455902.607169062
  9
$TDUPDATE
 40
2457837.412996458
  9
$TDINDWG
 40
1.6379976505
  9
$TDUSRTIMER
 40
1.6379940394
  9
$USRTIMER
 70
     1
  9
$ANGBASE
 50
0.0
  9
$ANGDIR
 70
     0
  9
$PDMODE
 70
     3
  9
$PDSIZE
 40
-2.0
  9
$PLINEWID
 40
0.0
  9
$SPLFRAME
 70
     0
  9
$SPLINETYPE
 70
     6
  9
$SPLINESEGS
 70
     8
  9
$SURFTAB1
 70
     6
  9
$SURFTAB2
 70
     6
  9
$SURFTYPE
 70
     6
  9
$SURFU
 70
     6
  9
$SURFV
 70
     6
  9
$UCSNAME
  2

  9
$UCSORG
 10
0.0
 20
0.0
 30
0.0
  9
$UCSXDIR
 10
1.0
 20
0.0
 30
0.0
  9
$UCSYDIR
 10
0.0
 20
1.0
 30
0.0
  9
$USERI1
 70
     0
  9
$USERI2
 70
     0
  9
$USERI3
 70
     0
  9
$USERI4
 70
     0
  9
$USERI5
 70
     0
  9
$USERR1
 40
20.0
  9
$USERR2
 40
0.0
  9
$USERR3
 40
0.0
  9
$USERR4
 40
0.0
  9
$USERR5
 40
0.0
  9
$WORLDVIEW
 70
     1
  9
$ATTDIA
 70
     0
  9
$ATTREQ
 70
     1
  9
$BLIPMODE
 70
     1
  9
$COORDS
 70
     1
  9
$DRAGMODE
 70
     2
  9
$OSMODE
 70
     0
  9
$HANDLING
 70
     0
  9
$HANDSEED
  5
99D8E
  0
ENDSEC
  0
SECTION
  2
TABLES
  0
TABLE
  2
LTYPE
 70
     2
  0
LTYPE
  2
CONTINUOUS
 70
     0
  3
実線
 72
    65
 73
     0
 40
0.0
  0
LTYPE
  2
DASHDOT
 70
     0
  3
____ _ ____ _ ____ _ ____ _ ____ _ ____ _ ____
 72
    65
 73
     4
 40
5.5
 49
4.0
 49
-0.6
 49
0.3
 49
-0.6
  0
ENDTAB
  0
TABLE
  2
LAYER
 70
    12
  0
LAYER
  2
0
 70
     0
 62
     7
  6
CONTINUOUS
  0
LAYER
  2
OUTLINE
 70
     0
 62
     3
  6
CONTINUOUS
  0
LAYER
  2
DETAIL
 70
     0
 62
     5
  6
CONTINUOUS
  0
LAYER
  2
BASIS
 70
     0
 62
     6
  6
DASHDOT
  0
LAYER
  2
SIZE
 70
     0
 62
    30
  6
CONTINUOUS
  0
LAYER
  2
NOTE
 70
     0
 62
     4
  6
CONTINUOUS
  0
LAYER
  2
ARRANGE
 70
     0
 62
     1
  6
CONTINUOUS
  0
LAYER
  2
FIX
 70
     0
 62
    11
  6
CONTINUOUS
  0
LAYER
  2
SERVICESPACE
 70
     0
 62
     2
  6
DASHDOT
  0
LAYER
  2
ETC
 70
     0
 62
    61
  6
CONTINUOUS
  0
LAYER
  2
SYMBOLLINE
 70
     0
 62
    15
  6
CONTINUOUS
  0
LAYER
  2
DEFPOINTS
 70
     0
 62
     7
  6
CONTINUOUS
  0
ENDTAB
  0
TABLE
  2
STYLE
 70
     2
  0
STYLE
  2
STANDARD
 70
     0
 40
0.0
 41
0.9
 50
0.0
 71
     0
 42
64.0
  3
SIMPLEX
  4
BIGFONT
  0
STYLE
  2
KAIGAI_STANDARD_1
 70
     0
 40
53.0
 41
0.51
 50
0.0
 71
     0
 42
53.0
  3
MONOTXT.shx
  4
BIGFONT.shx
  0
ENDTAB
  0
TABLE
  2
VIEW
 70
     1
  0
VIEW
  2
ALL
 70
     0
 40
9000.0
 10
241.50664699999999
 20
0.0
 41
12483.01
 11
0.0
 21
0.0
 31
1.0
 12
0.0
 22
0.0
 32
0.0
 42
50.0
 43
0.0
 44
0.0
 50
0.0
 71
     0
  0
ENDTAB
  0
TABLE
  2
UCS
 70
     0
  0
ENDTAB
  0
TABLE
  2
VPORT
 70
     1
  0
VPORT
  2
*ACTIVE
 70
     0
 10
0.0
 20
0.0
 11
1.0
 21
1.0
 12
-295.29119538528897
 22
809.96173731874649
 13
0.0
 23
0.0
 14
50.0
 24
50.0
 15
100.0
 25
100.0
 16
0.0
 26
0.0
 36
1.0
 17
0.0
 27
0.0
 37
0.0
 40
2625.7126272720011
 41
2.3073979591836729
 42
50.0
 43
0.0
 44
0.0
 50
0.0
 51
0.0
 71
     0
 72
  1000
 73
     1
 74
     0
 75
     0
 76
     0
 77
     0
 78
     0
  0
ENDTAB
  0
TABLE
  2
DWGMGR
 70
     0
  0
ENDTAB
  0
ENDSEC
  0
SECTION
  2
BLOCKS
  0
ENDSEC
  0
SECTION
  2
ENTITIES
  0
LINE
  8
DETAIL
  6
CONTINUOUS
 62
     5
 10
369.50000000005821
 20
-0.0000000000636646
 30
0.0
 11
317.00000000005821
 21
-0.0000000000636646
 31
0.0
  0
LINE
  8
DETAIL
  6
CONTINUOUS
 62
     5
 10
-316.99999999994179
 20
-0.0000000000636646
 30
0.0
 11
-369.49999999994179
 21
-0.0000000000636646
 31
0.0
  0
LINE
  8
DETAIL
  6
CONTINUOUS
 62
     5
 10
369.50000000005821
 20
2.2999999999374259
 30
0.0
 11
317.00000000005821
 21
2.2999999999374259
 31
0.0
  0
LINE
  8
DETAIL
  6
CONTINUOUS
 62
     5
 10
-316.99999999994179
 20
2.2999999999374259
 30
0.0
 11
-369.49999999994179
 21
2.2999999999374259
 31
0.0
  0
LINE
  8
DETAIL
  6
CONTINUOUS
 62
     5
 10
319.50000000005821
 20
3.9999999999363349
 30
0.0
 11
315.8000000000539
 21
3.9999999999363349
 31
0.0
  0
LINE
  8
DETAIL
  6
CONTINUOUS
 62
     5
 10
-315.7999999999447
 20
3.9999999999363349
 30
0.0
 11
-319.49999999994179
 21
3.9999999999363349
 31
0.0
  0
LINE
  8
DETAIL
  6
CONTINUOUS
 62
     5
 10
319.50000000005821
 20
55.999999999936342
 30
0.0
 11
315.8000000000539
 21
55.999999999936342
 31
0.0
  0
LINE
  8
DETAIL
  6
CONTINUOUS
 62
     5
 10
-315.7999999999447
 20
55.999999999936342
 30
0.0
 11
-319.49999999994179
 21
55.999999999936342
 31
0.0
  0
LINE
  8
DETAIL
  6
CONTINUOUS
 62
     5
 10
369.50000000005821
 20
57.699999999937063
 30
0.0
 11
317.00000000005821
 21
57.699999999937063
 31
0.0
  0
LINE
  8
DETAIL
  6
CONTINUOUS
 62
     5
 10
-316.99999999994179
 20
57.699999999937063
 30
0.0
 11
-369.49999999994179
 21
57.699999999937063
 31
0.0
  0
LINE
  8
DETAIL
  6
CONTINUOUS
 62
     5
 10
369.50000000005821
 20
59.999999999936328
 30
0.0
 11
317.00000000005821
 21
59.999999999936328
 31
0.0
  0
LINE
  8
DETAIL
  6
CONTINUOUS
 62
     5
 10
-316.99999999994179
 20
59.999999999936328
 30
0.0
 11
-369.49999999994179
 21
59.999999999936328
 31
0.0
  0
LINE
  8
DETAIL
  6
CONTINUOUS
 62
     5
 10
-369.49999999994179
 20
62.299999999937427
 30
0.0
 11
-318.99999999994179
 21
62.299999999937427
 31
0.0
  0
LINE
  8
DETAIL
  6
CONTINUOUS
 62
     5
 10
319.00000000005821
 20
62.299999999937427
 30
0.0
 11
369.50000000005821
 21
62.299999999937427
 31
0.0
  0
LINE
  8
DETAIL
  6
CONTINUOUS
 62
     5
 10
320.46357325975993
 20
64.499999999936335
 30
0.0
 11
300.8000000000539
 21
64.499999999936335
 31
0.0
  0
LINE
  8
DETAIL
  6
CONTINUOUS
 62
     5
 10
-300.7999999999447
 20
64.499999999936335
 30
0.0
 11
-317.7999999999447
 21
64.499999999936335
 31
0.0
  0
LINE
  8
DETAIL
  6
CONTINUOUS
 62
     5
 10
-278.40267501514609
 20
1828.7551543565371
 30
0.0
 11
-279.44995002804347
 21
1827.7730488735381
 31
0.0
  0
LINE
  8
DETAIL
  6
CONTINUOUS
 62
     5
 10
-276.987304126742
 20
1820.8448456432379
 30
0.0
 11
-275.9400291138445
 21
1821.826951126337
 31
0.0
  0
LINE
  8
DETAIL
  6
CONTINUOUS
 62
     5
 10
-273.18199147623818
 20
1821.826951126337
 30
0.0
 11
-274.2292664891429
 21
1820.8448456432379
 31
0.0
  0
LINE
  8
DETAIL
  6
CONTINUOUS
 62
     5
 10
306.8094010768545
 20
70.499999999936335
 30
0.0
 11
302.1905989233565
 21
70.499999999936335
 31
0.0
  0
LINE
  8
DETAIL
  6
CONTINUOUS
 62
     5
 10
-302.19059892314539
 20
70.499999999936335
 30
0.0
 11
-306.80940107664361
 21
70.499999999936335
 31
0.0
  0
LINE
  8
DETAIL
  6
CONTINUOUS
 62
     5
 10
-304.7999999999447
 20
72.499999999936335
 30
0.0
 11
-304.19999999994621
 21
72.499999999936335
 31
0.0
  0
LINE
  8
DETAIL
  6
CONTINUOUS
 62
     5
 10
304.2000000000553
 20
72.499999999936335
 30
0.0
 11
304.80000000005379
 21
72.499999999936335
 31
0.0
  0
LINE
  8
DETAIL
  6
CONTINUOUS
 62
     5
 10
-306.49999999994179
 20
74.199999999937063
 30
0.0
 11
-304.7999999999447
 21
74.199999999937063
 31
0.0
  0
LINE
  8
DETAIL
  6
CONTINUOUS
 62
     5
 10
-304.19999999994621
 20
74.199999999937063
 30
0.0
 11
-302.49999999994179
 21
74.199999999937063
 31
0.0
  0
LINE
  8
DETAIL
  6
CONTINUOUS
 62
     5
 10
302.50000000005821
 20
74.199999999937063
 30
0.0
 11
304.2000000000553
 21
74.199999999937063
 31
0.0
  0
LINE
  8
DETAIL
  6
CONTINUOUS
 62
     5
 10
304.80000000005379
 20
74.199999999937063
 30
0.0
 11
306.50000000005821
 21
74.199999999937063
 31
0.0
  0
LINE
  8
DETAIL
  6
CONTINUOUS
 62
     5
 10
306.50000000005821
 20
74.799999999937427
 30
0.0
 11
304.80000000005379
 21
74.799999999937427
 31
0.0
  0
LINE
  8
DETAIL
  6
CONTINUOUS
 62
     5
 10
304.2000000000553
 20
74.799999999937427
 30
0.0
 11
302.50000000005821
 21
74.799999999937427
 31
0.0
  0
LINE
  8
DETAIL
  6
CONTINUOUS
 62
     5
 10
-302.49999999994179
 20
74.799999999937427
 30
0.0
 11
-304.19999999994621
 21
74.799999999937427
 31
0.0
  0
LINE
  8
DETAIL
  6
CONTINUOUS
 62
     5
 10
-304.7999999999447
 20
74.799999999937427
 30
0.0
 11
-306.49999999994179
 21
74.799999999937427
 31
0.0
  0
LINE
  8
DETAIL
  6
CONTINUOUS
 62
     5
 10
304.80000000005379
 20
76.499999999936335
 30
0.0
 11
304.2000000000553
 21
76.499999999936335
 31
0.0
  0
LINE
  8
DETAIL
  6
CONTINUOUS
 62
     5
 10
-304.19999999994621
 20
76.499999999936335
 30
0.0
 11
-304.7999999999447
 21
76.499999999936335
 31
0.0
  0
LINE
  8
DETAIL
  6
CONTINUOUS
 62
     5
 10
306.8094010768545
 20
78.499999999936335
 30
0.0
 11
302.1905989233565
 21
78.499999999936335
 31
0.0
  0
LINE
  8
DETAIL
  6
CONTINUOUS
 62
     5
 10
-302.19059892314539
 20
78.499999999936335
 30
0.0
 11
-306.80940107664361
 21
78.499999999936335
 31
0.0
  0
LINE
  8
DETAIL
  6
CONTINUOUS
 62
     5
 10
295.80000000005379
 20
87.999999999936335
 30
0.0
 11
-295.7999999999447
 21
87.999999999936335
 31
0.0
  0
LINE
  8
DETAIL
  6
CONTINUOUS
 62
     5
 10
-226.49999999994179
 20
93.00717967683704
 30
0.0
 11
149.50000000005821
 21
93.00717967683704
 31
0.0
  0
LINE
  8
DETAIL
  6
CONTINUOUS
 62
     5
 10
-296.49999999994179
 20
94.999999999936335
 30
0.0
 11
-295.7999999999447
 21
94.999999999936335
 31
0.0
  0
LINE
  8
DETAIL
  6
CONTINUOUS
 62
     5
 10
296.50000000005821
 20
94.999999999936335
 30
0.0
 11
295.80000000005379
 21
94.999999999936335
 31
0.0
  0
LINE
  8
DETAIL
  6
CONTINUOUS
 62
     5
 10
295.80000000005379
 20
94.999999999936335
 30
0.0
 11
152.50000000005821
 21
94.999999999936335
 31
0.0
  0
LINE
  8
DETAIL
  6
CONTINUOUS
 62
     5
 10
-229.49999999994179
 20
94.999999999936335
 30
0.0
 11
-295.7999999999447
 21
94.999999999936335
 31
0.0
  0
LINE
  8
DETAIL
  6
CONTINUOUS
 62
     5
 10
160.0999640542577
 20
96.999999999936335
 30
0.0
 11
152.50000000005821
 21
96.999999999936335
 31
0.0
  0
LINE
  8
DETAIL
  6
CONTINUOUS
 62
     5
 10
-229.49999999994179
 20
96.999999999936335
 30
0.0
 11
-237.09996405414131
 21
96.999999999936335
 31
0.0
  0
LINE
  8
DETAIL
  6
CONTINUOUS
 62
     5
 10
291.50000000005821
 20
99.999999999936335
 30
0.0
 11
166.50000000005821
 21
99.999999999936335
 31
0.0
  0
LINE
  8
DETAIL
  6
CONTINUOUS
 62
     5
 10
-243.49999999994179
 20
99.999999999936335
 30
0.0
 11
-291.49999999994179
 21
99.999999999936335
 31
0.0
  0
LINE
  8
DETAIL
  6
CONTINUOUS
 62
     5
 10
176.8094010768618
 20
106.99999999993631
 30
0.0
 11
172.19059892335639
 21
106.99999999993631
 31
0.0
  0
LINE
  8
DETAIL
  6
CONTINUOUS
 62
     5
 10
112.8094010768618
 20
106.99999999993631
 30
0.0
 11
108.1905989233564
 21
106.99999999993631
 31
0.0
  0
LINE
  8
DETAIL
  6
CONTINUOUS
 62
     5
 10
-185.19059892313811
 20
106.99999999993631
 30
0.0
 11
-189.8094010766435
 21
106.99999999993631
 31
0.0
  0
LINE
  8
DETAIL
  6
CONTINUOUS
 62
     5
 10
-251.1905989231382
 20
106.99999999993631
 30
0.0
 11
-255.8094010766435
 21
106.99999999993631
 31
0.0
  0
LINE
  8
DETAIL
  6
CONTINUOUS
 62
     5
 10
-253.7999999999447
 20
108.99999999993631
 30
0.0
 11
-253.19999999994619
 21
108.99999999993631
 31
0.0
  0
LINE
  8
DETAIL
  6
CONTINUOUS
 62
     5
 10
-187.7999999999447
 20
108.99999999993631
 30
0.0
 11
-187.1999999999461
 21
108.99999999993631
 31
0.0
  0
LINE
  8
DETAIL
  6
CONTINUOUS
 62
     5
 10
110.2000000000553
 20
108.99999999993631
 30
0.0
 11
110.8000000000538
 21
108.99999999993631
 31
0.0
  0
LINE
  8
DETAIL
  6
CONTINUOUS
 62
     5
 10
174.2000000000553
 20
108.99999999993631
 30
0.0
 11
174.80000000005381
 21
108.99999999993631
 31
0.0
  0
LINE
  8
DETAIL
  6
CONTINUOUS
 62
     5
 10
-255.49999999994179
 20
110.69999999993701
 30
0.0
 11
-253.7999999999447
 21
110.69999999993701
 31
0.0
  0
LINE
  8
DETAIL
  6
CONTINUOUS
 62
     5
 10
-253.19999999994619
 20
110.69999999993701
 30
0.0
 11
-251.49999999994179
 21
110.69999999993701
 31
0.0
  0
LINE
  8
DETAIL
  6
CONTINUOUS
 62
     5
 10
-189.49999999994179
 20
110.69999999993701
 30
0.0
 11
-187.7999999999447
 21
110.69999999993701
 31
0.0
  0
LINE
  8
DETAIL
  6
CONTINUOUS
 62
     5
 10
-187.1999999999461
 20
110.69999999993701
 30
0.0
 11
-185.49999999994179
 21
110.69999999993701
 31
0.0
  0
LINE
  8
DETAIL
  6
CONTINUOUS
 62
     5
 10
108.50000000005819
 20
110.69999999993701
 30
0.0
 11
110.2000000000553
 21
110.69999999993701
 31
0.0
  0
LINE
  8
DETAIL
  6
CONTINUOUS
 62
     5
 10
110.8000000000538
 20
110.69999999993701
 30
0.0
 11
112.50000000005819
 21
110.69999999993701
 31
0.0
  0
LINE
  8
DETAIL
  6
CONTINUOUS
 62
     5
 10
172.50000000005821
 20
110.69999999993701
 30
0.0
 11
174.2000000000553
 21
110.69999999993701
 31
0.0
  0
LINE
  8
DETAIL
  6
CONTINUOUS
 62
     5
 10
174.80000000005381
 20
110.69999999993701
 30
0.0
 11
176.50000000005821
 21
110.69999999993701
 31
0.0
  0
LINE
  8
DETAIL
  6
CONTINUOUS
 62
     5
 10
176.50000000005821
 20
111.2999999999374
 30
0.0
 11
174.80000000005381
 21
111.2999999999374
 31
0.0
  0
LINE
  8
DETAIL
  6
CONTINUOUS
 62
     5
 10
174.2000000000553
 20
111.2999999999374
 30
0.0
 11
172.50000000005821
 21
111.2999999999374
 31
0.0
  0
LINE
  8
DETAIL
  6
CONTINUOUS
 62
     5
 10
112.50000000005819
 20
111.2999999999374
 30
0.0
 11
110.8000000000538
 21
111.2999999999374
 31
0.0
  0
LINE
  8
DETAIL
  6
CONTINUOUS
 62
     5
 10
110.2000000000553
 20
111.2999999999374
 30
0.0
 11
108.50000000005819
 21
111.2999999999374
 31
0.0
  0
LINE
  8
DETAIL
  6
CONTINUOUS
 62
     5
 10
-185.49999999994179
 20
111.2999999999374
 30
0.0
 11
-187.1999999999461
 21
111.2999999999374
 31
0.0
  0
LINE
  8
DETAIL
  6
CONTINUOUS
 62
     5
 10
-187.7999999999447
 20
111.2999999999374
 30
0.0
 11
-189.49999999994179
 21
111.2999999999374
 31
0.0
  0
LINE
  8
DETAIL
  6
CONTINUOUS
 62
     5
 10
-251.49999999994179
 20
111.2999999999374
 30
0.0
 11
-253.19999999994619
 21
111.2999999999374
 31
0.0
  0
LINE
  8
DETAIL
  6
CONTINUOUS
 62
     5
 10
-253.7999999999447
 20
111.2999999999374
 30
0.0
 11
-255.49999999994179
 21
111.2999999999374
 31
0.0
  0
LINE
  8
DETAIL
  6
CONTINUOUS
 62
     5
 10
174.80000000005381
 20
112.99999999993631
 30
0.0
 11
174.2000000000553
 21
112.99999999993631
 31
0.0
  0
LINE
  8
DETAIL
  6
CONTINUOUS
 62
     5
 10
110.8000000000538
 20
112.99999999993631
 30
0.0
 11
110.2000000000553
 21
112.99999999993631
 31
0.0
  0
LINE
  8
DETAIL
  6
CONTINUOUS
 62
     5
 10
-187.1999999999461
 20
112.99999999993631
 30
0.0
 11
-187.7999999999447
 21
112.99999999993631
 31
0.0
  0
LINE
  8
DETAIL
  6
CONTINUOUS
 62
     5
 10
-253.19999999994619
 20
112.99999999993631
 30
0.0
 11
-253.7999999999447
 21
112.99999999993631
 31
0.0
  0
LINE
  8
DETAIL
  6
CONTINUOUS
 62
     5
 10
159.30000000005381
 20
113.99999999993631
 30
0.0
 11
160.1000000000567
 21
113.99999999993631
 31
0.0
  0
LINE
  8
DETAIL
  6
CONTINUOUS
 62
     5
 10
-236.2999999999447
 20
113.99999999993631
 30
0.0
 11
-237.09999999994039
 21
113.99999999993631
 31
0.0
  0
LINE
  8
DETAIL
  6
CONTINUOUS
 62
     5
 10
176.8094010768618
 20
114.99999999993631
 30
0.0
 11
172.19059892335639
 21
114.99999999993631
 31
0.0
  0
LINE
  8
DETAIL
  6
CONTINUOUS
 62
     5
 10
112.8094010768618
 20
114.99999999993631
 30
0.0
 11
108.1905989233564
 21
114.99999999993631
 31
0.0
  0
LINE
  8
DETAIL
  6
CONTINUOUS
 62
     5
 10
-185.19059892313811
 20
114.99999999993631
 30
0.0
 11
-189.8094010766435
 21
114.99999999993631
 31
0.0
  0
LINE
  8
DETAIL
  6
CONTINUOUS
 62
     5
 10
-251.1905989231382
 20
114.99999999993631
 30
0.0
 11
-255.8094010766435
 21
114.99999999993631
 31
0.0
  0
LINE
  8
DETAIL
  6
CONTINUOUS
 62
     5
 10
159.30000000005381
 20
116.99999999993631
 30
0.0
 11
161.58962968155541
 21
116.99999999993631
 31
0.0
  0
LINE
  8
DETAIL
  6
CONTINUOUS
 62
     5
 10
163.50000000005821
 20
116.99999999993631
 30
0.0
 11
161.58962968155541
 21
116.99999999993631
 31
0.0
  0
LINE
  8
DETAIL
  6
CONTINUOUS
 62
     5
 10
-236.2999999999447
 20
116.99999999993631
 30
0.0
 11
-238.58962968134441
 21
116.99999999993631
 31
0.0
  0
LINE
  8
DETAIL
  6
CONTINUOUS
 62
     5
 10
-238.58962968134441
 20
116.99999999993631
 30
0.0
 11
-240.49999999994179
 21
116.99999999993631
 31
0.0
  0
POLYLINE
  8
DETAIL
  6
CONTINUOUS
 62
     5
 66
     1
 10
0.0
 20
0.0
 30
0.0
 70
     0
  0
VERTEX
  8
DETAIL
  6
CONTINUOUS
 62
     5
 10
332.48864381775638
 20
1810.363834780137
  0
VERTEX
  8
DETAIL
  6
CONTINUOUS
 62
     5
 10
332.72417021296133
 20
1810.439094319137
  0
VERTEX
  8
DETAIL
  6
CONTINUOUS
 62
     5
 10
332.9671834186592
 20
1810.4847151712361
  0
VERTEX
  8
DETAIL
  6
CONTINUOUS
 62
     5
 10
333.21396885196009
 20
1810.499999999937
  0
SEQEND
  8
DETAIL
  6
CONTINUOUS
 62
     5
  0
LINE
  8
DETAIL
  6
CONTINUOUS
 62
     5
 10
-306.80940107664361
 20
70.499999999936335
 30
0.0
 11
-309.1188021534399
 21
74.499999999936335
 31
0.0
  0
LINE
  8
DETAIL
  6
CONTINUOUS
 62
     5
 10
-299.88119784644368
 20
74.499999999936335
 30
0.0
 11
-302.19059892314539
 21
78.499999999936335
 31
0.0
  0
LINE
  8
DETAIL
  6
CONTINUOUS
 62
     5
 10
-278.92725096444337
 20
1835.6210720511369
 30
0.0
 11
-278.98396138404502
 21
1835.493264863037
 31
0.0
  0
LINE
  8
DETAIL
  6
CONTINUOUS
 62
     5
 10
161.50000000005821
 20
273.99999999993628
 30
0.0
 11
160.50000000005821
 21
273.99999999993628
 31
0.0
  0
LINE
  8
DETAIL
  6
CONTINUOUS
 62
     5
 10
-237.49999999994179
 20
278.99999999993628
 30
0.0
 11
-238.49999999994179
 21
278.99999999993628
 31
0.0
  0
LINE
  8
DETAIL
  6
CONTINUOUS
 62
     5
 10
150.3094010768618
 20
300.99999999993628
 30
0.0
 11
145.69059892335639
 21
300.99999999993628
 31
0.0
  0
LINE
  8
DETAIL
  6
CONTINUOUS
 62
     5
 10
-222.6905989231382
 20
300.99999999993628
 30
0.0
 11
-227.30940107664361
 21
300.99999999993628
 31
0.0
  0
LINE
  8
DETAIL
  6
CONTINUOUS
 62
     5
 10
-225.2999999999447
 20
302.99999999993628
 30
0.0
 11
-224.69999999994619
 21
302.99999999993628
 31
0.0
  0
LINE
  8
DETAIL
  6
CONTINUOUS
 62
     5
 10
147.7000000000553
 20
302.99999999993628
 30
0.0
 11
148.30000000005381
 21
302.99999999993628
 31
0.0
  0
LINE
  8
DETAIL
  6
CONTINUOUS
 62
     5
 10
-226.99999999994179
 20
304.69999999993712
 30
0.0
 11
-225.2999999999447
 21
304.69999999993712
 31
0.0
  0
LINE
  8
DETAIL
  6
CONTINUOUS
 62
     5
 10
-224.69999999994619
 20
304.69999999993712
 30
0.0
 11
-222.99999999994179
 21
304.69999999993712
 31
0.0
  0
LINE
  8
DETAIL
  6
CONTINUOUS
 62
     5
 10
146.00000000005821
 20
304.69999999993712
 30
0.0
 11
147.7000000000553
 21
304.69999999993712
 31
0.0
  0
LINE
  8
DETAIL
  6
CONTINUOUS
 62
     5
 10
148.30000000005381
 20
304.69999999993712
 30
0.0
 11
150.00000000005821
 21
304.69999999993712
 31
0.0
  0
LINE
  8
DETAIL
  6
CONTINUOUS
 62
     5
 10
150.00000000005821
 20
305.29999999993743
 30
0.0
 11
148.30000000005381
 21
305.29999999993743
 31
0.0
  0
LINE
  8
DETAIL
  6
CONTINUOUS
 62
     5
 10
147.7000000000553
 20
305.29999999993743
 30
0.0
 11
146.00000000005821
 21
305.29999999993743
 31
0.0
  0
LINE
  8
DETAIL
  6
CONTINUOUS
 62
     5
 10
-222.99999999994179
 20
305.29999999993743
 30
0.0
 11
-224.69999999994619
 21
305.29999999993743
 31
0.0
  0
LINE
  8
DETAIL
  6
CONTINUOUS
 62
     5
 10
-225.2999999999447
 20
305.29999999993743
 30
0.0
 11
-226.99999999994179
 21
305.29999999993743
 31
0.0
  0
LINE
  8
DETAIL
  6
CONTINUOUS
 62
     5
 10
148.30000000005381
 20
306.99999999993628
 30
0.0
 11
147.7000000000553
 21
306.99999999993628
 31
0.0
  0
LINE
  8
DETAIL
  6
CONTINUOUS
 62
     5
 10
-224.69999999994619
 20
306.99999999993628
 30
0.0
 11
-225.2999999999447
 21
306.99999999993628
 31
0.0
  0
LINE
  8
DETAIL
  6
CONTINUOUS
 62
     5
 10
150.3094010768618
 20
308.99999999993628
 30
0.0
 11
145.69059892335639
 21
308.99999999993628
 31
0.0
  0
LINE
  8
DETAIL
  6
CONTINUOUS
 62
     5
 10
-222.6905989231382
 20
308.99999999993628
 30
0.0
 11
-227.30940107664361
 21
308.99999999993628
 31
0.0
  0
LINE
  8
DETAIL
  6
CONTINUOUS
 62
     5
 10
-237.49999999994179
 20
330.99999999993628
 30
0.0
 11
-238.49999999994179
 21
330.99999999993628
 31
0.0
  0
LINE
  8
DETAIL
  6
CONTINUOUS
 62
     5
 10
161.50000000005821
 20
335.99999999993628
 30
0.0
 11
160.50000000005821
 21
335.99999999993628
 31
0.0
  0
LINE
  8
DETAIL
  6
CONTINUOUS
 62
     5
 10
-255.8094010766435
 20
106.99999999993631
 30
0.0
 11
-258.1188021534399
 21
110.99999999993631
 31
0.0
  0
LINE
  8
DETAIL
  6
CONTINUOUS
 62
     5
 10
-248.88119784644371
 20
110.99999999993631
 30
0.0
 11
-251.1905989231382
 21
114.99999999993631
 31
0.0
  0
LINE
  8
DETAIL
  6
CONTINUOUS
 62
     5
 10
-279.87255564393848
 20
1827.276708382037
 30
0.0
 11
-280.06113867164089
 21
1826.7422608019369
 31
0.0
  0
LINE
  8
DETAIL
  6
CONTINUOUS
 62
     5
 10
-191.12842109664049
 20
90.499999999936335
 30
0.0
 11
-192.57594195804259
 21
93.00717967683704
 31
0.0
  0
LINE
  8
DETAIL
  6
CONTINUOUS
 62
     5
 10
-189.8094010766435
 20
106.99999999993631
 30
0.0
 11
-192.1188021534399
 21
110.99999999993631
 31
0.0
  0
LINE
  8
DETAIL
  6
CONTINUOUS
 62
     5
 10
-182.8811978464436
 20
110.99999999993631
 30
0.0
 11
-185.19059892313811
 21
114.99999999993631
 31
0.0
  0
LINE
  8
DETAIL
  6
CONTINUOUS
 62
     5
 10
-258.1188021534399
 20
1516.499999999937
 30
0.0
 11
-255.8094010766435
 21
1520.499999999937
 31
0.0
  0
LINE
  8
DETAIL
  6
CONTINUOUS
 62
     5
 10
-251.1905989231382
 20
1512.499999999937
 30
0.0
 11
-248.88119784644371
 21
1516.499999999937
 31
0.0
  0
LINE
  8
DETAIL
  6
CONTINUOUS
 62
     5
 10
273.06822487695899
 20
1827.7730488735381
 30
0.0
 11
274.11549988985649
 21
1828.7551543565371
 31
0.0
  0
LINE
  8
DETAIL
  6
CONTINUOUS
 62
     5
 10
276.87353752745548
 20
1828.7551543565371
 30
0.0
 11
275.82626251455798
 21
1827.7730488735381
 31
0.0
  0
LINE
  8
DETAIL
  6
CONTINUOUS
 62
     5
 10
278.28890841585962
 20
1820.8448456432379
 30
0.0
 11
279.33618342875712
 21
1821.826951126237
 31
0.0
  0
LINE
  8
DETAIL
  6
CONTINUOUS
 62
     5
 10
-227.30940107664361
 20
300.99999999993628
 30
0.0
 11
-229.6188021534399
 21
304.99999999993628
 31
0.0
  0
LINE
  8
DETAIL
  6
CONTINUOUS
 62
     5
 10
-220.38119784644371
 20
304.99999999993628
 30
0.0
 11
-222.6905989231382
 21
308.99999999993628
 31
0.0
  0
POLYLINE
  8
DETAIL
  6
CONTINUOUS
 62
     5
 66
     1
 10
0.0
 20
0.0
 30
0.0
 70
     0
  0
VERTEX
  8
DETAIL
  6
CONTINUOUS
 62
     5
 10
331.79981632775889
 20
1809.914238845736
  0
VERTEX
  8
DETAIL
  6
CONTINUOUS
 62
     5
 10
331.8620870800587
 20
1809.973880879237
  0
VERTEX
  8
DETAIL
  6
CONTINUOUS
 62
     5
 10
332.05428253806173
 20
1810.129436614237
  0
VERTEX
  8
DETAIL
  6
CONTINUOUS
 62
     5
 10
332.26420437025808
 20
1810.2600869328371
  0
VERTEX
  8
DETAIL
  6
CONTINUOUS
 62
     5
 10
332.48864381775638
 20
1810.363834780137
  0
SEQEND
  8
DETAIL
  6
CONTINUOUS
 62
     5
  0
LINE
  8
DETAIL
  6
CONTINUOUS
 62
     5
 10
-370.69999999994621
 20
1548.6912168113381
 30
0.0
 11
-370.69999999994621
 21
1522.499999999937
 31
0.0
  0
LINE
  8
DETAIL
  6
CONTINUOUS
 62
     5
 10
-370.69999999994621
 20
1548.6912168113381
 30
0.0
 11
-370.69999999994621
 21
1550.133725262438
 31
0.0
  0
LINE
  8
DETAIL
  6
CONTINUOUS
 62
     5
 10
-369.49999999994179
 20
2.2999999999374259
 30
0.0
 11
-369.49999999994179
 21
-0.0000000000636646
 31
0.0
  0
LINE
  8
DETAIL
  6
CONTINUOUS
 62
     5
 10
-369.49999999994179
 20
57.699999999937063
 30
0.0
 11
-369.49999999994179
 21
62.299999999937427
 31
0.0
  0
LINE
  8
DETAIL
  6
CONTINUOUS
 62
     5
 10
-367.49999999994179
 20
57.699999999937063
 30
0.0
 11
-367.49999999994179
 21
2.2999999999374259
 31
0.0
  0
LINE
  8
DETAIL
  6
CONTINUOUS
 62
     5
 10
-347.1568542494424
 20
1493.999999999937
 30
0.0
 11
-347.1568542494424
 21
1343.999999999937
 31
0.0
  0
LINE
  8
DETAIL
  6
CONTINUOUS
 62
     5
 10
-347.1568542494424
 20
1293.999999999937
 30
0.0
 11
-347.1568542494424
 21
1143.999999999937
 31
0.0
  0
LINE
  8
DETAIL
  6
CONTINUOUS
 62
     5
 10
-347.1568542494424
 20
1093.999999999937
 30
0.0
 11
-347.1568542494424
 21
943.99999999993724
 31
0.0
  0
LINE
  8
DETAIL
  6
CONTINUOUS
 62
     5
 10
-347.1568542494424
 20
893.99999999993634
 30
0.0
 11
-347.1568542494424
 21
758.99999999993634
 31
0.0
  0
LINE
  8
DETAIL
  6
CONTINUOUS
 62
     5
 10
-334.5147186257455
 20
1493.999999999937
 30
0.0
 11
-334.5147186257455
 21
1343.999999999937
 31
0.0
  0
LINE
  8
DETAIL
  6
CONTINUOUS
 62
     5
 10
-334.5147186257455
 20
1293.999999999937
 30
0.0
 11
-334.5147186257455
 21
1143.999999999937
 31
0.0
  0
LINE
  8
DETAIL
  6
CONTINUOUS
 62
     5
 10
-334.5147186257455
 20
1093.999999999937
 30
0.0
 11
-334.5147186257455
 21
943.99999999993724
 31
0.0
  0
LINE
  8
DETAIL
  6
CONTINUOUS
 62
     5
 10
-334.5147186257455
 20
893.99999999993634
 30
0.0
 11
-334.5147186257455
 21
758.99999999993634
 31
0.0
  0
LINE
  8
DETAIL
  6
CONTINUOUS
 62
     5
 10
-346.39999999994319
 20
1817.0999999999369
 30
0.0
 11
-345.68434233784501
 21
1858.0999999999381
 31
0.0
  0
LINE
  8
DETAIL
  6
CONTINUOUS
 62
     5
 10
295.46057507985819
 20
1773.5749975978381
 30
0.0
 11
331.79981632775889
 21
1809.914238845736
 31
0.0
  0
LINE
  8
DETAIL
  6
CONTINUOUS
 62
     5
 10
337.09268426265771
 20
1815.2071067806371
 30
0.0
 11
338.9855774819589
 21
1817.0999999999369
 31
0.0
  0
LINE
  8
DETAIL
  6
CONTINUOUS
 62
     5
 10
339.82735597196
 20
1810.587867965538
 30
0.0
 11
342.22735597195418
 21
1812.987867965538
 31
0.0
  0
LINE
  8
DETAIL
  6
CONTINUOUS
 62
     5
 10
-238.49999999994179
 20
559.99999999993634
 30
0.0
 11
-237.49999999994179
 21
559.99999999993634
 31
0.0
  0
LINE
  8
DETAIL
  6
CONTINUOUS
 62
     5
 10
-237.49999999994179
 20
562.99999999993634
 30
0.0
 11
-238.49999999994179
 21
562.99999999993634
 31
0.0
  0
LINE
  8
DETAIL
  6
CONTINUOUS
 62
     5
 10
-237.49999999994179
 20
586.99999999993634
 30
0.0
 11
-238.49999999994179
 21
586.99999999993634
 31
0.0
  0
LINE
  8
DETAIL
  6
CONTINUOUS
 62
     5
 10
-238.49999999994179
 20
589.99999999993634
 30
0.0
 11
-237.49999999994179
 21
589.99999999993634
 31
0.0
  0
LINE
  8
DETAIL
  6
CONTINUOUS
 62
     5
 10
-227.30940107664361
 20
640.99999999993634
 30
0.0
 11
-229.6188021534399
 21
644.99999999993634
 31
0.0
  0
LINE
  8
DETAIL
  6
CONTINUOUS
 62
     5
 10
-220.38119784644371
 20
644.99999999993634
 30
0.0
 11
-222.6905989231382
 21
648.99999999993634
 31
0.0
  0
LINE
  8
DETAIL
  6
CONTINUOUS
 62
     5
 10
-286.67816672694602
 20
1752.874895943138
 30
0.0
 11
-285.49999999994179
 21
1683.999999999937
 31
0.0
  0
LINE
  8
DETAIL
  6
CONTINUOUS
 62
     5
 10
-319.49999999994179
 20
57.699999999937063
 30
0.0
 11
-319.49999999994179
 21
55.999999999936342
 31
0.0
  0
LINE
  8
DETAIL
  6
CONTINUOUS
 62
     5
 10
-319.49999999994179
 20
3.9999999999363349
 30
0.0
 11
-319.49999999994179
 21
2.2999999999374259
 31
0.0
  0
LINE
  8
DETAIL
  6
CONTINUOUS
 62
     5
 10
-317.7999999999447
 20
63.499999999936342
 30
0.0
 11
-317.7999999999447
 21
64.499999999936335
 31
0.0
  0
LINE
  8
DETAIL
  6
CONTINUOUS
 62
     5
 10
-315.7999999999447
 20
3.4999999999363349
 30
0.0
 11
-315.7999999999447
 21
56.499999999936328
 31
0.0
  0
LINE
  8
DETAIL
  6
CONTINUOUS
 62
     5
 10
-315.49999999994179
 20
63.499999999936342
 30
0.0
 11
-315.49999999994179
 21
64.499999999936335
 31
0.0
  0
LINE
  8
DETAIL
  6
CONTINUOUS
 62
     5
 10
-313.49999999994179
 20
3.4999999999363349
 30
0.0
 11
-313.49999999994179
 21
56.499999999936328
 31
0.0
  0
LINE
  8
DETAIL
  6
CONTINUOUS
 62
     5
 10
-306.49999999994179
 20
74.799999999937427
 30
0.0
 11
-306.49999999994179
 21
74.199999999937063
 31
0.0
  0
LINE
  8
DETAIL
  6
CONTINUOUS
 62
     5
 10
-304.7999999999447
 20
76.499999999936335
 30
0.0
 11
-304.7999999999447
 21
74.799999999937427
 31
0.0
  0
LINE
  8
DETAIL
  6
CONTINUOUS
 62
     5
 10
-304.7999999999447
 20
74.199999999937063
 30
0.0
 11
-304.7999999999447
 21
72.499999999936335
 31
0.0
  0
LINE
  8
DETAIL
  6
CONTINUOUS
 62
     5
 10
-304.19999999994621
 20
72.499999999936335
 30
0.0
 11
-304.19999999994621
 21
74.199999999937063
 31
0.0
  0
LINE
  8
DETAIL
  6
CONTINUOUS
 62
     5
 10
-304.19999999994621
 20
74.799999999937427
 30
0.0
 11
-304.19999999994621
 21
76.499999999936335
 31
0.0
  0
LINE
  8
DETAIL
  6
CONTINUOUS
 62
     5
 10
-302.49999999994179
 20
74.199999999937063
 30
0.0
 11
-302.49999999994179
 21
74.799999999937427
 31
0.0
  0
LINE
  8
DETAIL
  6
CONTINUOUS
 62
     5
 10
-296.49999999994179
 20
69.499999999936335
 30
0.0
 11
-296.49999999994179
 21
94.999999999936335
 31
0.0
  0
LINE
  8
DETAIL
  6
CONTINUOUS
 62
     5
 10
-295.7999999999447
 20
69.499999999936335
 30
0.0
 11
-295.7999999999447
 21
94.999999999936335
 31
0.0
  0
LINE
  8
DETAIL
  6
CONTINUOUS
 62
     5
 10
-289.49999999994179
 20
1493.999999999937
 30
0.0
 11
-289.49999999994179
 21
1343.999999999937
 31
0.0
  0
LINE
  8
DETAIL
  6
CONTINUOUS
 62
     5
 10
-289.49999999994179
 20
1293.999999999937
 30
0.0
 11
-289.49999999994179
 21
1143.999999999937
 31
0.0
  0
LINE
  8
DETAIL
  6
CONTINUOUS
 62
     5
 10
-289.49999999994179
 20
1093.999999999937
 30
0.0
 11
-289.49999999994179
 21
943.99999999993724
 31
0.0
  0
LINE
  8
DETAIL
  6
CONTINUOUS
 62
     5
 10
-289.49999999994179
 20
893.99999999993634
 30
0.0
 11
-289.49999999994179
 21
758.99999999993634
 31
0.0
  0
LINE
  8
DETAIL
  6
CONTINUOUS
 62
     5
 10
-280.15763547224202
 20
1825.7821054829369
 30
0.0
 11
-280.15763547224202
 21
1823.817894516837
 31
0.0
  0
LINE
  8
DETAIL
  6
CONTINUOUS
 62
     5
 10
-278.92631252164568
 20
1825.0999999999369
 30
0.0
 11
-278.92631252164568
 21
1824.499999999937
 31
0.0
  0
LINE
  8
DETAIL
  6
CONTINUOUS
 62
     5
 10
-278.53230714474188
 20
1825.0999999999369
 30
0.0
 11
-278.53230714474188
 21
1824.499999999937
 31
0.0
  0
LINE
  8
DETAIL
  6
CONTINUOUS
 62
     5
 10
-277.87968801354151
 20
1826.799999999937
 30
0.0
 11
-277.87968801354151
 21
1825.0999999999369
 31
0.0
  0
LINE
  8
DETAIL
  6
CONTINUOUS
 62
     5
 10
-277.87968801354151
 20
1824.499999999937
 30
0.0
 11
-277.87968801354151
 21
1822.799999999937
 31
0.0
  0
LINE
  8
DETAIL
  6
CONTINUOUS
 62
     5
 10
-277.5102911283393
 20
1822.799999999937
 30
0.0
 11
-277.5102911283393
 21
1824.499999999937
 31
0.0
  0
LINE
  8
DETAIL
  6
CONTINUOUS
 62
     5
 10
-277.5102911283393
 20
1825.0999999999369
 30
0.0
 11
-277.5102911283393
 21
1826.799999999937
 31
0.0
  0
LINE
  8
DETAIL
  6
CONTINUOUS
 62
     5
 10
-276.46366662024229
 20
1824.499999999937
 30
0.0
 11
-276.46366662024229
 21
1825.0999999999369
 31
0.0
  0
LINE
  8
DETAIL
  6
CONTINUOUS
 62
     5
 10
-275.23234366963879
 20
1823.817894516837
 30
0.0
 11
-275.23234366963879
 21
1825.7821054829369
 31
0.0
  0
LINE
  8
DETAIL
  6
CONTINUOUS
 62
     5
 10
-272.47430603203981
 20
1825.7821054829369
 30
0.0
 11
-272.47430603203981
 21
1823.817894516837
 31
0.0
  0
LINE
  8
DETAIL
  6
CONTINUOUS
 62
     5
 10
-269.49999999994179
 20
758.99999999993634
 30
0.0
 11
-269.49999999994179
 21
893.99999999993634
 31
0.0
  0
LINE
  8
DETAIL
  6
CONTINUOUS
 62
     5
 10
-269.49999999994179
 20
943.99999999993724
 30
0.0
 11
-269.49999999994179
 21
1093.999999999937
 31
0.0
  0
LINE
  8
DETAIL
  6
CONTINUOUS
 62
     5
 10
-269.49999999994179
 20
1143.999999999937
 30
0.0
 11
-269.49999999994179
 21
1293.999999999937
 31
0.0
  0
LINE
  8
DETAIL
  6
CONTINUOUS
 62
     5
 10
-269.49999999994179
 20
1343.999999999937
 30
0.0
 11
-269.49999999994179
 21
1493.999999999937
 31
0.0
  0
LINE
  8
DETAIL
  6
CONTINUOUS
 62
     5
 10
-279.15526240284089
 20
1834.6337951342371
 30
0.0
 11
-279.24701279344299
 21
1827.9633577879381
 31
0.0
  0
LINE
  8
DETAIL
  6
CONTINUOUS
 62
     5
 10
-279.33292717044242
 20
1821.7172103336379
 30
0.0
 11
-279.39643587754108
 21
1817.0999999999369
 31
0.0
  0
POLYLINE
  8
DETAIL
  6
CONTINUOUS
 62
     5
 66
     1
 10
0.0
 20
0.0
 30
0.0
 70
     0
  0
VERTEX
  8
DETAIL
  6
CONTINUOUS
 62
     5
 10
-285.49999999994179
 20
1683.999999999937
  0
VERTEX
  8
DETAIL
  6
CONTINUOUS
 62
     5
 10
-285.8364177549447
 20
1677.2083404564371
  0
VERTEX
  8
DETAIL
  6
CONTINUOUS
 62
     5
 10
-286.48650228164479
 20
1670.231378319537
  0
VERTEX
  8
DETAIL
  6
CONTINUOUS
 62
     5
 10
-287.4480442945424
 20
1663.2506538217369
  0
VERTEX
  8
DETAIL
  6
CONTINUOUS
 62
     5
 10
-288.72197985323868
 20
1656.287939311437
  0
VERTEX
  8
DETAIL
  6
CONTINUOUS
 62
     5
 10
-290.30811012554477
 20
1649.364697734638
  0
VERTEX
  8
DETAIL
  6
CONTINUOUS
 62
     5
 10
-292.20496336044022
 20
1642.502296562838
  0
VERTEX
  8
DETAIL
  6
CONTINUOUS
 62
     5
 10
-294.40812297404773
 20
1635.7215824489369
  0
VERTEX
  8
DETAIL
  6
CONTINUOUS
 62
     5
 10
-296.91157578974531
 20
1629.0408541920369
  0
VERTEX
  8
DETAIL
  6
CONTINUOUS
 62
     5
 10
-299.71081217224128
 20
1622.473092802637
  0
VERTEX
  8
DETAIL
  6
CONTINUOUS
 62
     5
 10
-302.80189091984357
 20
1616.0305528617371
  0
VERTEX
  8
DETAIL
  6
CONTINUOUS
 62
     5
 10
-306.18096936714568
 20
1609.725940644837
  0
VERTEX
  8
DETAIL
  6
CONTINUOUS
 62
     5
 10
-309.84174211154459
 20
1603.5739095443371
  0
VERTEX
  8
DETAIL
  6
CONTINUOUS
 62
     5
 10
-313.77520872054453
 20
1597.5893050365371
  0
VERTEX
  8
DETAIL
  6
CONTINUOUS
 62
     5
 10
-317.97182342024462
 20
1591.786595838237
  0
VERTEX
  8
DETAIL
  6
CONTINUOUS
 62
     5
 10
-322.4236326106402
 20
1586.177509482937
  0
VERTEX
  8
DETAIL
  6
CONTINUOUS
 62
     5
 10
-327.12593105083943
 20
1580.7702385995369
  0
VERTEX
  8
DETAIL
  6
CONTINUOUS
 62
     5
 10
-332.07436730384501
 20
1575.5727378665381
  0
VERTEX
  8
DETAIL
  6
CONTINUOUS
 62
     5
 10
-336.1409741061434
 20
1571.6320466462371
  0
SEQEND
  8
DETAIL
  6
CONTINUOUS
 62
     5
  0
LINE
  8
DETAIL
  6
CONTINUOUS
 62
     5
 10
161.50000000005821
 20
618.90938961283791
 30
0.0
 11
160.50000000005821
 21
618.85698183163731
 31
0.0
  0
LINE
  8
DETAIL
  6
CONTINUOUS
 62
     5
 10
161.50000000005821
 20
635.93276205223617
 30
0.0
 11
160.50000000005821
 21
635.8803542710375
 31
0.0
  0
LINE
  8
DETAIL
  6
CONTINUOUS
 62
     5
 10
161.50000000005821
 20
613.99999999993634
 30
0.0
 11
160.50000000005821
 21
613.99999999993634
 31
0.0
  0
LINE
  8
DETAIL
  6
CONTINUOUS
 62
     5
 10
-237.49999999994179
 20
618.99999999993634
 30
0.0
 11
-238.49999999994179
 21
618.99999999993634
 31
0.0
  0
LINE
  8
DETAIL
  6
CONTINUOUS
 62
     5
 10
-237.49999999994179
 20
636.17274692213675
 30
0.0
 11
-238.49999999994179
 21
636.17274692213675
 31
0.0
  0
LINE
  8
DETAIL
  6
CONTINUOUS
 62
     5
 10
150.3094010768618
 20
640.99999999993634
 30
0.0
 11
145.69059892335639
 21
640.99999999993634
 31
0.0
  0
LINE
  8
DETAIL
  6
CONTINUOUS
 62
     5
 10
-222.6905989231382
 20
640.99999999993634
 30
0.0
 11
-227.30940107664361
 21
640.99999999993634
 31
0.0
  0
LINE
  8
DETAIL
  6
CONTINUOUS
 62
     5
 10
-225.2999999999447
 20
642.99999999993634
 30
0.0
 11
-224.69999999994619
 21
642.99999999993634
 31
0.0
  0
LINE
  8
DETAIL
  6
CONTINUOUS
 62
     5
 10
147.7000000000553
 20
642.99999999993634
 30
0.0
 11
148.30000000005381
 21
642.99999999993634
 31
0.0
  0
LINE
  8
DETAIL
  6
CONTINUOUS
 62
     5
 10
-226.99999999994179
 20
644.69999999993695
 30
0.0
 11
-225.2999999999447
 21
644.69999999993695
 31
0.0
  0
LINE
  8
DETAIL
  6
CONTINUOUS
 62
     5
 10
-224.69999999994619
 20
644.69999999993695
 30
0.0
 11
-222.99999999994179
 21
644.69999999993695
 31
0.0
  0
LINE
  8
DETAIL
  6
CONTINUOUS
 62
     5
 10
146.00000000005821
 20
644.69999999993695
 30
0.0
 11
147.7000000000553
 21
644.69999999993695
 31
0.0
  0
LINE
  8
DETAIL
  6
CONTINUOUS
 62
     5
 10
148.30000000005381
 20
644.69999999993695
 30
0.0
 11
150.00000000005821
 21
644.69999999993695
 31
0.0
  0
LINE
  8
DETAIL
  6
CONTINUOUS
 62
     5
 10
150.00000000005821
 20
645.29999999993743
 30
0.0
 11
148.30000000005381
 21
645.29999999993743
 31
0.0
  0
LINE
  8
DETAIL
  6
CONTINUOUS
 62
     5
 10
147.7000000000553
 20
645.29999999993743
 30
0.0
 11
146.00000000005821
 21
645.29999999993743
 31
0.0
  0
LINE
  8
DETAIL
  6
CONTINUOUS
 62
     5
 10
-222.99999999994179
 20
645.29999999993743
 30
0.0
 11
-224.69999999994619
 21
645.29999999993743
 31
0.0
  0
LINE
  8
DETAIL
  6
CONTINUOUS
 62
     5
 10
-225.2999999999447
 20
645.29999999993743
 30
0.0
 11
-226.99999999994179
 21
645.29999999993743
 31
0.0
  0
LINE
  8
DETAIL
  6
CONTINUOUS
 62
     5
 10
148.30000000005381
 20
646.99999999993634
 30
0.0
 11
147.7000000000553
 21
646.99999999993634
 31
0.0
  0
LINE
  8
DETAIL
  6
CONTINUOUS
 62
     5
 10
-224.69999999994619
 20
646.99999999993634
 30
0.0
 11
-225.2999999999447
 21
646.99999999993634
 31
0.0
  0
LINE
  8
DETAIL
  6
CONTINUOUS
 62
     5
 10
150.3094010768618
 20
648.99999999993634
 30
0.0
 11
145.69059892335639
 21
648.99999999993634
 31
0.0
  0
LINE
  8
DETAIL
  6
CONTINUOUS
 62
     5
 10
-222.6905989231382
 20
648.99999999993634
 30
0.0
 11
-227.30940107664361
 21
648.99999999993634
 31
0.0
  0
LINE
  8
DETAIL
  6
CONTINUOUS
 62
     5
 10
-237.49999999994179
 20
670.99999999993634
 30
0.0
 11
-238.49999999994179
 21
670.99999999993634
 31
0.0
  0
LINE
  8
DETAIL
  6
CONTINUOUS
 62
     5
 10
108.1905989233564
 20
106.99999999993631
 30
0.0
 11
105.8811978465601
 21
110.99999999993631
 31
0.0
  0
LINE
  8
DETAIL
  6
CONTINUOUS
 62
     5
 10
115.1188021535563
 20
110.99999999993631
 30
0.0
 11
112.8094010768618
 21
114.99999999993631
 31
0.0
  0
LINE
  8
DETAIL
  6
CONTINUOUS
 62
     5
 10
172.19059892335639
 20
106.99999999993631
 30
0.0
 11
169.8811978465601
 21
110.99999999993631
 31
0.0
  0
LINE
  8
DETAIL
  6
CONTINUOUS
 62
     5
 10
-189.03807854524351
 20
711.54007549323615
 30
0.0
 11
-189.03747415244291
 21
711.51994724543692
 31
0.0
  0
LINE
  8
DETAIL
  6
CONTINUOUS
 62
     5
 10
-188.77338446224169
 20
696.39999999993768
 30
0.0
 11
-189.014931990343
 21
710.23772170163829
 31
0.0
  0
LINE
  8
DETAIL
  6
CONTINUOUS
 62
     5
 10
-188.28983744164719
 20
701.69489490053638
 30
0.0
 11
-188.33880259763831
 21
704.49999999993634
 31
0.0
  0
LINE
  8
DETAIL
  6
CONTINUOUS
 62
     5
 10
-188.49999999994179
 20
696.39999999993768
 30
0.0
 11
-188.57306630134551
 21
700.9904720187368
 31
0.0
  0
LINE
  8
DETAIL
  6
CONTINUOUS
 62
     5
 10
-255.49999999994179
 20
1516.799999999937
 30
0.0
 11
-255.49999999994179
 21
1516.1999999999371
 31
0.0
  0
LINE
  8
DETAIL
  6
CONTINUOUS
 62
     5
 10
-255.49999999994179
 20
111.2999999999374
 30
0.0
 11
-255.49999999994179
 21
110.69999999993701
 31
0.0
  0
LINE
  8
DETAIL
  6
CONTINUOUS
 62
     5
 10
-253.7999999999447
 20
1518.499999999937
 30
0.0
 11
-253.7999999999447
 21
1516.799999999937
 31
0.0
  0
LINE
  8
DETAIL
  6
CONTINUOUS
 62
     5
 10
-253.7999999999447
 20
1516.1999999999371
 30
0.0
 11
-253.7999999999447
 21
1514.499999999937
 31
0.0
  0
LINE
  8
DETAIL
  6
CONTINUOUS
 62
     5
 10
-253.7999999999447
 20
112.99999999993631
 30
0.0
 11
-253.7999999999447
 21
111.2999999999374
 31
0.0
  0
LINE
  8
DETAIL
  6
CONTINUOUS
 62
     5
 10
-253.7999999999447
 20
110.69999999993701
 30
0.0
 11
-253.7999999999447
 21
108.99999999993631
 31
0.0
  0
LINE
  8
DETAIL
  6
CONTINUOUS
 62
     5
 10
-253.19999999994619
 20
108.99999999993631
 30
0.0
 11
-253.19999999994619
 21
110.69999999993701
 31
0.0
  0
LINE
  8
DETAIL
  6
CONTINUOUS
 62
     5
 10
-253.19999999994619
 20
111.2999999999374
 30
0.0
 11
-253.19999999994619
 21
112.99999999993631
 31
0.0
  0
LINE
  8
DETAIL
  6
CONTINUOUS
 62
     5
 10
-253.19999999994619
 20
1514.499999999937
 30
0.0
 11
-253.19999999994619
 21
1516.1999999999371
 31
0.0
  0
LINE
  8
DETAIL
  6
CONTINUOUS
 62
     5
 10
-253.19999999994619
 20
1516.799999999937
 30
0.0
 11
-253.19999999994619
 21
1518.499999999937
 31
0.0
  0
LINE
  8
DETAIL
  6
CONTINUOUS
 62
     5
 10
-251.49999999994179
 20
110.69999999993701
 30
0.0
 11
-251.49999999994179
 21
111.2999999999374
 31
0.0
  0
LINE
  8
DETAIL
  6
CONTINUOUS
 62
     5
 10
-251.49999999994179
 20
1516.1999999999371
 30
0.0
 11
-251.49999999994179
 21
1516.799999999937
 31
0.0
  0
LINE
  8
DETAIL
  6
CONTINUOUS
 62
     5
 10
-240.49999999994179
 20
102.99999999993631
 30
0.0
 11
-240.49999999994179
 21
116.99999999993631
 31
0.0
  0
LINE
  8
DETAIL
  6
CONTINUOUS
 62
     5
 10
-238.49999999994179
 20
116.99999999993631
 30
0.0
 11
-238.49999999994179
 21
1522.499999999937
 31
0.0
  0
LINE
  8
DETAIL
  6
CONTINUOUS
 62
     5
 10
-237.49999999994179
 20
678.49999999993634
 30
0.0
 11
-237.49999999994179
 21
116.99999999993631
 31
0.0
  0
LINE
  8
DETAIL
  6
CONTINUOUS
 62
     5
 10
-237.09999999994039
 20
113.99999999993631
 30
0.0
 11
-237.09999999994039
 21
96.999999999936335
 31
0.0
  0
LINE
  8
DETAIL
  6
CONTINUOUS
 62
     5
 10
-236.2999999999447
 20
684.86396103053812
 30
0.0
 11
-236.2999999999447
 21
678.49999999993634
 31
0.0
  0
LINE
  8
DETAIL
  6
CONTINUOUS
 62
     5
 10
-236.2999999999447
 20
113.99999999993631
 30
0.0
 11
-236.2999999999447
 21
116.99999999993631
 31
0.0
  0
LINE
  8
DETAIL
  6
CONTINUOUS
 62
     5
 10
-229.49999999994179
 20
94.50717967683704
 30
0.0
 11
-229.49999999994179
 21
96.999999999936335
 31
0.0
  0
LINE
  8
DETAIL
  6
CONTINUOUS
 62
     5
 10
-226.99999999994179
 20
645.29999999993743
 30
0.0
 11
-226.99999999994179
 21
644.69999999993695
 31
0.0
  0
LINE
  8
DETAIL
  6
CONTINUOUS
 62
     5
 10
-226.99999999994179
 20
305.29999999993743
 30
0.0
 11
-226.99999999994179
 21
304.69999999993712
 31
0.0
  0
LINE
  8
DETAIL
  6
CONTINUOUS
 62
     5
 10
-225.2999999999447
 20
646.99999999993634
 30
0.0
 11
-225.2999999999447
 21
645.29999999993743
 31
0.0
  0
LINE
  8
DETAIL
  6
CONTINUOUS
 62
     5
 10
-225.2999999999447
 20
644.69999999993695
 30
0.0
 11
-225.2999999999447
 21
642.99999999993634
 31
0.0
  0
LINE
  8
DETAIL
  6
CONTINUOUS
 62
     5
 10
-225.2999999999447
 20
306.99999999993628
 30
0.0
 11
-225.2999999999447
 21
305.29999999993743
 31
0.0
  0
LINE
  8
DETAIL
  6
CONTINUOUS
 62
     5
 10
-225.2999999999447
 20
304.69999999993712
 30
0.0
 11
-225.2999999999447
 21
302.99999999993628
 31
0.0
  0
LINE
  8
DETAIL
  6
CONTINUOUS
 62
     5
 10
-224.69999999994619
 20
302.99999999993628
 30
0.0
 11
-224.69999999994619
 21
304.69999999993712
 31
0.0
  0
LINE
  8
DETAIL
  6
CONTINUOUS
 62
     5
 10
-224.69999999994619
 20
305.29999999993743
 30
0.0
 11
-224.69999999994619
 21
306.99999999993628
 31
0.0
  0
LINE
  8
DETAIL
  6
CONTINUOUS
 62
     5
 10
-224.69999999994619
 20
642.99999999993634
 30
0.0
 11
-224.69999999994619
 21
644.69999999993695
 31
0.0
  0
LINE
  8
DETAIL
  6
CONTINUOUS
 62
     5
 10
-224.69999999994619
 20
645.29999999993743
 30
0.0
 11
-224.69999999994619
 21
646.99999999993634
 31
0.0
  0
LINE
  8
DETAIL
  6
CONTINUOUS
 62
     5
 10
-222.99999999994179
 20
304.69999999993712
 30
0.0
 11
-222.99999999994179
 21
305.29999999993743
 31
0.0
  0
LINE
  8
DETAIL
  6
CONTINUOUS
 62
     5
 10
-222.99999999994179
 20
644.69999999993695
 30
0.0
 11
-222.99999999994179
 21
645.29999999993743
 31
0.0
  0
LINE
  8
DETAIL
  6
CONTINUOUS
 62
     5
 10
-217.49999999994179
 20
684.86396103053812
 30
0.0
 11
-217.49999999994179
 21
1519.999999999937
 31
0.0
  0
LINE
  8
DETAIL
  6
CONTINUOUS
 62
     5
 10
-198.00570692514151
 20
695.39999999993779
 30
0.0
 11
-198.00570692514151
 21
686.49999999993634
 31
0.0
  0
LINE
  8
DETAIL
  6
CONTINUOUS
 62
     5
 10
-196.49999999994179
 20
684.86396103053812
 30
0.0
 11
-196.49999999994179
 21
696.39999999993768
 31
0.0
  0
LINE
  8
DETAIL
  6
CONTINUOUS
 62
     5
 10
161.50000000005821
 20
675.99999999993634
 30
0.0
 11
160.50000000005821
 21
675.99999999993634
 31
0.0
  0
LINE
  8
DETAIL
  6
CONTINUOUS
 62
     5
 10
-237.49999999994179
 20
678.49999999993634
 30
0.0
 11
-236.2999999999447
 21
678.49999999993634
 31
0.0
  0
LINE
  8
DETAIL
  6
CONTINUOUS
 62
     5
 10
159.30000000005381
 20
678.49999999993634
 30
0.0
 11
160.50000000005821
 21
678.49999999993634
 31
0.0
  0
LINE
  8
DETAIL
  6
CONTINUOUS
 62
     5
 10
-236.2999999999447
 20
684.86396103053812
 30
0.0
 11
159.30000000005381
 21
684.86396103053812
 31
0.0
  0
LINE
  8
DETAIL
  6
CONTINUOUS
 62
     5
 10
-198.49999999994179
 20
685.49999999993634
 30
0.0
 11
-198.02316199004409
 21
685.49999999993634
 31
0.0
  0
LINE
  8
DETAIL
  6
CONTINUOUS
 62
     5
 10
146.8094010768618
 20
685.49999999993634
 30
0.0
 11
142.19059892335639
 21
685.49999999993634
 31
0.0
  0
LINE
  8
DETAIL
  6
CONTINUOUS
 62
     5
 10
144.2000000000553
 20
687.49999999993634
 30
0.0
 11
144.80000000005381
 21
687.49999999993634
 31
0.0
  0
LINE
  8
DETAIL
  6
CONTINUOUS
 62
     5
 10
142.50000000005821
 20
689.19999999993695
 30
0.0
 11
144.2000000000553
 21
689.19999999993695
 31
0.0
  0
LINE
  8
DETAIL
  6
CONTINUOUS
 62
     5
 10
144.80000000005381
 20
689.19999999993695
 30
0.0
 11
146.50000000005821
 21
689.19999999993695
 31
0.0
  0
LINE
  8
DETAIL
  6
CONTINUOUS
 62
     5
 10
146.50000000005821
 20
689.79999999993743
 30
0.0
 11
144.80000000005381
 21
689.79999999993743
 31
0.0
  0
LINE
  8
DETAIL
  6
CONTINUOUS
 62
     5
 10
144.2000000000553
 20
689.79999999993743
 30
0.0
 11
142.50000000005821
 21
689.79999999993743
 31
0.0
  0
LINE
  8
DETAIL
  6
CONTINUOUS
 62
     5
 10
144.80000000005381
 20
691.49999999993634
 30
0.0
 11
144.2000000000553
 21
691.49999999993634
 31
0.0
  0
LINE
  8
DETAIL
  6
CONTINUOUS
 62
     5
 10
146.8094010768618
 20
693.49999999993634
 30
0.0
 11
142.19059892335639
 21
693.49999999993634
 31
0.0
  0
LINE
  8
DETAIL
  6
CONTINUOUS
 62
     5
 10
-188.49999999994179
 20
696.39999999993768
 30
0.0
 11
-197.00555459704631
 21
696.39999999993768
 31
0.0
  0
LINE
  8
DETAIL
  6
CONTINUOUS
 62
     5
 10
133.50000000005821
 20
704.49999999993634
 30
0.0
 11
-188.9115747712421
 21
704.49999999993634
 31
0.0
  0
LINE
  8
DETAIL
  6
CONTINUOUS
 62
     5
 10
-248.6293224930414
 20
712.49999999993634
 30
0.0
 11
-246.3706775067476
 21
712.49999999993634
 31
0.0
  0
LINE
  8
DETAIL
  6
CONTINUOUS
 62
     5
 10
-217.49999999994179
 20
712.49999999993634
 30
0.0
 11
-190.04144368143901
 21
712.49999999993634
 31
0.0
  0
LINE
  8
DETAIL
  6
CONTINUOUS
 62
     5
 10
132.5069601599607
 20
704.49999999993634
 30
0.0
 11
133.50000000005821
 21
704.30187633233606
 31
0.0
  0
LINE
  8
DETAIL
  6
CONTINUOUS
 62
     5
 10
179.11880215355629
 20
110.99999999993631
 30
0.0
 11
176.8094010768618
 21
114.99999999993631
 31
0.0
  0
LINE
  8
DETAIL
  6
CONTINUOUS
 62
     5
 10
-189.49999999994179
 20
111.2999999999374
 30
0.0
 11
-189.49999999994179
 21
110.69999999993701
 31
0.0
  0
LINE
  8
DETAIL
  6
CONTINUOUS
 62
     5
 10
-187.7999999999447
 20
112.99999999993631
 30
0.0
 11
-187.7999999999447
 21
111.2999999999374
 31
0.0
  0
LINE
  8
DETAIL
  6
CONTINUOUS
 62
     5
 10
-187.7999999999447
 20
110.69999999993701
 30
0.0
 11
-187.7999999999447
 21
108.99999999993631
 31
0.0
  0
LINE
  8
DETAIL
  6
CONTINUOUS
 62
     5
 10
-187.1999999999461
 20
108.99999999993631
 30
0.0
 11
-187.1999999999461
 21
110.69999999993701
 31
0.0
  0
LINE
  8
DETAIL
  6
CONTINUOUS
 62
     5
 10
-187.1999999999461
 20
111.2999999999374
 30
0.0
 11
-187.1999999999461
 21
112.99999999993631
 31
0.0
  0
LINE
  8
DETAIL
  6
CONTINUOUS
 62
     5
 10
-185.49999999994179
 20
110.69999999993701
 30
0.0
 11
-185.49999999994179
 21
111.2999999999374
 31
0.0
  0
LINE
  8
DETAIL
  6
CONTINUOUS
 62
     5
 10
-127.52171043212
 20
1836.6152787538381
 30
0.0
 11
-127.5186707381435
 21
1857.608725519638
 31
0.0
  0
LINE
  8
DETAIL
  6
CONTINUOUS
 62
     5
 10
143.00000000005821
 20
757.59999999993852
 30
0.0
 11
140.00000000005821
 21
757.59999999993852
 31
0.0
  0
LINE
  8
DETAIL
  6
CONTINUOUS
 62
     5
 10
140.00000000005821
 20
763.59999999993852
 30
0.0
 11
143.00000000005821
 21
763.59999999993852
 31
0.0
  0
LINE
  8
DETAIL
  6
CONTINUOUS
 62
     5
 10
151.00000000005821
 20
783.99999999993634
 30
0.0
 11
148.00000000005821
 21
783.99999999993634
 31
0.0
  0
LINE
  8
DETAIL
  6
CONTINUOUS
 62
     5
 10
148.00000000005821
 20
789.99999999993634
 30
0.0
 11
151.00000000005821
 21
789.99999999993634
 31
0.0
  0
LINE
  8
DETAIL
  6
CONTINUOUS
 62
     5
 10
145.69059892335639
 20
300.99999999993628
 30
0.0
 11
143.3811978465601
 21
304.99999999993628
 31
0.0
  0
LINE
  8
DETAIL
  6
CONTINUOUS
 62
     5
 10
152.61880215355629
 20
304.99999999993628
 30
0.0
 11
150.3094010768618
 21
308.99999999993628
 31
0.0
  0
LINE
  8
DETAIL
  6
CONTINUOUS
 62
     5
 10
302.1905989233565
 20
70.499999999936335
 30
0.0
 11
299.8811978465601
 21
74.499999999936335
 31
0.0
  0
LINE
  8
DETAIL
  6
CONTINUOUS
 62
     5
 10
309.11880215355632
 20
74.499999999936335
 30
0.0
 11
306.8094010768545
 21
78.499999999936335
 31
0.0
  0
LINE
  8
DETAIL
  6
CONTINUOUS
 62
     5
 10
256.8811978465601
 20
1516.499999999937
 30
0.0
 11
259.19059892335639
 21
1520.499999999937
 31
0.0
  0
LINE
  8
DETAIL
  6
CONTINUOUS
 62
     5
 10
263.80940107686177
 20
1512.499999999937
 30
0.0
 11
266.11880215355632
 21
1516.499999999937
 31
0.0
  0
LINE
  8
DETAIL
  6
CONTINUOUS
 62
     5
 10
-19.999999999941789
 20
1857.5999999999369
 30
0.0
 11
-19.999999999941789
 21
1838.5999999999381
 31
0.0
  0
LINE
  8
DETAIL
  6
CONTINUOUS
 62
     5
 10
272.64561926105671
 20
1827.276708382037
 30
0.0
 11
272.4570362333543
 21
1826.7422608019369
 31
0.0
  0
LINE
  8
DETAIL
  6
CONTINUOUS
 62
     5
 10
-229.6188021534399
 20
644.99999999993634
 30
0.0
 11
-227.30940107664361
 21
648.99999999993634
 31
0.0
  0
LINE
  8
DETAIL
  6
CONTINUOUS
 62
     5
 10
-222.6905989231382
 20
640.99999999993634
 30
0.0
 11
-220.38119784644371
 21
644.99999999993634
 31
0.0
  0
LINE
  8
DETAIL
  6
CONTINUOUS
 62
     5
 10
151.00000000005821
 20
909.59999999993761
 30
0.0
 11
148.00000000005821
 21
909.59999999993761
 31
0.0
  0
LINE
  8
DETAIL
  6
CONTINUOUS
 62
     5
 10
148.00000000005821
 20
915.59999999993772
 30
0.0
 11
151.00000000005821
 21
915.59999999993772
 31
0.0
  0
LINE
  8
DETAIL
  6
CONTINUOUS
 62
     5
 10
145.69059892335639
 20
640.99999999993634
 30
0.0
 11
143.3811978465601
 21
644.99999999993634
 31
0.0
  0
LINE
  8
DETAIL
  6
CONTINUOUS
 62
     5
 10
152.61880215355629
 20
644.99999999993634
 30
0.0
 11
150.3094010768618
 21
648.99999999993634
 31
0.0
  0
LINE
  8
DETAIL
  6
CONTINUOUS
 62
     5
 10
142.19059892335639
 20
685.49999999993634
 30
0.0
 11
139.8811978465601
 21
689.49999999993634
 31
0.0
  0
LINE
  8
DETAIL
  6
CONTINUOUS
 62
     5
 10
20.000000000058211
 20
1838.5999999999381
 30
0.0
 11
20.000000000058211
 21
1857.5999999999369
 31
0.0
  0
LINE
  8
DETAIL
  6
CONTINUOUS
 62
     5
 10
-188.28983744164719
 20
701.69489490053638
 30
0.0
 11
-188.57601919014269
 21
701.40362889133746
 31
0.0
  0
LINE
  8
DETAIL
  6
CONTINUOUS
 62
     5
 10
149.11880215355629
 20
689.49999999993634
 30
0.0
 11
146.8094010768618
 21
693.49999999993634
 31
0.0
  0
LINE
  8
DETAIL
  6
CONTINUOUS
 62
     5
 10
-255.8094010766435
 20
1512.499999999937
 30
0.0
 11
-258.1188021534399
 21
1516.499999999937
 31
0.0
  0
LINE
  8
DETAIL
  6
CONTINUOUS
 62
     5
 10
-280.0611098656446
 20
1822.8576428245381
 30
0.0
 11
-279.87255783004372
 21
1822.323296926937
 31
0.0
  0
LINE
  8
DETAIL
  6
CONTINUOUS
 62
     5
 10
-272.5708062998383
 20
1826.7422724032369
 30
0.0
 11
-272.75925931684469
 21
1827.276400630637
 31
0.0
  0
LINE
  8
DETAIL
  6
CONTINUOUS
 62
     5
 10
127.5398170810585
 20
1838.565095186437
 30
0.0
 11
127.5199374062576
 21
1857.6087262026381
 31
0.0
  0
LINE
  8
DETAIL
  6
CONTINUOUS
 62
     5
 10
127.7997565206533
 20
1834.6349048734371
 30
0.0
 11
127.81799686115841
 21
1817.0999999999369
 31
0.0
  0
LINE
  8
DETAIL
  6
CONTINUOUS
 62
     5
 10
108.50000000005819
 20
111.2999999999374
 30
0.0
 11
108.50000000005819
 21
110.69999999993701
 31
0.0
  0
LINE
  8
DETAIL
  6
CONTINUOUS
 62
     5
 10
110.2000000000553
 20
112.99999999993631
 30
0.0
 11
110.2000000000553
 21
111.2999999999374
 31
0.0
  0
LINE
  8
DETAIL
  6
CONTINUOUS
 62
     5
 10
110.2000000000553
 20
110.69999999993701
 30
0.0
 11
110.2000000000553
 21
108.99999999993631
 31
0.0
  0
LINE
  8
DETAIL
  6
CONTINUOUS
 62
     5
 10
110.8000000000538
 20
108.99999999993631
 30
0.0
 11
110.8000000000538
 21
110.69999999993701
 31
0.0
  0
LINE
  8
DETAIL
  6
CONTINUOUS
 62
     5
 10
110.8000000000538
 20
111.2999999999374
 30
0.0
 11
110.8000000000538
 21
112.99999999993631
 31
0.0
  0
LINE
  8
DETAIL
  6
CONTINUOUS
 62
     5
 10
112.50000000005819
 20
110.69999999993701
 30
0.0
 11
112.50000000005819
 21
111.2999999999374
 31
0.0
  0
LINE
  8
DETAIL
  6
CONTINUOUS
 62
     5
 10
133.50000000005821
 20
1522.499999999937
 30
0.0
 11
133.50000000005821
 21
684.86396103053812
 31
0.0
  0
LINE
  8
DETAIL
  6
CONTINUOUS
 62
     5
 10
142.50000000005821
 20
689.79999999993743
 30
0.0
 11
142.50000000005821
 21
689.19999999993695
 31
0.0
  0
LINE
  8
DETAIL
  6
CONTINUOUS
 62
     5
 10
-229.6188021534399
 20
304.99999999993628
 30
0.0
 11
-227.30940107664361
 21
308.99999999993628
 31
0.0
  0
LINE
  8
DETAIL
  6
CONTINUOUS
 62
     5
 10
-222.6905989231382
 20
300.99999999993628
 30
0.0
 11
-220.38119784644371
 21
304.99999999993628
 31
0.0
  0
LINE
  8
DETAIL
  6
CONTINUOUS
 62
     5
 10
143.00000000005821
 20
1022.799999999937
 30
0.0
 11
140.00000000005821
 21
1022.799999999937
 31
0.0
  0
LINE
  8
DETAIL
  6
CONTINUOUS
 62
     5
 10
140.00000000005821
 20
1028.799999999937
 30
0.0
 11
143.00000000005821
 21
1028.799999999937
 31
0.0
  0
LINE
  8
DETAIL
  6
CONTINUOUS
 62
     5
 10
-248.88119784644371
 20
1516.499999999937
 30
0.0
 11
-251.1905989231382
 21
1520.499999999937
 31
0.0
  0
LINE
  8
DETAIL
  6
CONTINUOUS
 62
     5
 10
144.2000000000553
 20
691.49999999993634
 30
0.0
 11
144.2000000000553
 21
689.79999999993743
 31
0.0
  0
LINE
  8
DETAIL
  6
CONTINUOUS
 62
     5
 10
144.2000000000553
 20
689.19999999993695
 30
0.0
 11
144.2000000000553
 21
687.49999999993634
 31
0.0
  0
LINE
  8
DETAIL
  6
CONTINUOUS
 62
     5
 10
144.80000000005381
 20
687.49999999993634
 30
0.0
 11
144.80000000005381
 21
689.19999999993695
 31
0.0
  0
LINE
  8
DETAIL
  6
CONTINUOUS
 62
     5
 10
144.80000000005381
 20
689.79999999993743
 30
0.0
 11
144.80000000005381
 21
691.49999999993634
 31
0.0
  0
LINE
  8
DETAIL
  6
CONTINUOUS
 62
     5
 10
146.00000000005821
 20
645.29999999993743
 30
0.0
 11
146.00000000005821
 21
644.69999999993695
 31
0.0
  0
LINE
  8
DETAIL
  6
CONTINUOUS
 62
     5
 10
146.00000000005821
 20
305.29999999993743
 30
0.0
 11
146.00000000005821
 21
304.69999999993712
 31
0.0
  0
LINE
  8
DETAIL
  6
CONTINUOUS
 62
     5
 10
146.50000000005821
 20
689.19999999993695
 30
0.0
 11
146.50000000005821
 21
689.79999999993743
 31
0.0
  0
LINE
  8
DETAIL
  6
CONTINUOUS
 62
     5
 10
147.7000000000553
 20
646.99999999993634
 30
0.0
 11
147.7000000000553
 21
645.29999999993743
 31
0.0
  0
LINE
  8
DETAIL
  6
CONTINUOUS
 62
     5
 10
147.7000000000553
 20
644.69999999993695
 30
0.0
 11
147.7000000000553
 21
642.99999999993634
 31
0.0
  0
LINE
  8
DETAIL
  6
CONTINUOUS
 62
     5
 10
147.7000000000553
 20
306.99999999993628
 30
0.0
 11
147.7000000000553
 21
305.29999999993743
 31
0.0
  0
LINE
  8
DETAIL
  6
CONTINUOUS
 62
     5
 10
147.7000000000553
 20
304.69999999993712
 30
0.0
 11
147.7000000000553
 21
302.99999999993628
 31
0.0
  0
LINE
  8
DETAIL
  6
CONTINUOUS
 62
     5
 10
148.30000000005381
 20
302.99999999993628
 30
0.0
 11
148.30000000005381
 21
304.69999999993712
 31
0.0
  0
LINE
  8
DETAIL
  6
CONTINUOUS
 62
     5
 10
148.30000000005381
 20
305.29999999993743
 30
0.0
 11
148.30000000005381
 21
306.99999999993628
 31
0.0
  0
LINE
  8
DETAIL
  6
CONTINUOUS
 62
     5
 10
148.30000000005381
 20
642.99999999993634
 30
0.0
 11
148.30000000005381
 21
644.69999999993695
 31
0.0
  0
LINE
  8
DETAIL
  6
CONTINUOUS
 62
     5
 10
148.30000000005381
 20
645.29999999993743
 30
0.0
 11
148.30000000005381
 21
646.99999999993634
 31
0.0
  0
LINE
  8
DETAIL
  6
CONTINUOUS
 62
     5
 10
150.00000000005821
 20
304.69999999993712
 30
0.0
 11
150.00000000005821
 21
305.29999999993743
 31
0.0
  0
LINE
  8
DETAIL
  6
CONTINUOUS
 62
     5
 10
150.00000000005821
 20
644.69999999993695
 30
0.0
 11
150.00000000005821
 21
645.29999999993743
 31
0.0
  0
LINE
  8
DETAIL
  6
CONTINUOUS
 62
     5
 10
152.50000000005821
 20
94.50717967683704
 30
0.0
 11
152.50000000005821
 21
96.999999999936335
 31
0.0
  0
LINE
  8
DETAIL
  6
CONTINUOUS
 62
     5
 10
159.30000000005381
 20
113.99999999993631
 30
0.0
 11
159.30000000005381
 21
116.99999999993631
 31
0.0
  0
LINE
  8
DETAIL
  6
CONTINUOUS
 62
     5
 10
159.30000000005381
 20
678.49999999993634
 30
0.0
 11
159.30000000005381
 21
684.86396103053812
 31
0.0
  0
LINE
  8
DETAIL
  6
CONTINUOUS
 62
     5
 10
160.1000000000567
 20
96.999999999936335
 30
0.0
 11
160.1000000000567
 21
113.99999999993631
 31
0.0
  0
LINE
  8
DETAIL
  6
CONTINUOUS
 62
     5
 10
160.50000000005821
 20
116.99999999993631
 30
0.0
 11
160.50000000005821
 21
142.49362949340139
 31
0.0
  0
LINE
  8
DETAIL
  6
CONTINUOUS
 62
     5
 10
160.50000000005821
 20
142.49362949340139
 30
0.0
 11
160.50000000005821
 21
678.49999999993634
 31
0.0
  0
LINE
  8
DETAIL
  6
CONTINUOUS
 62
     5
 10
161.50000000005821
 20
116.99999999993631
 30
0.0
 11
161.50000000005821
 21
142.5190408194685
 31
0.0
  0
LINE
  8
DETAIL
  6
CONTINUOUS
 62
     5
 10
161.50000000005821
 20
142.5190408194685
 30
0.0
 11
161.50000000005821
 21
1522.499999999937
 31
0.0
  0
LINE
  8
DETAIL
  6
CONTINUOUS
 62
     5
 10
163.50000000005821
 20
116.99999999993631
 30
0.0
 11
163.50000000005821
 21
102.99999999993631
 31
0.0
  0
LINE
  8
DETAIL
  6
CONTINUOUS
 62
     5
 10
172.50000000005821
 20
111.2999999999374
 30
0.0
 11
172.50000000005821
 21
110.69999999993701
 31
0.0
  0
LINE
  8
DETAIL
  6
CONTINUOUS
 62
     5
 10
174.2000000000553
 20
112.99999999993631
 30
0.0
 11
174.2000000000553
 21
111.2999999999374
 31
0.0
  0
LINE
  8
DETAIL
  6
CONTINUOUS
 62
     5
 10
174.2000000000553
 20
110.69999999993701
 30
0.0
 11
174.2000000000553
 21
108.99999999993631
 31
0.0
  0
LINE
  8
DETAIL
  6
CONTINUOUS
 62
     5
 10
174.80000000005381
 20
108.99999999993631
 30
0.0
 11
174.80000000005381
 21
110.69999999993701
 31
0.0
  0
LINE
  8
DETAIL
  6
CONTINUOUS
 62
     5
 10
174.80000000005381
 20
111.2999999999374
 30
0.0
 11
174.80000000005381
 21
112.99999999993631
 31
0.0
  0
LINE
  8
DETAIL
  6
CONTINUOUS
 62
     5
 10
176.50000000005821
 20
110.69999999993701
 30
0.0
 11
176.50000000005821
 21
111.2999999999374
 31
0.0
  0
LINE
  8
DETAIL
  6
CONTINUOUS
 62
     5
 10
-309.1188021534399
 20
74.499999999936335
 30
0.0
 11
-306.80940107664361
 21
78.499999999936335
 31
0.0
  0
LINE
  8
DETAIL
  6
CONTINUOUS
 62
     5
 10
-302.19059892314539
 20
70.499999999936335
 30
0.0
 11
-299.88119784644368
 21
74.499999999936335
 31
0.0
  0
LINE
  8
DETAIL
  6
CONTINUOUS
 62
     5
 10
-258.1188021534399
 20
110.99999999993631
 30
0.0
 11
-255.8094010766435
 21
114.99999999993631
 31
0.0
  0
LINE
  8
DETAIL
  6
CONTINUOUS
 62
     5
 10
-251.1905989231382
 20
106.99999999993631
 30
0.0
 11
-248.88119784644371
 21
110.99999999993631
 31
0.0
  0
LINE
  8
DETAIL
  6
CONTINUOUS
 62
     5
 10
151.00000000005821
 20
1097.999999999937
 30
0.0
 11
148.00000000005821
 21
1097.999999999937
 31
0.0
  0
LINE
  8
DETAIL
  6
CONTINUOUS
 62
     5
 10
148.00000000005821
 20
1103.999999999937
 30
0.0
 11
151.00000000005821
 21
1103.999999999937
 31
0.0
  0
LINE
  8
DETAIL
  6
CONTINUOUS
 62
     5
 10
259.50000000005821
 20
1516.799999999937
 30
0.0
 11
259.50000000005821
 21
1516.1999999999371
 31
0.0
  0
LINE
  8
DETAIL
  6
CONTINUOUS
 62
     5
 10
261.2000000000553
 20
1518.499999999937
 30
0.0
 11
261.2000000000553
 21
1516.799999999937
 31
0.0
  0
LINE
  8
DETAIL
  6
CONTINUOUS
 62
     5
 10
261.2000000000553
 20
1516.1999999999371
 30
0.0
 11
261.2000000000553
 21
1514.499999999937
 31
0.0
  0
LINE
  8
DETAIL
  6
CONTINUOUS
 62
     5
 10
261.8000000000539
 20
1514.499999999937
 30
0.0
 11
261.8000000000539
 21
1516.1999999999371
 31
0.0
  0
LINE
  8
DETAIL
  6
CONTINUOUS
 62
     5
 10
261.8000000000539
 20
1516.799999999937
 30
0.0
 11
261.8000000000539
 21
1518.499999999937
 31
0.0
  0
LINE
  8
DETAIL
  6
CONTINUOUS
 62
     5
 10
263.50000000005821
 20
1516.1999999999371
 30
0.0
 11
263.50000000005821
 21
1516.799999999937
 31
0.0
  0
LINE
  8
DETAIL
  6
CONTINUOUS
 62
     5
 10
272.36053943275328
 20
1823.817894516837
 30
0.0
 11
272.36053943275328
 21
1825.7821054829369
 31
0.0
  0
LINE
  8
DETAIL
  6
CONTINUOUS
 62
     5
 10
275.11857707035227
 20
1825.7821054829369
 30
0.0
 11
275.11857707035227
 21
1823.817894516837
 31
0.0
  0
LINE
  8
DETAIL
  6
CONTINUOUS
 62
     5
 10
276.34990002105769
 20
1825.0999999999369
 30
0.0
 11
276.34990002105769
 21
1824.499999999937
 31
0.0
  0
LINE
  8
DETAIL
  6
CONTINUOUS
 62
     5
 10
285.50000000005821
 20
1683.999999999937
 30
0.0
 11
286.67816672705521
 21
1752.874895943138
 31
0.0
  0
LINE
  8
DETAIL
  6
CONTINUOUS
 62
     5
 10
139.8811978465601
 20
689.49999999993634
 30
0.0
 11
142.19059892335639
 21
693.49999999993634
 31
0.0
  0
LINE
  8
DETAIL
  6
CONTINUOUS
 62
     5
 10
-192.1188021534399
 20
110.99999999993631
 30
0.0
 11
-189.8094010766435
 21
114.99999999993631
 31
0.0
  0
LINE
  8
DETAIL
  6
CONTINUOUS
 62
     5
 10
146.8094010768618
 20
685.49999999993634
 30
0.0
 11
149.11880215355629
 21
689.49999999993634
 31
0.0
  0
LINE
  8
DETAIL
  6
CONTINUOUS
 62
     5
 10
-185.19059892313811
 20
106.99999999993631
 30
0.0
 11
-182.8811978464436
 21
110.99999999993631
 31
0.0
  0
LINE
  8
DETAIL
  6
CONTINUOUS
 62
     5
 10
143.3811978465601
 20
644.99999999993634
 30
0.0
 11
145.69059892335639
 21
648.99999999993634
 31
0.0
  0
LINE
  8
DETAIL
  6
CONTINUOUS
 62
     5
 10
150.3094010768618
 20
640.99999999993634
 30
0.0
 11
152.61880215355629
 21
644.99999999993634
 31
0.0
  0
LINE
  8
DETAIL
  6
CONTINUOUS
 62
     5
 10
279.0457314608575
 20
1834.6379223008371
 30
0.0
 11
279.03906977886072
 21
1834.7868550220369
 31
0.0
  0
LINE
  8
DETAIL
  6
CONTINUOUS
 62
     5
 10
279.286981955258
 20
1817.0999999999369
 30
0.0
 11
279.2234149903598
 21
1821.7212000100369
 31
0.0
  0
LINE
  8
DETAIL
  6
CONTINUOUS
 62
     5
 10
279.13760717865807
 20
1827.959268177538
 30
0.0
 11
279.04573887425789
 21
1834.6379228840381
 31
0.0
  0
LINE
  8
DETAIL
  6
CONTINUOUS
 62
     5
 10
277.39652452905278
 20
1826.799999999937
 30
0.0
 11
277.39652452905278
 21
1825.0999999999369
 31
0.0
  0
LINE
  8
DETAIL
  6
CONTINUOUS
 62
     5
 10
277.39652452905278
 20
1824.499999999937
 30
0.0
 11
277.39652452905278
 21
1822.799999999937
 31
0.0
  0
LINE
  8
DETAIL
  6
CONTINUOUS
 62
     5
 10
277.76592141425499
 20
1822.799999999937
 30
0.0
 11
277.76592141425499
 21
1824.499999999937
 31
0.0
  0
LINE
  8
DETAIL
  6
CONTINUOUS
 62
     5
 10
277.76592141425499
 20
1825.0999999999369
 30
0.0
 11
277.76592141425499
 21
1826.799999999937
 31
0.0
  0
LINE
  8
DETAIL
  6
CONTINUOUS
 62
     5
 10
278.41854054555728
 20
1824.499999999937
 30
0.0
 11
278.41854054555728
 21
1825.0999999999369
 31
0.0
  0
LINE
  8
DETAIL
  6
CONTINUOUS
 62
     5
 10
278.81254592235928
 20
1824.499999999937
 30
0.0
 11
278.81254592235928
 21
1825.0999999999369
 31
0.0
  0
LINE
  8
DETAIL
  6
CONTINUOUS
 62
     5
 10
280.0438688729555
 20
1823.817894516837
 30
0.0
 11
280.0438688729555
 21
1825.7821054829369
 31
0.0
  0
LINE
  8
DETAIL
  6
CONTINUOUS
 62
     5
 10
295.80000000005379
 20
94.999999999936335
 30
0.0
 11
295.80000000005379
 21
69.499999999936335
 31
0.0
  0
LINE
  8
DETAIL
  6
CONTINUOUS
 62
     5
 10
296.50000000005821
 20
69.499999999936335
 30
0.0
 11
296.50000000005821
 21
94.999999999936335
 31
0.0
  0
LINE
  8
DETAIL
  6
CONTINUOUS
 62
     5
 10
302.50000000005821
 20
74.799999999937427
 30
0.0
 11
302.50000000005821
 21
74.199999999937063
 31
0.0
  0
LINE
  8
DETAIL
  6
CONTINUOUS
 62
     5
 10
304.2000000000553
 20
76.499999999936335
 30
0.0
 11
304.2000000000553
 21
74.799999999937427
 31
0.0
  0
LINE
  8
DETAIL
  6
CONTINUOUS
 62
     5
 10
304.2000000000553
 20
74.199999999937063
 30
0.0
 11
304.2000000000553
 21
72.499999999936335
 31
0.0
  0
LINE
  8
DETAIL
  6
CONTINUOUS
 62
     5
 10
304.80000000005379
 20
72.499999999936335
 30
0.0
 11
304.80000000005379
 21
74.199999999937063
 31
0.0
  0
LINE
  8
DETAIL
  6
CONTINUOUS
 62
     5
 10
304.80000000005379
 20
74.799999999937427
 30
0.0
 11
304.80000000005379
 21
76.499999999936335
 31
0.0
  0
LINE
  8
DETAIL
  6
CONTINUOUS
 62
     5
 10
306.50000000005821
 20
74.199999999937063
 30
0.0
 11
306.50000000005821
 21
74.799999999937427
 31
0.0
  0
LINE
  8
DETAIL
  6
CONTINUOUS
 62
     5
 10
313.50000000005821
 20
56.499999999936328
 30
0.0
 11
313.50000000005821
 21
3.4999999999363349
 31
0.0
  0
LINE
  8
DETAIL
  6
CONTINUOUS
 62
     5
 10
315.50000000005821
 20
64.499999999936335
 30
0.0
 11
315.50000000005821
 21
63.499999999936342
 31
0.0
  0
LINE
  8
DETAIL
  6
CONTINUOUS
 62
     5
 10
315.8000000000539
 20
56.499999999936328
 30
0.0
 11
315.8000000000539
 21
3.4999999999363349
 31
0.0
  0
LINE
  8
DETAIL
  6
CONTINUOUS
 62
     5
 10
317.8000000000539
 20
64.499999999936335
 30
0.0
 11
317.8000000000539
 21
63.499999999936342
 31
0.0
  0
LINE
  8
DETAIL
  6
CONTINUOUS
 62
     5
 10
319.50000000005821
 20
2.2999999999374259
 30
0.0
 11
319.50000000005821
 21
3.9999999999363349
 31
0.0
  0
LINE
  8
DETAIL
  6
CONTINUOUS
 62
     5
 10
319.50000000005821
 20
55.999999999936342
 30
0.0
 11
319.50000000005821
 21
57.699999999937063
 31
0.0
  0
LINE
  8
DETAIL
  6
CONTINUOUS
 62
     5
 10
143.00000000005821
 20
1226.799999999937
 30
0.0
 11
140.00000000005821
 21
1226.799999999937
 31
0.0
  0
LINE
  8
DETAIL
  6
CONTINUOUS
 62
     5
 10
140.00000000005821
 20
1232.799999999937
 30
0.0
 11
143.00000000005821
 21
1232.799999999937
 31
0.0
  0
LINE
  8
DETAIL
  6
CONTINUOUS
 62
     5
 10
346.40000000005972
 20
1817.0999999999369
 30
0.0
 11
345.68434233805601
 21
1858.0999999999381
 31
0.0
  0
LINE
  8
DETAIL
  6
CONTINUOUS
 62
     5
 10
365.50000000005821
 20
94.999999999936335
 30
0.0
 11
365.50000000005821
 21
1522.499999999937
 31
0.0
  0
LINE
  8
DETAIL
  6
CONTINUOUS
 62
     5
 10
367.50000000005821
 20
2.2999999999374259
 30
0.0
 11
367.50000000005821
 21
57.699999999937063
 31
0.0
  0
LINE
  8
DETAIL
  6
CONTINUOUS
 62
     5
 10
369.50000000005821
 20
2.2999999999374259
 30
0.0
 11
369.50000000005821
 21
-0.0000000000636646
 31
0.0
  0
LINE
  8
DETAIL
  6
CONTINUOUS
 62
     5
 10
369.50000000005821
 20
57.699999999937063
 30
0.0
 11
369.50000000005821
 21
62.299999999937427
 31
0.0
  0
LINE
  8
DETAIL
  6
CONTINUOUS
 62
     5
 10
370.7000000000553
 20
1550.133725262438
 30
0.0
 11
370.7000000000553
 21
1548.679614770637
 31
0.0
  0
LINE
  8
DETAIL
  6
CONTINUOUS
 62
     5
 10
370.7000000000553
 20
1548.679614770637
 30
0.0
 11
370.7000000000553
 21
1522.499999999937
 31
0.0
  0
LINE
  8
DETAIL
  6
CONTINUOUS
 62
     5
 10
151.00000000005821
 20
1286.399999999938
 30
0.0
 11
148.00000000005821
 21
1286.399999999938
 31
0.0
  0
LINE
  8
DETAIL
  6
CONTINUOUS
 62
     5
 10
148.00000000005821
 20
1292.399999999938
 30
0.0
 11
151.00000000005821
 21
1292.399999999938
 31
0.0
  0
LINE
  8
DETAIL
  6
CONTINUOUS
 62
     5
 10
-342.2273559718451
 20
1812.987867965538
 30
0.0
 11
-339.8273559718437
 21
1810.587867965538
 31
0.0
  0
LINE
  8
DETAIL
  6
CONTINUOUS
 62
     5
 10
-338.98557748184248
 20
1817.0999999999369
 30
0.0
 11
-337.09268426243949
 21
1815.2071067805371
 31
0.0
  0
LINE
  8
DETAIL
  6
CONTINUOUS
 62
     5
 10
-331.7998163272423
 20
1809.914238845337
 30
0.0
 11
-295.46057507974177
 21
1773.5749975978381
 31
0.0
  0
POLYLINE
  8
DETAIL
  6
CONTINUOUS
 62
     5
 66
     1
 10
0.0
 20
0.0
 30
0.0
 70
     0
  0
VERTEX
  8
DETAIL
  6
CONTINUOUS
 62
     5
 10
279.03906977886072
 20
1834.7868550220369
  0
VERTEX
  8
DETAIL
  6
CONTINUOUS
 62
     5
 10
278.99801103025669
 20
1835.0884125741379
  0
VERTEX
  8
DETAIL
  6
CONTINUOUS
 62
     5
 10
278.92046249825938
 20
1835.380940303337
  0
VERTEX
  8
DETAIL
  6
CONTINUOUS
 62
     5
 10
278.80914571615722
 20
1835.654671237337
  0
VERTEX
  8
DETAIL
  6
CONTINUOUS
 62
     5
 10
278.66916000825591
 20
1835.900838036237
  0
VERTEX
  8
DETAIL
  6
CONTINUOUS
 62
     5
 10
278.5074237237568
 20
1836.112713843037
  0
VERTEX
  8
DETAIL
  6
CONTINUOUS
 62
     5
 10
278.3313946336566
 20
1836.286557376337
  0
VERTEX
  8
DETAIL
  6
CONTINUOUS
 62
     5
 10
278.14825516985729
 20
1836.4211631900371
  0
VERTEX
  8
DETAIL
  6
CONTINUOUS
 62
     5
 10
277.96476769315632
 20
1836.5170268693371
  0
VERTEX
  8
DETAIL
  6
CONTINUOUS
 62
     5
 10
277.78726584245311
 20
1836.5757772837369
  0
VERTEX
  8
DETAIL
  6
CONTINUOUS
 62
     5
 10
277.62644133465801
 20
1836.599201501537
  0
VERTEX
  8
DETAIL
  6
CONTINUOUS
 62
     5
 10
277.5936123638603
 20
1836.599999546137
  0
SEQEND
  8
DETAIL
  6
CONTINUOUS
 62
     5
  0
LINE
  8
DETAIL
  6
CONTINUOUS
 62
     5
 10
143.3811978465601
 20
304.99999999993628
 30
0.0
 11
145.69059892335639
 21
308.99999999993628
 31
0.0
  0
LINE
  8
DETAIL
  6
CONTINUOUS
 62
     5
 10
150.3094010768618
 20
300.99999999993628
 30
0.0
 11
152.61880215355629
 21
304.99999999993628
 31
0.0
  0
LINE
  8
DETAIL
  6
CONTINUOUS
 62
     5
 10
-325.17971042994031
 20
1573.401639153137
 30
0.0
 11
-324.9093773619461
 21
1573.2600836950371
 31
0.0
  0
LINE
  8
DETAIL
  6
CONTINUOUS
 62
     5
 10
-304.88196962934308
 20
1599.1496059389369
 30
0.0
 11
-304.62436170574068
 21
1599.0147137931369
 31
0.0
  0
LINE
  8
DETAIL
  6
CONTINUOUS
 62
     5
 10
-282.09002305694599
 20
1593.8695900816369
 30
0.0
 11
-281.8293964086406
 21
1593.733117230337
 31
0.0
  0
LINE
  8
DETAIL
  6
CONTINUOUS
 62
     5
 10
-279.44995002804347
 20
1821.826951126337
 30
0.0
 11
-278.40267501514609
 21
1820.8448456432379
 31
0.0
  0
LINE
  8
DETAIL
  6
CONTINUOUS
 62
     5
 10
-275.9400291138445
 20
1827.7730488735381
 30
0.0
 11
-276.987304126742
 21
1828.7551543565371
 31
0.0
  0
LINE
  8
DETAIL
  6
CONTINUOUS
 62
     5
 10
-274.2292664891429
 20
1828.7551543565371
 30
0.0
 11
-273.18199147623818
 21
1827.7730488735381
 31
0.0
  0
LINE
  8
DETAIL
  6
CONTINUOUS
 62
     5
 10
105.8811978465601
 20
110.99999999993631
 30
0.0
 11
108.1905989233564
 21
114.99999999993631
 31
0.0
  0
LINE
  8
DETAIL
  6
CONTINUOUS
 62
     5
 10
112.8094010768618
 20
106.99999999993631
 30
0.0
 11
115.1188021535563
 21
110.99999999993631
 31
0.0
  0
LINE
  8
DETAIL
  6
CONTINUOUS
 62
     5
 10
143.00000000005821
 20
1451.1999999999371
 30
0.0
 11
140.00000000005821
 21
1451.1999999999371
 31
0.0
  0
LINE
  8
DETAIL
  6
CONTINUOUS
 62
     5
 10
140.00000000005821
 20
1457.1999999999371
 30
0.0
 11
143.00000000005821
 21
1457.1999999999371
 31
0.0
  0
LINE
  8
DETAIL
  6
CONTINUOUS
 62
     5
 10
259.19059892335639
 20
1512.499999999937
 30
0.0
 11
256.8811978465601
 21
1516.499999999937
 31
0.0
  0
LINE
  8
DETAIL
  6
CONTINUOUS
 62
     5
 10
266.11880215355632
 20
1516.499999999937
 30
0.0
 11
263.80940107686177
 21
1520.499999999937
 31
0.0
  0
LINE
  8
DETAIL
  6
CONTINUOUS
 62
     5
 10
169.8811978465601
 20
110.99999999993631
 30
0.0
 11
172.19059892335639
 21
114.99999999993631
 31
0.0
  0
LINE
  8
DETAIL
  6
CONTINUOUS
 62
     5
 10
176.8094010768618
 20
106.99999999993631
 30
0.0
 11
179.11880215355629
 21
110.99999999993631
 31
0.0
  0
LINE
  8
DETAIL
  6
CONTINUOUS
 62
     5
 10
151.00000000005821
 20
1490.499999999937
 30
0.0
 11
148.00000000005821
 21
1490.499999999937
 31
0.0
  0
LINE
  8
DETAIL
  6
CONTINUOUS
 62
     5
 10
148.00000000005821
 20
1496.499999999937
 30
0.0
 11
151.00000000005821
 21
1496.499999999937
 31
0.0
  0
LINE
  8
DETAIL
  6
CONTINUOUS
 62
     5
 10
263.80940107686177
 20
1512.499999999937
 30
0.0
 11
259.19059892335639
 21
1512.499999999937
 31
0.0
  0
LINE
  8
DETAIL
  6
CONTINUOUS
 62
     5
 10
-251.1905989231382
 20
1512.499999999937
 30
0.0
 11
-255.8094010766435
 21
1512.499999999937
 31
0.0
  0
LINE
  8
DETAIL
  6
CONTINUOUS
 62
     5
 10
-253.7999999999447
 20
1514.499999999937
 30
0.0
 11
-253.19999999994619
 21
1514.499999999937
 31
0.0
  0
LINE
  8
DETAIL
  6
CONTINUOUS
 62
     5
 10
261.2000000000553
 20
1514.499999999937
 30
0.0
 11
261.8000000000539
 21
1514.499999999937
 31
0.0
  0
LINE
  8
DETAIL
  6
CONTINUOUS
 62
     5
 10
-255.49999999994179
 20
1516.1999999999371
 30
0.0
 11
-253.7999999999447
 21
1516.1999999999371
 31
0.0
  0
LINE
  8
DETAIL
  6
CONTINUOUS
 62
     5
 10
-253.19999999994619
 20
1516.1999999999371
 30
0.0
 11
-251.49999999994179
 21
1516.1999999999371
 31
0.0
  0
LINE
  8
DETAIL
  6
CONTINUOUS
 62
     5
 10
259.50000000005821
 20
1516.1999999999371
 30
0.0
 11
261.2000000000553
 21
1516.1999999999371
 31
0.0
  0
LINE
  8
DETAIL
  6
CONTINUOUS
 62
     5
 10
261.8000000000539
 20
1516.1999999999371
 30
0.0
 11
263.50000000005821
 21
1516.1999999999371
 31
0.0
  0
LINE
  8
DETAIL
  6
CONTINUOUS
 62
     5
 10
263.50000000005821
 20
1516.799999999937
 30
0.0
 11
261.8000000000539
 21
1516.799999999937
 31
0.0
  0
LINE
  8
DETAIL
  6
CONTINUOUS
 62
     5
 10
261.2000000000553
 20
1516.799999999937
 30
0.0
 11
259.50000000005821
 21
1516.799999999937
 31
0.0
  0
LINE
  8
DETAIL
  6
CONTINUOUS
 62
     5
 10
-251.49999999994179
 20
1516.799999999937
 30
0.0
 11
-253.19999999994619
 21
1516.799999999937
 31
0.0
  0
LINE
  8
DETAIL
  6
CONTINUOUS
 62
     5
 10
-253.7999999999447
 20
1516.799999999937
 30
0.0
 11
-255.49999999994179
 21
1516.799999999937
 31
0.0
  0
LINE
  8
DETAIL
  6
CONTINUOUS
 62
     5
 10
261.8000000000539
 20
1518.499999999937
 30
0.0
 11
261.2000000000553
 21
1518.499999999937
 31
0.0
  0
LINE
  8
DETAIL
  6
CONTINUOUS
 62
     5
 10
-253.19999999994619
 20
1518.499999999937
 30
0.0
 11
-253.7999999999447
 21
1518.499999999937
 31
0.0
  0
LINE
  8
DETAIL
  6
CONTINUOUS
 62
     5
 10
-217.49999999994179
 20
1520.0999999999381
 30
0.0
 11
133.50000000005821
 21
1520.0999999999381
 31
0.0
  0
LINE
  8
DETAIL
  6
CONTINUOUS
 62
     5
 10
263.80940107686177
 20
1520.499999999937
 30
0.0
 11
259.19059892335639
 21
1520.499999999937
 31
0.0
  0
LINE
  8
DETAIL
  6
CONTINUOUS
 62
     5
 10
-251.1905989231382
 20
1520.499999999937
 30
0.0
 11
-255.8094010766435
 21
1520.499999999937
 31
0.0
  0
LINE
  8
DETAIL
  6
CONTINUOUS
 62
     5
 10
370.7000000000553
 20
1522.499999999937
 30
0.0
 11
-370.69999999994621
 21
1522.499999999937
 31
0.0
  0
LINE
  8
DETAIL
  6
CONTINUOUS
 62
     5
 10
272.45706503935799
 20
1822.8576428245381
 30
0.0
 11
272.64561707495892
 21
1822.323296926937
 31
0.0
  0
LINE
  8
DETAIL
  6
CONTINUOUS
 62
     5
 10
279.94736860515701
 20
1826.7422724032369
 30
0.0
 11
279.75891558815778
 21
1827.276400630637
 31
0.0
  0
LINE
  8
DETAIL
  6
CONTINUOUS
 62
     5
 10
284.1284210968588
 20
90.499999999936335
 30
0.0
 11
285.62953179675242
 21
93.099999999936685
 31
0.0
  0
LINE
  8
DETAIL
  6
CONTINUOUS
 62
     5
 10
-359.4332297342408
 20
1556.6667532107369
 30
0.0
 11
-364.24469792473968
 21
1556.633665390337
 31
0.0
  0
LINE
  8
DETAIL
  6
CONTINUOUS
 62
     5
 10
359.43322973435721
 20
1556.6667532107369
 30
0.0
 11
364.2446979248561
 21
1556.633665390337
 31
0.0
  0
LINE
  8
DETAIL
  6
CONTINUOUS
 62
     5
 10
299.8811978465601
 20
74.499999999936335
 30
0.0
 11
302.1905989233565
 21
78.499999999936335
 31
0.0
  0
LINE
  8
DETAIL
  6
CONTINUOUS
 62
     5
 10
306.8094010768545
 20
70.499999999936335
 30
0.0
 11
309.11880215355632
 21
74.499999999936335
 31
0.0
  0
POLYLINE
  8
DETAIL
  6
CONTINUOUS
 62
     5
 66
     1
 10
0.0
 20
0.0
 30
0.0
 70
     0
  0
VERTEX
  8
DETAIL
  6
CONTINUOUS
 62
     5
 10
-332.72417021304142
 20
1810.439094319137
  0
VERTEX
  8
DETAIL
  6
CONTINUOUS
 62
     5
 10
-332.48864381774189
 20
1810.363834780037
  0
VERTEX
  8
DETAIL
  6
CONTINUOUS
 62
     5
 10
-332.26420437003981
 20
1810.260086932738
  0
VERTEX
  8
DETAIL
  6
CONTINUOUS
 62
     5
 10
-332.05428253774153
 20
1810.1294366140371
  0
VERTEX
  8
DETAIL
  6
CONTINUOUS
 62
     5
 10
-331.8620870797385
 20
1809.9738808789371
  0
VERTEX
  8
DETAIL
  6
CONTINUOUS
 62
     5
 10
-331.7998163272423
 20
1809.914238845337
  0
SEQEND
  8
DETAIL
  6
CONTINUOUS
 62
     5
  0
POLYLINE
  8
DETAIL
  6
CONTINUOUS
 62
     5
 66
     1
 10
0.0
 20
0.0
 30
0.0
 70
     0
  0
VERTEX
  8
DETAIL
  6
CONTINUOUS
 62
     5
 10
336.14097410625982
 20
1571.6320466462371
  0
VERTEX
  8
DETAIL
  6
CONTINUOUS
 62
     5
 10
332.07436730405612
 20
1575.5727378665381
  0
VERTEX
  8
DETAIL
  6
CONTINUOUS
 62
     5
 10
327.1259310509559
 20
1580.7702385995369
  0
VERTEX
  8
DETAIL
  6
CONTINUOUS
 62
     5
 10
322.42363261075661
 20
1586.177509482937
  0
VERTEX
  8
DETAIL
  6
CONTINUOUS
 62
     5
 10
317.97182342035381
 20
1591.786595838237
  0
VERTEX
  8
DETAIL
  6
CONTINUOUS
 62
     5
 10
313.77520872065361
 20
1597.5893050365371
  0
VERTEX
  8
DETAIL
  6
CONTINUOUS
 62
     5
 10
309.84174211165367
 20
1603.5739095443371
  0
VERTEX
  8
DETAIL
  6
CONTINUOUS
 62
     5
 10
306.18096936735668
 20
1609.725940644837
  0
VERTEX
  8
DETAIL
  6
CONTINUOUS
 62
     5
 10
302.80189091995271
 20
1616.0305528617371
  0
VERTEX
  8
DETAIL
  6
CONTINUOUS
 62
     5
 10
299.71081217235769
 20
1622.473092802637
  0
VERTEX
  8
DETAIL
  6
CONTINUOUS
 62
     5
 10
296.91157578986167
 20
1629.0408541920369
  0
VERTEX
  8
DETAIL
  6
CONTINUOUS
 62
     5
 10
294.40812297415681
 20
1635.7215824489369
  0
VERTEX
  8
DETAIL
  6
CONTINUOUS
 62
     5
 10
292.20496336055658
 20
1642.502296562838
  0
VERTEX
  8
DETAIL
  6
CONTINUOUS
 62
     5
 10
290.30811012566119
 20
1649.364697734638
  0
VERTEX
  8
DETAIL
  6
CONTINUOUS
 62
     5
 10
288.72197985345701
 20
1656.287939311437
  0
VERTEX
  8
DETAIL
  6
CONTINUOUS
 62
     5
 10
287.4480442946587
 20
1663.2506538217369
  0
VERTEX
  8
DETAIL
  6
CONTINUOUS
 62
     5
 10
286.4865022817612
 20
1670.231378319537
  0
VERTEX
  8
DETAIL
  6
CONTINUOUS
 62
     5
 10
285.83641775515571
 20
1677.2083404564371
  0
VERTEX
  8
DETAIL
  6
CONTINUOUS
 62
     5
 10
285.50000000005821
 20
1683.999999999937
  0
SEQEND
  8
DETAIL
  6
CONTINUOUS
 62
     5
  0
POLYLINE
  8
DETAIL
  6
CONTINUOUS
 62
     5
 66
     1
 10
0.0
 20
0.0
 30
0.0
 70
     0
  0
VERTEX
  8
DETAIL
  6
CONTINUOUS
 62
     5
 10
-333.21396885224391
 20
1810.499999999937
  0
VERTEX
  8
DETAIL
  6
CONTINUOUS
 62
     5
 10
-332.9671834188411
 20
1810.4847151712361
  0
VERTEX
  8
DETAIL
  6
CONTINUOUS
 62
     5
 10
-332.72417021304142
 20
1810.439094319137
  0
SEQEND
  8
DETAIL
  6
CONTINUOUS
 62
     5
  0
LINE
  8
DETAIL
  6
CONTINUOUS
 62
     5
 10
274.11549988985649
 20
1820.8448456432379
 30
0.0
 11
273.06822487695899
 21
1821.826951126237
 31
0.0
  0
LINE
  8
DETAIL
  6
CONTINUOUS
 62
     5
 10
275.82626251455798
 20
1821.826951126237
 30
0.0
 11
276.87353752745548
 21
1820.8448456432379
 31
0.0
  0
LINE
  8
DETAIL
  6
CONTINUOUS
 62
     5
 10
279.33618342875712
 20
1827.7730488735381
 30
0.0
 11
278.28890841585962
 21
1828.7551543565371
 31
0.0
  0
LINE
  8
DETAIL
  6
CONTINUOUS
 62
     5
 10
363.95064030275529
 20
94.999999999936335
 30
0.0
 11
320.46357325975993
 21
64.499999999936335
 31
0.0
  0
POLYLINE
  8
DETAIL
  6
CONTINUOUS
 62
     5
 66
     1
 10
0.0
 20
0.0
 30
0.0
 70
     0
  0
VERTEX
  8
DETAIL
  6
CONTINUOUS
 62
     5
 10
-277.66258188794751
 20
1836.5999999584369
  0
VERTEX
  8
DETAIL
  6
CONTINUOUS
 62
     5
 10
-277.69438176454418
 20
1836.5993151940361
  0
VERTEX
  8
DETAIL
  6
CONTINUOUS
 62
     5
 10
-277.86102990034118
 20
1836.5758699083381
  0
VERTEX
  8
DETAIL
  6
CONTINUOUS
 62
     5
 10
-278.04818463353871
 20
1836.5146382773371
  0
VERTEX
  8
DETAIL
  6
CONTINUOUS
 62
     5
 10
-278.24414858474478
 20
1836.4124333975381
  0
VERTEX
  8
DETAIL
  6
CONTINUOUS
 62
     5
 10
-278.43921145024069
 20
1836.268436209537
  0
VERTEX
  8
DETAIL
  6
CONTINUOUS
 62
     5
 10
-278.62367640544107
 20
1836.084803899937
  0
VERTEX
  8
DETAIL
  6
CONTINUOUS
 62
     5
 10
-278.78872156294528
 20
1835.8665857968369
  0
VERTEX
  8
DETAIL
  6
CONTINUOUS
 62
     5
 10
-278.92725096444337
 20
1835.6210720511369
  0
SEQEND
  8
DETAIL
  6
CONTINUOUS
 62
     5
  0
LINE
  8
DETAIL
  6
CONTINUOUS
 62
     5
 10
-339.61517197164358
 20
1810.499999999937
 30
0.0
 11
-333.21396885224391
 21
1810.499999999937
 31
0.0
  0
LINE
  8
DETAIL
  6
CONTINUOUS
 62
     5
 10
333.21396885196009
 20
1810.499999999937
 30
0.0
 11
339.61517197185458
 21
1810.499999999937
 31
0.0
  0
LINE
  8
DETAIL
  6
CONTINUOUS
 62
     5
 10
337.7997910435588
 20
1813.499999999937
 30
0.0
 11
342.01522393755289
 21
1813.499999999937
 31
0.0
  0
LINE
  8
DETAIL
  6
CONTINUOUS
 62
     5
 10
-337.7997910432386
 20
1813.499999999937
 30
0.0
 11
-342.015173058644
 21
1813.499999999937
 31
0.0
  0
LINE
  8
DETAIL
  6
CONTINUOUS
 62
     5
 10
346.40000000005972
 20
1817.0999999999369
 30
0.0
 11
-346.39999999994319
 21
1817.0999999999369
 31
0.0
  0
LINE
  8
DETAIL
  6
CONTINUOUS
 62
     5
 10
-274.14894117974472
 20
1818.6999999999371
 30
0.0
 11
-273.36093042614078
 21
1818.6999999999371
 31
0.0
  0
LINE
  8
DETAIL
  6
CONTINUOUS
 62
     5
 10
274.0351745804582
 20
1818.6999999999371
 30
0.0
 11
273.24716382685438
 21
1818.6999999999371
 31
0.0
  0
LINE
  8
DETAIL
  6
CONTINUOUS
 62
     5
 10
-274.93695193334128
 20
1818.799999999937
 30
0.0
 11
-274.14894117974472
 21
1818.799999999937
 31
0.0
  0
LINE
  8
DETAIL
  6
CONTINUOUS
 62
     5
 10
274.82318533405481
 20
1818.799999999937
 30
0.0
 11
274.0351745804582
 21
1818.799999999937
 31
0.0
  0
LINE
  8
DETAIL
  6
CONTINUOUS
 62
     5
 10
-277.3009841465464
 20
1820.181197846437
 30
0.0
 11
-275.33095616454369
 21
1820.181197846437
 31
0.0
  0
LINE
  8
DETAIL
  6
CONTINUOUS
 62
     5
 10
277.18721754725988
 20
1820.181197846437
 30
0.0
 11
275.21718956525729
 21
1820.181197846437
 31
0.0
  0
LINE
  8
DETAIL
  6
CONTINUOUS
 62
     5
 10
-274.83833824524481
 20
1822.490598923137
 30
0.0
 11
-272.86831095444359
 21
1822.490598923137
 31
0.0
  0
LINE
  8
DETAIL
  6
CONTINUOUS
 62
     5
 10
274.72457166925602
 20
1822.490598923137
 30
0.0
 11
272.75454480955523
 21
1822.490598923137
 31
0.0
  0
LINE
  8
DETAIL
  6
CONTINUOUS
 62
     5
 10
-277.87968801354151
 20
1822.799999999937
 30
0.0
 11
-277.5102911283393
 21
1822.799999999937
 31
0.0
  0
LINE
  8
DETAIL
  6
CONTINUOUS
 62
     5
 10
277.39652452905278
 20
1822.799999999937
 30
0.0
 11
277.76592141425499
 21
1822.799999999937
 31
0.0
  0
LINE
  8
DETAIL
  6
CONTINUOUS
 62
     5
 10
-278.92631252164568
 20
1824.499999999937
 30
0.0
 11
-276.46366662024229
 21
1824.499999999937
 31
0.0
  0
LINE
  8
DETAIL
  6
CONTINUOUS
 62
     5
 10
278.81254592235928
 20
1824.499999999937
 30
0.0
 11
276.34990002105769
 21
1824.499999999937
 31
0.0
  0
LINE
  8
DETAIL
  6
CONTINUOUS
 62
     5
 10
278.81254592235928
 20
1825.0999999999369
 30
0.0
 11
276.34990002105769
 21
1825.0999999999369
 31
0.0
  0
LINE
  8
DETAIL
  6
CONTINUOUS
 62
     5
 10
-276.46366662024229
 20
1825.0999999999369
 30
0.0
 11
-278.92631252164568
 21
1825.0999999999369
 31
0.0
  0
LINE
  8
DETAIL
  6
CONTINUOUS
 62
     5
 10
277.76592141425499
 20
1826.799999999937
 30
0.0
 11
277.39652452905278
 21
1826.799999999937
 31
0.0
  0
LINE
  8
DETAIL
  6
CONTINUOUS
 62
     5
 10
-277.5102911283393
 20
1826.799999999937
 30
0.0
 11
-277.87968801354151
 21
1826.799999999937
 31
0.0
  0
LINE
  8
DETAIL
  6
CONTINUOUS
 62
     5
 10
-274.83833826134651
 20
1827.1094010766369
 30
0.0
 11
-272.86831140884169
 21
1827.1094010766369
 31
0.0
  0
LINE
  8
DETAIL
  6
CONTINUOUS
 62
     5
 10
274.72457164475782
 20
1827.1094010766369
 30
0.0
 11
272.75454435465508
 21
1827.1094010766369
 31
0.0
  0
LINE
  8
DETAIL
  6
CONTINUOUS
 62
     5
 10
-277.3009841465464
 20
1829.4188021534369
 30
0.0
 11
-275.33095616454369
 21
1829.4188021534369
 31
0.0
  0
LINE
  8
DETAIL
  6
CONTINUOUS
 62
     5
 10
277.18721754725988
 20
1829.4188021534369
 30
0.0
 11
275.21718956525729
 21
1829.4188021534369
 31
0.0
  0
LINE
  8
DETAIL
  6
CONTINUOUS
 62
     5
 10
-274.93695193334128
 20
1830.799999999937
 30
0.0
 11
-274.14894117974472
 21
1830.799999999937
 31
0.0
  0
LINE
  8
DETAIL
  6
CONTINUOUS
 62
     5
 10
274.82318533405481
 20
1830.799999999937
 30
0.0
 11
274.0351745804582
 21
1830.799999999937
 31
0.0
  0
LINE
  8
DETAIL
  6
CONTINUOUS
 62
     5
 10
-274.14894117974472
 20
1830.899999999938
 30
0.0
 11
-273.36093042614078
 21
1830.899999999938
 31
0.0
  0
LINE
  8
DETAIL
  6
CONTINUOUS
 62
     5
 10
274.0351745804582
 20
1830.899999999938
 30
0.0
 11
273.24716382685438
 21
1830.899999999938
 31
0.0
  0
LINE
  8
DETAIL
  6
CONTINUOUS
 62
     5
 10
346.05880721981521
 20
1836.6469212898221
 30
0.0
 11
22.000000000058211
 21
1836.5999999999381
 31
0.0
  0
LINE
  8
DETAIL
  6
CONTINUOUS
 62
     5
 10
-21.999999999941789
 20
1836.5999999999381
 30
0.0
 11
-346.05880721965508
 21
1836.646921289826
 31
0.0
  0
LINE
  8
DETAIL
  6
CONTINUOUS
 62
     5
 10
-345.6843210772422
 20
1858.0999999999381
 30
0.0
 11
345.68432107735862
 21
1858.0999999999381
 31
0.0
  0
CIRCLE
  8
DETAIL
  6
CONTINUOUS
 62
     5
 10
-304.49999999994179
 20
74.499999999936335
 30
0.0
 40
6.0999999999999988
  0
CIRCLE
  8
DETAIL
  6
CONTINUOUS
 62
     5
 10
-304.49999999994179
 20
74.499999999936335
 30
0.0
 40
6.0
  0
ARC
  8
DETAIL
  6
CONTINUOUS
 62
     5
 10
-300.7999999999447
 20
69.499999999936335
 30
0.0
 40
5.0
 50
270.0
 51
0.0
  0
ARC
  8
DETAIL
  6
CONTINUOUS
 62
     5
 10
-301.49999999994179
 20
69.499999999936335
 30
0.0
 40
5.0
 50
270.0
 51
0.0
  0
ARC
  8
DETAIL
  6
CONTINUOUS
 62
     5
 10
-318.99999999994179
 20
63.499999999936342
 30
0.0
 40
3.5
 50
270.0
 51
0.0
  0
ARC
  8
DETAIL
  6
CONTINUOUS
 62
     5
 10
-316.99999999994179
 20
56.499999999936328
 30
0.0
 40
3.5
 50
0.0
 51
90.0
  0
ARC
  8
DETAIL
  6
CONTINUOUS
 62
     5
 10
-316.99999999994179
 20
3.4999999999363349
 30
0.0
 40
3.5
 50
270.0
 51
0.0
  0
ARC
  8
DETAIL
  6
CONTINUOUS
 62
     5
 10
-318.99999999994179
 20
63.499999999936342
 30
0.0
 40
1.1999999999999991
 50
270.0
 51
0.0
  0
ARC
  8
DETAIL
  6
CONTINUOUS
 62
     5
 10
-316.99999999994179
 20
56.499999999936328
 30
0.0
 40
1.1999999999999991
 50
0.0
 51
90.0
  0
ARC
  8
DETAIL
  6
CONTINUOUS
 62
     5
 10
-316.99999999994179
 20
3.4999999999363349
 30
0.0
 40
1.1999999999999991
 50
270.0
 51
0.0
  0
CIRCLE
  8
DETAIL
  6
CONTINUOUS
 62
     5
 10
-309.49999999994179
 20
146.49999999993631
 30
0.0
 40
2.2999999999999989
  0
CIRCLE
  8
DETAIL
  6
CONTINUOUS
 62
     5
 10
-253.49999999994179
 20
110.99999999993631
 30
0.0
 40
6.0999999999999988
  0
CIRCLE
  8
DETAIL
  6
CONTINUOUS
 62
     5
 10
-253.49999999994179
 20
110.99999999993631
 30
0.0
 40
6.0
  0
ARC
  8
DETAIL
  6
CONTINUOUS
 62
     5
 10
-291.49999999994179
 20
94.999999999936335
 30
0.0
 40
5.0
 50
90.0
 51
180.0
  0
ARC
  8
DETAIL
  6
CONTINUOUS
 62
     5
 10
-243.49999999994179
 20
102.99999999993631
 30
0.0
 40
3.0
 50
270.0
 51
0.0
  0
CIRCLE
  8
DETAIL
  6
CONTINUOUS
 62
     5
 10
-224.99999999994179
 20
304.99999999993628
 30
0.0
 40
6.0999999999999988
  0
CIRCLE
  8
DETAIL
  6
CONTINUOUS
 62
     5
 10
-224.99999999994179
 20
304.99999999993628
 30
0.0
 40
6.0
  0
ARC
  8
DETAIL
  6
CONTINUOUS
 62
     5
 10
-279.49999999994179
 20
893.99999999993634
 30
0.0
 40
10.0
 50
0.0
 51
180.0
  0
ARC
  8
DETAIL
  6
CONTINUOUS
 62
     5
 10
-279.49999999994179
 20
758.99999999993634
 30
0.0
 40
10.0
 50
180.0
 51
0.0
  0
CIRCLE
  8
DETAIL
  6
CONTINUOUS
 62
     5
 10
-224.99999999994179
 20
644.99999999993634
 30
0.0
 40
6.0999999999999988
  0
CIRCLE
  8
DETAIL
  6
CONTINUOUS
 62
     5
 10
-224.99999999994179
 20
644.99999999993634
 30
0.0
 40
6.0
  0
ARC
  8
DETAIL
  6
CONTINUOUS
 62
     5
 10
-340.06532333524228
 20
754.15151824283748
 30
0.0
 40
5.153065022499999
 50
258.22351576321
 51
258.50425869915279
  0
ARC
  8
DETAIL
  6
CONTINUOUS
 62
     5
 10
-340.06532333644282
 20
898.8484817631379
 30
0.0
 40
5.1530650162000002
 50
101.495741301685
 51
101.7764842376275
  0
ARC
  8
DETAIL
  6
CONTINUOUS
 62
     5
 10
-340.076053939345
 20
754.09538044953842
 30
0.0
 40
5.0959148676999986
 50
258.49669584436481
 51
263.80212653918989
  0
ARC
  8
DETAIL
  6
CONTINUOUS
 62
     5
 10
-340.07606315334118
 20
898.90467137463736
 30
0.0
 40
5.0958622469000003
 50
96.191375150998979
 51
101.50331884054209
  0
ARC
  8
DETAIL
  6
CONTINUOUS
 62
     5
 10
-341.14752645244153
 20
899.72258578653589
 30
0.0
 40
4.277414349699999
 50
82.984732968993157
 51
89.985535548075063
  0
ARC
  8
DETAIL
  6
CONTINUOUS
 62
     5
 10
-341.1475234360405
 20
753.27733886483645
 30
0.0
 40
4.2773390004999996
 50
270.01442430079999
 51
277.00765895869063
  0
CIRCLE
  8
DETAIL
  6
CONTINUOUS
 62
     5
 10
-247.49999999994179
 20
714.49999999993634
 30
0.0
 40
2.2999999999999989
  0
CIRCLE
  8
DETAIL
  6
CONTINUOUS
 62
     5
 10
-309.49999999994179
 20
821.49999999993634
 30
0.0
 40
2.2999999999999989
  0
CIRCLE
  8
DETAIL
  6
CONTINUOUS
 62
     5
 10
-187.49999999994179
 20
110.99999999993631
 30
0.0
 40
6.0999999999999988
  0
CIRCLE
  8
DETAIL
  6
CONTINUOUS
 62
     5
 10
-187.49999999994179
 20
110.99999999993631
 30
0.0
 40
6.0
  0
ARC
  8
DETAIL
  6
CONTINUOUS
 62
     5
 10
-186.79829407774369
 20
92.999999999936335
 30
0.0
 40
5.0
 50
210.00000000006241
 51
270.0
  0
ARC
  8
DETAIL
  6
CONTINUOUS
 62
     5
 10
-190.04737231304171
 20
711.48945352183728
 30
0.0
 40
1.010521510999999
 50
2.854646149159934
 51
59.01984457267519
  0
ARC
  8
DETAIL
  6
CONTINUOUS
 62
     5
 10
-190.04191625313979
 20
711.50920979793773
 30
0.0
 40
0.9907903145999998
 50
58.702270445650171
 51
89.972671948522205
  0
ARC
  8
DETAIL
  6
CONTINUOUS
 62
     5
 10
-279.49999999994179
 20
1293.999999999937
 30
0.0
 40
10.0
 50
0.0
 51
180.0
  0
ARC
  8
DETAIL
  6
CONTINUOUS
 62
     5
 10
-279.49999999994179
 20
1143.999999999937
 30
0.0
 40
10.0
 50
180.0
 51
0.0
  0
ARC
  8
DETAIL
  6
CONTINUOUS
 62
     5
 10
-279.49999999994179
 20
1343.999999999937
 30
0.0
 40
10.0
 50
180.0
 51
0.0
  0
ARC
  8
DETAIL
  6
CONTINUOUS
 62
     5
 10
-279.49999999994179
 20
1093.999999999937
 30
0.0
 40
10.0
 50
0.0
 51
180.0
  0
ARC
  8
DETAIL
  6
CONTINUOUS
 62
     5
 10
-279.49999999994179
 20
943.99999999993724
 30
0.0
 40
10.0
 50
180.0
 51
0.0
  0
ARC
  8
DETAIL
  6
CONTINUOUS
 62
     5
 10
-340.06532330374472
 20
1098.8484816041371
 30
0.0
 40
5.1530651785000003
 50
101.4957413055278
 51
101.7764842325175
  0
ARC
  8
DETAIL
  6
CONTINUOUS
 62
     5
 10
-340.0653233175471
 20
1139.151518328337
 30
0.0
 40
5.1530651096999991
 50
258.22351576449802
 51
258.50425869533069
  0
ARC
  8
DETAIL
  6
CONTINUOUS
 62
     5
 10
-340.0653233289413
 20
939.15151827343755
 30
0.0
 40
5.1530650536999989
 50
258.22351576406868
 51
258.5042586978858
  0
ARC
  8
DETAIL
  6
CONTINUOUS
 62
     5
 10
-340.0653233302437
 20
1339.151518267237
 30
0.0
 40
5.1530650473000001
 50
258.22351576363928
 51
258.5042586978858
  0
ARC
  8
DETAIL
  6
CONTINUOUS
 62
     5
 10
-340.0653233308476
 20
1298.8484817357371
 30
0.0
 40
5.153065044099999
 50
101.495741301685
 51
101.7764842363607
  0
ARC
  8
DETAIL
  6
CONTINUOUS
 62
     5
 10
-340.076053939345
 20
1139.095380449437
 30
0.0
 40
5.0959148676999986
 50
258.49669584436481
 51
263.80212653918989
  0
ARC
  8
DETAIL
  6
CONTINUOUS
 62
     5
 10
-340.0760539392432
 20
1339.0953804498381
 30
0.0
 40
5.0959148680000004
 50
258.4966958447734
 51
263.80212653918989
  0
ARC
  8
DETAIL
  6
CONTINUOUS
 62
     5
 10
-340.076053939345
 20
939.09538044943736
 30
0.0
 40
5.0959148676999986
 50
258.49669584436481
 51
263.80212653918989
  0
ARC
  8
DETAIL
  6
CONTINUOUS
 62
     5
 10
-340.07606315334118
 20
1098.9046713744369
 30
0.0
 40
5.0958622470999986
 50
96.191375150998979
 51
101.50331884054209
  0
ARC
  8
DETAIL
  6
CONTINUOUS
 62
     5
 10
-340.07606315334118
 20
1298.9046713743371
 30
0.0
 40
5.0958622472000004
 50
96.191375151413439
 51
101.50331884054209
  0
ARC
  8
DETAIL
  6
CONTINUOUS
 62
     5
 10
-341.14752645244153
 20
1099.722585786637
 30
0.0
 40
4.277414349599999
 50
82.984732968993157
 51
89.985535548075063
  0
ARC
  8
DETAIL
  6
CONTINUOUS
 62
     5
 10
-341.14752645244153
 20
1299.722585786637
 30
0.0
 40
4.277414349599999
 50
82.984732968993157
 51
89.985535548075063
  0
ARC
  8
DETAIL
  6
CONTINUOUS
 62
     5
 10
-341.1475234360405
 20
938.27733886483736
 30
0.0
 40
4.2773390004999996
 50
270.01442430079999
 51
277.00765895869063
  0
ARC
  8
DETAIL
  6
CONTINUOUS
 62
     5
 10
-341.1475234360405
 20
1338.277338864737
 30
0.0
 40
4.2773390003999996
 50
270.01442430079999
 51
277.00765895869063
  0
ARC
  8
DETAIL
  6
CONTINUOUS
 62
     5
 10
-341.1475234360405
 20
1138.2773388646369
 30
0.0
 40
4.2773390002999987
 50
270.01442430079999
 51
277.00765895869063
  0
CIRCLE
  8
DETAIL
  6
CONTINUOUS
 62
     5
 10
-247.49999999994179
 20
1098.499999999937
 30
0.0
 40
2.2999999999999989
  0
ARC
  8
DETAIL
  6
CONTINUOUS
 62
     5
 10
-359.53570088504063
 20
1571.6646068018381
 30
0.0
 40
14.998203742399999
 50
270.39146088955778
 51
306.33530496636138
  0
ARC
  8
DETAIL
  6
CONTINUOUS
 62
     5
 10
-364.19994741214759
 20
1550.133766849737
 30
0.0
 40
6.5000525879999991
 50
90.394463848435606
 51
180.00036657801201
  0
ARC
  8
DETAIL
  6
CONTINUOUS
 62
     5
 10
-443.33360547364282
 20
1686.8116283256361
 30
0.0
 40
164.35709148570001
 50
325.96965951825513
 51
327.32072560455617
  0
ARC
  8
DETAIL
  6
CONTINUOUS
 62
     5
 10
-443.30686839904217
 20
1686.8102223635381
 30
0.0
 40
164.04397725909999
 50
325.95348598090243
 51
327.30716620480428
  0
ARC
  8
DETAIL
  6
CONTINUOUS
 62
     5
 10
-413.14536096814112
 20
1685.7675664577371
 30
0.0
 40
160.44699498040001
 50
318.29378305557719
 51
324.61566909446128
  0
ARC
  8
DETAIL
  6
CONTINUOUS
 62
     5
 10
-445.63178034584411
 20
1688.7055850971369
 30
0.0
 40
160.2948846859
 50
306.33814081112217
 51
313.0831209527995
  0
ARC
  8
DETAIL
  6
CONTINUOUS
 62
     5
 10
-412.45919119604508
 20
1685.2065283927359
 30
0.0
 40
159.85472566129999
 50
318.306623466708
 51
324.65143771821357
  0
ARC
  8
DETAIL
  6
CONTINUOUS
 62
     5
 10
-437.17131622374291
 20
1682.030248160637
 30
0.0
 40
156.5501253457
 50
316.46091422534812
 51
317.92326388427108
  0
ARC
  8
DETAIL
  6
CONTINUOUS
 62
     5
 10
-437.14531115544372
 20
1682.026199686738
 30
0.0
 40
156.23593437
 50
316.42485456029578
 51
317.89038449437561
  0
ARC
  8
DETAIL
  6
CONTINUOUS
 62
     5
 10
-279.49999999994179
 20
1493.999999999937
 30
0.0
 40
10.0
 50
0.0
 51
180.0
  0
ARC
  8
DETAIL
  6
CONTINUOUS
 62
     5
 10
-253.49999999994179
 20
1516.499999999937
 30
0.0
 40
6.0999999999999988
 50
96.136919971149894
 51
83.863080028850092
  0
CIRCLE
  8
DETAIL
  6
CONTINUOUS
 62
     5
 10
-253.49999999994179
 20
1516.499999999937
 30
0.0
 40
6.0
  0
ARC
  8
DETAIL
  6
CONTINUOUS
 62
     5
 10
-340.0653233289413
 20
1498.8484817263379
 30
0.0
 40
5.1530650536999989
 50
101.4957413021142
 51
101.77648423593131
  0
ARC
  8
DETAIL
  6
CONTINUOUS
 62
     5
 10
-340.07606315334118
 20
1498.904671374537
 30
0.0
 40
5.0958622469999986
 50
96.191375150998979
 51
101.50331884054209
  0
ARC
  8
DETAIL
  6
CONTINUOUS
 62
     5
 10
-341.14752645244153
 20
1499.722585786538
 30
0.0
 40
4.277414349699999
 50
82.984732968993157
 51
89.985535548075063
  0
CIRCLE
  8
DETAIL
  6
CONTINUOUS
 62
     5
 10
-247.49999999994179
 20
1482.499999999937
 30
0.0
 40
2.2999999999999989
  0
CIRCLE
  8
DETAIL
  6
CONTINUOUS
 62
     5
 10
-309.49999999994179
 20
1496.499999999937
 30
0.0
 40
2.2999999999999989
  0
ARC
  8
DETAIL
  6
CONTINUOUS
 62
     5
 10
-316.67377851534548
 20
1752.3617941622381
 30
0.0
 40
30.0
 50
0.9799999999638849
 51
45.00000000007369
  0
ARC
  8
DETAIL
  6
CONTINUOUS
 62
     5
 10
-280.84143993134057
 20
1824.799827823337
 30
0.0
 40
9.5984568515999982
 50
0.0010277680671814
 51
1.292455884735543
  0
ARC
  8
DETAIL
  6
CONTINUOUS
 62
     5
 10
-277.9848438905392
 20
1824.4695436406371
 30
0.0
 40
5.6489041655999994
 50
337.67923713493929
 51
343.42314572503011
  0
ARC
  8
DETAIL
  6
CONTINUOUS
 62
     5
 10
-273.40981000204192
 20
1823.064916054338
 30
0.0
 40
4.8379908480999996
 50
216.96318812424721
 51
217.62170410516379
  0
ARC
  8
DETAIL
  6
CONTINUOUS
 62
     5
 10
-273.40981000364258
 20
1826.5350839466371
 30
0.0
 40
4.8379908461000003
 50
142.3782958941689
 51
143.03681187516901
  0
ARC
  8
DETAIL
  6
CONTINUOUS
 62
     5
 10
-274.14707573174383
 20
1821.034389511437
 30
0.0
 40
2.334407329699999
 50
260.26103840286669
 51
269.36138274736447
  0
ARC
  8
DETAIL
  6
CONTINUOUS
 62
     5
 10
-274.14707573174383
 20
1828.5656104883369
 30
0.0
 40
2.334407329699999
 50
90.638617252635669
 51
99.738961597133226
  0
ARC
  8
DETAIL
  6
CONTINUOUS
 62
     5
 10
-274.14893889363879
 20
1820.9939220792371
 30
0.0
 40
2.2939220793000001
 50
269.39665073809329
 51
270.60334926107288
  0
ARC
  8
DETAIL
  6
CONTINUOUS
 62
     5
 10
-274.14893889363879
 20
1828.606077920537
 30
0.0
 40
2.2939220793000001
 50
89.396650738927079
 51
90.603349261906672
  0
ARC
  8
DETAIL
  6
CONTINUOUS
 62
     5
 10
-337.7997910432386
 20
1814.4999999997369
 30
0.0
 40
0.9999999998000001
 50
270.0
 51
45.00000000007369
  0
ARC
  8
DETAIL
  6
CONTINUOUS
 62
     5
 10
-339.61522393744241
 20
1810.799999999937
 30
0.0
 40
0.3
 50
225.0000000000737
 51
270.0
  0
ARC
  8
DETAIL
  6
CONTINUOUS
 62
     5
 10
-342.01522393744381
 20
1813.1999999999371
 30
0.0
 40
0.3
 50
90.0
 51
225.0000000000737
  0
ARC
  8
DETAIL
  6
CONTINUOUS
 62
     5
 10
-272.86827893024741
 20
1822.225299932137
 30
0.0
 40
0.2652989929
 50
88.520858826216283
 51
90.006916181451842
  0
ARC
  8
DETAIL
  6
CONTINUOUS
 62
     5
 10
-272.8682696837422
 20
1827.372802470738
 30
0.0
 40
0.2634013973
 50
269.99095085683763
 51
271.68262209525341
  0
ARC
  8
DETAIL
  6
CONTINUOUS
 62
     5
 10
-272.86833965624101
 20
1826.9705481110379
 30
0.0
 40
0.1388529685
 50
86.347433429781873
 51
89.988344092836741
  0
ARC
  8
DETAIL
  6
CONTINUOUS
 62
     5
 10
-272.86833209764148
 20
1822.628969298137
 30
0.0
 40
0.1383703765
 50
270.00856672269327
 51
273.26117666570423
  0
ARC
  8
DETAIL
  6
CONTINUOUS
 62
     5
 10
-220.49999999994179
 20
1519.999999999937
 30
0.0
 40
3.0
 50
0.0
 51
56.529971084294559
  0
ARC
  8
DETAIL
  6
CONTINUOUS
 62
     5
 10
-21.999999999941789
 20
1838.5999999999381
 30
0.0
 40
2.0
 50
270.0
 51
0.0
  0
ARC
  8
DETAIL
  6
CONTINUOUS
 62
     5
 10
-19.499999999941789
 20
1857.5999999999369
 30
0.0
 40
0.5
 50
90.0
 51
180.0
  0
CIRCLE
  8
DETAIL
  6
CONTINUOUS
 62
     5
 10
174.50000000005821
 20
110.99999999993631
 30
0.0
 40
6.0999999999999988
  0
CIRCLE
  8
DETAIL
  6
CONTINUOUS
 62
     5
 10
110.50000000005819
 20
110.99999999993631
 30
0.0
 40
6.0999999999999988
  0
CIRCLE
  8
DETAIL
  6
CONTINUOUS
 62
     5
 10
148.00000000005821
 20
304.99999999993628
 30
0.0
 40
6.0999999999999988
  0
CIRCLE
  8
DETAIL
  6
CONTINUOUS
 62
     5
 10
174.50000000005821
 20
110.99999999993631
 30
0.0
 40
6.0
  0
CIRCLE
  8
DETAIL
  6
CONTINUOUS
 62
     5
 10
110.50000000005819
 20
110.99999999993631
 30
0.0
 40
6.0
  0
CIRCLE
  8
DETAIL
  6
CONTINUOUS
 62
     5
 10
148.00000000005821
 20
304.99999999993628
 30
0.0
 40
6.0
  0
ARC
  8
DETAIL
  6
CONTINUOUS
 62
     5
 10
166.50000000005821
 20
102.99999999993631
 30
0.0
 40
3.0
 50
180.0
 51
270.0
  0
ARC
  8
DETAIL
  6
CONTINUOUS
 62
     5
 10
126.7829763916597
 20
594.39202321803714
 30
0.0
 40
110.09246975390001
 50
88.932754386186573
 51
89.33806436528242
  0
ARC
  8
DETAIL
  6
CONTINUOUS
 62
     5
 10
144.50000000005821
 20
689.49999999993634
 30
0.0
 40
6.0999999999999988
 50
309.95904380571909
 51
230.0409561942808
  0
CIRCLE
  8
DETAIL
  6
CONTINUOUS
 62
     5
 10
148.00000000005821
 20
644.99999999993634
 30
0.0
 40
6.0999999999999988
  0
ARC
  8
DETAIL
  6
CONTINUOUS
 62
     5
 10
144.50000000005821
 20
689.49999999993634
 30
0.0
 40
6.0
 50
309.25026147891919
 51
230.7497385210807
  0
CIRCLE
  8
DETAIL
  6
CONTINUOUS
 62
     5
 10
148.00000000005821
 20
644.99999999993634
 30
0.0
 40
6.0
  0
ARC
  8
DETAIL
  6
CONTINUOUS
 62
     5
 10
151.00000000005821
 20
786.99999999993634
 30
0.0
 40
3.0
 50
270.0
 51
90.0
  0
ARC
  8
DETAIL
  6
CONTINUOUS
 62
     5
 10
148.00000000005821
 20
786.99999999993634
 30
0.0
 40
3.0
 50
90.0
 51
270.0
  0
ARC
  8
DETAIL
  6
CONTINUOUS
 62
     5
 10
151.00000000005821
 20
912.59999999993749
 30
0.0
 40
3.0
 50
270.0
 51
90.0
  0
ARC
  8
DETAIL
  6
CONTINUOUS
 62
     5
 10
148.00000000005821
 20
912.59999999993749
 30
0.0
 40
3.0
 50
90.0
 51
270.0
  0
ARC
  8
DETAIL
  6
CONTINUOUS
 62
     5
 10
143.00000000005821
 20
760.59999999993852
 30
0.0
 40
3.0
 50
270.0
 51
90.0
  0
ARC
  8
DETAIL
  6
CONTINUOUS
 62
     5
 10
140.00000000005821
 20
760.59999999993852
 30
0.0
 40
3.0
 50
90.0
 51
270.0
  0
CIRCLE
  8
DETAIL
  6
CONTINUOUS
 62
     5
 10
170.50000000005821
 20
714.49999999993634
 30
0.0
 40
2.2999999999999989
  0
ARC
  8
DETAIL
  6
CONTINUOUS
 62
     5
 10
279.79829407785292
 20
92.999999999936335
 30
0.0
 40
5.0
 50
270.0
 51
329.99999999993759
  0
CIRCLE
  8
DETAIL
  6
CONTINUOUS
 62
     5
 10
304.50000000005821
 20
74.499999999936335
 30
0.0
 40
6.0999999999999988
  0
CIRCLE
  8
DETAIL
  6
CONTINUOUS
 62
     5
 10
304.50000000005821
 20
74.499999999936335
 30
0.0
 40
6.0
  0
ARC
  8
DETAIL
  6
CONTINUOUS
 62
     5
 10
300.8000000000539
 20
69.499999999936335
 30
0.0
 40
5.0
 50
180.0
 51
270.0
  0
ARC
  8
DETAIL
  6
CONTINUOUS
 62
     5
 10
301.50000000005821
 20
69.499999999936335
 30
0.0
 40
5.0
 50
180.0
 51
270.0
  0
ARC
  8
DETAIL
  6
CONTINUOUS
 62
     5
 10
319.00000000005821
 20
63.499999999936342
 30
0.0
 40
3.5
 50
180.0
 51
270.0
  0
ARC
  8
DETAIL
  6
CONTINUOUS
 62
     5
 10
317.00000000005821
 20
3.4999999999363349
 30
0.0
 40
3.5
 50
180.0
 51
270.0
  0
ARC
  8
DETAIL
  6
CONTINUOUS
 62
     5
 10
317.00000000005821
 20
56.499999999936328
 30
0.0
 40
3.5
 50
90.0
 51
180.0
  0
ARC
  8
DETAIL
  6
CONTINUOUS
 62
     5
 10
319.00000000005821
 20
63.499999999936342
 30
0.0
 40
1.1999999999999991
 50
180.0
 51
270.0
  0
ARC
  8
DETAIL
  6
CONTINUOUS
 62
     5
 10
317.00000000005821
 20
3.4999999999363349
 30
0.0
 40
1.1999999999999991
 50
180.0
 51
270.0
  0
ARC
  8
DETAIL
  6
CONTINUOUS
 62
     5
 10
317.00000000005821
 20
56.499999999936328
 30
0.0
 40
1.1999999999999991
 50
90.0
 51
180.0
  0
ARC
  8
DETAIL
  6
CONTINUOUS
 62
     5
 10
291.50000000005821
 20
94.999999999936335
 30
0.0
 40
5.0
 50
0.0
 51
90.0
  0
ARC
  8
DETAIL
  6
CONTINUOUS
 62
     5
 10
288.92042833106098
 20
91.199999999937063
 30
0.0
 40
3.7999999999999989
 50
90.0
 51
149.9999999999375
  0
CIRCLE
  8
DETAIL
  6
CONTINUOUS
 62
     5
 10
309.50000000005821
 20
146.49999999993631
 30
0.0
 40
2.2999999999999989
  0
CIRCLE
  8
DETAIL
  6
CONTINUOUS
 62
     5
 10
309.50000000005821
 20
821.49999999993634
 30
0.0
 40
2.2999999999999989
  0
ARC
  8
DETAIL
  6
CONTINUOUS
 62
     5
 10
151.00000000005821
 20
1100.999999999937
 30
0.0
 40
3.0
 50
270.0
 51
90.0
  0
ARC
  8
DETAIL
  6
CONTINUOUS
 62
     5
 10
148.00000000005821
 20
1100.999999999937
 30
0.0
 40
3.0
 50
90.0
 51
270.0
  0
ARC
  8
DETAIL
  6
CONTINUOUS
 62
     5
 10
151.00000000005821
 20
1289.399999999938
 30
0.0
 40
3.0
 50
270.0
 51
90.0
  0
ARC
  8
DETAIL
  6
CONTINUOUS
 62
     5
 10
148.00000000005821
 20
1289.399999999938
 30
0.0
 40
3.0
 50
90.0
 51
270.0
  0
ARC
  8
DETAIL
  6
CONTINUOUS
 62
     5
 10
143.00000000005821
 20
1025.799999999937
 30
0.0
 40
3.0
 50
270.0
 51
90.0
  0
ARC
  8
DETAIL
  6
CONTINUOUS
 62
     5
 10
140.00000000005821
 20
1025.799999999937
 30
0.0
 40
3.0
 50
90.0
 51
270.0
  0
ARC
  8
DETAIL
  6
CONTINUOUS
 62
     5
 10
143.00000000005821
 20
1229.799999999937
 30
0.0
 40
3.0
 50
270.0
 51
90.0
  0
ARC
  8
DETAIL
  6
CONTINUOUS
 62
     5
 10
140.00000000005821
 20
1229.799999999937
 30
0.0
 40
3.0
 50
90.0
 51
270.0
  0
CIRCLE
  8
DETAIL
  6
CONTINUOUS
 62
     5
 10
170.50000000005821
 20
1098.499999999937
 30
0.0
 40
2.2999999999999989
  0
ARC
  8
DETAIL
  6
CONTINUOUS
 62
     5
 10
22.000000000058211
 20
1838.5999999999381
 30
0.0
 40
2.0
 50
180.0
 51
270.0
  0
ARC
  8
DETAIL
  6
CONTINUOUS
 62
     5
 10
19.500000000058211
 20
1857.5999999999369
 30
0.0
 40
0.5
 50
0.0
 51
90.0
  0
ARC
  8
DETAIL
  6
CONTINUOUS
 62
     5
 10
151.00000000005821
 20
1493.499999999937
 30
0.0
 40
3.0
 50
270.0
 51
90.0
  0
ARC
  8
DETAIL
  6
CONTINUOUS
 62
     5
 10
148.00000000005821
 20
1493.499999999937
 30
0.0
 40
3.0
 50
90.0
 51
270.0
  0
ARC
  8
DETAIL
  6
CONTINUOUS
 62
     5
 10
143.00000000005821
 20
1454.1999999999371
 30
0.0
 40
3.0
 50
270.0
 51
90.0
  0
ARC
  8
DETAIL
  6
CONTINUOUS
 62
     5
 10
140.00000000005821
 20
1454.1999999999371
 30
0.0
 40
3.0
 50
90.0
 51
270.0
  0
CIRCLE
  8
DETAIL
  6
CONTINUOUS
 62
     5
 10
170.50000000005821
 20
1472.499999999937
 30
0.0
 40
2.2999999999999989
  0
ARC
  8
DETAIL
  6
CONTINUOUS
 62
     5
 10
261.50000000005821
 20
1516.499999999937
 30
0.0
 40
6.0999999999999988
 50
96.136919971149894
 51
83.863080028850092
  0
CIRCLE
  8
DETAIL
  6
CONTINUOUS
 62
     5
 10
261.50000000005821
 20
1516.499999999937
 30
0.0
 40
6.0
  0
CIRCLE
  8
DETAIL
  6
CONTINUOUS
 62
     5
 10
309.50000000005821
 20
1496.499999999937
 30
0.0
 40
2.2999999999999989
  0
ARC
  8
DETAIL
  6
CONTINUOUS
 62
     5
 10
316.67377851545461
 20
1752.3617941622381
 30
0.0
 40
30.0
 50
134.9999999999263
 51
179.02000000003611
  0
ARC
  8
DETAIL
  6
CONTINUOUS
 62
     5
 10
280.72767333265801
 20
1824.799827823337
 30
0.0
 40
9.5984568520999982
 50
178.70754411536859
 51
179.99897223182859
  0
ARC
  8
DETAIL
  6
CONTINUOUS
 62
     5
 10
274.53333101455792
 20
1824.4695436406371
 30
0.0
 40
5.6489041655999994
 50
337.67923713493929
 51
343.42314572503011
  0
ARC
  8
DETAIL
  6
CONTINUOUS
 62
     5
 10
273.29604340795782
 20
1823.0649160503369
 30
0.0
 40
4.837990841499999
 50
322.37829589433397
 51
323.03681162412272
  0
ARC
  8
DETAIL
  6
CONTINUOUS
 62
     5
 10
273.29604340985679
 20
1826.5350839508369
 30
0.0
 40
4.8379908391999988
 50
36.963188124247147
 51
37.62170410641572
  0
ARC
  8
DETAIL
  6
CONTINUOUS
 62
     5
 10
274.03330913255922
 20
1828.5656104883369
 30
0.0
 40
2.3344073295999999
 50
80.26103840286676
 51
89.361382747364345
  0
ARC
  8
DETAIL
  6
CONTINUOUS
 62
     5
 10
274.03330913255922
 20
1821.0343895113369
 30
0.0
 40
2.334407329499999
 50
270.63861725263558
 51
279.73896159756168
  0
ARC
  8
DETAIL
  6
CONTINUOUS
 62
     5
 10
274.035176866455
 20
1828.606077920537
 30
0.0
 40
2.2939220793000001
 50
89.396650738093356
 51
90.603349261906672
  0
ARC
  8
DETAIL
  6
CONTINUOUS
 62
     5
 10
274.035176866455
 20
1820.993922065438
 30
0.0
 40
2.2939220654999999
 50
269.3966507351754
 51
270.60334926190671
  0
ARC
  8
DETAIL
  6
CONTINUOUS
 62
     5
 10
337.7997910435588
 20
1814.4999999997369
 30
0.0
 40
0.9999999998000001
 50
134.9999999999263
 51
270.0
  0
ARC
  8
DETAIL
  6
CONTINUOUS
 62
     5
 10
342.01522393755289
 20
1813.1999999999371
 30
0.0
 40
0.3
 50
314.99999999992627
 51
90.0
  0
ARC
  8
DETAIL
  6
CONTINUOUS
 62
     5
 10
339.61522393755882
 20
1810.799999999937
 30
0.0
 40
0.3
 50
270.0
 51
314.99999999992627
  0
ARC
  8
DETAIL
  6
CONTINUOUS
 62
     5
 10
272.75450704295508
 20
1827.3741060842369
 30
0.0
 40
0.2647050102
 50
268.40129795951958
 51
270.00807618095331
  0
ARC
  8
DETAIL
  6
CONTINUOUS
 62
     5
 10
272.75450091895618
 20
1822.227417323737
 30
0.0
 40
0.2631816031
 50
89.990471767669518
 51
91.726741889297386
  0
ARC
  8
DETAIL
  6
CONTINUOUS
 62
     5
 10
272.75457466705848
 20
1822.6295229415371
 30
0.0
 40
0.1389240216
 50
266.25324086292289
 51
269.98768601093258
  0
ARC
  8
DETAIL
  6
CONTINUOUS
 62
     5
 10
272.75457071105478
 20
1826.9707955081369
 30
0.0
 40
0.1386055709
 50
90.010706976507365
 51
93.52051198993253
  0
ARC
  8
DETAIL
  6
CONTINUOUS
 62
     5
 10
359.53570088515698
 20
1571.6646068018381
 30
0.0
 40
14.998203742399999
 50
233.66469503363859
 51
269.60853911044222
  0
ARC
  8
DETAIL
  6
CONTINUOUS
 62
     5
 10
364.19994741225668
 20
1550.133766849737
 30
0.0
 40
6.5000525879999991
 50
359.99963342198799
 51
89.605536151564408
  0
ARC
  8
DETAIL
  6
CONTINUOUS
 62
     5
 10
445.63178034605511
 20
1688.705585097237
 30
0.0
 40
160.2948846859
 50
226.9168790472005
 51
233.6618591888778
  0
POLYLINE
  8
DETAIL
  6
CONTINUOUS
 62
     5
 66
     1
 10
0.0
 20
0.0
 30
0.0
  0
VERTEX
  8
DETAIL
  6
CONTINUOUS
 62
     5
 10
273.24716382685438
 20
1818.6999999999371
 30
0.0
  0
VERTEX
  8
DETAIL
  6
CONTINUOUS
 62
     5
 10
272.60081552424793
 20
1818.7912539555898
 30
0.0
  0
VERTEX
  8
DETAIL
  6
CONTINUOUS
 62
     5
 10
271.99978610485624
 20
1819.046449703746
 30
0.0
  0
VERTEX
  8
DETAIL
  6
CONTINUOUS
 62
     5
 10
271.46923209836353
 20
1819.4268436963637
 30
0.0
  0
VERTEX
  8
DETAIL
  6
CONTINUOUS
 62
     5
 10
271.01434310504516
 20
1819.8952702633831
 30
0.0
  0
VERTEX
  8
DETAIL
  6
CONTINUOUS
 62
     5
 10
270.63112676864648
 20
1820.4237489697339
 30
0.0
  0
VERTEX
  8
DETAIL
  6
CONTINUOUS
 62
     5
 10
270.31200464879481
 20
1820.9934805298803
 30
0.0
  0
VERTEX
  8
DETAIL
  6
CONTINUOUS
 62
     5
 10
270.05151645454583
 20
1821.5936304010847
 30
0.0
  0
VERTEX
  8
DETAIL
  6
CONTINUOUS
 62
     5
 10
269.84505905287381
 20
1822.2159258302229
 30
0.0
  0
VERTEX
  8
DETAIL
  6
CONTINUOUS
 62
     5
 10
269.68814479687649
 20
1822.8522811637047
 30
0.0
  0
VERTEX
  8
DETAIL
  6
CONTINUOUS
 62
     5
 10
269.57796000146521
 20
1823.4973043300186
 30
0.0
  0
VERTEX
  8
DETAIL
  6
CONTINUOUS
 62
     5
 10
269.51295930668846
 20
1824.1476441273044
 30
0.0
  0
VERTEX
  8
DETAIL
  6
CONTINUOUS
 62
     5
 10
269.49162882735982
 20
1824.799999999937
 30
0.0
  0
SEQEND
  8
DETAIL
  6
CONTINUOUS
 62
     5
  0
POLYLINE
  8
DETAIL
  6
CONTINUOUS
 62
     5
 66
     1
 10
0.0
 20
0.0
 30
0.0
  0
VERTEX
  8
DETAIL
  6
CONTINUOUS
 62
     5
 10
279.33618342875712
 20
1827.7730488735381
 30
0.0
  0
VERTEX
  8
DETAIL
  6
CONTINUOUS
 62
     5
 10
279.38913295626548
 20
1827.7230069287587
 30
0.0
  0
VERTEX
  8
DETAIL
  6
CONTINUOUS
 62
     5
 10
279.44155148372334
 20
1827.6723688826294
 30
0.0
  0
VERTEX
  8
DETAIL
  6
CONTINUOUS
 62
     5
 10
279.49315599860165
 20
1827.6209210845682
 30
0.0
  0
VERTEX
  8
DETAIL
  6
CONTINUOUS
 62
     5
 10
279.54366348837107
 20
1827.568449883993
 30
0.0
  0
VERTEX
  8
DETAIL
  6
CONTINUOUS
 62
     5
 10
279.59279077437657
 20
1827.5147414701528
 30
0.0
  0
VERTEX
  8
DETAIL
  6
CONTINUOUS
 62
     5
 10
279.64012516881343
 20
1827.4594571658931
 30
0.0
  0
VERTEX
  8
DETAIL
  6
CONTINUOUS
 62
     5
 10
279.6848927066203
 20
1827.4019099681632
 30
0.0
  0
VERTEX
  8
DETAIL
  6
CONTINUOUS
 62
     5
 10
279.72575886574248
 20
1827.3412856032774
 30
0.0
  0
VERTEX
  8
DETAIL
  6
CONTINUOUS
 62
     5
 10
279.75881107275927
 20
1827.276422953038
 30
0.0
  0
SEQEND
  8
DETAIL
  6
CONTINUOUS
 62
     5
  0
POLYLINE
  8
DETAIL
  6
CONTINUOUS
 62
     5
 66
     1
 10
0.0
 20
0.0
 30
0.0
  0
VERTEX
  8
DETAIL
  6
CONTINUOUS
 62
     5
 10
277.18721754725988
 20
1829.4188021534369
 30
0.0
  0
VERTEX
  8
DETAIL
  6
CONTINUOUS
 62
     5
 10
277.30487411241324
 20
1829.402657554891
 30
0.0
  0
VERTEX
  8
DETAIL
  6
CONTINUOUS
 62
     5
 10
277.41852528721324
 20
1829.3658322047743
 30
0.0
  0
VERTEX
  8
DETAIL
  6
CONTINUOUS
 62
     5
 10
277.52741317207875
 20
1829.3185757284891
 30
0.0
  0
VERTEX
  8
DETAIL
  6
CONTINUOUS
 62
     5
 10
277.63257171408901
 20
1829.2634700019332
 30
0.0
  0
VERTEX
  8
DETAIL
  6
CONTINUOUS
 62
     5
 10
277.73441588081573
 20
1829.2020245424408
 30
0.0
  0
VERTEX
  8
DETAIL
  6
CONTINUOUS
 62
     5
 10
277.83311648312457
 20
1829.1354979561077
 30
0.0
  0
VERTEX
  8
DETAIL
  6
CONTINUOUS
 62
     5
 10
277.92886971103627
 20
1829.0650264772069
 30
0.0
  0
VERTEX
  8
DETAIL
  6
CONTINUOUS
 62
     5
 10
278.02197790153252
 20
1828.9912401428721
 30
0.0
  0
VERTEX
  8
DETAIL
  6
CONTINUOUS
 62
     5
 10
278.11277172406147
 20
1828.9146386817533
 30
0.0
  0
VERTEX
  8
DETAIL
  6
CONTINUOUS
 62
     5
 10
278.20161388271595
 20
1828.8357530234669
 30
0.0
  0
VERTEX
  8
DETAIL
  6
CONTINUOUS
 62
     5
 10
278.28890841585962
 20
1828.7551543565371
 30
0.0
  0
SEQEND
  8
DETAIL
  6
CONTINUOUS
 62
     5
  0
POLYLINE
  8
DETAIL
  6
CONTINUOUS
 62
     5
 66
     1
 10
0.0
 20
0.0
 30
0.0
  0
VERTEX
  8
DETAIL
  6
CONTINUOUS
 62
     5
 10
274.42819660555688
 20
1830.866375896738
 30
0.0
  0
VERTEX
  8
DETAIL
  6
CONTINUOUS
 62
     5
 10
274.4763705323175
 20
1830.8576146400108
 30
0.0
  0
VERTEX
  8
DETAIL
  6
CONTINUOUS
 62
     5
 10
274.52437188542393
 20
1830.8478676738393
 30
0.0
  0
VERTEX
  8
DETAIL
  6
CONTINUOUS
 62
     5
 10
274.57217633849518
 20
1830.83714965339
 30
0.0
  0
VERTEX
  8
DETAIL
  6
CONTINUOUS
 62
     5
 10
274.61975956514948
 20
1830.8254752338266
 30
0.0
  0
VERTEX
  8
DETAIL
  6
CONTINUOUS
 62
     5
 10
274.66709723900573
 20
1830.8128590703141
 30
0.0
  0
VERTEX
  8
DETAIL
  6
CONTINUOUS
 62
     5
 10
274.71416503371415
 20
1830.7993158180166
 30
0.0
  0
VERTEX
  8
DETAIL
  6
CONTINUOUS
 62
     5
 10
274.76094272956533
 20
1830.7848599801039
 30
0.0
  0
VERTEX
  8
DETAIL
  6
CONTINUOUS
 62
     5
 10
274.80742556985928
 20
1830.7695054874371
 30
0.0
  0
SEQEND
  8
DETAIL
  6
CONTINUOUS
 62
     5
  0
POLYLINE
  8
DETAIL
  6
CONTINUOUS
 62
     5
 66
     1
 10
0.0
 20
0.0
 30
0.0
  0
VERTEX
  8
DETAIL
  6
CONTINUOUS
 62
     5
 10
280.0438688729555
 20
1823.817894516837
 30
0.0
  0
VERTEX
  8
DETAIL
  6
CONTINUOUS
 62
     5
 10
280.04313266324544
 20
1823.6970593861622
 30
0.0
  0
VERTEX
  8
DETAIL
  6
CONTINUOUS
 62
     5
 10
280.04056997063918
 20
1823.5762684422114
 30
0.0
  0
VERTEX
  8
DETAIL
  6
CONTINUOUS
 62
     5
 10
280.03564969992283
 20
1823.4554902406894
 30
0.0
  0
VERTEX
  8
DETAIL
  6
CONTINUOUS
 62
     5
 10
280.02784075588266
 20
1823.3346933373023
 30
0.0
  0
VERTEX
  8
DETAIL
  6
CONTINUOUS
 62
     5
 10
280.01646658553193
 20
1823.2139550768122
 30
0.0
  0
VERTEX
  8
DETAIL
  6
CONTINUOUS
 62
     5
 10
280.00023343563117
 20
1823.0938144130962
 30
0.0
  0
VERTEX
  8
DETAIL
  6
CONTINUOUS
 62
     5
 10
279.9776838796185
 20
1822.9749327126472
 30
0.0
  0
VERTEX
  8
DETAIL
  6
CONTINUOUS
 62
     5
 10
279.9473604897575
 20
1822.8579713428369
 30
0.0
  0
SEQEND
  8
DETAIL
  6
CONTINUOUS
 62
     5
  0
POLYLINE
  8
DETAIL
  6
CONTINUOUS
 62
     5
 66
     1
 10
0.0
 20
0.0
 30
0.0
  0
VERTEX
  8
DETAIL
  6
CONTINUOUS
 62
     5
 10
278.28890841585962
 20
1820.8448456432379
 30
0.0
  0
VERTEX
  8
DETAIL
  6
CONTINUOUS
 62
     5
 10
278.20161349460113
 20
1820.7642481537655
 30
0.0
  0
VERTEX
  8
DETAIL
  6
CONTINUOUS
 62
     5
 10
278.11277138330723
 20
1820.6853628207391
 30
0.0
  0
VERTEX
  8
DETAIL
  6
CONTINUOUS
 62
     5
 10
278.02198005417313
 20
1820.608757033581
 30
0.0
  0
VERTEX
  8
DETAIL
  6
CONTINUOUS
 62
     5
 10
277.92887449674976
 20
1820.5349663252478
 30
0.0
  0
VERTEX
  8
DETAIL
  6
CONTINUOUS
 62
     5
 10
277.83311841843016
 20
1820.464501514838
 30
0.0
  0
VERTEX
  8
DETAIL
  6
CONTINUOUS
 62
     5
 10
277.7344066687254
 20
1820.3979974321728
 30
0.0
  0
VERTEX
  8
DETAIL
  6
CONTINUOUS
 62
     5
 10
277.63255170977726
 20
1820.3365713380483
 30
0.0
  0
VERTEX
  8
DETAIL
  6
CONTINUOUS
 62
     5
 10
277.52739421726636
 20
1820.2814574346451
 30
0.0
  0
VERTEX
  8
DETAIL
  6
CONTINUOUS
 62
     5
 10
277.41852198602385
 20
1820.2341628489492
 30
0.0
  0
VERTEX
  8
DETAIL
  6
CONTINUOUS
 62
     5
 10
277.30487758034809
 20
1820.1973287947824
 30
0.0
  0
VERTEX
  8
DETAIL
  6
CONTINUOUS
 62
     5
 10
277.18721751155681
 20
1820.181197846437
 30
0.0
  0
SEQEND
  8
DETAIL
  6
CONTINUOUS
 62
     5
  0
POLYLINE
  8
DETAIL
  6
CONTINUOUS
 62
     5
 66
     1
 10
0.0
 20
0.0
 30
0.0
  0
VERTEX
  8
DETAIL
  6
CONTINUOUS
 62
     5
 10
274.11549988985649
 20
1820.8448456432379
 30
0.0
  0
VERTEX
  8
DETAIL
  6
CONTINUOUS
 62
     5
 10
274.20279446303988
 20
1820.7642478373446
 30
0.0
  0
VERTEX
  8
DETAIL
  6
CONTINUOUS
 62
     5
 10
274.29163639170878
 20
1820.6853626568684
 30
0.0
  0
VERTEX
  8
DETAIL
  6
CONTINUOUS
 62
     5
 10
274.38242829171782
 20
1820.6087593357117
 30
0.0
  0
VERTEX
  8
DETAIL
  6
CONTINUOUS
 62
     5
 10
274.47553376538389
 20
1820.5349701412399
 30
0.0
  0
VERTEX
  8
DETAIL
  6
CONTINUOUS
 62
     5
 10
274.57128618030606
 20
1820.4644986927374
 30
0.0
  0
VERTEX
  8
DETAIL
  6
CONTINUOUS
 62
     5
 10
274.66998959300929
 20
1820.397977524399
 30
0.0
  0
VERTEX
  8
DETAIL
  6
CONTINUOUS
 62
     5
 10
274.77183794726119
 20
1820.3365397580517
 30
0.0
  0
VERTEX
  8
DETAIL
  6
CONTINUOUS
 62
     5
 10
274.87699885179632
 20
1820.2814395421003
 30
0.0
  0
VERTEX
  8
DETAIL
  6
CONTINUOUS
 62
     5
 10
274.98588564382095
 20
1820.2341824112618
 30
0.0
  0
VERTEX
  8
DETAIL
  6
CONTINUOUS
 62
     5
 10
275.09953460817644
 20
1820.1973485253143
 30
0.0
  0
VERTEX
  8
DETAIL
  6
CONTINUOUS
 62
     5
 10
275.21718956525729
 20
1820.181197846437
 30
0.0
  0
SEQEND
  8
DETAIL
  6
CONTINUOUS
 62
     5
  0
POLYLINE
  8
DETAIL
  6
CONTINUOUS
 62
     5
 66
     1
 10
0.0
 20
0.0
 30
0.0
  0
VERTEX
  8
DETAIL
  6
CONTINUOUS
 62
     5
 10
272.36053943275328
 20
1823.817894516837
 30
0.0
  0
VERTEX
  8
DETAIL
  6
CONTINUOUS
 62
     5
 10
272.36127650478767
 20
1823.6970216922959
 30
0.0
  0
VERTEX
  8
DETAIL
  6
CONTINUOUS
 62
     5
 10
272.36384194434891
 20
1823.5761931575969
 30
0.0
  0
VERTEX
  8
DETAIL
  6
CONTINUOUS
 62
     5
 10
272.36876708662385
 20
1823.4553773178577
 30
0.0
  0
VERTEX
  8
DETAIL
  6
CONTINUOUS
 62
     5
 10
272.37658326679957
 20
1823.3345425781986
 30
0.0
  0
VERTEX
  8
DETAIL
  6
CONTINUOUS
 62
     5
 10
272.38796763679454
 20
1823.2137664084069
 30
0.0
  0
VERTEX
  8
DETAIL
  6
CONTINUOUS
 62
     5
 10
272.40421582929326
 20
1823.0935888753902
 30
0.0
  0
VERTEX
  8
DETAIL
  6
CONTINUOUS
 62
     5
 10
272.42678742569581
 20
1822.9746726726717
 30
0.0
  0
VERTEX
  8
DETAIL
  6
CONTINUOUS
 62
     5
 10
272.45714200855582
 20
1822.857680494637
 30
0.0
  0
SEQEND
  8
DETAIL
  6
CONTINUOUS
 62
     5
  0
POLYLINE
  8
DETAIL
  6
CONTINUOUS
 62
     5
 66
     1
 10
0.0
 20
0.0
 30
0.0
  0
VERTEX
  8
DETAIL
  6
CONTINUOUS
 62
     5
 10
275.21719058135932
 20
1829.4188021534369
 30
0.0
  0
VERTEX
  8
DETAIL
  6
CONTINUOUS
 62
     5
 10
275.09954425234525
 20
1829.4026173334883
 30
0.0
  0
VERTEX
  8
DETAIL
  6
CONTINUOUS
 62
     5
 10
274.98588433729969
 20
1829.3657914092153
 30
0.0
  0
VERTEX
  8
DETAIL
  6
CONTINUOUS
 62
     5
 10
274.87696760003593
 20
1829.3186089452884
 30
0.0
  0
VERTEX
  8
DETAIL
  6
CONTINUOUS
 62
     5
 10
274.77180247764744
 20
1829.2635299764836
 30
0.0
  0
VERTEX
  8
DETAIL
  6
CONTINUOUS
 62
     5
 10
274.66997168601762
 20
1829.2020608667704
 30
0.0
  0
VERTEX
  8
DETAIL
  6
CONTINUOUS
 62
     5
 10
274.57128757924221
 20
1829.135500358243
 30
0.0
  0
VERTEX
  8
DETAIL
  6
CONTINUOUS
 62
     5
 10
274.47554095251394
 20
1829.0650164905744
 30
0.0
  0
VERTEX
  8
DETAIL
  6
CONTINUOUS
 62
     5
 10
274.3824319304527
 20
1828.9912342959149
 30
0.0
  0
VERTEX
  8
DETAIL
  6
CONTINUOUS
 62
     5
 10
274.29163613822152
 20
1828.9146386102234
 30
0.0
  0
VERTEX
  8
DETAIL
  6
CONTINUOUS
 62
     5
 10
274.20279389462553
 20
1828.8357536179506
 30
0.0
  0
VERTEX
  8
DETAIL
  6
CONTINUOUS
 62
     5
 10
274.11549988985649
 20
1828.7551543565371
 30
0.0
  0
SEQEND
  8
DETAIL
  6
CONTINUOUS
 62
     5
  0
POLYLINE
  8
DETAIL
  6
CONTINUOUS
 62
     5
 66
     1
 10
0.0
 20
0.0
 30
0.0
  0
VERTEX
  8
DETAIL
  6
CONTINUOUS
 62
     5
 10
273.06822487695899
 20
1827.7730488735381
 30
0.0
  0
VERTEX
  8
DETAIL
  6
CONTINUOUS
 62
     5
 10
273.01530513707718
 20
1827.7230325360786
 30
0.0
  0
VERTEX
  8
DETAIL
  6
CONTINUOUS
 62
     5
 10
272.96291753807441
 20
1827.6724196237744
 30
0.0
  0
VERTEX
  8
DETAIL
  6
CONTINUOUS
 62
     5
 10
272.91134215363093
 20
1827.6209983952574
 30
0.0
  0
VERTEX
  8
DETAIL
  6
CONTINUOUS
 62
     5
 10
272.86085905742658
 20
1827.5685571091592
 30
0.0
  0
VERTEX
  8
DETAIL
  6
CONTINUOUS
 62
     5
 10
272.81174849678445
 20
1827.5148838587309
 30
0.0
  0
VERTEX
  8
DETAIL
  6
CONTINUOUS
 62
     5
 10
272.76442397924745
 20
1827.459639818893
 30
0.0
  0
VERTEX
  8
DETAIL
  6
CONTINUOUS
 62
     5
 10
272.7196699856587
 20
1827.4021328459785
 30
0.0
  0
VERTEX
  8
DETAIL
  6
CONTINUOUS
 62
     5
 10
272.67882389945174
 20
1827.341546427976
 30
0.0
  0
VERTEX
  8
DETAIL
  6
CONTINUOUS
 62
     5
 10
272.6457507083615
 20
1827.276736381237
 30
0.0
  0
SEQEND
  8
DETAIL
  6
CONTINUOUS
 62
     5
  0
POLYLINE
  8
DETAIL
  6
CONTINUOUS
 62
     5
 66
     1
 10
0.0
 20
0.0
 30
0.0
  0
VERTEX
  8
DETAIL
  6
CONTINUOUS
 62
     5
 10
277.12801497655892
 20
1820.1115875416369
 30
0.0
  0
VERTEX
  8
DETAIL
  6
CONTINUOUS
 62
     5
 10
276.95419275077927
 20
1819.899269620357
 30
0.0
  0
VERTEX
  8
DETAIL
  6
CONTINUOUS
 62
     5
 10
276.76723826251845
 20
1819.698150019997
 30
0.0
  0
VERTEX
  8
DETAIL
  6
CONTINUOUS
 62
     5
 10
276.56674672145243
 20
1819.5104275550368
 30
0.0
  0
VERTEX
  8
DETAIL
  6
CONTINUOUS
 62
     5
 10
276.35251995236712
 20
1819.338472960771
 30
0.0
  0
VERTEX
  8
DETAIL
  6
CONTINUOUS
 62
     5
 10
276.12479882607852
 20
1819.1850222950061
 30
0.0
  0
VERTEX
  8
DETAIL
  6
CONTINUOUS
 62
     5
 10
275.88394678212472
 20
1819.0528914896759
 30
0.0
  0
VERTEX
  8
DETAIL
  6
CONTINUOUS
 62
     5
 10
275.63111970295319
 20
1818.945292030643
 30
0.0
  0
VERTEX
  8
DETAIL
  6
CONTINUOUS
 62
     5
 10
275.36800484996371
 20
1818.865687819062
 30
0.0
  0
VERTEX
  8
DETAIL
  6
CONTINUOUS
 62
     5
 10
275.09724624573636
 20
1818.8168423192612
 30
0.0
  0
VERTEX
  8
DETAIL
  6
CONTINUOUS
 62
     5
 10
274.82318533405481
 20
1818.800256179137
 30
0.0
  0
SEQEND
  8
DETAIL
  6
CONTINUOUS
 62
     5
  0
POLYLINE
  8
DETAIL
  6
CONTINUOUS
 62
     5
 66
     1
 10
0.0
 20
0.0
 30
0.0
  0
VERTEX
  8
DETAIL
  6
CONTINUOUS
 62
     5
 10
274.82318533405481
 20
1830.7997438206371
 30
0.0
  0
VERTEX
  8
DETAIL
  6
CONTINUOUS
 62
     5
 10
275.09724624573636
 20
1830.7831576805347
 30
0.0
  0
VERTEX
  8
DETAIL
  6
CONTINUOUS
 62
     5
 10
275.36800484996371
 20
1830.7343121807758
 30
0.0
  0
VERTEX
  8
DETAIL
  6
CONTINUOUS
 62
     5
 10
275.63111970295319
 20
1830.6547079692223
 30
0.0
  0
VERTEX
  8
DETAIL
  6
CONTINUOUS
 62
     5
 10
275.88394678212478
 20
1830.5471085101974
 30
0.0
  0
VERTEX
  8
DETAIL
  6
CONTINUOUS
 62
     5
 10
276.12479882607852
 20
1830.4149777048676
 30
0.0
  0
VERTEX
  8
DETAIL
  6
CONTINUOUS
 62
     5
 10
276.35251995236712
 20
1830.2615270390997
 30
0.0
  0
VERTEX
  8
DETAIL
  6
CONTINUOUS
 62
     5
 10
276.56674672145243
 20
1830.0895724448196
 30
0.0
  0
VERTEX
  8
DETAIL
  6
CONTINUOUS
 62
     5
 10
276.7672382625185
 20
1829.9018499798285
 30
0.0
  0
VERTEX
  8
DETAIL
  6
CONTINUOUS
 62
     5
 10
276.95419275077933
 20
1829.700730379433
 30
0.0
  0
VERTEX
  8
DETAIL
  6
CONTINUOUS
 62
     5
 10
277.12801497655892
 20
1829.488412458137
 30
0.0
  0
SEQEND
  8
DETAIL
  6
CONTINUOUS
 62
     5
  0
POLYLINE
  8
DETAIL
  6
CONTINUOUS
 62
     5
 66
     1
 10
0.0
 20
0.0
 30
0.0
  0
VERTEX
  8
DETAIL
  6
CONTINUOUS
 62
     5
 10
272.64578044955852
 20
1822.3232624045379
 30
0.0
  0
VERTEX
  8
DETAIL
  6
CONTINUOUS
 62
     5
 10
272.67885288936702
 20
1822.25845244479
 30
0.0
  0
VERTEX
  8
DETAIL
  6
CONTINUOUS
 62
     5
 10
272.7196760122136
 20
1822.1978564293563
 30
0.0
  0
VERTEX
  8
DETAIL
  6
CONTINUOUS
 62
     5
 10
272.76442461728141
 20
1822.1403490936384
 30
0.0
  0
VERTEX
  8
DETAIL
  6
CONTINUOUS
 62
     5
 10
272.81175499327674
 20
1822.0851102990405
 30
0.0
  0
VERTEX
  8
DETAIL
  6
CONTINUOUS
 62
     5
 10
272.86086922441353
 20
1822.031440938403
 30
0.0
  0
VERTEX
  8
DETAIL
  6
CONTINUOUS
 62
     5
 10
272.91135164977021
 20
1821.9790011415389
 30
0.0
  0
VERTEX
  8
DETAIL
  6
CONTINUOUS
 62
     5
 10
272.96292387655637
 20
1821.9275800406394
 30
0.0
  0
VERTEX
  8
DETAIL
  6
CONTINUOUS
 62
     5
 10
273.01530769040761
 20
1821.8769669355811
 30
0.0
  0
VERTEX
  8
DETAIL
  6
CONTINUOUS
 62
     5
 10
273.06822487695899
 20
1821.826951126237
 30
0.0
  0
SEQEND
  8
DETAIL
  6
CONTINUOUS
 62
     5
  0
POLYLINE
  8
DETAIL
  6
CONTINUOUS
 62
     5
 66
     1
 10
0.0
 20
0.0
 30
0.0
  0
VERTEX
  8
DETAIL
  6
CONTINUOUS
 62
     5
 10
272.45712456265761
 20
1826.742216693737
 30
0.0
  0
VERTEX
  8
DETAIL
  6
CONTINUOUS
 62
     5
 10
272.42677684552029
 20
1826.6252361464051
 30
0.0
  0
VERTEX
  8
DETAIL
  6
CONTINUOUS
 62
     5
 10
272.4042091876733
 20
1826.5063325115743
 30
0.0
  0
VERTEX
  8
DETAIL
  6
CONTINUOUS
 62
     5
 10
272.38796303523395
 20
1826.3861681063095
 30
0.0
  0
VERTEX
  8
DETAIL
  6
CONTINUOUS
 62
     5
 10
272.37657983548559
 20
1826.2654052468015
 30
0.0
  0
VERTEX
  8
DETAIL
  6
CONTINUOUS
 62
     5
 10
272.36876479861741
 20
1826.1445836773505
 30
0.0
  0
VERTEX
  8
DETAIL
  6
CONTINUOUS
 62
     5
 10
272.3638407683938
 20
1826.0237808610514
 30
0.0
  0
VERTEX
  8
DETAIL
  6
CONTINUOUS
 62
     5
 10
272.36127617103313
 20
1825.902965296661
 30
0.0
  0
VERTEX
  8
DETAIL
  6
CONTINUOUS
 62
     5
 10
272.36053943275328
 20
1825.7821054829369
 30
0.0
  0
SEQEND
  8
DETAIL
  6
CONTINUOUS
 62
     5
  0
POLYLINE
  8
DETAIL
  6
CONTINUOUS
 62
     5
 66
     1
 10
0.0
 20
0.0
 30
0.0
  0
VERTEX
  8
DETAIL
  6
CONTINUOUS
 62
     5
 10
279.94729187186022
 20
1826.7422342635371
 30
0.0
  0
VERTEX
  8
DETAIL
  6
CONTINUOUS
 62
     5
 10
279.97763903268748
 20
1826.6252514622449
 30
0.0
  0
VERTEX
  8
DETAIL
  6
CONTINUOUS
 62
     5
 10
280.00020539472513
 20
1826.5063454764843
 30
0.0
  0
VERTEX
  8
DETAIL
  6
CONTINUOUS
 62
     5
 10
280.01644990355402
 20
1826.3861787167568
 30
0.0
  0
VERTEX
  8
DETAIL
  6
CONTINUOUS
 62
     5
 10
280.02783150356595
 20
1826.2654135926732
 30
0.0
  0
VERTEX
  8
DETAIL
  6
CONTINUOUS
 62
     5
 10
280.03564525109749
 20
1826.1445898746947
 30
0.0
  0
VERTEX
  8
DETAIL
  6
CONTINUOUS
 62
     5
 10
280.04056832920679
 20
1826.0237849722218
 30
0.0
  0
VERTEX
  8
DETAIL
  6
CONTINUOUS
 62
     5
 10
280.04313233684314
 20
1825.9029673525411
 30
0.0
  0
VERTEX
  8
DETAIL
  6
CONTINUOUS
 62
     5
 10
280.0438688729555
 20
1825.7821054829369
 30
0.0
  0
SEQEND
  8
DETAIL
  6
CONTINUOUS
 62
     5
  0
POLYLINE
  8
DETAIL
  6
CONTINUOUS
 62
     5
 66
     1
 10
0.0
 20
0.0
 30
0.0
  0
VERTEX
  8
DETAIL
  6
CONTINUOUS
 62
     5
 10
279.75894403185521
 20
1822.323961479337
 30
0.0
  0
VERTEX
  8
DETAIL
  6
CONTINUOUS
 62
     5
 10
279.72593076192362
 20
1822.2590286469785
 30
0.0
  0
VERTEX
  8
DETAIL
  6
CONTINUOUS
 62
     5
 10
279.68507682764078
 20
1822.1983415768673
 30
0.0
  0
VERTEX
  8
DETAIL
  6
CONTINUOUS
 62
     5
 10
279.64029768202278
 20
1822.1407473884801
 30
0.0
  0
VERTEX
  8
DETAIL
  6
CONTINUOUS
 62
     5
 10
279.5929378512518
 20
1822.0854258515162
 30
0.0
  0
VERTEX
  8
DETAIL
  6
CONTINUOUS
 62
     5
 10
279.54378247502797
 20
1822.0316823012352
 30
0.0
  0
VERTEX
  8
DETAIL
  6
CONTINUOUS
 62
     5
 10
279.49324663384311
 20
1821.9791765055627
 30
0.0
  0
VERTEX
  8
DETAIL
  6
CONTINUOUS
 62
     5
 10
279.44161310503097
 20
1821.9276949488019
 30
0.0
  0
VERTEX
  8
DETAIL
  6
CONTINUOUS
 62
     5
 10
279.38916449964961
 20
1821.8770242745074
 30
0.0
  0
VERTEX
  8
DETAIL
  6
CONTINUOUS
 62
     5
 10
279.33618342875712
 20
1821.826951126237
 30
0.0
  0
SEQEND
  8
DETAIL
  6
CONTINUOUS
 62
     5
  0
POLYLINE
  8
DETAIL
  6
CONTINUOUS
 62
     5
 66
     1
 10
0.0
 20
0.0
 30
0.0
  0
VERTEX
  8
DETAIL
  6
CONTINUOUS
 62
     5
 10
269.49162882735982
 20
1824.799999999937
 30
0.0
  0
VERTEX
  8
DETAIL
  6
CONTINUOUS
 62
     5
 10
269.51295930668846
 20
1825.4523558725602
 30
0.0
  0
VERTEX
  8
DETAIL
  6
CONTINUOUS
 62
     5
 10
269.57796000146521
 20
1826.1026956698256
 30
0.0
  0
VERTEX
  8
DETAIL
  6
CONTINUOUS
 62
     5
 10
269.68814479687643
 20
1826.7477188361199
 30
0.0
  0
VERTEX
  8
DETAIL
  6
CONTINUOUS
 62
     5
 10
269.84505905287386
 20
1827.3840741695976
 30
0.0
  0
VERTEX
  8
DETAIL
  6
CONTINUOUS
 62
     5
 10
270.05151645454578
 20
1828.0063695987467
 30
0.0
  0
VERTEX
  8
DETAIL
  6
CONTINUOUS
 62
     5
 10
270.31200464879481
 20
1828.6065194699597
 30
0.0
  0
VERTEX
  8
DETAIL
  6
CONTINUOUS
 62
     5
 10
270.63112676864648
 20
1829.1762510300941
 30
0.0
  0
VERTEX
  8
DETAIL
  6
CONTINUOUS
 62
     5
 10
271.01434310504516
 20
1829.7047297364111
 30
0.0
  0
VERTEX
  8
DETAIL
  6
CONTINUOUS
 62
     5
 10
271.46923209836348
 20
1830.1731563034118
 30
0.0
  0
VERTEX
  8
DETAIL
  6
CONTINUOUS
 62
     5
 10
271.99978610485624
 20
1830.553550296029
 30
0.0
  0
VERTEX
  8
DETAIL
  6
CONTINUOUS
 62
     5
 10
272.60081552424793
 20
1830.8087460442216
 30
0.0
  0
VERTEX
  8
DETAIL
  6
CONTINUOUS
 62
     5
 10
273.24716382685438
 20
1830.899999999938
 30
0.0
  0
SEQEND
  8
DETAIL
  6
CONTINUOUS
 62
     5
  0
POLYLINE
  8
DETAIL
  6
CONTINUOUS
 62
     5
 66
     1
 10
0.0
 20
0.0
 30
0.0
  0
VERTEX
  8
DETAIL
  6
CONTINUOUS
 62
     5
 10
274.80742556985928
 20
1818.8304945123371
 30
0.0
  0
VERTEX
  8
DETAIL
  6
CONTINUOUS
 62
     5
 10
274.76094272956527
 20
1818.81514001967
 30
0.0
  0
VERTEX
  8
DETAIL
  6
CONTINUOUS
 62
     5
 10
274.7141650337141
 20
1818.8006841817573
 30
0.0
  0
VERTEX
  8
DETAIL
  6
CONTINUOUS
 62
     5
 10
274.66709723900567
 20
1818.7871409294598
 30
0.0
  0
VERTEX
  8
DETAIL
  6
CONTINUOUS
 62
     5
 10
274.61975956514948
 20
1818.7745247659514
 30
0.0
  0
VERTEX
  8
DETAIL
  6
CONTINUOUS
 62
     5
 10
274.57217633849513
 20
1818.7628503463964
 30
0.0
  0
VERTEX
  8
DETAIL
  6
CONTINUOUS
 62
     5
 10
274.52437188542405
 20
1818.7521323259643
 30
0.0
  0
VERTEX
  8
DETAIL
  6
CONTINUOUS
 62
     5
 10
274.4763705323175
 20
1818.742385359822
 30
0.0
  0
VERTEX
  8
DETAIL
  6
CONTINUOUS
 62
     5
 10
274.42819660555688
 20
1818.7336241031369
 30
0.0
  0
SEQEND
  8
DETAIL
  6
CONTINUOUS
 62
     5
  0
POLYLINE
  8
DETAIL
  6
CONTINUOUS
 62
     5
 66
     1
 10
0.0
 20
0.0
 30
0.0
  0
VERTEX
  8
DETAIL
  6
CONTINUOUS
 62
     5
 10
271.13165844426112
 20
1825.0163277137369
 30
0.0
  0
VERTEX
  8
DETAIL
  6
CONTINUOUS
 62
     5
 10
271.16550470647957
 20
1825.6394724666052
 30
0.0
  0
VERTEX
  8
DETAIL
  6
CONTINUOUS
 62
     5
 10
271.24004943978093
 20
1826.2598713157111
 30
0.0
  0
VERTEX
  8
DETAIL
  6
CONTINUOUS
 62
     5
 10
271.35696911479351
 20
1826.8744095970169
 30
0.0
  0
VERTEX
  8
DETAIL
  6
CONTINUOUS
 62
     5
 10
271.51796582922918
 20
1827.4799253288068
 30
0.0
  0
VERTEX
  8
DETAIL
  6
CONTINUOUS
 62
     5
 10
271.72581065490471
 20
1828.0712827827067
 30
0.0
  0
VERTEX
  8
DETAIL
  6
CONTINUOUS
 62
     5
 10
271.98470689805578
 20
1828.640701762261
 30
0.0
  0
VERTEX
  8
DETAIL
  6
CONTINUOUS
 62
     5
 10
272.29895898715307
 20
1829.1802141103135
 30
0.0
  0
VERTEX
  8
DETAIL
  6
CONTINUOUS
 62
     5
 10
272.67362779221173
 20
1829.6793913643485
 30
0.0
  0
VERTEX
  8
DETAIL
  6
CONTINUOUS
 62
     5
 10
273.11555798211469
 20
1830.1202880532314
 30
0.0
  0
VERTEX
  8
DETAIL
  6
CONTINUOUS
 62
     5
 10
273.627793304845
 20
1830.4769960562878
 30
0.0
  0
VERTEX
  8
DETAIL
  6
CONTINUOUS
 62
     5
 10
274.20482242442165
 20
1830.7152169666349
 30
0.0
  0
VERTEX
  8
DETAIL
  6
CONTINUOUS
 62
     5
 10
274.82318533405481
 20
1830.7997438206371
 30
0.0
  0
SEQEND
  8
DETAIL
  6
CONTINUOUS
 62
     5
  0
POLYLINE
  8
DETAIL
  6
CONTINUOUS
 62
     5
 66
     1
 10
0.0
 20
0.0
 30
0.0
  0
VERTEX
  8
DETAIL
  6
CONTINUOUS
 62
     5
 10
274.01102132435329
 20
1818.7001271852371
 30
0.0
  0
VERTEX
  8
DETAIL
  6
CONTINUOUS
 62
     5
 10
273.91915465105654
 20
1818.7029267214289
 30
0.0
  0
VERTEX
  8
DETAIL
  6
CONTINUOUS
 62
     5
 10
273.82742524491158
 20
1818.7093951256761
 30
0.0
  0
VERTEX
  8
DETAIL
  6
CONTINUOUS
 62
     5
 10
273.73592629497938
 20
1818.7195236592545
 30
0.0
  0
VERTEX
  8
DETAIL
  6
CONTINUOUS
 62
     5
 10
273.6448124429877
 20
1818.733239685324
 30
0.0
  0
VERTEX
  8
DETAIL
  6
CONTINUOUS
 62
     5
 10
273.55425291322308
 20
1818.7504554041852
 30
0.0
  0
VERTEX
  8
DETAIL
  6
CONTINUOUS
 62
     5
 10
273.46441692997212
 20
1818.77108301614
 30
0.0
  0
VERTEX
  8
DETAIL
  6
CONTINUOUS
 62
     5
 10
273.37547371752123
 20
1818.7950347214905
 30
0.0
  0
VERTEX
  8
DETAIL
  6
CONTINUOUS
 62
     5
 10
273.28759250015719
 20
1818.822222720537
 30
0.0
  0
SEQEND
  8
DETAIL
  6
CONTINUOUS
 62
     5
  0
POLYLINE
  8
DETAIL
  6
CONTINUOUS
 62
     5
 66
     1
 10
0.0
 20
0.0
 30
0.0
  0
VERTEX
  8
DETAIL
  6
CONTINUOUS
 62
     5
 10
273.28759250015719
 20
1818.822222720537
 30
0.0
  0
VERTEX
  8
DETAIL
  6
CONTINUOUS
 62
     5
 10
272.75118200547007
 20
1819.0677024607839
 30
0.0
  0
VERTEX
  8
DETAIL
  6
CONTINUOUS
 62
     5
 10
272.2728665063803
 20
1819.4133404425081
 30
0.0
  0
VERTEX
  8
DETAIL
  6
CONTINUOUS
 62
     5
 10
271.85657435578827
 20
1819.8313853814655
 30
0.0
  0
VERTEX
  8
DETAIL
  6
CONTINUOUS
 62
     5
 10
271.49924457341314
 20
1820.3009095976829
 30
0.0
  0
VERTEX
  8
DETAIL
  6
CONTINUOUS
 62
     5
 10
271.19616855051748
 20
1820.8070166683376
 30
0.0
  0
VERTEX
  8
DETAIL
  6
CONTINUOUS
 62
     5
 10
270.94210047909388
 20
1821.3396486171775
 30
0.0
  0
VERTEX
  8
DETAIL
  6
CONTINUOUS
 62
     5
 10
270.73328661582553
 20
1821.892287551339
 30
0.0
  0
VERTEX
  8
DETAIL
  6
CONTINUOUS
 62
     5
 10
270.56679299402862
 20
1822.4599719716393
 30
0.0
  0
VERTEX
  8
DETAIL
  6
CONTINUOUS
 62
     5
 10
270.43973293956753
 20
1823.0378043342407
 30
0.0
  0
VERTEX
  8
DETAIL
  6
CONTINUOUS
 62
     5
 10
270.35016709351322
 20
1823.6220780634874
 30
0.0
  0
VERTEX
  8
DETAIL
  6
CONTINUOUS
 62
     5
 10
270.29711518627801
 20
1824.210292354393
 30
0.0
  0
VERTEX
  8
DETAIL
  6
CONTINUOUS
 62
     5
 10
270.27963958095643
 20
1824.799999999937
 30
0.0
  0
SEQEND
  8
DETAIL
  6
CONTINUOUS
 62
     5
  0
POLYLINE
  8
DETAIL
  6
CONTINUOUS
 62
     5
 66
     1
 10
0.0
 20
0.0
 30
0.0
  0
VERTEX
  8
DETAIL
  6
CONTINUOUS
 62
     5
 10
274.0351745804582
 20
1818.800103570738
 30
0.0
  0
VERTEX
  8
DETAIL
  6
CONTINUOUS
 62
     5
 10
273.44683343226387
 20
1818.8768072433047
 30
0.0
  0
VERTEX
  8
DETAIL
  6
CONTINUOUS
 62
     5
 10
272.89417777308967
 20
1819.0934153914718
 30
0.0
  0
VERTEX
  8
DETAIL
  6
CONTINUOUS
 62
     5
 10
272.39913111058576
 20
1819.4205678487313
 30
0.0
  0
VERTEX
  8
DETAIL
  6
CONTINUOUS
 62
     5
 10
271.96761714260322
 20
1819.8279773744905
 30
0.0
  0
VERTEX
  8
DETAIL
  6
CONTINUOUS
 62
     5
 10
271.59769506582347
 20
1820.2916690517307
 30
0.0
  0
VERTEX
  8
DETAIL
  6
CONTINUOUS
 62
     5
 10
271.28439921234212
 20
1820.7954293702894
 30
0.0
  0
VERTEX
  8
DETAIL
  6
CONTINUOUS
 62
     5
 10
271.0226621695254
 20
1821.3276592897216
 30
0.0
  0
VERTEX
  8
DETAIL
  6
CONTINUOUS
 62
     5
 10
270.8080397134076
 20
1821.8803090735678
 30
0.0
  0
VERTEX
  8
DETAIL
  6
CONTINUOUS
 62
     5
 10
270.63680597390157
 20
1822.4481792388958
 30
0.0
  0
VERTEX
  8
DETAIL
  6
CONTINUOUS
 62
     5
 10
270.50587684293572
 20
1823.0275192397557
 30
0.0
  0
VERTEX
  8
DETAIL
  6
CONTINUOUS
 62
     5
 10
270.41368007712452
 20
1823.6148576550179
 30
0.0
  0
VERTEX
  8
DETAIL
  6
CONTINUOUS
 62
     5
 10
270.35914611229407
 20
1824.2068120372487
 30
0.0
  0
VERTEX
  8
DETAIL
  6
CONTINUOUS
 62
     5
 10
270.34120572845859
 20
1824.799999999937
 30
0.0
  0
SEQEND
  8
DETAIL
  6
CONTINUOUS
 62
     5
  0
POLYLINE
  8
DETAIL
  6
CONTINUOUS
 62
     5
 66
     1
 10
0.0
 20
0.0
 30
0.0
  0
VERTEX
  8
DETAIL
  6
CONTINUOUS
 62
     5
 10
274.82318533405481
 20
1818.800256179137
 30
0.0
  0
VERTEX
  8
DETAIL
  6
CONTINUOUS
 62
     5
 10
274.18737898173634
 20
1818.8896740703312
 30
0.0
  0
VERTEX
  8
DETAIL
  6
CONTINUOUS
 62
     5
 10
273.59626834144683
 20
1819.140763698186
 30
0.0
  0
VERTEX
  8
DETAIL
  6
CONTINUOUS
 62
     5
 10
273.07446674887387
 20
1819.5150503702766
 30
0.0
  0
VERTEX
  8
DETAIL
  6
CONTINUOUS
 62
     5
 10
272.62700307307318
 20
1819.9757319043069
 30
0.0
  0
VERTEX
  8
DETAIL
  6
CONTINUOUS
 62
     5
 10
272.25002279237128
 20
1820.4955154158545
 30
0.0
  0
VERTEX
  8
DETAIL
  6
CONTINUOUS
 62
     5
 10
271.93610814906589
 20
1821.0558955838974
 30
0.0
  0
VERTEX
  8
DETAIL
  6
CONTINUOUS
 62
     5
 10
271.67988894637693
 20
1821.6462030857567
 30
0.0
  0
VERTEX
  8
DETAIL
  6
CONTINUOUS
 62
     5
 10
271.47682654207927
 20
1822.2582967274243
 30
0.0
  0
VERTEX
  8
DETAIL
  6
CONTINUOUS
 62
     5
 10
271.32249627498652
 20
1822.8842195142583
 30
0.0
  0
VERTEX
  8
DETAIL
  6
CONTINUOUS
 62
     5
 10
271.21412599680394
 20
1823.5186664054083
 30
0.0
  0
VERTEX
  8
DETAIL
  6
CONTINUOUS
 62
     5
 10
271.15019570688162
 20
1824.1583418074024
 30
0.0
  0
VERTEX
  8
DETAIL
  6
CONTINUOUS
 62
     5
 10
271.1292164820552
 20
1824.799999999937
 30
0.0
  0
SEQEND
  8
DETAIL
  6
CONTINUOUS
 62
     5
  0
POLYLINE
  8
DETAIL
  6
CONTINUOUS
 62
     5
 66
     1
 10
0.0
 20
0.0
 30
0.0
  0
VERTEX
  8
DETAIL
  6
CONTINUOUS
 62
     5
 10
272.74657052836119
 20
1822.4904794173369
 30
0.0
  0
VERTEX
  8
DETAIL
  6
CONTINUOUS
 62
     5
 10
272.71942323944444
 20
1822.4883122467743
 30
0.0
  0
VERTEX
  8
DETAIL
  6
CONTINUOUS
 62
     5
 10
272.69280773209601
 20
1822.4823617603408
 30
0.0
  0
VERTEX
  8
DETAIL
  6
CONTINUOUS
 62
     5
 10
272.66800306689618
 20
1822.4710004444269
 30
0.0
  0
VERTEX
  8
DETAIL
  6
CONTINUOUS
 62
     5
 10
272.64674718411067
 20
1822.453309044555
 30
0.0
  0
VERTEX
  8
DETAIL
  6
CONTINUOUS
 62
     5
 10
272.63224433434016
 20
1822.4306317514461
 30
0.0
  0
VERTEX
  8
DETAIL
  6
CONTINUOUS
 62
     5
 10
272.62682776369843
 20
1822.4047161410285
 30
0.0
  0
VERTEX
  8
DETAIL
  6
CONTINUOUS
 62
     5
 10
272.62889802259963
 20
1822.3771481610966
 30
0.0
  0
VERTEX
  8
DETAIL
  6
CONTINUOUS
 62
     5
 10
272.63602546617579
 20
1822.3494796396126
 30
0.0
  0
VERTEX
  8
DETAIL
  6
CONTINUOUS
 62
     5
 10
272.64578044955852
 20
1822.3232624045379
 30
0.0
  0
SEQEND
  8
DETAIL
  6
CONTINUOUS
 62
     5
  0
POLYLINE
  8
DETAIL
  6
CONTINUOUS
 62
     5
 66
     1
 10
0.0
 20
0.0
 30
0.0
  0
VERTEX
  8
DETAIL
  6
CONTINUOUS
 62
     5
 10
275.82626251455798
 20
1821.826951126237
 30
0.0
  0
VERTEX
  8
DETAIL
  6
CONTINUOUS
 62
     5
 10
275.73896756581684
 20
1821.9075486045992
 30
0.0
  0
VERTEX
  8
DETAIL
  6
CONTINUOUS
 62
     5
 10
275.65012545404932
 20
1821.9864339813439
 30
0.0
  0
VERTEX
  8
DETAIL
  6
CONTINUOUS
 62
     5
 10
275.55933419348054
 20
1822.0630400193679
 30
0.0
  0
VERTEX
  8
DETAIL
  6
CONTINUOUS
 62
     5
 10
275.46622865100943
 20
1822.1368309034938
 30
0.0
  0
VERTEX
  8
DETAIL
  6
CONTINUOUS
 62
     5
 10
275.3704722851511
 20
1822.2072951966024
 30
0.0
  0
VERTEX
  8
DETAIL
  6
CONTINUOUS
 62
     5
 10
275.27175985284771
 20
1822.2737978689022
 30
0.0
  0
VERTEX
  8
DETAIL
  6
CONTINUOUS
 62
     5
 10
275.1699043601223
 20
1822.3352230335975
 30
0.0
  0
VERTEX
  8
DETAIL
  6
CONTINUOUS
 62
     5
 10
275.06474718523879
 20
1822.3903382233866
 30
0.0
  0
VERTEX
  8
DETAIL
  6
CONTINUOUS
 62
     5
 10
274.95587622110145
 20
1822.4376361103064
 30
0.0
  0
VERTEX
  8
DETAIL
  6
CONTINUOUS
 62
     5
 10
274.84223218166835
 20
1822.4744699381943
 30
0.0
  0
VERTEX
  8
DETAIL
  6
CONTINUOUS
 62
     5
 10
274.72457161056082
 20
1822.490598923137
 30
0.0
  0
SEQEND
  8
DETAIL
  6
CONTINUOUS
 62
     5
  0
POLYLINE
  8
DETAIL
  6
CONTINUOUS
 62
     5
 66
     1
 10
0.0
 20
0.0
 30
0.0
  0
VERTEX
  8
DETAIL
  6
CONTINUOUS
 62
     5
 10
277.18721754725988
 20
1820.181197846437
 30
0.0
  0
VERTEX
  8
DETAIL
  6
CONTINUOUS
 62
     5
 10
277.2436289150005
 20
1820.1882405420595
 30
0.0
  0
VERTEX
  8
DETAIL
  6
CONTINUOUS
 62
     5
 10
277.29330204493129
 20
1820.2155339554911
 30
0.0
  0
VERTEX
  8
DETAIL
  6
CONTINUOUS
 62
     5
 10
277.31426268456755
 20
1820.2674476443144
 30
0.0
  0
VERTEX
  8
DETAIL
  6
CONTINUOUS
 62
     5
 10
277.30507626159795
 20
1820.3235318877105
 30
0.0
  0
VERTEX
  8
DETAIL
  6
CONTINUOUS
 62
     5
 10
277.2834251899402
 20
1820.3760475671818
 30
0.0
  0
VERTEX
  8
DETAIL
  6
CONTINUOUS
 62
     5
 10
277.2553234140068
 20
1820.4254604194737
 30
0.0
  0
VERTEX
  8
DETAIL
  6
CONTINUOUS
 62
     5
 10
277.22318744625005
 20
1820.4724223773769
 30
0.0
  0
VERTEX
  8
DETAIL
  6
CONTINUOUS
 62
     5
 10
277.18861396922858
 20
1820.5175474976691
 30
0.0
  0
VERTEX
  8
DETAIL
  6
CONTINUOUS
 62
     5
 10
277.15227112343342
 20
1820.5612331876932
 30
0.0
  0
VERTEX
  8
DETAIL
  6
CONTINUOUS
 62
     5
 10
277.11462914837392
 20
1820.6038073729642
 30
0.0
  0
VERTEX
  8
DETAIL
  6
CONTINUOUS
 62
     5
 10
277.07597401717243
 20
1820.645473401406
 30
0.0
  0
VERTEX
  8
DETAIL
  6
CONTINUOUS
 62
     5
 10
277.03653999672213
 20
1820.6864007015238
 30
0.0
  0
VERTEX
  8
DETAIL
  6
CONTINUOUS
 62
     5
 10
276.99647360780409
 20
1820.7267073586465
 30
0.0
  0
VERTEX
  8
DETAIL
  6
CONTINUOUS
 62
     5
 10
276.9558806694734
 20
1820.766487642165
 30
0.0
  0
VERTEX
  8
DETAIL
  6
CONTINUOUS
 62
     5
 10
276.91486677745041
 20
1820.8058356907918
 30
0.0
  0
VERTEX
  8
DETAIL
  6
CONTINUOUS
 62
     5
 10
276.87353752745548
 20
1820.8448456432379
 30
0.0
  0
SEQEND
  8
DETAIL
  6
CONTINUOUS
 62
     5
  0
POLYLINE
  8
DETAIL
  6
CONTINUOUS
 62
     5
 66
     1
 10
0.0
 20
0.0
 30
0.0
  0
VERTEX
  8
DETAIL
  6
CONTINUOUS
 62
     5
 10
272.45714200855582
 20
1822.857680494637
 30
0.0
  0
VERTEX
  8
DETAIL
  6
CONTINUOUS
 62
     5
 10
272.47513581183102
 20
1822.8016571007761
 30
0.0
  0
VERTEX
  8
DETAIL
  6
CONTINUOUS
 62
     5
 10
272.49642551623657
 20
1822.7458645045031
 30
0.0
  0
VERTEX
  8
DETAIL
  6
CONTINUOUS
 62
     5
 10
272.52304525014375
 20
1822.6883626515839
 30
0.0
  0
VERTEX
  8
DETAIL
  6
CONTINUOUS
 62
     5
 10
272.55562891407919
 20
1822.631371518399
 30
0.0
  0
VERTEX
  8
DETAIL
  6
CONTINUOUS
 62
     5
 10
272.59417280101246
 20
1822.5790053922883
 30
0.0
  0
VERTEX
  8
DETAIL
  6
CONTINUOUS
 62
     5
 10
272.63866997521927
 20
1822.5353881529352
 30
0.0
  0
VERTEX
  8
DETAIL
  6
CONTINUOUS
 62
     5
 10
272.68911350097528
 20
1822.5046436800239
 30
0.0
  0
VERTEX
  8
DETAIL
  6
CONTINUOUS
 62
     5
 10
272.74549644255609
 20
1822.490895853238
 30
0.0
  0
SEQEND
  8
DETAIL
  6
CONTINUOUS
 62
     5
  0
POLYLINE
  8
DETAIL
  6
CONTINUOUS
 62
     5
 66
     1
 10
0.0
 20
0.0
 30
0.0
  0
VERTEX
  8
DETAIL
  6
CONTINUOUS
 62
     5
 10
272.6457507083615
 20
1827.276736381237
 30
0.0
  0
VERTEX
  8
DETAIL
  6
CONTINUOUS
 62
     5
 10
272.63599522662736
 20
1827.2504517210402
 30
0.0
  0
VERTEX
  8
DETAIL
  6
CONTINUOUS
 62
     5
 10
272.62889193443823
 20
1827.2227116825843
 30
0.0
  0
VERTEX
  8
DETAIL
  6
CONTINUOUS
 62
     5
 10
272.62686959983722
 20
1827.1950758784078
 30
0.0
  0
VERTEX
  8
DETAIL
  6
CONTINUOUS
 62
     5
 10
272.63235699086749
 20
1827.1691039210505
 30
0.0
  0
VERTEX
  8
DETAIL
  6
CONTINUOUS
 62
     5
 10
272.64694602012912
 20
1827.1463932547799
 30
0.0
  0
VERTEX
  8
DETAIL
  6
CONTINUOUS
 62
     5
 10
272.66829136702017
 20
1827.1287193143908
 30
0.0
  0
VERTEX
  8
DETAIL
  6
CONTINUOUS
 62
     5
 10
272.69318902700957
 20
1827.117437757892
 30
0.0
  0
VERTEX
  8
DETAIL
  6
CONTINUOUS
 62
     5
 10
272.71989727773172
 20
1827.1115888464144
 30
0.0
  0
VERTEX
  8
DETAIL
  6
CONTINUOUS
 62
     5
 10
272.74712203945819
 20
1827.1095041111371
 30
0.0
  0
SEQEND
  8
DETAIL
  6
CONTINUOUS
 62
     5
  0
POLYLINE
  8
DETAIL
  6
CONTINUOUS
 62
     5
 66
     1
 10
0.0
 20
0.0
 30
0.0
  0
VERTEX
  8
DETAIL
  6
CONTINUOUS
 62
     5
 10
272.74605951545527
 20
1827.109139513637
 30
0.0
  0
VERTEX
  8
DETAIL
  6
CONTINUOUS
 62
     5
 10
272.69313300573896
 20
1827.096285410252
 30
0.0
  0
VERTEX
  8
DETAIL
  6
CONTINUOUS
 62
     5
 10
272.64491402334829
 20
1827.0687874334503
 30
0.0
  0
VERTEX
  8
DETAIL
  6
CONTINUOUS
 62
     5
 10
272.60362981314455
 20
1827.0325268653651
 30
0.0
  0
VERTEX
  8
DETAIL
  6
CONTINUOUS
 62
     5
 10
272.568860482216
 20
1826.9902518112963
 30
0.0
  0
VERTEX
  8
DETAIL
  6
CONTINUOUS
 62
     5
 10
272.53946100994284
 20
1826.9438521086593
 30
0.0
  0
VERTEX
  8
DETAIL
  6
CONTINUOUS
 62
     5
 10
272.51430692819679
 20
1826.8951595664125
 30
0.0
  0
VERTEX
  8
DETAIL
  6
CONTINUOUS
 62
     5
 10
272.49258290881005
 20
1826.8451342917872
 30
0.0
  0
VERTEX
  8
DETAIL
  6
CONTINUOUS
 62
     5
 10
272.47371228347873
 20
1826.7940634275278
 30
0.0
  0
VERTEX
  8
DETAIL
  6
CONTINUOUS
 62
     5
 10
272.45712456265761
 20
1826.742216693737
 30
0.0
  0
SEQEND
  8
DETAIL
  6
CONTINUOUS
 62
     5
  0
POLYLINE
  8
DETAIL
  6
CONTINUOUS
 62
     5
 66
     1
 10
0.0
 20
0.0
 30
0.0
  0
VERTEX
  8
DETAIL
  6
CONTINUOUS
 62
     5
 10
275.11857707035227
 20
1825.7821054829369
 30
0.0
  0
VERTEX
  8
DETAIL
  6
CONTINUOUS
 62
     5
 10
275.1179632860472
 20
1825.8947967893641
 30
0.0
  0
VERTEX
  8
DETAIL
  6
CONTINUOUS
 62
     5
 10
275.11581105162139
 20
1826.0074758096084
 30
0.0
  0
VERTEX
  8
DETAIL
  6
CONTINUOUS
 62
     5
 10
275.11165404480857
 20
1826.1200887396699
 30
0.0
  0
VERTEX
  8
DETAIL
  6
CONTINUOUS
 62
     5
 10
275.10501910746513
 20
1826.232578868063
 30
0.0
  0
VERTEX
  8
DETAIL
  6
CONTINUOUS
 62
     5
 10
275.0953367667164
 20
1826.3448485179788
 30
0.0
  0
VERTEX
  8
DETAIL
  6
CONTINUOUS
 62
     5
 10
275.08191343754231
 20
1826.4567425937171
 30
0.0
  0
VERTEX
  8
DETAIL
  6
CONTINUOUS
 62
     5
 10
275.06378742932924
 20
1826.567968544143
 30
0.0
  0
VERTEX
  8
DETAIL
  6
CONTINUOUS
 62
     5
 10
275.0396974615648
 20
1826.6780664335304
 30
0.0
  0
VERTEX
  8
DETAIL
  6
CONTINUOUS
 62
     5
 10
275.00793431838667
 20
1826.7862838397598
 30
0.0
  0
VERTEX
  8
DETAIL
  6
CONTINUOUS
 62
     5
 10
274.96646116747871
 20
1826.8911053904235
 30
0.0
  0
VERTEX
  8
DETAIL
  6
CONTINUOUS
 62
     5
 10
274.91132206317167
 20
1826.9892228581366
 30
0.0
  0
VERTEX
  8
DETAIL
  6
CONTINUOUS
 62
     5
 10
274.83070231083946
 20
1827.0711836106441
 30
0.0
  0
VERTEX
  8
DETAIL
  6
CONTINUOUS
 62
     5
 10
274.72457161465718
 20
1827.1094010766369
 30
0.0
  0
SEQEND
  8
DETAIL
  6
CONTINUOUS
 62
     5
  0
POLYLINE
  8
DETAIL
  6
CONTINUOUS
 62
     5
 66
     1
 10
0.0
 20
0.0
 30
0.0
  0
VERTEX
  8
DETAIL
  6
CONTINUOUS
 62
     5
 10
274.72457166925602
 20
1822.490598923137
 30
0.0
  0
VERTEX
  8
DETAIL
  6
CONTINUOUS
 62
     5
 10
274.83070142243122
 20
1822.5288162535207
 30
0.0
  0
VERTEX
  8
DETAIL
  6
CONTINUOUS
 62
     5
 10
274.91133761023264
 20
1822.610766162991
 30
0.0
  0
VERTEX
  8
DETAIL
  6
CONTINUOUS
 62
     5
 10
274.96649137903427
 20
1822.7088741413218
 30
0.0
  0
VERTEX
  8
DETAIL
  6
CONTINUOUS
 62
     5
 10
275.00794096325814
 20
1822.8137047445343
 30
0.0
  0
VERTEX
  8
DETAIL
  6
CONTINUOUS
 62
     5
 10
275.03968577517759
 20
1822.921930762313
 30
0.0
  0
VERTEX
  8
DETAIL
  6
CONTINUOUS
 62
     5
 10
275.06378249116443
 20
1823.0320272547835
 30
0.0
  0
VERTEX
  8
DETAIL
  6
CONTINUOUS
 62
     5
 10
275.08191388400644
 20
1823.1432523405861
 30
0.0
  0
VERTEX
  8
DETAIL
  6
CONTINUOUS
 62
     5
 10
275.09533675887508
 20
1823.2551477121613
 30
0.0
  0
VERTEX
  8
DETAIL
  6
CONTINUOUS
 62
     5
 10
275.10501890274537
 20
1823.3674182159725
 30
0.0
  0
VERTEX
  8
DETAIL
  6
CONTINUOUS
 62
     5
 10
275.11165406149507
 20
1823.4799089321291
 30
0.0
  0
VERTEX
  8
DETAIL
  6
CONTINUOUS
 62
     5
 10
275.11581112799365
 20
1823.5925225883941
 30
0.0
  0
VERTEX
  8
DETAIL
  6
CONTINUOUS
 62
     5
 10
275.11796332237935
 20
1823.7052024145758
 30
0.0
  0
VERTEX
  8
DETAIL
  6
CONTINUOUS
 62
     5
 10
275.11857707035227
 20
1823.817894516837
 30
0.0
  0
SEQEND
  8
DETAIL
  6
CONTINUOUS
 62
     5
  0
POLYLINE
  8
DETAIL
  6
CONTINUOUS
 62
     5
 66
     1
 10
0.0
 20
0.0
 30
0.0
  0
VERTEX
  8
DETAIL
  6
CONTINUOUS
 62
     5
 10
270.34120572845859
 20
1824.799999999937
 30
0.0
  0
VERTEX
  8
DETAIL
  6
CONTINUOUS
 62
     5
 10
270.35914611229407
 20
1825.393187962625
 30
0.0
  0
VERTEX
  8
DETAIL
  6
CONTINUOUS
 62
     5
 10
270.41368007712452
 20
1825.9851423448524
 30
0.0
  0
VERTEX
  8
DETAIL
  6
CONTINUOUS
 62
     5
 10
270.50587684293566
 20
1826.5724807601032
 30
0.0
  0
VERTEX
  8
DETAIL
  6
CONTINUOUS
 62
     5
 10
270.63680597390157
 20
1827.1518207609411
 30
0.0
  0
VERTEX
  8
DETAIL
  6
CONTINUOUS
 62
     5
 10
270.80803971340765
 20
1827.7196909262373
 30
0.0
  0
VERTEX
  8
DETAIL
  6
CONTINUOUS
 62
     5
 10
271.02266216952546
 20
1828.2723407100602
 30
0.0
  0
VERTEX
  8
DETAIL
  6
CONTINUOUS
 62
     5
 10
271.28439921234218
 20
1828.8045706294856
 30
0.0
  0
VERTEX
  8
DETAIL
  6
CONTINUOUS
 62
     5
 10
271.59769506582353
 20
1829.3083309480442
 30
0.0
  0
VERTEX
  8
DETAIL
  6
CONTINUOUS
 62
     5
 10
271.96761714260322
 20
1829.7720226252834
 30
0.0
  0
VERTEX
  8
DETAIL
  6
CONTINUOUS
 62
     5
 10
272.3991311105857
 20
1830.1794321510424
 30
0.0
  0
VERTEX
  8
DETAIL
  6
CONTINUOUS
 62
     5
 10
272.89417777308978
 20
1830.5065846083039
 30
0.0
  0
VERTEX
  8
DETAIL
  6
CONTINUOUS
 62
     5
 10
273.44683343226399
 20
1830.7231927565128
 30
0.0
  0
VERTEX
  8
DETAIL
  6
CONTINUOUS
 62
     5
 10
274.0351745804582
 20
1830.7998964291371
 30
0.0
  0
SEQEND
  8
DETAIL
  6
CONTINUOUS
 62
     5
  0
POLYLINE
  8
DETAIL
  6
CONTINUOUS
 62
     5
 66
     1
 10
0.0
 20
0.0
 30
0.0
  0
VERTEX
  8
DETAIL
  6
CONTINUOUS
 62
     5
 10
276.87353752745548
 20
1828.7551543565371
 30
0.0
  0
VERTEX
  8
DETAIL
  6
CONTINUOUS
 62
     5
 10
276.91486560924017
 20
1828.7941631012366
 30
0.0
  0
VERTEX
  8
DETAIL
  6
CONTINUOUS
 62
     5
 10
276.95587842957224
 20
1828.8335099044909
 30
0.0
  0
VERTEX
  8
DETAIL
  6
CONTINUOUS
 62
     5
 10
276.99647026836789
 20
1828.8732889331288
 30
0.0
  0
VERTEX
  8
DETAIL
  6
CONTINUOUS
 62
     5
 10
277.03653540554262
 20
1828.9135943539773
 30
0.0
  0
VERTEX
  8
DETAIL
  6
CONTINUOUS
 62
     5
 10
277.07596790210647
 20
1828.9545204626193
 30
0.0
  0
VERTEX
  8
DETAIL
  6
CONTINUOUS
 62
     5
 10
277.114621518371
 20
1828.9961852586223
 30
0.0
  0
VERTEX
  8
DETAIL
  6
CONTINUOUS
 62
     5
 10
277.15226292730165
 20
1829.0387579644121
 30
0.0
  0
VERTEX
  8
DETAIL
  6
CONTINUOUS
 62
     5
 10
277.18860670341189
 20
1829.082441615227
 30
0.0
  0
VERTEX
  8
DETAIL
  6
CONTINUOUS
 62
     5
 10
277.22318043958052
 20
1829.1275637718584
 30
0.0
  0
VERTEX
  8
DETAIL
  6
CONTINUOUS
 62
     5
 10
277.25531580803045
 20
1829.1745212697285
 30
0.0
  0
VERTEX
  8
DETAIL
  6
CONTINUOUS
 62
     5
 10
277.2834303451574
 20
1829.2239265972094
 30
0.0
  0
VERTEX
  8
DETAIL
  6
CONTINUOUS
 62
     5
 10
277.30506634274747
 20
1829.2764455701256
 30
0.0
  0
VERTEX
  8
DETAIL
  6
CONTINUOUS
 62
     5
 10
277.31415932677214
 20
1829.332543978142
 30
0.0
  0
VERTEX
  8
DETAIL
  6
CONTINUOUS
 62
     5
 10
277.29331156311576
 20
1829.3845082710288
 30
0.0
  0
VERTEX
  8
DETAIL
  6
CONTINUOUS
 62
     5
 10
277.24362719733716
 20
1829.4117778280786
 30
0.0
  0
VERTEX
  8
DETAIL
  6
CONTINUOUS
 62
     5
 10
277.18721751155681
 20
1829.4188021534369
 30
0.0
  0
SEQEND
  8
DETAIL
  6
CONTINUOUS
 62
     5
  0
POLYLINE
  8
DETAIL
  6
CONTINUOUS
 62
     5
 66
     1
 10
0.0
 20
0.0
 30
0.0
  0
VERTEX
  8
DETAIL
  6
CONTINUOUS
 62
     5
 10
274.72457164475782
 20
1827.1094010766369
 30
0.0
  0
VERTEX
  8
DETAIL
  6
CONTINUOUS
 62
     5
 10
274.84222767505423
 20
1827.125547717781
 30
0.0
  0
VERTEX
  8
DETAIL
  6
CONTINUOUS
 62
     5
 10
274.95587885498168
 20
1827.1623743732932
 30
0.0
  0
VERTEX
  8
DETAIL
  6
CONTINUOUS
 62
     5
 10
275.06476751243815
 20
1827.2096286038402
 30
0.0
  0
VERTEX
  8
DETAIL
  6
CONTINUOUS
 62
     5
 10
275.16992658823364
 20
1827.2647327210607
 30
0.0
  0
VERTEX
  8
DETAIL
  6
CONTINUOUS
 62
     5
 10
275.27177091930918
 20
1827.3261778639135
 30
0.0
  0
VERTEX
  8
DETAIL
  6
CONTINUOUS
 62
     5
 10
275.37047139828468
 20
1827.3927047627112
 30
0.0
  0
VERTEX
  8
DETAIL
  6
CONTINUOUS
 62
     5
 10
275.46622431422998
 20
1827.4631766201455
 30
0.0
  0
VERTEX
  8
DETAIL
  6
CONTINUOUS
 62
     5
 10
275.55933217013495
 20
1827.5369632210836
 30
0.0
  0
VERTEX
  8
DETAIL
  6
CONTINUOUS
 62
     5
 10
275.65012581308048
 20
1827.6135647526742
 30
0.0
  0
VERTEX
  8
DETAIL
  6
CONTINUOUS
 62
     5
 10
275.73896797263984
 20
1827.6924503103878
 30
0.0
  0
VERTEX
  8
DETAIL
  6
CONTINUOUS
 62
     5
 10
275.82626251455798
 20
1827.7730488735381
 30
0.0
  0
SEQEND
  8
DETAIL
  6
CONTINUOUS
 62
     5
  0
POLYLINE
  8
DETAIL
  6
CONTINUOUS
 62
     5
 66
     1
 10
0.0
 20
0.0
 30
0.0
  0
VERTEX
  8
DETAIL
  6
CONTINUOUS
 62
     5
 10
270.27963958095643
 20
1824.799999999937
 30
0.0
  0
VERTEX
  8
DETAIL
  6
CONTINUOUS
 62
     5
 10
270.29711518627801
 20
1825.3897076454814
 30
0.0
  0
VERTEX
  8
DETAIL
  6
CONTINUOUS
 62
     5
 10
270.35016709351322
 20
1825.9779219363838
 30
0.0
  0
VERTEX
  8
DETAIL
  6
CONTINUOUS
 62
     5
 10
270.43973293956753
 20
1826.5621956656203
 30
0.0
  0
VERTEX
  8
DETAIL
  6
CONTINUOUS
 62
     5
 10
270.56679299402867
 20
1827.1400280282028
 30
0.0
  0
VERTEX
  8
DETAIL
  6
CONTINUOUS
 62
     5
 10
270.73328661582553
 20
1827.7077124484783
 30
0.0
  0
VERTEX
  8
DETAIL
  6
CONTINUOUS
 62
     5
 10
270.94210047909394
 20
1828.2603513826157
 30
0.0
  0
VERTEX
  8
DETAIL
  6
CONTINUOUS
 62
     5
 10
271.19616855051748
 20
1828.7929833314408
 30
0.0
  0
VERTEX
  8
DETAIL
  6
CONTINUOUS
 62
     5
 10
271.49924457341319
 20
1829.2990904021026
 30
0.0
  0
VERTEX
  8
DETAIL
  6
CONTINUOUS
 62
     5
 10
271.85657435578827
 20
1829.768614618363
 30
0.0
  0
VERTEX
  8
DETAIL
  6
CONTINUOUS
 62
     5
 10
272.2728665063803
 20
1830.1866595573229
 30
0.0
  0
VERTEX
  8
DETAIL
  6
CONTINUOUS
 62
     5
 10
272.75118200547001
 20
1830.5322975390382
 30
0.0
  0
VERTEX
  8
DETAIL
  6
CONTINUOUS
 62
     5
 10
273.28759250015719
 20
1830.7777772792369
 30
0.0
  0
SEQEND
  8
DETAIL
  6
CONTINUOUS
 62
     5
  0
POLYLINE
  8
DETAIL
  6
CONTINUOUS
 62
     5
 66
     1
 10
0.0
 20
0.0
 30
0.0
  0
VERTEX
  8
DETAIL
  6
CONTINUOUS
 62
     5
 10
273.28759250015719
 20
1830.7777772792369
 30
0.0
  0
VERTEX
  8
DETAIL
  6
CONTINUOUS
 62
     5
 10
273.37537911850558
 20
1830.804967173792
 30
0.0
  0
VERTEX
  8
DETAIL
  6
CONTINUOUS
 62
     5
 10
273.46415700337076
 20
1830.8289129978878
 30
0.0
  0
VERTEX
  8
DETAIL
  6
CONTINUOUS
 62
     5
 10
273.55389556052904
 20
1830.8495123025061
 30
0.0
  0
VERTEX
  8
DETAIL
  6
CONTINUOUS
 62
     5
 10
273.64444298749902
 20
1830.8666909870494
 30
0.0
  0
VERTEX
  8
DETAIL
  6
CONTINUOUS
 62
     5
 10
273.73561428125311
 20
1830.8803827159252
 30
0.0
  0
VERTEX
  8
DETAIL
  6
CONTINUOUS
 62
     5
 10
273.82722443790459
 20
1830.8905211537426
 30
0.0
  0
VERTEX
  8
DETAIL
  6
CONTINUOUS
 62
     5
 10
273.91908845356693
 20
1830.8970399651105
 30
0.0
  0
VERTEX
  8
DETAIL
  6
CONTINUOUS
 62
     5
 10
274.01102132435329
 20
1830.899872814638
 30
0.0
  0
SEQEND
  8
DETAIL
  6
CONTINUOUS
 62
     5
  0
POLYLINE
  8
DETAIL
  6
CONTINUOUS
 62
     5
 66
     1
 10
0.0
 20
0.0
 30
0.0
  0
VERTEX
  8
DETAIL
  6
CONTINUOUS
 62
     5
 10
-274.2292664891429
 20
1828.7551543565371
 30
0.0
  0
VERTEX
  8
DETAIL
  6
CONTINUOUS
 62
     5
 10
-274.31656106232185
 20
1828.8357521625096
 30
0.0
  0
VERTEX
  8
DETAIL
  6
CONTINUOUS
 62
     5
 10
-274.40540299099223
 20
1828.9146373429974
 30
0.0
  0
VERTEX
  8
DETAIL
  6
CONTINUOUS
 62
     5
 10
-274.49619489100337
 20
1828.9912406641358
 30
0.0
  0
VERTEX
  8
DETAIL
  6
CONTINUOUS
 62
     5
 10
-274.58930036467018
 20
1829.0650298585788
 30
0.0
  0
VERTEX
  8
DETAIL
  6
CONTINUOUS
 62
     5
 10
-274.68505277959258
 20
1829.135501307057
 30
0.0
  0
VERTEX
  8
DETAIL
  6
CONTINUOUS
 62
     5
 10
-274.78375619229564
 20
1829.2020224753819
 30
0.0
  0
VERTEX
  8
DETAIL
  6
CONTINUOUS
 62
     5
 10
-274.8856045465476
 20
1829.2634602417247
 30
0.0
  0
VERTEX
  8
DETAIL
  6
CONTINUOUS
 62
     5
 10
-274.99076545108267
 20
1829.3185604576759
 30
0.0
  0
VERTEX
  8
DETAIL
  6
CONTINUOUS
 62
     5
 10
-275.09965224310741
 20
1829.3658175885134
 30
0.0
  0
VERTEX
  8
DETAIL
  6
CONTINUOUS
 62
     5
 10
-275.21330120746285
 20
1829.4026514744646
 30
0.0
  0
VERTEX
  8
DETAIL
  6
CONTINUOUS
 62
     5
 10
-275.33095616454369
 20
1829.4188021534369
 30
0.0
  0
SEQEND
  8
DETAIL
  6
CONTINUOUS
 62
     5
  0
POLYLINE
  8
DETAIL
  6
CONTINUOUS
 62
     5
 66
     1
 10
0.0
 20
0.0
 30
0.0
  0
VERTEX
  8
DETAIL
  6
CONTINUOUS
 62
     5
 10
-272.47430603203981
 20
1825.7821054829369
 30
0.0
  0
VERTEX
  8
DETAIL
  6
CONTINUOUS
 62
     5
 10
-272.47504295553762
 20
1825.9029673477153
 30
0.0
  0
VERTEX
  8
DETAIL
  6
CONTINUOUS
 62
     5
 10
-272.47760785521547
 20
1826.0237849494063
 30
0.0
  0
VERTEX
  8
DETAIL
  6
CONTINUOUS
 62
     5
 10
-272.48253192484992
 20
1826.1445898389547
 30
0.0
  0
VERTEX
  8
DETAIL
  6
CONTINUOUS
 62
     5
 10
-272.49034635821783
 20
1826.2654135673085
 30
0.0
  0
VERTEX
  8
DETAIL
  6
CONTINUOUS
 62
     5
 10
-272.50172808868496
 20
1826.3861786884111
 30
0.0
  0
VERTEX
  8
DETAIL
  6
CONTINUOUS
 62
     5
 10
-272.51797218826954
 20
1826.5063454572519
 30
0.0
  0
VERTEX
  8
DETAIL
  6
CONTINUOUS
 62
     5
 10
-272.54053758307197
 20
1826.6252515841938
 30
0.0
  0
VERTEX
  8
DETAIL
  6
CONTINUOUS
 62
     5
 10
-272.57088320034381
 20
1826.7422347787381
 30
0.0
  0
SEQEND
  8
DETAIL
  6
CONTINUOUS
 62
     5
  0
POLYLINE
  8
DETAIL
  6
CONTINUOUS
 62
     5
 66
     1
 10
0.0
 20
0.0
 30
0.0
  0
VERTEX
  8
DETAIL
  6
CONTINUOUS
 62
     5
 10
-275.33095718063851
 20
1820.181197846437
 30
0.0
  0
VERTEX
  8
DETAIL
  6
CONTINUOUS
 62
     5
 10
-275.21331085158079
 20
1820.1973826662932
 30
0.0
  0
VERTEX
  8
DETAIL
  6
CONTINUOUS
 62
     5
 10
-275.0996509365757
 20
1820.2342085905857
 30
0.0
  0
VERTEX
  8
DETAIL
  6
CONTINUOUS
 62
     5
 10
-274.99073419931807
 20
1820.2813910545437
 30
0.0
  0
VERTEX
  8
DETAIL
  6
CONTINUOUS
 62
     5
 10
-274.88556907692936
 20
1820.3364700233528
 30
0.0
  0
VERTEX
  8
DETAIL
  6
CONTINUOUS
 62
     5
 10
-274.78373828530107
 20
1820.3979391330511
 30
0.0
  0
VERTEX
  8
DETAIL
  6
CONTINUOUS
 62
     5
 10
-274.68505417852737
 20
1820.4644996415677
 30
0.0
  0
VERTEX
  8
DETAIL
  6
CONTINUOUS
 62
     5
 10
-274.58930755180012
 20
1820.5349835092479
 30
0.0
  0
VERTEX
  8
DETAIL
  6
CONTINUOUS
 62
     5
 10
-274.4961985297391
 20
1820.6087657039316
 30
0.0
  0
VERTEX
  8
DETAIL
  6
CONTINUOUS
 62
     5
 10
-274.40540273750793
 20
1820.6853613896424
 30
0.0
  0
VERTEX
  8
DETAIL
  6
CONTINUOUS
 62
     5
 10
-274.31656049391194
 20
1820.7642463819027
 30
0.0
  0
VERTEX
  8
DETAIL
  6
CONTINUOUS
 62
     5
 10
-274.2292664891429
 20
1820.8448456432379
 30
0.0
  0
SEQEND
  8
DETAIL
  6
CONTINUOUS
 62
     5
  0
POLYLINE
  8
DETAIL
  6
CONTINUOUS
 62
     5
 66
     1
 10
0.0
 20
0.0
 30
0.0
  0
VERTEX
  8
DETAIL
  6
CONTINUOUS
 62
     5
 10
-273.18199147623818
 20
1821.826951126337
 30
0.0
  0
VERTEX
  8
DETAIL
  6
CONTINUOUS
 62
     5
 10
-273.12901113270613
 20
1821.8770249103561
 30
0.0
  0
VERTEX
  8
DETAIL
  6
CONTINUOUS
 62
     5
 10
-273.07656406957477
 20
1821.9276968906274
 30
0.0
  0
VERTEX
  8
DETAIL
  6
CONTINUOUS
 62
     5
 10
-273.02493185345259
 20
1821.9791796008813
 30
0.0
  0
VERTEX
  8
DETAIL
  6
CONTINUOUS
 62
     5
 10
-272.97439605094831
 20
1822.0316855748465
 30
0.0
  0
VERTEX
  8
DETAIL
  6
CONTINUOUS
 62
     5
 10
-272.92523839782643
 20
1822.0854275078893
 30
0.0
  0
VERTEX
  8
DETAIL
  6
CONTINUOUS
 62
     5
 10
-272.8778743498977
 20
1822.1407458711033
 30
0.0
  0
VERTEX
  8
DETAIL
  6
CONTINUOUS
 62
     5
 10
-272.83309306740676
 20
1822.19833822756
 30
0.0
  0
VERTEX
  8
DETAIL
  6
CONTINUOUS
 62
     5
 10
-272.7922421963811
 20
1822.2590270305536
 30
0.0
  0
VERTEX
  8
DETAIL
  6
CONTINUOUS
 62
     5
 10
-272.75923181293911
 20
1822.3239616644371
 30
0.0
  0
SEQEND
  8
DETAIL
  6
CONTINUOUS
 62
     5
  0
POLYLINE
  8
DETAIL
  6
CONTINUOUS
 62
     5
 66
     1
 10
0.0
 20
0.0
 30
0.0
  0
VERTEX
  8
DETAIL
  6
CONTINUOUS
 62
     5
 10
-274.5419632048434
 20
1818.7336241031369
 30
0.0
  0
VERTEX
  8
DETAIL
  6
CONTINUOUS
 62
     5
 10
-274.59013713160374
 20
1818.742385359822
 30
0.0
  0
VERTEX
  8
DETAIL
  6
CONTINUOUS
 62
     5
 10
-274.63813848470835
 20
1818.7521323259643
 30
0.0
  0
VERTEX
  8
DETAIL
  6
CONTINUOUS
 62
     5
 10
-274.68594293777443
 20
1818.7628503463966
 30
0.0
  0
VERTEX
  8
DETAIL
  6
CONTINUOUS
 62
     5
 10
-274.73352616441895
 20
1818.7745247659509
 30
0.0
  0
VERTEX
  8
DETAIL
  6
CONTINUOUS
 62
     5
 10
-274.78086383825894
 20
1818.7871409294598
 30
0.0
  0
VERTEX
  8
DETAIL
  6
CONTINUOUS
 62
     5
 10
-274.82793163294315
 20
1818.8006841817576
 30
0.0
  0
VERTEX
  8
DETAIL
  6
CONTINUOUS
 62
     5
 10
-274.8747093287771
 20
1818.8151400196703
 30
0.0
  0
VERTEX
  8
DETAIL
  6
CONTINUOUS
 62
     5
 10
-274.92119216913852
 20
1818.8304945123371
 30
0.0
  0
SEQEND
  8
DETAIL
  6
CONTINUOUS
 62
     5
  0
POLYLINE
  8
DETAIL
  6
CONTINUOUS
 62
     5
 66
     1
 10
0.0
 20
0.0
 30
0.0
  0
VERTEX
  8
DETAIL
  6
CONTINUOUS
 62
     5
 10
-279.44995002804347
 20
1821.826951126337
 30
0.0
  0
VERTEX
  8
DETAIL
  6
CONTINUOUS
 62
     5
 10
-279.50287330481353
 20
1821.8769681877798
 30
0.0
  0
VERTEX
  8
DETAIL
  6
CONTINUOUS
 62
     5
 10
-279.55526607279575
 20
1821.9275806467417
 30
0.0
  0
VERTEX
  8
DETAIL
  6
CONTINUOUS
 62
     5
 10
-279.60684596869436
 20
1821.979001814015
 30
0.0
  0
VERTEX
  8
DETAIL
  6
CONTINUOUS
 62
     5
 10
-279.65733062921322
 20
1822.0314450003916
 30
0.0
  0
VERTEX
  8
DETAIL
  6
CONTINUOUS
 62
     5
 10
-279.70643752303221
 20
1822.0851236784129
 30
0.0
  0
VERTEX
  8
DETAIL
  6
CONTINUOUS
 62
     5
 10
-279.75375479552753
 20
1822.1403758136807
 30
0.0
  0
VERTEX
  8
DETAIL
  6
CONTINUOUS
 62
     5
 10
-279.79851044043301
 20
1822.197886071729
 30
0.0
  0
VERTEX
  8
DETAIL
  6
CONTINUOUS
 62
     5
 10
-279.83937436515663
 20
1822.2584661471928
 30
0.0
  0
VERTEX
  8
DETAIL
  6
CONTINUOUS
 62
     5
 10
-279.87245389214507
 20
1822.323274762437
 30
0.0
  0
SEQEND
  8
DETAIL
  6
CONTINUOUS
 62
     5
  0
POLYLINE
  8
DETAIL
  6
CONTINUOUS
 62
     5
 66
     1
 10
0.0
 20
0.0
 30
0.0
  0
VERTEX
  8
DETAIL
  6
CONTINUOUS
 62
     5
 10
-277.3009841465464
 20
1820.181197846437
 30
0.0
  0
VERTEX
  8
DETAIL
  6
CONTINUOUS
 62
     5
 10
-277.41864071169977
 20
1820.1973424449297
 30
0.0
  0
VERTEX
  8
DETAIL
  6
CONTINUOUS
 62
     5
 10
-277.53229188649959
 20
1820.2341677950915
 30
0.0
  0
VERTEX
  8
DETAIL
  6
CONTINUOUS
 62
     5
 10
-277.64117977136283
 20
1820.2814242713841
 30
0.0
  0
VERTEX
  8
DETAIL
  6
CONTINUOUS
 62
     5
 10
-277.7463383133653
 20
1820.336529997935
 30
0.0
  0
VERTEX
  8
DETAIL
  6
CONTINUOUS
 62
     5
 10
-277.84818248008133
 20
1820.3979754574204
 30
0.0
  0
VERTEX
  8
DETAIL
  6
CONTINUOUS
 62
     5
 10
-277.94688308238119
 20
1820.4645020437467
 30
0.0
  0
VERTEX
  8
DETAIL
  6
CONTINUOUS
 62
     5
 10
-278.04263631028755
 20
1820.5349735226414
 30
0.0
  0
VERTEX
  8
DETAIL
  6
CONTINUOUS
 62
     5
 10
-278.13574450077266
 20
1820.6087598569629
 30
0.0
  0
VERTEX
  8
DETAIL
  6
CONTINUOUS
 62
     5
 10
-278.22653832327399
 20
1820.6853613180522
 30
0.0
  0
VERTEX
  8
DETAIL
  6
CONTINUOUS
 62
     5
 10
-278.31538048191533
 20
1820.7642469763045
 30
0.0
  0
VERTEX
  8
DETAIL
  6
CONTINUOUS
 62
     5
 10
-278.40267501514609
 20
1820.8448456432379
 30
0.0
  0
SEQEND
  8
DETAIL
  6
CONTINUOUS
 62
     5
  0
POLYLINE
  8
DETAIL
  6
CONTINUOUS
 62
     5
 66
     1
 10
0.0
 20
0.0
 30
0.0
  0
VERTEX
  8
DETAIL
  6
CONTINUOUS
 62
     5
 10
-273.36093042614078
 20
1830.899999999938
 30
0.0
  0
VERTEX
  8
DETAIL
  6
CONTINUOUS
 62
     5
 10
-272.71458212353434
 20
1830.8087460442218
 30
0.0
  0
VERTEX
  8
DETAIL
  6
CONTINUOUS
 62
     5
 10
-272.11355270414265
 20
1830.553550296029
 30
0.0
  0
VERTEX
  8
DETAIL
  6
CONTINUOUS
 62
     5
 10
-271.58299869764994
 20
1830.1731563034118
 30
0.0
  0
VERTEX
  8
DETAIL
  6
CONTINUOUS
 62
     5
 10
-271.12810970433156
 20
1829.7047297364106
 30
0.0
  0
VERTEX
  8
DETAIL
  6
CONTINUOUS
 62
     5
 10
-270.74489336793295
 20
1829.1762510300944
 30
0.0
  0
VERTEX
  8
DETAIL
  6
CONTINUOUS
 62
     5
 10
-270.42577124808128
 20
1828.6065194699597
 30
0.0
  0
VERTEX
  8
DETAIL
  6
CONTINUOUS
 62
     5
 10
-270.16528305383224
 20
1828.0063695987469
 30
0.0
  0
VERTEX
  8
DETAIL
  6
CONTINUOUS
 62
     5
 10
-269.95882565216027
 20
1827.3840741695972
 30
0.0
  0
VERTEX
  8
DETAIL
  6
CONTINUOUS
 62
     5
 10
-269.80191139616289
 20
1826.7477188361202
 30
0.0
  0
VERTEX
  8
DETAIL
  6
CONTINUOUS
 62
     5
 10
-269.69172660075162
 20
1826.1026956698256
 30
0.0
  0
VERTEX
  8
DETAIL
  6
CONTINUOUS
 62
     5
 10
-269.62672590597487
 20
1825.4523558725602
 30
0.0
  0
VERTEX
  8
DETAIL
  6
CONTINUOUS
 62
     5
 10
-269.60539542664628
 20
1824.799999999937
 30
0.0
  0
SEQEND
  8
DETAIL
  6
CONTINUOUS
 62
     5
  0
POLYLINE
  8
DETAIL
  6
CONTINUOUS
 62
     5
 66
     1
 10
0.0
 20
0.0
 30
0.0
  0
VERTEX
  8
DETAIL
  6
CONTINUOUS
 62
     5
 10
-280.15763547224202
 20
1825.7821054829369
 30
0.0
  0
VERTEX
  8
DETAIL
  6
CONTINUOUS
 62
     5
 10
-280.1568989150179
 20
1825.9029662041789
 30
0.0
  0
VERTEX
  8
DETAIL
  6
CONTINUOUS
 62
     5
 10
-280.15433496091066
 20
1826.0237826760813
 30
0.0
  0
VERTEX
  8
DETAIL
  6
CONTINUOUS
 62
     5
 10
-280.14941218626757
 20
1826.1445864459004
 30
0.0
  0
VERTEX
  8
DETAIL
  6
CONTINUOUS
 62
     5
 10
-280.14159916743614
 20
1826.2654090608935
 30
0.0
  0
VERTEX
  8
DETAIL
  6
CONTINUOUS
 62
     5
 10
-280.13021884196525
 20
1826.3861731211484
 30
0.0
  0
VERTEX
  8
DETAIL
  6
CONTINUOUS
 62
     5
 10
-280.11397614422094
 20
1826.5063389207098
 30
0.0
  0
VERTEX
  8
DETAIL
  6
CONTINUOUS
 62
     5
 10
-280.09141211310606
 20
1826.6252441492938
 30
0.0
  0
VERTEX
  8
DETAIL
  6
CONTINUOUS
 62
     5
 10
-280.06106778634421
 20
1826.742226495737
 30
0.0
  0
SEQEND
  8
DETAIL
  6
CONTINUOUS
 62
     5
  0
POLYLINE
  8
DETAIL
  6
CONTINUOUS
 62
     5
 66
     1
 10
0.0
 20
0.0
 30
0.0
  0
VERTEX
  8
DETAIL
  6
CONTINUOUS
 62
     5
 10
-278.40267501514609
 20
1828.7551543565371
 30
0.0
  0
VERTEX
  8
DETAIL
  6
CONTINUOUS
 62
     5
 10
-278.31538009382962
 20
1828.8357518460107
 30
0.0
  0
VERTEX
  8
DETAIL
  6
CONTINUOUS
 62
     5
 10
-278.22653798254669
 20
1828.9146371790441
 30
0.0
  0
VERTEX
  8
DETAIL
  6
CONTINUOUS
 62
     5
 10
-278.1357466534198
 20
1828.9912429662211
 30
0.0
  0
VERTEX
  8
DETAIL
  6
CONTINUOUS
 62
     5
 10
-278.04264109598228
 20
1829.0650336745814
 30
0.0
  0
VERTEX
  8
DETAIL
  6
CONTINUOUS
 62
     5
 10
-277.94688501765216
 20
1829.1354984850159
 30
0.0
  0
VERTEX
  8
DETAIL
  6
CONTINUOUS
 62
     5
 10
-277.84817326795951
 20
1829.2020025676948
 30
0.0
  0
VERTEX
  8
DETAIL
  6
CONTINUOUS
 62
     5
 10
-277.74631830903633
 20
1829.2634286618152
 30
0.0
  0
VERTEX
  8
DETAIL
  6
CONTINUOUS
 62
     5
 10
-277.64116081654623
 20
1829.3185425651948
 30
0.0
  0
VERTEX
  8
DETAIL
  6
CONTINUOUS
 62
     5
 10
-277.53228858530997
 20
1829.3658371508614
 30
0.0
  0
VERTEX
  8
DETAIL
  6
CONTINUOUS
 62
     5
 10
-277.41864417963444
 20
1829.4026712050534
 30
0.0
  0
VERTEX
  8
DETAIL
  6
CONTINUOUS
 62
     5
 10
-277.30098411084327
 20
1829.4188021534369
 30
0.0
  0
SEQEND
  8
DETAIL
  6
CONTINUOUS
 62
     5
  0
POLYLINE
  8
DETAIL
  6
CONTINUOUS
 62
     5
 66
     1
 10
0.0
 20
0.0
 30
0.0
  0
VERTEX
  8
DETAIL
  6
CONTINUOUS
 62
     5
 10
-277.24178157584538
 20
1829.488412458137
 30
0.0
  0
VERTEX
  8
DETAIL
  6
CONTINUOUS
 62
     5
 10
-277.06795935004897
 20
1829.700730379433
 30
0.0
  0
VERTEX
  8
DETAIL
  6
CONTINUOUS
 62
     5
 10
-276.88100486175267
 20
1829.9018499798283
 30
0.0
  0
VERTEX
  8
DETAIL
  6
CONTINUOUS
 62
     5
 10
-276.68051332065494
 20
1830.0895724448199
 30
0.0
  0
VERTEX
  8
DETAIL
  6
CONTINUOUS
 62
     5
 10
-276.46628655155712
 20
1830.2615270390995
 30
0.0
  0
VERTEX
  8
DETAIL
  6
CONTINUOUS
 62
     5
 10
-276.2385654252754
 20
1830.4149777048674
 30
0.0
  0
VERTEX
  8
DETAIL
  6
CONTINUOUS
 62
     5
 10
-275.99771338134497
 20
1830.5471085101969
 30
0.0
  0
VERTEX
  8
DETAIL
  6
CONTINUOUS
 62
     5
 10
-275.74488630219685
 20
1830.654707969222
 30
0.0
  0
VERTEX
  8
DETAIL
  6
CONTINUOUS
 62
     5
 10
-275.48177144920538
 20
1830.7343121807758
 30
0.0
  0
VERTEX
  8
DETAIL
  6
CONTINUOUS
 62
     5
 10
-275.2110128449645
 20
1830.7831576805349
 30
0.0
  0
VERTEX
  8
DETAIL
  6
CONTINUOUS
 62
     5
 10
-274.93695193334128
 20
1830.7997438206371
 30
0.0
  0
SEQEND
  8
DETAIL
  6
CONTINUOUS
 62
     5
  0
POLYLINE
  8
DETAIL
  6
CONTINUOUS
 62
     5
 66
     1
 10
0.0
 20
0.0
 30
0.0
  0
VERTEX
  8
DETAIL
  6
CONTINUOUS
 62
     5
 10
-274.93695193334128
 20
1818.800256179137
 30
0.0
  0
VERTEX
  8
DETAIL
  6
CONTINUOUS
 62
     5
 10
-275.21101284496444
 20
1818.816842319261
 30
0.0
  0
VERTEX
  8
DETAIL
  6
CONTINUOUS
 62
     5
 10
-275.48177144920544
 20
1818.8656878190618
 30
0.0
  0
VERTEX
  8
DETAIL
  6
CONTINUOUS
 62
     5
 10
-275.74488630219679
 20
1818.945292030643
 30
0.0
  0
VERTEX
  8
DETAIL
  6
CONTINUOUS
 62
     5
 10
-275.99771338134508
 20
1819.0528914896761
 30
0.0
  0
VERTEX
  8
DETAIL
  6
CONTINUOUS
 62
     5
 10
-276.2385654252754
 20
1819.1850222950063
 30
0.0
  0
VERTEX
  8
DETAIL
  6
CONTINUOUS
 62
     5
 10
-276.46628655155712
 20
1819.338472960771
 30
0.0
  0
VERTEX
  8
DETAIL
  6
CONTINUOUS
 62
     5
 10
-276.68051332065494
 20
1819.5104275550366
 30
0.0
  0
VERTEX
  8
DETAIL
  6
CONTINUOUS
 62
     5
 10
-276.88100486175273
 20
1819.6981500199968
 30
0.0
  0
VERTEX
  8
DETAIL
  6
CONTINUOUS
 62
     5
 10
-277.06795935004902
 20
1819.8992696203572
 30
0.0
  0
VERTEX
  8
DETAIL
  6
CONTINUOUS
 62
     5
 10
-277.24178157584538
 20
1820.1115875416369
 30
0.0
  0
SEQEND
  8
DETAIL
  6
CONTINUOUS
 62
     5
  0
POLYLINE
  8
DETAIL
  6
CONTINUOUS
 62
     5
 66
     1
 10
0.0
 20
0.0
 30
0.0
  0
VERTEX
  8
DETAIL
  6
CONTINUOUS
 62
     5
 10
-272.75942302054318
 20
1827.2764352571371
 30
0.0
  0
VERTEX
  8
DETAIL
  6
CONTINUOUS
 62
     5
 10
-272.79246869471882
 20
1827.3412990275056
 30
0.0
  0
VERTEX
  8
DETAIL
  6
CONTINUOUS
 62
     5
 10
-272.83329372746596
 20
1827.4019394300371
 30
0.0
  0
VERTEX
  8
DETAIL
  6
CONTINUOUS
 62
     5
 10
-272.87805410982679
 20
1827.4594837805589
 30
0.0
  0
VERTEX
  8
DETAIL
  6
CONTINUOUS
 62
     5
 10
-272.92540166869446
 20
1827.5147547807528
 30
0.0
  0
VERTEX
  8
DETAIL
  6
CONTINUOUS
 62
     5
 10
-272.97453634638458
 20
1827.5684539009694
 30
0.0
  0
VERTEX
  8
DETAIL
  6
CONTINUOUS
 62
     5
 10
-273.02504162072137
 20
1827.6209217272155
 30
0.0
  0
VERTEX
  8
DETAIL
  6
CONTINUOUS
 62
     5
 10
-273.07663846638485
 20
1827.6723694690468
 30
0.0
  0
VERTEX
  8
DETAIL
  6
CONTINUOUS
 62
     5
 10
-273.12904803451158
 20
1827.7230081699811
 30
0.0
  0
VERTEX
  8
DETAIL
  6
CONTINUOUS
 62
     5
 10
-273.18199147623818
 20
1827.7730488735381
 30
0.0
  0
SEQEND
  8
DETAIL
  6
CONTINUOUS
 62
     5
  0
POLYLINE
  8
DETAIL
  6
CONTINUOUS
 62
     5
 66
     1
 10
0.0
 20
0.0
 30
0.0
  0
VERTEX
  8
DETAIL
  6
CONTINUOUS
 62
     5
 10
-272.57083185554069
 20
1822.8579811362381
 30
0.0
  0
VERTEX
  8
DETAIL
  6
CONTINUOUS
 62
     5
 10
-272.54050502619776
 20
1822.9749406934809
 30
0.0
  0
VERTEX
  8
DETAIL
  6
CONTINUOUS
 62
     5
 10
-272.51795184345218
 20
1823.0938208011999
 30
0.0
  0
VERTEX
  8
DETAIL
  6
CONTINUOUS
 62
     5
 10
-272.50171526441636
 20
1823.2139600791577
 30
0.0
  0
VERTEX
  8
DETAIL
  6
CONTINUOUS
 62
     5
 10
-272.49033824736404
 20
1823.3346971479843
 30
0.0
  0
VERTEX
  8
DETAIL
  6
CONTINUOUS
 62
     5
 10
-272.482527296905
 20
1823.4554930101538
 30
0.0
  0
VERTEX
  8
DETAIL
  6
CONTINUOUS
 62
     5
 10
-272.47760576920007
 20
1823.5762702586114
 30
0.0
  0
VERTEX
  8
DETAIL
  6
CONTINUOUS
 62
     5
 10
-272.47504242674603
 20
1823.6970602939682
 30
0.0
  0
VERTEX
  8
DETAIL
  6
CONTINUOUS
 62
     5
 10
-272.47430603203981
 20
1823.817894516837
 30
0.0
  0
SEQEND
  8
DETAIL
  6
CONTINUOUS
 62
     5
  0
POLYLINE
  8
DETAIL
  6
CONTINUOUS
 62
     5
 66
     1
 10
0.0
 20
0.0
 30
0.0
  0
VERTEX
  8
DETAIL
  6
CONTINUOUS
 62
     5
 10
-280.06103306294239
 20
1822.857681012538
 30
0.0
  0
VERTEX
  8
DETAIL
  6
CONTINUOUS
 62
     5
 10
-280.09138918699426
 20
1822.9746727976292
 30
0.0
  0
VERTEX
  8
DETAIL
  6
CONTINUOUS
 62
     5
 10
-280.1139617509026
 20
1823.0935888588053
 30
0.0
  0
VERTEX
  8
DETAIL
  6
CONTINUOUS
 62
     5
 10
-280.13021035424913
 20
1823.2137663819942
 30
0.0
  0
VERTEX
  8
DETAIL
  6
CONTINUOUS
 62
     5
 10
-280.14159459542407
 20
1823.3345425540126
 30
0.0
  0
VERTEX
  8
DETAIL
  6
CONTINUOUS
 62
     5
 10
-280.14941009037693
 20
1823.4553772828026
 30
0.0
  0
VERTEX
  8
DETAIL
  6
CONTINUOUS
 62
     5
 10
-280.1543342408998
 20
1823.5761931352076
 30
0.0
  0
VERTEX
  8
DETAIL
  6
CONTINUOUS
 62
     5
 10
-280.1568987878893
 20
1823.6970216877212
 30
0.0
  0
VERTEX
  8
DETAIL
  6
CONTINUOUS
 62
     5
 10
-280.15763547224202
 20
1823.817894516837
 30
0.0
  0
SEQEND
  8
DETAIL
  6
CONTINUOUS
 62
     5
  0
POLYLINE
  8
DETAIL
  6
CONTINUOUS
 62
     5
 66
     1
 10
0.0
 20
0.0
 30
0.0
  0
VERTEX
  8
DETAIL
  6
CONTINUOUS
 62
     5
 10
-279.87242513744422
 20
1827.276736565537
 30
0.0
  0
VERTEX
  8
DETAIL
  6
CONTINUOUS
 62
     5
 10
-279.83934906906035
 20
1827.3415448022779
 30
0.0
  0
VERTEX
  8
DETAIL
  6
CONTINUOUS
 62
     5
 10
-279.79849983476527
 20
1827.4021294404113
 30
0.0
  0
VERTEX
  8
DETAIL
  6
CONTINUOUS
 62
     5
 10
-279.75374798215699
 20
1827.4596382570298
 30
0.0
  0
VERTEX
  8
DETAIL
  6
CONTINUOUS
 62
     5
 10
-279.70642774195159
 20
1827.5148855147695
 30
0.0
  0
VERTEX
  8
DETAIL
  6
CONTINUOUS
 62
     5
 10
-279.65731949862686
 20
1827.5685604102205
 30
0.0
  0
VERTEX
  8
DETAIL
  6
CONTINUOUS
 62
     5
 10
-279.60683637107684
 20
1827.6210015217787
 30
0.0
  0
VERTEX
  8
DETAIL
  6
CONTINUOUS
 62
     5
 10
-279.55525966206119
 20
1827.6724215866564
 30
0.0
  0
VERTEX
  8
DETAIL
  6
CONTINUOUS
 62
     5
 10
-279.50287050368257
 20
1827.7230331791459
 30
0.0
  0
VERTEX
  8
DETAIL
  6
CONTINUOUS
 62
     5
 10
-279.44995002804347
 20
1827.7730488735381
 30
0.0
  0
SEQEND
  8
DETAIL
  6
CONTINUOUS
 62
     5
  0
POLYLINE
  8
DETAIL
  6
CONTINUOUS
 62
     5
 66
     1
 10
0.0
 20
0.0
 30
0.0
  0
VERTEX
  8
DETAIL
  6
CONTINUOUS
 62
     5
 10
-269.60539542664628
 20
1824.799999999937
 30
0.0
  0
VERTEX
  8
DETAIL
  6
CONTINUOUS
 62
     5
 10
-269.62672590597487
 20
1824.1476441273044
 30
0.0
  0
VERTEX
  8
DETAIL
  6
CONTINUOUS
 62
     5
 10
-269.69172660075168
 20
1823.4973043300186
 30
0.0
  0
VERTEX
  8
DETAIL
  6
CONTINUOUS
 62
     5
 10
-269.80191139616289
 20
1822.8522811637044
 30
0.0
  0
VERTEX
  8
DETAIL
  6
CONTINUOUS
 62
     5
 10
-269.95882565216033
 20
1822.2159258302229
 30
0.0
  0
VERTEX
  8
DETAIL
  6
CONTINUOUS
 62
     5
 10
-270.16528305383224
 20
1821.5936304010843
 30
0.0
  0
VERTEX
  8
DETAIL
  6
CONTINUOUS
 62
     5
 10
-270.42577124808122
 20
1820.9934805298803
 30
0.0
  0
VERTEX
  8
DETAIL
  6
CONTINUOUS
 62
     5
 10
-270.74489336793289
 20
1820.4237489697339
 30
0.0
  0
VERTEX
  8
DETAIL
  6
CONTINUOUS
 62
     5
 10
-271.12810970433162
 20
1819.8952702633833
 30
0.0
  0
VERTEX
  8
DETAIL
  6
CONTINUOUS
 62
     5
 10
-271.58299869764994
 20
1819.4268436963637
 30
0.0
  0
VERTEX
  8
DETAIL
  6
CONTINUOUS
 62
     5
 10
-272.11355270414265
 20
1819.0464497037458
 30
0.0
  0
VERTEX
  8
DETAIL
  6
CONTINUOUS
 62
     5
 10
-272.7145821235344
 20
1818.79125395559
 30
0.0
  0
VERTEX
  8
DETAIL
  6
CONTINUOUS
 62
     5
 10
-273.36093042614078
 20
1818.6999999999371
 30
0.0
  0
SEQEND
  8
DETAIL
  6
CONTINUOUS
 62
     5
  0
POLYLINE
  8
DETAIL
  6
CONTINUOUS
 62
     5
 66
     1
 10
0.0
 20
0.0
 30
0.0
  0
VERTEX
  8
DETAIL
  6
CONTINUOUS
 62
     5
 10
-274.92119216913852
 20
1830.7695054874371
 30
0.0
  0
VERTEX
  8
DETAIL
  6
CONTINUOUS
 62
     5
 10
-274.8747093287771
 20
1830.7848599801039
 30
0.0
  0
VERTEX
  8
DETAIL
  6
CONTINUOUS
 62
     5
 10
-274.82793163294315
 20
1830.7993158180163
 30
0.0
  0
VERTEX
  8
DETAIL
  6
CONTINUOUS
 62
     5
 10
-274.78086383825888
 20
1830.8128590703141
 30
0.0
  0
VERTEX
  8
DETAIL
  6
CONTINUOUS
 62
     5
 10
-274.733526164419
 20
1830.8254752338271
 30
0.0
  0
VERTEX
  8
DETAIL
  6
CONTINUOUS
 62
     5
 10
-274.68594293777443
 20
1830.8371496533898
 30
0.0
  0
VERTEX
  8
DETAIL
  6
CONTINUOUS
 62
     5
 10
-274.63813848470841
 20
1830.8478676738396
 30
0.0
  0
VERTEX
  8
DETAIL
  6
CONTINUOUS
 62
     5
 10
-274.59013713160374
 20
1830.8576146400105
 30
0.0
  0
VERTEX
  8
DETAIL
  6
CONTINUOUS
 62
     5
 10
-274.5419632048434
 20
1830.866375896738
 30
0.0
  0
SEQEND
  8
DETAIL
  6
CONTINUOUS
 62
     5
  0
POLYLINE
  8
DETAIL
  6
CONTINUOUS
 62
     5
 66
     1
 10
0.0
 20
0.0
 30
0.0
  0
VERTEX
  8
DETAIL
  6
CONTINUOUS
 62
     5
 10
-274.83833826134651
 20
1827.1094010766369
 30
0.0
  0
VERTEX
  8
DETAIL
  6
CONTINUOUS
 62
     5
 10
-274.94446801642158
 20
1827.0711837491081
 30
0.0
  0
VERTEX
  8
DETAIL
  6
CONTINUOUS
 62
     5
 10
-275.02510420627891
 20
1826.9892338419129
 30
0.0
  0
VERTEX
  8
DETAIL
  6
CONTINUOUS
 62
     5
 10
-275.08025797618012
 20
1826.8911258631613
 30
0.0
  0
VERTEX
  8
DETAIL
  6
CONTINUOUS
 62
     5
 10
-275.12170756101443
 20
1826.7862952595985
 30
0.0
  0
VERTEX
  8
DETAIL
  6
CONTINUOUS
 62
     5
 10
-275.15345237336038
 20
1826.6780692415375
 30
0.0
  0
VERTEX
  8
DETAIL
  6
CONTINUOUS
 62
     5
 10
-275.17754908972933
 20
1826.5679727486088
 30
0.0
  0
VERTEX
  8
DETAIL
  6
CONTINUOUS
 62
     5
 10
-275.19568048285174
 20
1826.4567476623245
 30
0.0
  0
VERTEX
  8
DETAIL
  6
CONTINUOUS
 62
     5
 10
-275.20910335790501
 20
1826.3448522902622
 30
0.0
  0
VERTEX
  8
DETAIL
  6
CONTINUOUS
 62
     5
 10
-275.21878550190138
 20
1826.2325817859214
 30
0.0
  0
VERTEX
  8
DETAIL
  6
CONTINUOUS
 62
     5
 10
-275.22542066072896
 20
1826.1200910692326
 30
0.0
  0
VERTEX
  8
DETAIL
  6
CONTINUOUS
 62
     5
 10
-275.22957772726613
 20
1826.0074774124532
 30
0.0
  0
VERTEX
  8
DETAIL
  6
CONTINUOUS
 62
     5
 10
-275.23172992166468
 20
1825.8947975857518
 30
0.0
  0
VERTEX
  8
DETAIL
  6
CONTINUOUS
 62
     5
 10
-275.23234366963879
 20
1825.7821054829369
 30
0.0
  0
SEQEND
  8
DETAIL
  6
CONTINUOUS
 62
     5
  0
POLYLINE
  8
DETAIL
  6
CONTINUOUS
 62
     5
 66
     1
 10
0.0
 20
0.0
 30
0.0
  0
VERTEX
  8
DETAIL
  6
CONTINUOUS
 62
     5
 10
-271.24298308134161
 20
1824.799999999937
 30
0.0
  0
VERTEX
  8
DETAIL
  6
CONTINUOUS
 62
     5
 10
-271.2639623061674
 20
1824.1583418074026
 30
0.0
  0
VERTEX
  8
DETAIL
  6
CONTINUOUS
 62
     5
 10
-271.32789259608808
 20
1823.5186664054081
 30
0.0
  0
VERTEX
  8
DETAIL
  6
CONTINUOUS
 62
     5
 10
-271.43626287426946
 20
1822.8842195142588
 30
0.0
  0
VERTEX
  8
DETAIL
  6
CONTINUOUS
 62
     5
 10
-271.59059314136181
 20
1822.2582967274245
 30
0.0
  0
VERTEX
  8
DETAIL
  6
CONTINUOUS
 62
     5
 10
-271.79365554565777
 20
1821.6462030857565
 30
0.0
  0
VERTEX
  8
DETAIL
  6
CONTINUOUS
 62
     5
 10
-272.04987474833706
 20
1821.0558955838974
 30
0.0
  0
VERTEX
  8
DETAIL
  6
CONTINUOUS
 62
     5
 10
-272.36378939161807
 20
1820.495515415854
 30
0.0
  0
VERTEX
  8
DETAIL
  6
CONTINUOUS
 62
     5
 10
-272.74076967229229
 20
1819.9757319043067
 30
0.0
  0
VERTEX
  8
DETAIL
  6
CONTINUOUS
 62
     5
 10
-273.18823334811714
 20
1819.5150503702769
 30
0.0
  0
VERTEX
  8
DETAIL
  6
CONTINUOUS
 62
     5
 10
-273.71003494072767
 20
1819.1407636981862
 30
0.0
  0
VERTEX
  8
DETAIL
  6
CONTINUOUS
 62
     5
 10
-274.30114558098592
 20
1818.8896740703315
 30
0.0
  0
VERTEX
  8
DETAIL
  6
CONTINUOUS
 62
     5
 10
-274.93695193334128
 20
1818.800256179137
 30
0.0
  0
SEQEND
  8
DETAIL
  6
CONTINUOUS
 62
     5
  0
POLYLINE
  8
DETAIL
  6
CONTINUOUS
 62
     5
 66
     1
 10
0.0
 20
0.0
 30
0.0
  0
VERTEX
  8
DETAIL
  6
CONTINUOUS
 62
     5
 10
-276.987304126742
 20
1820.8448456432379
 30
0.0
  0
VERTEX
  8
DETAIL
  6
CONTINUOUS
 62
     5
 10
-277.02863220852663
 20
1820.8058368985455
 30
0.0
  0
VERTEX
  8
DETAIL
  6
CONTINUOUS
 62
     5
 10
-277.06964502885859
 20
1820.7664900953075
 30
0.0
  0
VERTEX
  8
DETAIL
  6
CONTINUOUS
 62
     5
 10
-277.11023686765373
 20
1820.7267110666885
 30
0.0
  0
VERTEX
  8
DETAIL
  6
CONTINUOUS
 62
     5
 10
-277.15030200482761
 20
1820.6864056458521
 30
0.0
  0
VERTEX
  8
DETAIL
  6
CONTINUOUS
 62
     5
 10
-277.18973450138998
 20
1820.6454795372069
 30
0.0
  0
VERTEX
  8
DETAIL
  6
CONTINUOUS
 62
     5
 10
-277.2283881176528
 20
1820.603814741188
 30
0.0
  0
VERTEX
  8
DETAIL
  6
CONTINUOUS
 62
     5
 10
-277.26602952658294
 20
1820.5612420353918
 30
0.0
  0
VERTEX
  8
DETAIL
  6
CONTINUOUS
 62
     5
 10
-277.30237330269267
 20
1820.5175583845964
 30
0.0
  0
VERTEX
  8
DETAIL
  6
CONTINUOUS
 62
     5
 10
-277.33694703884709
 20
1820.4724362279799
 30
0.0
  0
VERTEX
  8
DETAIL
  6
CONTINUOUS
 62
     5
 10
-277.36908240726166
 20
1820.4254787300893
 30
0.0
  0
VERTEX
  8
DETAIL
  6
CONTINUOUS
 62
     5
 10
-277.39719694438372
 20
1820.3760734026059
 30
0.0
  0
VERTEX
  8
DETAIL
  6
CONTINUOUS
 62
     5
 10
-277.41883294202734
 20
1820.3235544297422
 30
0.0
  0
VERTEX
  8
DETAIL
  6
CONTINUOUS
 62
     5
 10
-277.42792592605861
 20
1820.2674560216817
 30
0.0
  0
VERTEX
  8
DETAIL
  6
CONTINUOUS
 62
     5
 10
-277.40707816240223
 20
1820.2154917287567
 30
0.0
  0
VERTEX
  8
DETAIL
  6
CONTINUOUS
 62
     5
 10
-277.35739379662351
 20
1820.1882221717797
 30
0.0
  0
VERTEX
  8
DETAIL
  6
CONTINUOUS
 62
     5
 10
-277.30098411084327
 20
1820.181197846437
 30
0.0
  0
SEQEND
  8
DETAIL
  6
CONTINUOUS
 62
     5
  0
POLYLINE
  8
DETAIL
  6
CONTINUOUS
 62
     5
 66
     1
 10
0.0
 20
0.0
 30
0.0
  0
VERTEX
  8
DETAIL
  6
CONTINUOUS
 62
     5
 10
-274.83833824524481
 20
1822.490598923137
 30
0.0
  0
VERTEX
  8
DETAIL
  6
CONTINUOUS
 62
     5
 10
-274.95599427542879
 20
1822.4744522818096
 30
0.0
  0
VERTEX
  8
DETAIL
  6
CONTINUOUS
 62
     5
 10
-275.069645455179
 20
1822.4376256261123
 30
0.0
  0
VERTEX
  8
DETAIL
  6
CONTINUOUS
 62
     5
 10
-275.17853411252116
 20
1822.3903713955815
 30
0.0
  0
VERTEX
  8
DETAIL
  6
CONTINUOUS
 62
     5
 10
-275.28369318820256
 20
1822.3352672784085
 30
0.0
  0
VERTEX
  8
DETAIL
  6
CONTINUOUS
 62
     5
 10
-275.38553751915646
 20
1822.2738221355889
 30
0.0
  0
VERTEX
  8
DETAIL
  6
CONTINUOUS
 62
     5
 10
-275.48423799801463
 20
1822.2072952368155
 30
0.0
  0
VERTEX
  8
DETAIL
  6
CONTINUOUS
 62
     5
 10
-275.579990913855
 20
1822.1368233794037
 30
0.0
  0
VERTEX
  8
DETAIL
  6
CONTINUOUS
 62
     5
 10
-275.67309876966078
 20
1822.0630367785022
 30
0.0
  0
VERTEX
  8
DETAIL
  6
CONTINUOUS
 62
     5
 10
-275.76389241250297
 20
1821.9864352469788
 30
0.0
  0
VERTEX
  8
DETAIL
  6
CONTINUOUS
 62
     5
 10
-275.85273457196791
 20
1821.9075496893659
 30
0.0
  0
VERTEX
  8
DETAIL
  6
CONTINUOUS
 62
     5
 10
-275.9400291138445
 20
1821.826951126337
 30
0.0
  0
SEQEND
  8
DETAIL
  6
CONTINUOUS
 62
     5
  0
POLYLINE
  8
DETAIL
  6
CONTINUOUS
 62
     5
 66
     1
 10
0.0
 20
0.0
 30
0.0
  0
VERTEX
  8
DETAIL
  6
CONTINUOUS
 62
     5
 10
-274.14894117974472
 20
1830.7998964291371
 30
0.0
  0
VERTEX
  8
DETAIL
  6
CONTINUOUS
 62
     5
 10
-273.56060003145751
 20
1830.7231927565124
 30
0.0
  0
VERTEX
  8
DETAIL
  6
CONTINUOUS
 62
     5
 10
-273.00794437232958
 20
1830.5065846083037
 30
0.0
  0
VERTEX
  8
DETAIL
  6
CONTINUOUS
 62
     5
 10
-272.51289770986631
 20
1830.1794321510424
 30
0.0
  0
VERTEX
  8
DETAIL
  6
CONTINUOUS
 62
     5
 10
-272.08138374188962
 20
1829.7720226252836
 30
0.0
  0
VERTEX
  8
DETAIL
  6
CONTINUOUS
 62
     5
 10
-271.71146166510556
 20
1829.3083309480437
 30
0.0
  0
VERTEX
  8
DETAIL
  6
CONTINUOUS
 62
     5
 10
-271.39816581159727
 20
1828.8045706294861
 30
0.0
  0
VERTEX
  8
DETAIL
  6
CONTINUOUS
 62
     5
 10
-271.13642876873769
 20
1828.2723407100607
 30
0.0
  0
VERTEX
  8
DETAIL
  6
CONTINUOUS
 62
     5
 10
-270.92180631259686
 20
1827.7196909262366
 30
0.0
  0
VERTEX
  8
DETAIL
  6
CONTINUOUS
 62
     5
 10
-270.7505725730951
 20
1827.1518207609413
 30
0.0
  0
VERTEX
  8
DETAIL
  6
CONTINUOUS
 62
     5
 10
-270.61964344215232
 20
1826.5724807601034
 30
0.0
  0
VERTEX
  8
DETAIL
  6
CONTINUOUS
 62
     5
 10
-270.52744667637211
 20
1825.9851423448524
 30
0.0
  0
VERTEX
  8
DETAIL
  6
CONTINUOUS
 62
     5
 10
-270.47291271156882
 20
1825.3931879626248
 30
0.0
  0
VERTEX
  8
DETAIL
  6
CONTINUOUS
 62
     5
 10
-270.454972327745
 20
1824.799999999937
 30
0.0
  0
SEQEND
  8
DETAIL
  6
CONTINUOUS
 62
     5
  0
POLYLINE
  8
DETAIL
  6
CONTINUOUS
 62
     5
 66
     1
 10
0.0
 20
0.0
 30
0.0
  0
VERTEX
  8
DETAIL
  6
CONTINUOUS
 62
     5
 10
-274.93695193334128
 20
1830.7997438206371
 30
0.0
  0
VERTEX
  8
DETAIL
  6
CONTINUOUS
 62
     5
 10
-274.31858902369783
 20
1830.7152169666354
 30
0.0
  0
VERTEX
  8
DETAIL
  6
CONTINUOUS
 62
     5
 10
-273.74155990406751
 20
1830.4769960562874
 30
0.0
  0
VERTEX
  8
DETAIL
  6
CONTINUOUS
 62
     5
 10
-273.22932458130509
 20
1830.1202880532317
 30
0.0
  0
VERTEX
  8
DETAIL
  6
CONTINUOUS
 62
     5
 10
-272.78739439140156
 20
1829.679391364348
 30
0.0
  0
VERTEX
  8
DETAIL
  6
CONTINUOUS
 62
     5
 10
-272.41272558634512
 20
1829.1802141103135
 30
0.0
  0
VERTEX
  8
DETAIL
  6
CONTINUOUS
 62
     5
 10
-272.09847349726203
 20
1828.6407017622612
 30
0.0
  0
VERTEX
  8
DETAIL
  6
CONTINUOUS
 62
     5
 10
-271.83957725413489
 20
1828.0712827827067
 30
0.0
  0
VERTEX
  8
DETAIL
  6
CONTINUOUS
 62
     5
 10
-271.63173242848444
 20
1827.4799253288068
 30
0.0
  0
VERTEX
  8
DETAIL
  6
CONTINUOUS
 62
     5
 10
-271.47073571406622
 20
1826.8744095970173
 30
0.0
  0
VERTEX
  8
DETAIL
  6
CONTINUOUS
 62
     5
 10
-271.35381603905455
 20
1826.2598713157115
 30
0.0
  0
VERTEX
  8
DETAIL
  6
CONTINUOUS
 62
     5
 10
-271.27927130572704
 20
1825.6394724666052
 30
0.0
  0
VERTEX
  8
DETAIL
  6
CONTINUOUS
 62
     5
 10
-271.24542504344572
 20
1825.0163277137369
 30
0.0
  0
SEQEND
  8
DETAIL
  6
CONTINUOUS
 62
     5
  0
POLYLINE
  8
DETAIL
  6
CONTINUOUS
 62
     5
 66
     1
 10
0.0
 20
0.0
 30
0.0
  0
VERTEX
  8
DETAIL
  6
CONTINUOUS
 62
     5
 10
-272.57088320034381
 20
1826.7422347787381
 30
0.0
  0
VERTEX
  8
DETAIL
  6
CONTINUOUS
 62
     5
 10
-272.58888220281546
 20
1826.7982886299205
 30
0.0
  0
VERTEX
  8
DETAIL
  6
CONTINUOUS
 62
     5
 10
-272.61018188132374
 20
1826.8541127336621
 30
0.0
  0
VERTEX
  8
DETAIL
  6
CONTINUOUS
 62
     5
 10
-272.63682442605273
 20
1826.911654057122
 30
0.0
  0
VERTEX
  8
DETAIL
  6
CONTINUOUS
 62
     5
 10
-272.66944369540658
 20
1826.9686876991923
 30
0.0
  0
VERTEX
  8
DETAIL
  6
CONTINUOUS
 62
     5
 10
-272.70803161431132
 20
1827.0210871742472
 30
0.0
  0
VERTEX
  8
DETAIL
  6
CONTINUOUS
 62
     5
 10
-272.75257684285879
 20
1827.0647163253188
 30
0.0
  0
VERTEX
  8
DETAIL
  6
CONTINUOUS
 62
     5
 10
-272.80306804114031
 20
1827.0954389954381
 30
0.0
  0
VERTEX
  8
DETAIL
  6
CONTINUOUS
 62
     5
 10
-272.85949386924767
 20
1827.109119027637
 30
0.0
  0
SEQEND
  8
DETAIL
  6
CONTINUOUS
 62
     5
  0
POLYLINE
  8
DETAIL
  6
CONTINUOUS
 62
     5
 66
     1
 10
0.0
 20
0.0
 30
0.0
  0
VERTEX
  8
DETAIL
  6
CONTINUOUS
 62
     5
 10
-272.75923181293911
 20
1822.3239616644371
 30
0.0
  0
VERTEX
  8
DETAIL
  6
CONTINUOUS
 62
     5
 10
-272.74955900683028
 20
1822.3502558795863
 30
0.0
  0
VERTEX
  8
DETAIL
  6
CONTINUOUS
 62
     5
 10
-272.7425733279548
 20
1822.3780065421959
 30
0.0
  0
VERTEX
  8
DETAIL
  6
CONTINUOUS
 62
     5
 10
-272.74070076161371
 20
1822.4056257693753
 30
0.0
  0
VERTEX
  8
DETAIL
  6
CONTINUOUS
 62
     5
 10
-272.74636729310805
 20
1822.4315256782327
 30
0.0
  0
VERTEX
  8
DETAIL
  6
CONTINUOUS
 62
     5
 10
-272.76113385828455
 20
1822.4540926565667
 30
0.0
  0
VERTEX
  8
DETAIL
  6
CONTINUOUS
 62
     5
 10
-272.78259784443202
 20
1822.4715952036831
 30
0.0
  0
VERTEX
  8
DETAIL
  6
CONTINUOUS
 62
     5
 10
-272.80753540412354
 20
1822.4827381386151
 30
0.0
  0
VERTEX
  8
DETAIL
  6
CONTINUOUS
 62
     5
 10
-272.83423279458964
 20
1822.4884923102413
 30
0.0
  0
VERTEX
  8
DETAIL
  6
CONTINUOUS
 62
     5
 10
-272.86143076304143
 20
1822.4905105244379
 30
0.0
  0
SEQEND
  8
DETAIL
  6
CONTINUOUS
 62
     5
  0
POLYLINE
  8
DETAIL
  6
CONTINUOUS
 62
     5
 66
     1
 10
0.0
 20
0.0
 30
0.0
  0
VERTEX
  8
DETAIL
  6
CONTINUOUS
 62
     5
 10
-274.12478792363981
 20
1830.899872814638
 30
0.0
  0
VERTEX
  8
DETAIL
  6
CONTINUOUS
 62
     5
 10
-274.03292125034307
 20
1830.8970732783578
 30
0.0
  0
VERTEX
  8
DETAIL
  6
CONTINUOUS
 62
     5
 10
-273.94119184419799
 20
1830.8906048740989
 30
0.0
  0
VERTEX
  8
DETAIL
  6
CONTINUOUS
 62
     5
 10
-273.84969289426584
 20
1830.8804763405205
 30
0.0
  0
VERTEX
  8
DETAIL
  6
CONTINUOUS
 62
     5
 10
-273.75857904227416
 20
1830.8667603144511
 30
0.0
  0
VERTEX
  8
DETAIL
  6
CONTINUOUS
 62
     5
 10
-273.66801951250949
 20
1830.8495445955891
 30
0.0
  0
VERTEX
  8
DETAIL
  6
CONTINUOUS
 62
     5
 10
-273.57818352925847
 20
1830.8289169836339
 30
0.0
  0
VERTEX
  8
DETAIL
  6
CONTINUOUS
 62
     5
 10
-273.4892403168077
 20
1830.8049652782838
 30
0.0
  0
VERTEX
  8
DETAIL
  6
CONTINUOUS
 62
     5
 10
-273.4013590994436
 20
1830.7777772792369
 30
0.0
  0
SEQEND
  8
DETAIL
  6
CONTINUOUS
 62
     5
  0
POLYLINE
  8
DETAIL
  6
CONTINUOUS
 62
     5
 66
     1
 10
0.0
 20
0.0
 30
0.0
  0
VERTEX
  8
DETAIL
  6
CONTINUOUS
 62
     5
 10
-273.4013590994436
 20
1830.7777772792369
 30
0.0
  0
VERTEX
  8
DETAIL
  6
CONTINUOUS
 62
     5
 10
-272.86494860471396
 20
1830.5322975390379
 30
0.0
  0
VERTEX
  8
DETAIL
  6
CONTINUOUS
 62
     5
 10
-272.38663310565846
 20
1830.1866595573226
 30
0.0
  0
VERTEX
  8
DETAIL
  6
CONTINUOUS
 62
     5
 10
-271.97034095503136
 20
1829.7686146183626
 30
0.0
  0
VERTEX
  8
DETAIL
  6
CONTINUOUS
 62
     5
 10
-271.61301117260939
 20
1829.2990904021026
 30
0.0
  0
VERTEX
  8
DETAIL
  6
CONTINUOUS
 62
     5
 10
-271.30993514970544
 20
1828.7929833314408
 30
0.0
  0
VERTEX
  8
DETAIL
  6
CONTINUOUS
 62
     5
 10
-271.05586707829673
 20
1828.2603513826157
 30
0.0
  0
VERTEX
  8
DETAIL
  6
CONTINUOUS
 62
     5
 10
-270.84705321505277
 20
1827.7077124484779
 30
0.0
  0
VERTEX
  8
DETAIL
  6
CONTINUOUS
 62
     5
 10
-270.68055959328171
 20
1827.1400280282023
 30
0.0
  0
VERTEX
  8
DETAIL
  6
CONTINUOUS
 62
     5
 10
-270.55349953883979
 20
1826.5621956656203
 30
0.0
  0
VERTEX
  8
DETAIL
  6
CONTINUOUS
 62
     5
 10
-270.46393369279542
 20
1825.9779219363838
 30
0.0
  0
VERTEX
  8
DETAIL
  6
CONTINUOUS
 62
     5
 10
-270.41088178556396
 20
1825.3897076454814
 30
0.0
  0
VERTEX
  8
DETAIL
  6
CONTINUOUS
 62
     5
 10
-270.39340618024289
 20
1824.799999999937
 30
0.0
  0
SEQEND
  8
DETAIL
  6
CONTINUOUS
 62
     5
  0
POLYLINE
  8
DETAIL
  6
CONTINUOUS
 62
     5
 66
     1
 10
0.0
 20
0.0
 30
0.0
  0
VERTEX
  8
DETAIL
  6
CONTINUOUS
 62
     5
 10
-272.86053540884308
 20
1827.109514648937
 30
0.0
  0
VERTEX
  8
DETAIL
  6
CONTINUOUS
 62
     5
 10
-272.83340368812043
 20
1827.1116565054883
 30
0.0
  0
VERTEX
  8
DETAIL
  6
CONTINUOUS
 62
     5
 10
-272.80679736913356
 20
1827.1175694379995
 30
0.0
  0
VERTEX
  8
DETAIL
  6
CONTINUOUS
 62
     5
 10
-272.7819812921224
 20
1827.1288742362722
 30
0.0
  0
VERTEX
  8
DETAIL
  6
CONTINUOUS
 62
     5
 10
-272.76068183144616
 20
1827.1464944433155
 30
0.0
  0
VERTEX
  8
DETAIL
  6
CONTINUOUS
 62
     5
 10
-272.74610997545085
 20
1827.169110558488
 30
0.0
  0
VERTEX
  8
DETAIL
  6
CONTINUOUS
 62
     5
 10
-272.74062093311403
 20
1827.194993110832
 30
0.0
  0
VERTEX
  8
DETAIL
  6
CONTINUOUS
 62
     5
 10
-272.74262833419425
 20
1827.2225499659019
 30
0.0
  0
VERTEX
  8
DETAIL
  6
CONTINUOUS
 62
     5
 10
-272.749704817176
 20
1827.2502182919272
 30
0.0
  0
VERTEX
  8
DETAIL
  6
CONTINUOUS
 62
     5
 10
-272.75942302054318
 20
1827.2764352571371
 30
0.0
  0
SEQEND
  8
DETAIL
  6
CONTINUOUS
 62
     5
  0
POLYLINE
  8
DETAIL
  6
CONTINUOUS
 62
     5
 66
     1
 10
0.0
 20
0.0
 30
0.0
  0
VERTEX
  8
DETAIL
  6
CONTINUOUS
 62
     5
 10
-275.9400291138445
 20
1827.7730488735381
 30
0.0
  0
VERTEX
  8
DETAIL
  6
CONTINUOUS
 62
     5
 10
-275.852734165257
 20
1827.6924513954066
 30
0.0
  0
VERTEX
  8
DETAIL
  6
CONTINUOUS
 62
     5
 10
-275.76389205368628
 20
1827.6135660188563
 30
0.0
  0
VERTEX
  8
DETAIL
  6
CONTINUOUS
 62
     5
 10
-275.67310079334175
 20
1827.5369599809894
 30
0.0
  0
VERTEX
  8
DETAIL
  6
CONTINUOUS
 62
     5
 10
-275.57999525111143
 20
1827.4631690969838
 30
0.0
  0
VERTEX
  8
DETAIL
  6
CONTINUOUS
 62
     5
 10
-275.48423888550246
 20
1827.3927048039577
 30
0.0
  0
VERTEX
  8
DETAIL
  6
CONTINUOUS
 62
     5
 10
-275.38552645345356
 20
1827.3262021317075
 30
0.0
  0
VERTEX
  8
DETAIL
  6
CONTINUOUS
 62
     5
 10
-275.28367096100129
 20
1827.2647769670536
 30
0.0
  0
VERTEX
  8
DETAIL
  6
CONTINUOUS
 62
     5
 10
-275.17851378642661
 20
1827.2096617773234
 30
0.0
  0
VERTEX
  8
DETAIL
  6
CONTINUOUS
 62
     5
 10
-275.06964282264448
 20
1827.1623638903918
 30
0.0
  0
VERTEX
  8
DETAIL
  6
CONTINUOUS
 62
     5
 10
-274.9559987836127
 20
1827.125530062028
 30
0.0
  0
VERTEX
  8
DETAIL
  6
CONTINUOUS
 62
     5
 10
-274.83833821284497
 20
1827.1094010766369
 30
0.0
  0
SEQEND
  8
DETAIL
  6
CONTINUOUS
 62
     5
  0
POLYLINE
  8
DETAIL
  6
CONTINUOUS
 62
     5
 66
     1
 10
0.0
 20
0.0
 30
0.0
  0
VERTEX
  8
DETAIL
  6
CONTINUOUS
 62
     5
 10
-277.3009841465464
 20
1829.4188021534369
 30
0.0
  0
VERTEX
  8
DETAIL
  6
CONTINUOUS
 62
     5
 10
-277.35739551419039
 20
1829.4117594578202
 30
0.0
  0
VERTEX
  8
DETAIL
  6
CONTINUOUS
 62
     5
 10
-277.40706864409509
 20
1829.3844660444054
 30
0.0
  0
VERTEX
  8
DETAIL
  6
CONTINUOUS
 62
     5
 10
-277.42802928379922
 20
1829.33255235553
 30
0.0
  0
VERTEX
  8
DETAIL
  6
CONTINUOUS
 62
     5
 10
-277.41884286082819
 20
1829.2764681121575
 30
0.0
  0
VERTEX
  8
DETAIL
  6
CONTINUOUS
 62
     5
 10
-277.39719178920097
 20
1829.2239524327135
 30
0.0
  0
VERTEX
  8
DETAIL
  6
CONTINUOUS
 62
     5
 10
-277.36909001326586
 20
1829.174539580385
 30
0.0
  0
VERTEX
  8
DETAIL
  6
CONTINUOUS
 62
     5
 10
-277.33695404548666
 20
1829.1275776224525
 30
0.0
  0
VERTEX
  8
DETAIL
  6
CONTINUOUS
 62
     5
 10
-277.30238056847452
 20
1829.0824525021694
 30
0.0
  0
VERTEX
  8
DETAIL
  6
CONTINUOUS
 62
     5
 10
-277.26603772269317
 20
1829.0387668121673
 30
0.0
  0
VERTEX
  8
DETAIL
  6
CONTINUOUS
 62
     5
 10
-277.22839574762344
 20
1828.9961926269077
 30
0.0
  0
VERTEX
  8
DETAIL
  6
CONTINUOUS
 62
     5
 10
-277.18974061639818
 20
1828.9545265984677
 30
0.0
  0
VERTEX
  8
DETAIL
  6
CONTINUOUS
 62
     5
 10
-277.15030659592827
 20
1828.9135992983495
 30
0.0
  0
VERTEX
  8
DETAIL
  6
CONTINUOUS
 62
     5
 10
-277.11024020700285
 20
1828.8732926412229
 30
0.0
  0
VERTEX
  8
DETAIL
  6
CONTINUOUS
 62
     5
 10
-277.06964726868074
 20
1828.8335123576894
 30
0.0
  0
VERTEX
  8
DETAIL
  6
CONTINUOUS
 62
     5
 10
-277.02863337668583
 20
1828.7941643090332
 30
0.0
  0
VERTEX
  8
DETAIL
  6
CONTINUOUS
 62
     5
 10
-276.987304126742
 20
1828.7551543565371
 30
0.0
  0
SEQEND
  8
DETAIL
  6
CONTINUOUS
 62
     5
  0
POLYLINE
  8
DETAIL
  6
CONTINUOUS
 62
     5
 66
     1
 10
0.0
 20
0.0
 30
0.0
  0
VERTEX
  8
DETAIL
  6
CONTINUOUS
 62
     5
 10
-270.454972327745
 20
1824.799999999937
 30
0.0
  0
VERTEX
  8
DETAIL
  6
CONTINUOUS
 62
     5
 10
-270.47291271156888
 20
1824.2068120372492
 30
0.0
  0
VERTEX
  8
DETAIL
  6
CONTINUOUS
 62
     5
 10
-270.52744667637211
 20
1823.6148576550179
 30
0.0
  0
VERTEX
  8
DETAIL
  6
CONTINUOUS
 62
     5
 10
-270.61964344215227
 20
1823.0275192397555
 30
0.0
  0
VERTEX
  8
DETAIL
  6
CONTINUOUS
 62
     5
 10
-270.7505725730951
 20
1822.4481792388956
 30
0.0
  0
VERTEX
  8
DETAIL
  6
CONTINUOUS
 62
     5
 10
-270.92180631259697
 20
1821.8803090735685
 30
0.0
  0
VERTEX
  8
DETAIL
  6
CONTINUOUS
 62
     5
 10
-271.13642876873769
 20
1821.3276592897216
 30
0.0
  0
VERTEX
  8
DETAIL
  6
CONTINUOUS
 62
     5
 10
-271.39816581159721
 20
1820.7954293702894
 30
0.0
  0
VERTEX
  8
DETAIL
  6
CONTINUOUS
 62
     5
 10
-271.71146166510562
 20
1820.2916690517311
 30
0.0
  0
VERTEX
  8
DETAIL
  6
CONTINUOUS
 62
     5
 10
-272.08138374188962
 20
1819.8279773744905
 30
0.0
  0
VERTEX
  8
DETAIL
  6
CONTINUOUS
 62
     5
 10
-272.51289770986631
 20
1819.4205678487315
 30
0.0
  0
VERTEX
  8
DETAIL
  6
CONTINUOUS
 62
     5
 10
-273.00794437232969
 20
1819.0934153914723
 30
0.0
  0
VERTEX
  8
DETAIL
  6
CONTINUOUS
 62
     5
 10
-273.56060003145751
 20
1818.8768072433049
 30
0.0
  0
VERTEX
  8
DETAIL
  6
CONTINUOUS
 62
     5
 10
-274.14894117974472
 20
1818.800103570738
 30
0.0
  0
SEQEND
  8
DETAIL
  6
CONTINUOUS
 62
     5
  0
POLYLINE
  8
DETAIL
  6
CONTINUOUS
 62
     5
 66
     1
 10
0.0
 20
0.0
 30
0.0
  0
VERTEX
  8
DETAIL
  6
CONTINUOUS
 62
     5
 10
-270.39340618024289
 20
1824.799999999937
 30
0.0
  0
VERTEX
  8
DETAIL
  6
CONTINUOUS
 62
     5
 10
-270.41088178556396
 20
1824.2102923543925
 30
0.0
  0
VERTEX
  8
DETAIL
  6
CONTINUOUS
 62
     5
 10
-270.46393369279542
 20
1823.6220780634872
 30
0.0
  0
VERTEX
  8
DETAIL
  6
CONTINUOUS
 62
     5
 10
-270.55349953883973
 20
1823.0378043342407
 30
0.0
  0
VERTEX
  8
DETAIL
  6
CONTINUOUS
 62
     5
 10
-270.68055959328171
 20
1822.4599719716398
 30
0.0
  0
VERTEX
  8
DETAIL
  6
CONTINUOUS
 62
     5
 10
-270.84705321505277
 20
1821.892287551339
 30
0.0
  0
VERTEX
  8
DETAIL
  6
CONTINUOUS
 62
     5
 10
-271.05586707829673
 20
1821.3396486171778
 30
0.0
  0
VERTEX
  8
DETAIL
  6
CONTINUOUS
 62
     5
 10
-271.30993514970544
 20
1820.8070166683376
 30
0.0
  0
VERTEX
  8
DETAIL
  6
CONTINUOUS
 62
     5
 10
-271.61301117260945
 20
1820.3009095976831
 30
0.0
  0
VERTEX
  8
DETAIL
  6
CONTINUOUS
 62
     5
 10
-271.97034095503136
 20
1819.8313853814657
 30
0.0
  0
VERTEX
  8
DETAIL
  6
CONTINUOUS
 62
     5
 10
-272.38663310565852
 20
1819.4133404425079
 30
0.0
  0
VERTEX
  8
DETAIL
  6
CONTINUOUS
 62
     5
 10
-272.86494860471396
 20
1819.0677024607837
 30
0.0
  0
VERTEX
  8
DETAIL
  6
CONTINUOUS
 62
     5
 10
-273.4013590994436
 20
1818.822222720537
 30
0.0
  0
SEQEND
  8
DETAIL
  6
CONTINUOUS
 62
     5
  0
POLYLINE
  8
DETAIL
  6
CONTINUOUS
 62
     5
 66
     1
 10
0.0
 20
0.0
 30
0.0
  0
VERTEX
  8
DETAIL
  6
CONTINUOUS
 62
     5
 10
-273.4013590994436
 20
1818.822222720537
 30
0.0
  0
VERTEX
  8
DETAIL
  6
CONTINUOUS
 62
     5
 10
-273.4891457177788
 20
1818.7950328259824
 30
0.0
  0
VERTEX
  8
DETAIL
  6
CONTINUOUS
 62
     5
 10
-273.57792360262187
 20
1818.7710870018927
 30
0.0
  0
VERTEX
  8
DETAIL
  6
CONTINUOUS
 62
     5
 10
-273.66766215977037
 20
1818.7504876972871
 30
0.0
  0
VERTEX
  8
DETAIL
  6
CONTINUOUS
 62
     5
 10
-273.75820958674336
 20
1818.7333090127634
 30
0.0
  0
VERTEX
  8
DETAIL
  6
CONTINUOUS
 62
     5
 10
-273.84938088050842
 20
1818.719617283909
 30
0.0
  0
VERTEX
  8
DETAIL
  6
CONTINUOUS
 62
     5
 10
-273.940991037174
 20
1818.7094788461118
 30
0.0
  0
VERTEX
  8
DETAIL
  6
CONTINUOUS
 62
     5
 10
-274.03285505284839
 20
1818.7029600347589
 30
0.0
  0
VERTEX
  8
DETAIL
  6
CONTINUOUS
 62
     5
 10
-274.12478792363981
 20
1818.7001271852371
 30
0.0
  0
SEQEND
  8
DETAIL
  6
CONTINUOUS
 62
     5
  0
POLYLINE
  8
DETAIL
  6
CONTINUOUS
 62
     5
 66
     1
 10
0.0
 20
0.0
 30
0.0
  0
VERTEX
  8
DETAIL
  6
CONTINUOUS
 62
     5
 10
-272.86046054694452
 20
1822.4908229996381
 30
0.0
  0
VERTEX
  8
DETAIL
  6
CONTINUOUS
 62
     5
 10
-272.80740218969521
 20
1822.5035116534955
 30
0.0
  0
VERTEX
  8
DETAIL
  6
CONTINUOUS
 62
     5
 10
-272.75903417147049
 20
1822.5309546528565
 30
0.0
  0
VERTEX
  8
DETAIL
  6
CONTINUOUS
 62
     5
 10
-272.71762915632189
 20
1822.5672211459457
 30
0.0
  0
VERTEX
  8
DETAIL
  6
CONTINUOUS
 62
     5
 10
-272.6827698722484
 20
1822.6095418447733
 30
0.0
  0
VERTEX
  8
DETAIL
  6
CONTINUOUS
 62
     5
 10
-272.65330404204718
 20
1822.6560113353505
 30
0.0
  0
VERTEX
  8
DETAIL
  6
CONTINUOUS
 62
     5
 10
-272.62810018784558
 20
1822.7047829962717
 30
0.0
  0
VERTEX
  8
DETAIL
  6
CONTINUOUS
 62
     5
 10
-272.6063387119749
 20
1822.7548907308965
 30
0.0
  0
VERTEX
  8
DETAIL
  6
CONTINUOUS
 62
     5
 10
-272.58744030630157
 20
1822.8060468469355
 30
0.0
  0
VERTEX
  8
DETAIL
  6
CONTINUOUS
 62
     5
 10
-272.57083185554069
 20
1822.8579811362381
 30
0.0
  0
SEQEND
  8
DETAIL
  6
CONTINUOUS
 62
     5
  0
POLYLINE
  8
DETAIL
  6
CONTINUOUS
 62
     5
 66
     1
 10
0.0
 20
0.0
 30
0.0
  0
VERTEX
  8
DETAIL
  6
CONTINUOUS
 62
     5
 10
-275.23234366963879
 20
1823.817894516837
 30
0.0
  0
VERTEX
  8
DETAIL
  6
CONTINUOUS
 62
     5
 10
-275.23172988533423
 20
1823.7052032109286
 30
0.0
  0
VERTEX
  8
DETAIL
  6
CONTINUOUS
 62
     5
 10
-275.22957765091581
 20
1823.592524191178
 30
0.0
  0
VERTEX
  8
DETAIL
  6
CONTINUOUS
 62
     5
 10
-275.22542064412613
 20
1823.479911261594
 30
0.0
  0
VERTEX
  8
DETAIL
  6
CONTINUOUS
 62
     5
 10
-275.21878570683117
 20
1823.3674211336722
 30
0.0
  0
VERTEX
  8
DETAIL
  6
CONTINUOUS
 62
     5
 10
-275.20910336617862
 20
1823.2551514842228
 30
0.0
  0
VERTEX
  8
DETAIL
  6
CONTINUOUS
 62
     5
 10
-275.1956800371766
 20
1823.1432574089429
 30
0.0
  0
VERTEX
  8
DETAIL
  6
CONTINUOUS
 62
     5
 10
-275.17755402922251
 20
1823.0320314589721
 30
0.0
  0
VERTEX
  8
DETAIL
  6
CONTINUOUS
 62
     5
 10
-275.15346406179833
 20
1822.9219335700029
 30
0.0
  0
VERTEX
  8
DETAIL
  6
CONTINUOUS
 62
     5
 10
-275.12170091902613
 20
1822.8137161640411
 30
0.0
  0
VERTEX
  8
DETAIL
  6
CONTINUOUS
 62
     5
 10
-275.08022776870502
 20
1822.7088946137169
 30
0.0
  0
VERTEX
  8
DETAIL
  6
CONTINUOUS
 62
     5
 10
-275.02508866540302
 20
1822.6107771463935
 30
0.0
  0
VERTEX
  8
DETAIL
  6
CONTINUOUS
 62
     5
 10
-274.94446891497284
 20
1822.5288163917783
 30
0.0
  0
VERTEX
  8
DETAIL
  6
CONTINUOUS
 62
     5
 10
-274.83833822054288
 20
1822.490598923137
 30
0.0
  0
SEQEND
  8
DETAIL
  6
CONTINUOUS
 62
     5
  0
POLYLINE
  8
DETAIL
  6
CONTINUOUS
 62
     5
 66
     1
 10
0.0
 20
0.0
 30
0.0
  0
VERTEX
  8
DETAIL
  6
CONTINUOUS
 62
     5
 10
-278.98395761303982
 20
1835.4932731337381
 30
0.0
  0
VERTEX
  8
DETAIL
  6
CONTINUOUS
 62
     5
 10
-279.0228620079327
 20
1835.3904939470874
 30
0.0
  0
VERTEX
  8
DETAIL
  6
CONTINUOUS
 62
     5
 10
-279.05673269843658
 20
1835.2858549240509
 30
0.0
  0
VERTEX
  8
DETAIL
  6
CONTINUOUS
 62
     5
 10
-279.08560415659332
 20
1835.1795419938828
 30
0.0
  0
VERTEX
  8
DETAIL
  6
CONTINUOUS
 62
     5
 10
-279.1094877335575
 20
1835.0718524918273
 30
0.0
  0
VERTEX
  8
DETAIL
  6
CONTINUOUS
 62
     5
 10
-279.12838938799683
 20
1834.9631097363597
 30
0.0
  0
VERTEX
  8
DETAIL
  6
CONTINUOUS
 62
     5
 10
-279.14231507857875
 20
1834.8536370459549
 30
0.0
  0
VERTEX
  8
DETAIL
  6
CONTINUOUS
 62
     5
 10
-279.15127076397096
 20
1834.7437577390888
 30
0.0
  0
VERTEX
  8
DETAIL
  6
CONTINUOUS
 62
     5
 10
-279.15526240284089
 20
1834.6337951342371
 30
0.0
  0
SEQEND
  8
DETAIL
  6
CONTINUOUS
 62
     5
  0
POLYLINE
  8
DETAIL
  6
CONTINUOUS
 62
     5
 66
     1
 10
0.0
 20
0.0
 30
0.0
  0
VERTEX
  8
DETAIL
  6
CONTINUOUS
 62
     5
 10
110.63835167475909
 20
1858.0999999999381
 30
0.0
  0
VERTEX
  8
DETAIL
  6
CONTINUOUS
 62
     5
 10
111.15078338529071
 20
1858.0998743876364
 30
0.0
  0
VERTEX
  8
DETAIL
  6
CONTINUOUS
 62
     5
 10
111.66321502340783
 20
1858.0994319136039
 30
0.0
  0
VERTEX
  8
DETAIL
  6
CONTINUOUS
 62
     5
 10
112.17564611075248
 20
1858.0985741221477
 30
0.0
  0
VERTEX
  8
DETAIL
  6
CONTINUOUS
 62
     5
 10
112.68807616896663
 20
1858.0972025575766
 30
0.0
  0
VERTEX
  8
DETAIL
  6
CONTINUOUS
 62
     5
 10
113.20050461002626
 20
1858.095224227965
 30
0.0
  0
VERTEX
  8
DETAIL
  6
CONTINUOUS
 62
     5
 10
113.71293020213588
 20
1858.0925782153035
 30
0.0
  0
VERTEX
  8
DETAIL
  6
CONTINUOUS
 62
     5
 10
114.22535147933372
 20
1858.0892152681781
 30
0.0
  0
VERTEX
  8
DETAIL
  6
CONTINUOUS
 62
     5
 10
114.73776697532321
 20
1858.0850861518609
 30
0.0
  0
VERTEX
  8
DETAIL
  6
CONTINUOUS
 62
     5
 10
115.25017528215393
 20
1858.0801483530004
 30
0.0
  0
VERTEX
  8
DETAIL
  6
CONTINUOUS
 62
     5
 10
115.76257550513057
 20
1858.0744184843411
 30
0.0
  0
VERTEX
  8
DETAIL
  6
CONTINUOUS
 62
     5
 10
116.27496701614807
 20
1858.0679438693473
 30
0.0
  0
VERTEX
  8
DETAIL
  6
CONTINUOUS
 62
     5
 10
116.78734918937459
 20
1858.0607720933683
 30
0.0
  0
VERTEX
  8
DETAIL
  6
CONTINUOUS
 62
     5
 10
117.29972145408664
 20
1858.0529513661527
 30
0.0
  0
VERTEX
  8
DETAIL
  6
CONTINUOUS
 62
     5
 10
117.81208400033962
 20
1858.0445385173834
 30
0.0
  0
VERTEX
  8
DETAIL
  6
CONTINUOUS
 62
     5
 10
118.32443754300134
 20
1858.0355952003174
 30
0.0
  0
VERTEX
  8
DETAIL
  6
CONTINUOUS
 62
     5
 10
118.83678227885706
 20
1858.0261572234783
 30
0.0
  0
VERTEX
  8
DETAIL
  6
CONTINUOUS
 62
     5
 10
119.34911792534587
 20
1858.0162368629594
 30
0.0
  0
VERTEX
  8
DETAIL
  6
CONTINUOUS
 62
     5
 10
119.8614436457471
 20
1858.0058178813219
 30
0.0
  0
VERTEX
  8
DETAIL
  6
CONTINUOUS
 62
     5
 10
120.37375804850933
 20
1857.9948557608093
 30
0.0
  0
VERTEX
  8
DETAIL
  6
CONTINUOUS
 62
     5
 10
120.88605945016498
 20
1857.9833008495568
 30
0.0
  0
VERTEX
  8
DETAIL
  6
CONTINUOUS
 62
     5
 10
121.39834583474865
 20
1857.9710984663093
 30
0.0
  0
VERTEX
  8
DETAIL
  6
CONTINUOUS
 62
     5
 10
121.91061455648433
 20
1857.9581750418661
 30
0.0
  0
VERTEX
  8
DETAIL
  6
CONTINUOUS
 62
     5
 10
122.42286208691503
 20
1857.9444303608029
 30
0.0
  0
VERTEX
  8
DETAIL
  6
CONTINUOUS
 62
     5
 10
122.9350831878706
 20
1857.9297299932698
 30
0.0
  0
VERTEX
  8
DETAIL
  6
CONTINUOUS
 62
     5
 10
123.44726987187973
 20
1857.9138856056052
 30
0.0
  0
VERTEX
  8
DETAIL
  6
CONTINUOUS
 62
     5
 10
123.95941208264163
 20
1857.8966664264756
 30
0.0
  0
VERTEX
  8
DETAIL
  6
CONTINUOUS
 62
     5
 10
124.47149386077045
 20
1857.8777352864593
 30
0.0
  0
VERTEX
  8
DETAIL
  6
CONTINUOUS
 62
     5
 10
124.98349030456953
 20
1857.856619337208
 30
0.0
  0
VERTEX
  8
DETAIL
  6
CONTINUOUS
 62
     5
 10
125.49535831135813
 20
1857.8325951841377
 30
0.0
  0
VERTEX
  8
DETAIL
  6
CONTINUOUS
 62
     5
 10
126.00701594395603
 20
1857.8044686603425
 30
0.0
  0
VERTEX
  8
DETAIL
  6
CONTINUOUS
 62
     5
 10
126.51827842027988
 20
1857.7699324103326
 30
0.0
  0
VERTEX
  8
DETAIL
  6
CONTINUOUS
 62
     5
 10
127.02854168631497
 20
1857.7230936156498
 30
0.0
  0
VERTEX
  8
DETAIL
  6
CONTINUOUS
 62
     5
 10
127.5199369725524
 20
1857.608726203038
 30
0.0
  0
SEQEND
  8
DETAIL
  6
CONTINUOUS
 62
     5
  0
POLYLINE
  8
DETAIL
  6
CONTINUOUS
 62
     5
 66
     1
 10
0.0
 20
0.0
 30
0.0
  0
VERTEX
  8
DETAIL
  6
CONTINUOUS
 62
     5
 10
-127.5186704823427
 20
1857.6087262031381
 30
0.0
  0
VERTEX
  8
DETAIL
  6
CONTINUOUS
 62
     5
 10
-126.98295228687726
 20
1857.7257433250604
 30
0.0
  0
VERTEX
  8
DETAIL
  6
CONTINUOUS
 62
     5
 10
-126.42887890522921
 20
1857.7733403732691
 30
0.0
  0
VERTEX
  8
DETAIL
  6
CONTINUOUS
 62
     5
 10
-125.87385100913681
 20
1857.8083679171191
 30
0.0
  0
VERTEX
  8
DETAIL
  6
CONTINUOUS
 62
     5
 10
-125.3184465085464
 20
1857.8368534547649
 30
0.0
  0
VERTEX
  8
DETAIL
  6
CONTINUOUS
 62
     5
 10
-124.76284230961053
 20
1857.8611638595994
 30
0.0
  0
VERTEX
  8
DETAIL
  6
CONTINUOUS
 62
     5
 10
-124.20711680143584
 20
1857.8825277277263
 30
0.0
  0
VERTEX
  8
DETAIL
  6
CONTINUOUS
 62
     5
 10
-123.65131114295269
 20
1857.9016905847984
 30
0.0
  0
VERTEX
  8
DETAIL
  6
CONTINUOUS
 62
     5
 10
-123.09544901577006
 20
1857.9191390814769
 30
0.0
  0
VERTEX
  8
DETAIL
  6
CONTINUOUS
 62
     5
 10
-122.53954555126047
 20
1857.9352197705966
 30
0.0
  0
VERTEX
  8
DETAIL
  6
CONTINUOUS
 62
     5
 10
-121.98361016818237
 20
1857.9501666505373
 30
0.0
  0
VERTEX
  8
DETAIL
  6
CONTINUOUS
 62
     5
 10
-121.42765027059463
 20
1857.9641684012959
 30
0.0
  0
VERTEX
  8
DETAIL
  6
CONTINUOUS
 62
     5
 10
-120.87167069061425
 20
1857.9773582228909
 30
0.0
  0
VERTEX
  8
DETAIL
  6
CONTINUOUS
 62
     5
 10
-120.31567466843013
 20
1857.989834517869
 30
0.0
  0
VERTEX
  8
DETAIL
  6
CONTINUOUS
 62
     5
 10
-119.75966469648475
 20
1858.0016733599555
 30
0.0
  0
VERTEX
  8
DETAIL
  6
CONTINUOUS
 62
     5
 10
-119.20364271096223
 20
1858.0129337156752
 30
0.0
  0
VERTEX
  8
DETAIL
  6
CONTINUOUS
 62
     5
 10
-118.64760994924562
 20
1858.0236473322159
 30
0.0
  0
VERTEX
  8
DETAIL
  6
CONTINUOUS
 62
     5
 10
-118.0915670594317
 20
1858.0338225618127
 30
0.0
  0
VERTEX
  8
DETAIL
  6
CONTINUOUS
 62
     5
 10
-117.53551436574965
 20
1858.0434470650807
 30
0.0
  0
VERTEX
  8
DETAIL
  6
CONTINUOUS
 62
     5
 10
-116.97945187163729
 20
1858.0524873433433
 30
0.0
  0
VERTEX
  8
DETAIL
  6
CONTINUOUS
 62
     5
 10
-116.42337898672031
 20
1858.0608648791917
 30
0.0
  0
VERTEX
  8
DETAIL
  6
CONTINUOUS
 62
     5
 10
-115.86729447263248
 20
1858.0684510049157
 30
0.0
  0
VERTEX
  8
DETAIL
  6
CONTINUOUS
 62
     5
 10
-115.31119824336851
 20
1858.075166198129
 30
0.0
  0
VERTEX
  8
DETAIL
  6
CONTINUOUS
 62
     5
 10
-114.75509184464153
 20
1858.0810022604965
 30
0.0
  0
VERTEX
  8
DETAIL
  6
CONTINUOUS
 62
     5
 10
-114.19897694026392
 20
1858.0859561559216
 30
0.0
  0
VERTEX
  8
DETAIL
  6
CONTINUOUS
 62
     5
 10
-113.64285519301801
 20
1858.0900251221642
 30
0.0
  0
VERTEX
  8
DETAIL
  6
CONTINUOUS
 62
     5
 10
-113.0867281450578
 20
1858.0932384680027
 30
0.0
  0
VERTEX
  8
DETAIL
  6
CONTINUOUS
 62
     5
 10
-112.53059710638446
 20
1858.0956872238812
 30
0.0
  0
VERTEX
  8
DETAIL
  6
CONTINUOUS
 62
     5
 10
-111.9744633606204
 20
1858.0974694334409
 30
0.0
  0
VERTEX
  8
DETAIL
  6
CONTINUOUS
 62
     5
 10
-111.4183281909831
 20
1858.0986831457199
 30
0.0
  0
VERTEX
  8
DETAIL
  6
CONTINUOUS
 62
     5
 10
-110.8621925978743
 20
1858.0994301779524
 30
0.0
  0
VERTEX
  8
DETAIL
  6
CONTINUOUS
 62
     5
 10
-110.30605680431668
 20
1858.0998227050616
 30
0.0
  0
VERTEX
  8
DETAIL
  6
CONTINUOUS
 62
     5
 10
-109.7499209009321
 20
1858.0999746660536
 30
0.0
  0
VERTEX
  8
DETAIL
  6
CONTINUOUS
 62
     5
 10
-109.19378497834261
 20
1858.0999999999381
 30
0.0
  0
SEQEND
  8
DETAIL
  6
CONTINUOUS
 62
     5
  0
POLYLINE
  8
DETAIL
  6
CONTINUOUS
 62
     5
 66
     1
 10
0.0
 20
0.0
 30
0.0
  0
VERTEX
  8
DETAIL
  6
CONTINUOUS
 62
     5
 10
127.79972577125589
 20
1834.634904812737
 30
0.0
  0
VERTEX
  8
DETAIL
  6
CONTINUOUS
 62
     5
 10
127.79902152527238
 20
1834.8221595738326
 30
0.0
  0
VERTEX
  8
DETAIL
  6
CONTINUOUS
 62
     5
 10
127.7972659378789
 20
1835.0094082670514
 30
0.0
  0
VERTEX
  8
DETAIL
  6
CONTINUOUS
 62
     5
 10
127.79440936112591
 20
1835.1966523354047
 30
0.0
  0
VERTEX
  8
DETAIL
  6
CONTINUOUS
 62
     5
 10
127.7903842014304
 20
1835.3838897211858
 30
0.0
  0
VERTEX
  8
DETAIL
  6
CONTINUOUS
 62
     5
 10
127.78496322682237
 20
1835.5710872254936
 30
0.0
  0
VERTEX
  8
DETAIL
  6
CONTINUOUS
 62
     5
 10
127.77783552508293
 20
1835.7581953256372
 30
0.0
  0
VERTEX
  8
DETAIL
  6
CONTINUOUS
 62
     5
 10
127.76866816259681
 20
1835.9451753906944
 30
0.0
  0
VERTEX
  8
DETAIL
  6
CONTINUOUS
 62
     5
 10
127.75697850715271
 20
1836.1320664059353
 30
0.0
  0
VERTEX
  8
DETAIL
  6
CONTINUOUS
 62
     5
 10
127.74196795085076
 20
1836.3188884141964
 30
0.0
  0
VERTEX
  8
DETAIL
  6
CONTINUOUS
 62
     5
 10
127.7169054067562
 20
1836.504430463337
 30
0.0
  0
SEQEND
  8
DETAIL
  6
CONTINUOUS
 62
     5
  0
POLYLINE
  8
DETAIL
  6
CONTINUOUS
 62
     5
 66
     1
 10
0.0
 20
0.0
 30
0.0
  0
VERTEX
  8
DETAIL
  6
CONTINUOUS
 62
     5
 10
127.7169054067562
 20
1836.504430463337
 30
0.0
  0
VERTEX
  8
DETAIL
  6
CONTINUOUS
 62
     5
 10
127.71469443899866
 20
1836.5159301524311
 30
0.0
  0
VERTEX
  8
DETAIL
  6
CONTINUOUS
 62
     5
 10
127.7123071457585
 20
1836.5274374820574
 30
0.0
  0
VERTEX
  8
DETAIL
  6
CONTINUOUS
 62
     5
 10
127.70969743467933
 20
1836.5389005293218
 30
0.0
  0
VERTEX
  8
DETAIL
  6
CONTINUOUS
 62
     5
 10
127.70681921340473
 20
1836.550267371329
 30
0.0
  0
VERTEX
  8
DETAIL
  6
CONTINUOUS
 62
     5
 10
127.70362638957823
 20
1836.5614860851852
 30
0.0
  0
VERTEX
  8
DETAIL
  6
CONTINUOUS
 62
     5
 10
127.70007287084348
 20
1836.5725047479953
 30
0.0
  0
VERTEX
  8
DETAIL
  6
CONTINUOUS
 62
     5
 10
127.69600086047002
 20
1836.583253374873
 30
0.0
  0
VERTEX
  8
DETAIL
  6
CONTINUOUS
 62
     5
 10
127.69002169709768
 20
1836.5934629568001
 30
0.0
  0
VERTEX
  8
DETAIL
  6
CONTINUOUS
 62
     5
 10
127.6803349326583
 20
1836.5999999999381
 30
0.0
  0
SEQEND
  8
DETAIL
  6
CONTINUOUS
 62
     5
  0
POLYLINE
  8
DETAIL
  6
CONTINUOUS
 62
     5
 66
     1
 10
0.0
 20
0.0
 30
0.0
  0
VERTEX
  8
DETAIL
  6
CONTINUOUS
 62
     5
 10
127.5397928871607
 20
1838.565095189937
 30
0.0
  0
VERTEX
  8
DETAIL
  6
CONTINUOUS
 62
     5
 10
127.54053603235478
 20
1838.3778537892242
 30
0.0
  0
VERTEX
  8
DETAIL
  6
CONTINUOUS
 62
     5
 10
127.54237623166922
 20
1838.1906189355961
 30
0.0
  0
VERTEX
  8
DETAIL
  6
CONTINUOUS
 62
     5
 10
127.54531531841765
 20
1838.0033886501585
 30
0.0
  0
VERTEX
  8
DETAIL
  6
CONTINUOUS
 62
     5
 10
127.54937832793476
 20
1837.8161645259697
 30
0.0
  0
VERTEX
  8
DETAIL
  6
CONTINUOUS
 62
     5
 10
127.55479648783285
 20
1837.6289798993951
 30
0.0
  0
VERTEX
  8
DETAIL
  6
CONTINUOUS
 62
     5
 10
127.56190902111931
 20
1837.4418847326936
 30
0.0
  0
VERTEX
  8
DETAIL
  6
CONTINUOUS
 62
     5
 10
127.57107307477871
 20
1837.254917944553
 30
0.0
  0
VERTEX
  8
DETAIL
  6
CONTINUOUS
 62
     5
 10
127.58276501085255
 20
1837.0680398713125
 30
0.0
  0
VERTEX
  8
DETAIL
  6
CONTINUOUS
 62
     5
 10
127.59776550239614
 20
1836.8812295799489
 30
0.0
  0
VERTEX
  8
DETAIL
  6
CONTINUOUS
 62
     5
 10
127.6228116141574
 20
1836.695698587637
 30
0.0
  0
SEQEND
  8
DETAIL
  6
CONTINUOUS
 62
     5
  0
POLYLINE
  8
DETAIL
  6
CONTINUOUS
 62
     5
 66
     1
 10
0.0
 20
0.0
 30
0.0
  0
VERTEX
  8
DETAIL
  6
CONTINUOUS
 62
     5
 10
127.6228116141574
 20
1836.695698587637
 30
0.0
  0
VERTEX
  8
DETAIL
  6
CONTINUOUS
 62
     5
 10
127.6250255625018
 20
1836.6841962861492
 30
0.0
  0
VERTEX
  8
DETAIL
  6
CONTINUOUS
 62
     5
 10
127.62741868801079
 20
1836.6726872732636
 30
0.0
  0
VERTEX
  8
DETAIL
  6
CONTINUOUS
 62
     5
 10
127.6300326074263
 20
1836.661222078028
 30
0.0
  0
VERTEX
  8
DETAIL
  6
CONTINUOUS
 62
     5
 10
127.63290893749014
 20
1836.6498512294904
 30
0.0
  0
VERTEX
  8
DETAIL
  6
CONTINUOUS
 62
     5
 10
127.63608929494424
 20
1836.6386252566986
 30
0.0
  0
VERTEX
  8
DETAIL
  6
CONTINUOUS
 62
     5
 10
127.63961529653052
 20
1836.627594688701
 30
0.0
  0
VERTEX
  8
DETAIL
  6
CONTINUOUS
 62
     5
 10
127.64363951103665
 20
1836.6168272099824
 30
0.0
  0
VERTEX
  8
DETAIL
  6
CONTINUOUS
 62
     5
 10
127.64956234954164
 20
1836.6065834467624
 30
0.0
  0
VERTEX
  8
DETAIL
  6
CONTINUOUS
 62
     5
 10
127.6592228541558
 20
1836.5999999999381
 30
0.0
  0
SEQEND
  8
DETAIL
  6
CONTINUOUS
 62
     5
  0
LINE
  8
DETAIL
  6
CONTINUOUS
 62
     5
 10
-189.014931990343
 20
710.23772170163829
 30
0.0
 11
-189.03743211694379
 21
711.51754603123663
 31
0.0
  0
POLYLINE
  8
DETAIL
  6
CONTINUOUS
 62
     5
 66
     1
 10
0.0
 20
0.0
 30
0.0
  0
VERTEX
  8
DETAIL
  6
CONTINUOUS
 62
     5
 10
-190.04580811234331
 20
711.99999999993634
 30
0.0
  0
VERTEX
  8
DETAIL
  6
CONTINUOUS
 62
     5
 10
-189.98186081917825
 20
712.0457313763369
 30
0.0
  0
VERTEX
  8
DETAIL
  6
CONTINUOUS
 62
     5
 10
-189.91785491955278
 20
712.09139136809256
 30
0.0
  0
VERTEX
  8
DETAIL
  6
CONTINUOUS
 62
     5
 10
-189.85374321146381
 20
712.1369387769272
 30
0.0
  0
VERTEX
  8
DETAIL
  6
CONTINUOUS
 62
     5
 10
-189.78941219518461
 20
712.18219337268988
 30
0.0
  0
VERTEX
  8
DETAIL
  6
CONTINUOUS
 62
     5
 10
-189.72472788613248
 20
712.22693196677255
 30
0.0
  0
VERTEX
  8
DETAIL
  6
CONTINUOUS
 62
     5
 10
-189.65955629375821
 20
712.27093135805478
 30
0.0
  0
VERTEX
  8
DETAIL
  6
CONTINUOUS
 62
     5
 10
-189.59376342751258
 20
712.31396834541601
 30
0.0
  0
VERTEX
  8
DETAIL
  6
CONTINUOUS
 62
     5
 10
-189.52721529684641
 20
712.35581972773605
 30
0.0
  0
SEQEND
  8
DETAIL
  6
CONTINUOUS
 62
     5
  0
LINE
  8
DETAIL
  6
CONTINUOUS
 62
     5
 10
-189.03743211694379
 20
711.51754603123663
 30
0.0
 11
-189.03810476593929
 21
711.53977988193765
 31
0.0
  0
POLYLINE
  8
DETAIL
  6
CONTINUOUS
 62
     5
 66
     1
 10
0.0
 20
0.0
 30
0.0
  0
VERTEX
  8
DETAIL
  6
CONTINUOUS
 62
     5
 10
129.50276346835739
 20
704.49580330823846
 30
0.0
  0
VERTEX
  8
DETAIL
  6
CONTINUOUS
 62
     5
 10
129.41797827180886
 20
704.4881649588865
 30
0.0
  0
VERTEX
  8
DETAIL
  6
CONTINUOUS
 62
     5
 10
129.33290882868081
 20
704.48480454154435
 30
0.0
  0
VERTEX
  8
DETAIL
  6
CONTINUOUS
 62
     5
 10
129.2477206805045
 20
704.482436345471
 30
0.0
  0
VERTEX
  8
DETAIL
  6
CONTINUOUS
 62
     5
 10
129.16253992184318
 20
704.48054182883277
 30
0.0
  0
VERTEX
  8
DETAIL
  6
CONTINUOUS
 62
     5
 10
129.07733578095986
 20
704.47903674662757
 30
0.0
  0
VERTEX
  8
DETAIL
  6
CONTINUOUS
 62
     5
 10
128.99213016964885
 20
704.47781207583171
 30
0.0
  0
VERTEX
  8
DETAIL
  6
CONTINUOUS
 62
     5
 10
128.90692679837235
 20
704.47682234643491
 30
0.0
  0
VERTEX
  8
DETAIL
  6
CONTINUOUS
 62
     5
 10
128.82172234688213
 20
704.4760466688931
 30
0.0
  0
VERTEX
  8
DETAIL
  6
CONTINUOUS
 62
     5
 10
128.73651478183737
 20
704.47546700141993
 30
0.0
  0
VERTEX
  8
DETAIL
  6
CONTINUOUS
 62
     5
 10
128.65130502938183
 20
704.47507165459297
 30
0.0
  0
VERTEX
  8
DETAIL
  6
CONTINUOUS
 62
     5
 10
128.56609442431949
 20
704.47484982062326
 30
0.0
  0
VERTEX
  8
DETAIL
  6
CONTINUOUS
 62
     5
 10
128.48088400378171
 20
704.47479389892237
 30
0.0
  0
VERTEX
  8
DETAIL
  6
CONTINUOUS
 62
     5
 10
128.39567396386096
 20
704.47490535048212
 30
0.0
  0
VERTEX
  8
DETAIL
  6
CONTINUOUS
 62
     5
 10
128.3104643531633
 20
704.47518722535017
 30
0.0
  0
VERTEX
  8
DETAIL
  6
CONTINUOUS
 62
     5
 10
128.22525531560655
 20
704.47564448046876
 30
0.0
  0
VERTEX
  8
DETAIL
  6
CONTINUOUS
 62
     5
 10
128.14004747077678
 20
704.47629158944051
 30
0.0
  0
VERTEX
  8
DETAIL
  6
CONTINUOUS
 62
     5
 10
128.05484158635221
 20
704.47714598873779
 30
0.0
  0
SEQEND
  8
DETAIL
  6
CONTINUOUS
 62
     5
  0
POLYLINE
  8
DETAIL
  6
CONTINUOUS
 62
     5
 66
     1
 10
0.0
 20
0.0
 30
0.0
  0
VERTEX
  8
DETAIL
  6
CONTINUOUS
 62
     5
 10
-347.1568542494424
 20
1143.999999999937
 30
0.0
  0
VERTEX
  8
DETAIL
  6
CONTINUOUS
 62
     5
 10
-347.11893662040688
 20
1142.9634098357467
 30
0.0
  0
VERTEX
  8
DETAIL
  6
CONTINUOUS
 62
     5
 10
-347.00407343274509
 20
1141.930847890158
 30
0.0
  0
VERTEX
  8
DETAIL
  6
CONTINUOUS
 62
     5
 10
-346.81059923562435
 20
1140.9089252004678
 30
0.0
  0
VERTEX
  8
DETAIL
  6
CONTINUOUS
 62
     5
 10
-346.53677697346774
 20
1139.904434748941
 30
0.0
  0
VERTEX
  8
DETAIL
  6
CONTINUOUS
 62
     5
 10
-346.17983555098687
 20
1138.9267969739331
 30
0.0
  0
VERTEX
  8
DETAIL
  6
CONTINUOUS
 62
     5
 10
-345.73622656178367
 20
1137.9874074321549
 30
0.0
  0
VERTEX
  8
DETAIL
  6
CONTINUOUS
 62
     5
 10
-345.20236713113712
 20
1137.0978048191655
 30
0.0
  0
VERTEX
  8
DETAIL
  6
CONTINUOUS
 62
     5
 10
-344.57413745163609
 20
1136.2728137144395
 30
0.0
  0
VERTEX
  8
DETAIL
  6
CONTINUOUS
 62
     5
 10
-343.84759609112689
 20
1135.5325558621169
 30
0.0
  0
VERTEX
  8
DETAIL
  6
CONTINUOUS
 62
     5
 10
-343.02301299905884
 20
1134.9035270022755
 30
0.0
  0
VERTEX
  8
DETAIL
  6
CONTINUOUS
 62
     5
 10
-342.10658119953928
 20
1134.4171729640507
 30
0.0
  0
VERTEX
  8
DETAIL
  6
CONTINUOUS
 62
     5
 10
-341.11703443354048
 20
1134.106918864238
 30
0.0
  0
SEQEND
  8
DETAIL
  6
CONTINUOUS
 62
     5
  0
POLYLINE
  8
DETAIL
  6
CONTINUOUS
 62
     5
 66
     1
 10
0.0
 20
0.0
 30
0.0
  0
VERTEX
  8
DETAIL
  6
CONTINUOUS
 62
     5
 10
-347.1568542494424
 20
1343.999999999937
 30
0.0
  0
VERTEX
  8
DETAIL
  6
CONTINUOUS
 62
     5
 10
-347.11893662040688
 20
1342.9634098357469
 30
0.0
  0
VERTEX
  8
DETAIL
  6
CONTINUOUS
 62
     5
 10
-347.00407343274509
 20
1341.930847890158
 30
0.0
  0
VERTEX
  8
DETAIL
  6
CONTINUOUS
 62
     5
 10
-346.81059923562435
 20
1340.9089252004678
 30
0.0
  0
VERTEX
  8
DETAIL
  6
CONTINUOUS
 62
     5
 10
-346.53677697346774
 20
1339.9044347489407
 30
0.0
  0
VERTEX
  8
DETAIL
  6
CONTINUOUS
 62
     5
 10
-346.17983555098687
 20
1338.9267969739331
 30
0.0
  0
VERTEX
  8
DETAIL
  6
CONTINUOUS
 62
     5
 10
-345.73622656178367
 20
1337.9874074321549
 30
0.0
  0
VERTEX
  8
DETAIL
  6
CONTINUOUS
 62
     5
 10
-345.20236713113712
 20
1337.0978048191655
 30
0.0
  0
VERTEX
  8
DETAIL
  6
CONTINUOUS
 62
     5
 10
-344.57413745163609
 20
1336.2728137144393
 30
0.0
  0
VERTEX
  8
DETAIL
  6
CONTINUOUS
 62
     5
 10
-343.84759609112689
 20
1335.5325558621164
 30
0.0
  0
VERTEX
  8
DETAIL
  6
CONTINUOUS
 62
     5
 10
-343.02301299905884
 20
1334.903527002275
 30
0.0
  0
VERTEX
  8
DETAIL
  6
CONTINUOUS
 62
     5
 10
-342.10658119953928
 20
1334.4171729640507
 30
0.0
  0
VERTEX
  8
DETAIL
  6
CONTINUOUS
 62
     5
 10
-341.11703443354048
 20
1334.106918864238
 30
0.0
  0
SEQEND
  8
DETAIL
  6
CONTINUOUS
 62
     5
  0
POLYLINE
  8
DETAIL
  6
CONTINUOUS
 62
     5
 66
     1
 10
0.0
 20
0.0
 30
0.0
  0
VERTEX
  8
DETAIL
  6
CONTINUOUS
 62
     5
 10
-340.62567943784228
 20
749.03195221973692
 30
0.0
  0
VERTEX
  8
DETAIL
  6
CONTINUOUS
 62
     5
 10
-339.67970270730399
 20
749.25576976137188
 30
0.0
  0
VERTEX
  8
DETAIL
  6
CONTINUOUS
 62
     5
 10
-338.79812989262808
 20
749.66648217150407
 30
0.0
  0
VERTEX
  8
DETAIL
  6
CONTINUOUS
 62
     5
 10
-338.00214353064979
 20
750.22484515888243
 30
0.0
  0
VERTEX
  8
DETAIL
  6
CONTINUOUS
 62
     5
 10
-337.29737219095881
 20
750.89493815115372
 30
0.0
  0
VERTEX
  8
DETAIL
  6
CONTINUOUS
 62
     5
 10
-336.68275538267187
 20
751.64820592171884
 30
0.0
  0
VERTEX
  8
DETAIL
  6
CONTINUOUS
 62
     5
 10
-336.15394996408321
 20
752.46415168784893
 30
0.0
  0
VERTEX
  8
DETAIL
  6
CONTINUOUS
 62
     5
 10
-335.70615510101686
 20
753.32704882360406
 30
0.0
  0
VERTEX
  8
DETAIL
  6
CONTINUOUS
 62
     5
 10
-335.33486484991727
 20
754.22507953596073
 30
0.0
  0
VERTEX
  8
DETAIL
  6
CONTINUOUS
 62
     5
 10
-335.03603778127336
 20
755.15022878305479
 30
0.0
  0
VERTEX
  8
DETAIL
  6
CONTINUOUS
 62
     5
 10
-334.80617373064314
 20
756.09650928902511
 30
0.0
  0
VERTEX
  8
DETAIL
  6
CONTINUOUS
 62
     5
 10
-334.64346028395624
 20
757.0577394550703
 30
0.0
  0
VERTEX
  8
DETAIL
  6
CONTINUOUS
 62
     5
 10
-334.54670555430664
 20
758.02765712084249
 30
0.0
  0
VERTEX
  8
DETAIL
  6
CONTINUOUS
 62
     5
 10
-334.5147186257455
 20
758.99999999993634
 30
0.0
  0
SEQEND
  8
DETAIL
  6
CONTINUOUS
 62
     5
  0
POLYLINE
  8
DETAIL
  6
CONTINUOUS
 62
     5
 66
     1
 10
0.0
 20
0.0
 30
0.0
  0
VERTEX
  8
DETAIL
  6
CONTINUOUS
 62
     5
 10
-334.5147186257455
 20
893.99999999993634
 30
0.0
  0
VERTEX
  8
DETAIL
  6
CONTINUOUS
 62
     5
 10
-334.54670267758837
 20
894.97229894263171
 30
0.0
  0
VERTEX
  8
DETAIL
  6
CONTINUOUS
 62
     5
 10
-334.6434486146652
 20
895.94217292840119
 30
0.0
  0
VERTEX
  8
DETAIL
  6
CONTINUOUS
 62
     5
 10
-334.80614710929865
 20
896.90336061107041
 30
0.0
  0
VERTEX
  8
DETAIL
  6
CONTINUOUS
 62
     5
 10
-335.03598980603851
 20
897.8496007708377
 30
0.0
  0
VERTEX
  8
DETAIL
  6
CONTINUOUS
 62
     5
 10
-335.33478885179898
 20
898.77471284215176
 30
0.0
  0
VERTEX
  8
DETAIL
  6
CONTINUOUS
 62
     5
 10
-335.70604375693284
 20
899.67271077759801
 30
0.0
  0
VERTEX
  8
DETAIL
  6
CONTINUOUS
 62
     5
 10
-336.15379519309528
 20
900.5355809959035
 30
0.0
  0
VERTEX
  8
DETAIL
  6
CONTINUOUS
 62
     5
 10
-336.68254829782995
 20
901.35150831019007
 30
0.0
  0
VERTEX
  8
DETAIL
  6
CONTINUOUS
 62
     5
 10
-337.29710332804098
 20
902.10476981664021
 30
0.0
  0
VERTEX
  8
DETAIL
  6
CONTINUOUS
 62
     5
 10
-338.00180332120334
 20
902.77487399626921
 30
0.0
  0
VERTEX
  8
DETAIL
  6
CONTINUOUS
 62
     5
 10
-338.79771075803023
 20
903.33327297079552
 30
0.0
  0
VERTEX
  8
DETAIL
  6
CONTINUOUS
 62
     5
 10
-339.67920299992301
 20
903.74405440886176
 30
0.0
  0
VERTEX
  8
DETAIL
  6
CONTINUOUS
 62
     5
 10
-340.6251095286425
 20
903.96797788583706
 30
0.0
  0
SEQEND
  8
DETAIL
  6
CONTINUOUS
 62
     5
  0
POLYLINE
  8
DETAIL
  6
CONTINUOUS
 62
     5
 66
     1
 10
0.0
 20
0.0
 30
0.0
  0
VERTEX
  8
DETAIL
  6
CONTINUOUS
 62
     5
 10
-347.1568542494424
 20
943.99999999993724
 30
0.0
  0
VERTEX
  8
DETAIL
  6
CONTINUOUS
 62
     5
 10
-347.11893662040688
 20
942.96340983574703
 30
0.0
  0
VERTEX
  8
DETAIL
  6
CONTINUOUS
 62
     5
 10
-347.00407343274509
 20
941.93084789015859
 30
0.0
  0
VERTEX
  8
DETAIL
  6
CONTINUOUS
 62
     5
 10
-346.81059923562435
 20
940.90892520046827
 30
0.0
  0
VERTEX
  8
DETAIL
  6
CONTINUOUS
 62
     5
 10
-346.53677697346774
 20
939.90443474894107
 30
0.0
  0
VERTEX
  8
DETAIL
  6
CONTINUOUS
 62
     5
 10
-346.17983555098687
 20
938.92679697393328
 30
0.0
  0
VERTEX
  8
DETAIL
  6
CONTINUOUS
 62
     5
 10
-345.73622656178367
 20
937.98740743215501
 30
0.0
  0
VERTEX
  8
DETAIL
  6
CONTINUOUS
 62
     5
 10
-345.20236713113712
 20
937.09780481916573
 30
0.0
  0
VERTEX
  8
DETAIL
  6
CONTINUOUS
 62
     5
 10
-344.57413745163609
 20
936.27281371443951
 30
0.0
  0
VERTEX
  8
DETAIL
  6
CONTINUOUS
 62
     5
 10
-343.84759609112689
 20
935.53255586211662
 30
0.0
  0
VERTEX
  8
DETAIL
  6
CONTINUOUS
 62
     5
 10
-343.02301299905884
 20
934.90352700227538
 30
0.0
  0
VERTEX
  8
DETAIL
  6
CONTINUOUS
 62
     5
 10
-342.10658119953928
 20
934.41717296404977
 30
0.0
  0
VERTEX
  8
DETAIL
  6
CONTINUOUS
 62
     5
 10
-341.11703443354048
 20
934.1069188641377
 30
0.0
  0
SEQEND
  8
DETAIL
  6
CONTINUOUS
 62
     5
  0
POLYLINE
  8
DETAIL
  6
CONTINUOUS
 62
     5
 66
     1
 10
0.0
 20
0.0
 30
0.0
  0
VERTEX
  8
DETAIL
  6
CONTINUOUS
 62
     5
 10
-341.11703443354048
 20
903.89308113563675
 30
0.0
  0
VERTEX
  8
DETAIL
  6
CONTINUOUS
 62
     5
 10
-342.10658119953928
 20
903.58282703573241
 30
0.0
  0
VERTEX
  8
DETAIL
  6
CONTINUOUS
 62
     5
 10
-343.02301299905884
 20
903.09647299755068
 30
0.0
  0
VERTEX
  8
DETAIL
  6
CONTINUOUS
 62
     5
 10
-343.84759609112689
 20
902.46744413771773
 30
0.0
  0
VERTEX
  8
DETAIL
  6
CONTINUOUS
 62
     5
 10
-344.57413745163609
 20
901.72718628536359
 30
0.0
  0
VERTEX
  8
DETAIL
  6
CONTINUOUS
 62
     5
 10
-345.20236713113712
 20
900.90219518065499
 30
0.0
  0
VERTEX
  8
DETAIL
  6
CONTINUOUS
 62
     5
 10
-345.73622656178372
 20
900.0125925676839
 30
0.0
  0
VERTEX
  8
DETAIL
  6
CONTINUOUS
 62
     5
 10
-346.17983555098687
 20
899.07320302589721
 30
0.0
  0
VERTEX
  8
DETAIL
  6
CONTINUOUS
 62
     5
 10
-346.53677697346768
 20
898.09556525086793
 30
0.0
  0
VERTEX
  8
DETAIL
  6
CONTINUOUS
 62
     5
 10
-346.81059923562435
 20
897.09107479932095
 30
0.0
  0
VERTEX
  8
DETAIL
  6
CONTINUOUS
 62
     5
 10
-347.00407343274503
 20
896.06915210962723
 30
0.0
  0
VERTEX
  8
DETAIL
  6
CONTINUOUS
 62
     5
 10
-347.11893662040683
 20
895.03659016406266
 30
0.0
  0
VERTEX
  8
DETAIL
  6
CONTINUOUS
 62
     5
 10
-347.1568542494424
 20
893.99999999993634
 30
0.0
  0
SEQEND
  8
DETAIL
  6
CONTINUOUS
 62
     5
  0
POLYLINE
  8
DETAIL
  6
CONTINUOUS
 62
     5
 66
     1
 10
0.0
 20
0.0
 30
0.0
  0
VERTEX
  8
DETAIL
  6
CONTINUOUS
 62
     5
 10
-340.62567943784228
 20
934.03195221973681
 30
0.0
  0
VERTEX
  8
DETAIL
  6
CONTINUOUS
 62
     5
 10
-339.67970270730399
 20
934.25576976137199
 30
0.0
  0
VERTEX
  8
DETAIL
  6
CONTINUOUS
 62
     5
 10
-338.79812989262808
 20
934.66648217150419
 30
0.0
  0
VERTEX
  8
DETAIL
  6
CONTINUOUS
 62
     5
 10
-338.00214353064979
 20
935.22484515888243
 30
0.0
  0
VERTEX
  8
DETAIL
  6
CONTINUOUS
 62
     5
 10
-337.29737219095881
 20
935.89493815115361
 30
0.0
  0
VERTEX
  8
DETAIL
  6
CONTINUOUS
 62
     5
 10
-336.68275538267187
 20
936.64820592171827
 30
0.0
  0
VERTEX
  8
DETAIL
  6
CONTINUOUS
 62
     5
 10
-336.15394996408321
 20
937.46415168784847
 30
0.0
  0
VERTEX
  8
DETAIL
  6
CONTINUOUS
 62
     5
 10
-335.70615510101686
 20
938.32704882360383
 30
0.0
  0
VERTEX
  8
DETAIL
  6
CONTINUOUS
 62
     5
 10
-335.33486484991727
 20
939.22507953596062
 30
0.0
  0
VERTEX
  8
DETAIL
  6
CONTINUOUS
 62
     5
 10
-335.03603778127336
 20
940.15022878305467
 30
0.0
  0
VERTEX
  8
DETAIL
  6
CONTINUOUS
 62
     5
 10
-334.80617373064314
 20
941.09650928902533
 30
0.0
  0
VERTEX
  8
DETAIL
  6
CONTINUOUS
 62
     5
 10
-334.64346028395624
 20
942.05773945507099
 30
0.0
  0
VERTEX
  8
DETAIL
  6
CONTINUOUS
 62
     5
 10
-334.54670555430664
 20
943.02765712084329
 30
0.0
  0
VERTEX
  8
DETAIL
  6
CONTINUOUS
 62
     5
 10
-334.5147186257455
 20
943.99999999993724
 30
0.0
  0
SEQEND
  8
DETAIL
  6
CONTINUOUS
 62
     5
  0
POLYLINE
  8
DETAIL
  6
CONTINUOUS
 62
     5
 66
     1
 10
0.0
 20
0.0
 30
0.0
  0
VERTEX
  8
DETAIL
  6
CONTINUOUS
 62
     5
 10
-334.5147186257455
 20
1093.999999999937
 30
0.0
  0
VERTEX
  8
DETAIL
  6
CONTINUOUS
 62
     5
 10
-334.54670267758837
 20
1094.9722989426323
 30
0.0
  0
VERTEX
  8
DETAIL
  6
CONTINUOUS
 62
     5
 10
-334.6434486146652
 20
1095.9421729284011
 30
0.0
  0
VERTEX
  8
DETAIL
  6
CONTINUOUS
 62
     5
 10
-334.80614710929865
 20
1096.9033606110704
 30
0.0
  0
VERTEX
  8
DETAIL
  6
CONTINUOUS
 62
     5
 10
-335.03598980603851
 20
1097.8496007708377
 30
0.0
  0
VERTEX
  8
DETAIL
  6
CONTINUOUS
 62
     5
 10
-335.33478885179898
 20
1098.7747128421515
 30
0.0
  0
VERTEX
  8
DETAIL
  6
CONTINUOUS
 62
     5
 10
-335.70604375693284
 20
1099.6727107775978
 30
0.0
  0
VERTEX
  8
DETAIL
  6
CONTINUOUS
 62
     5
 10
-336.15379519309528
 20
1100.5355809959033
 30
0.0
  0
VERTEX
  8
DETAIL
  6
CONTINUOUS
 62
     5
 10
-336.68254829782995
 20
1101.3515083101897
 30
0.0
  0
VERTEX
  8
DETAIL
  6
CONTINUOUS
 62
     5
 10
-337.29710332804098
 20
1102.1047698166399
 30
0.0
  0
VERTEX
  8
DETAIL
  6
CONTINUOUS
 62
     5
 10
-338.00180332120334
 20
1102.7748739962688
 30
0.0
  0
VERTEX
  8
DETAIL
  6
CONTINUOUS
 62
     5
 10
-338.79771075803023
 20
1103.3332729707954
 30
0.0
  0
VERTEX
  8
DETAIL
  6
CONTINUOUS
 62
     5
 10
-339.67920299992301
 20
1103.7440544088618
 30
0.0
  0
VERTEX
  8
DETAIL
  6
CONTINUOUS
 62
     5
 10
-340.6251095286425
 20
1103.9679778858369
 30
0.0
  0
SEQEND
  8
DETAIL
  6
CONTINUOUS
 62
     5
  0
POLYLINE
  8
DETAIL
  6
CONTINUOUS
 62
     5
 66
     1
 10
0.0
 20
0.0
 30
0.0
  0
VERTEX
  8
DETAIL
  6
CONTINUOUS
 62
     5
 10
-341.11703443354048
 20
1103.893081135637
 30
0.0
  0
VERTEX
  8
DETAIL
  6
CONTINUOUS
 62
     5
 10
-342.10658119953928
 20
1103.5828270357324
 30
0.0
  0
VERTEX
  8
DETAIL
  6
CONTINUOUS
 62
     5
 10
-343.02301299905884
 20
1103.0964729975503
 30
0.0
  0
VERTEX
  8
DETAIL
  6
CONTINUOUS
 62
     5
 10
-343.84759609112689
 20
1102.4674441377176
 30
0.0
  0
VERTEX
  8
DETAIL
  6
CONTINUOUS
 62
     5
 10
-344.57413745163609
 20
1101.727186285364
 30
0.0
  0
VERTEX
  8
DETAIL
  6
CONTINUOUS
 62
     5
 10
-345.20236713113712
 20
1100.9021951806558
 30
0.0
  0
VERTEX
  8
DETAIL
  6
CONTINUOUS
 62
     5
 10
-345.73622656178372
 20
1100.0125925676846
 30
0.0
  0
VERTEX
  8
DETAIL
  6
CONTINUOUS
 62
     5
 10
-346.17983555098687
 20
1099.0732030258978
 30
0.0
  0
VERTEX
  8
DETAIL
  6
CONTINUOUS
 62
     5
 10
-346.53677697346768
 20
1098.0955652508683
 30
0.0
  0
VERTEX
  8
DETAIL
  6
CONTINUOUS
 62
     5
 10
-346.81059923562435
 20
1097.0910747993212
 30
0.0
  0
VERTEX
  8
DETAIL
  6
CONTINUOUS
 62
     5
 10
-347.00407343274503
 20
1096.0691521096273
 30
0.0
  0
VERTEX
  8
DETAIL
  6
CONTINUOUS
 62
     5
 10
-347.11893662040683
 20
1095.036590164063
 30
0.0
  0
VERTEX
  8
DETAIL
  6
CONTINUOUS
 62
     5
 10
-347.1568542494424
 20
1093.999999999937
 30
0.0
  0
SEQEND
  8
DETAIL
  6
CONTINUOUS
 62
     5
  0
POLYLINE
  8
DETAIL
  6
CONTINUOUS
 62
     5
 66
     1
 10
0.0
 20
0.0
 30
0.0
  0
VERTEX
  8
DETAIL
  6
CONTINUOUS
 62
     5
 10
-340.62567943784228
 20
1334.0319522197369
 30
0.0
  0
VERTEX
  8
DETAIL
  6
CONTINUOUS
 62
     5
 10
-339.67970270730399
 20
1334.255769761372
 30
0.0
  0
VERTEX
  8
DETAIL
  6
CONTINUOUS
 62
     5
 10
-338.79812989262808
 20
1334.666482171504
 30
0.0
  0
VERTEX
  8
DETAIL
  6
CONTINUOUS
 62
     5
 10
-338.00214353064979
 20
1335.2248451588823
 30
0.0
  0
VERTEX
  8
DETAIL
  6
CONTINUOUS
 62
     5
 10
-337.29737219095881
 20
1335.8949381511532
 30
0.0
  0
VERTEX
  8
DETAIL
  6
CONTINUOUS
 62
     5
 10
-336.68275538267187
 20
1336.6482059217183
 30
0.0
  0
VERTEX
  8
DETAIL
  6
CONTINUOUS
 62
     5
 10
-336.15394996408321
 20
1337.4641516878485
 30
0.0
  0
VERTEX
  8
DETAIL
  6
CONTINUOUS
 62
     5
 10
-335.70615510101686
 20
1338.3270488236039
 30
0.0
  0
VERTEX
  8
DETAIL
  6
CONTINUOUS
 62
     5
 10
-335.33486484991727
 20
1339.2250795359605
 30
0.0
  0
VERTEX
  8
DETAIL
  6
CONTINUOUS
 62
     5
 10
-335.03603778127336
 20
1340.1502287830549
 30
0.0
  0
VERTEX
  8
DETAIL
  6
CONTINUOUS
 62
     5
 10
-334.80617373064314
 20
1341.0965092890253
 30
0.0
  0
VERTEX
  8
DETAIL
  6
CONTINUOUS
 62
     5
 10
-334.64346028395624
 20
1342.0577394550708
 30
0.0
  0
VERTEX
  8
DETAIL
  6
CONTINUOUS
 62
     5
 10
-334.54670555430664
 20
1343.0276571208431
 30
0.0
  0
VERTEX
  8
DETAIL
  6
CONTINUOUS
 62
     5
 10
-334.5147186257455
 20
1343.999999999937
 30
0.0
  0
SEQEND
  8
DETAIL
  6
CONTINUOUS
 62
     5
  0
POLYLINE
  8
DETAIL
  6
CONTINUOUS
 62
     5
 66
     1
 10
0.0
 20
0.0
 30
0.0
  0
VERTEX
  8
DETAIL
  6
CONTINUOUS
 62
     5
 10
-334.5147186257455
 20
1493.999999999937
 30
0.0
  0
VERTEX
  8
DETAIL
  6
CONTINUOUS
 62
     5
 10
-334.54670267758837
 20
1494.9722989426321
 30
0.0
  0
VERTEX
  8
DETAIL
  6
CONTINUOUS
 62
     5
 10
-334.6434486146652
 20
1495.9421729284011
 30
0.0
  0
VERTEX
  8
DETAIL
  6
CONTINUOUS
 62
     5
 10
-334.80614710929865
 20
1496.9033606110704
 30
0.0
  0
VERTEX
  8
DETAIL
  6
CONTINUOUS
 62
     5
 10
-335.03598980603851
 20
1497.8496007708375
 30
0.0
  0
VERTEX
  8
DETAIL
  6
CONTINUOUS
 62
     5
 10
-335.33478885179898
 20
1498.7747128421518
 30
0.0
  0
VERTEX
  8
DETAIL
  6
CONTINUOUS
 62
     5
 10
-335.70604375693284
 20
1499.6727107775976
 30
0.0
  0
VERTEX
  8
DETAIL
  6
CONTINUOUS
 62
     5
 10
-336.15379519309528
 20
1500.535580995903
 30
0.0
  0
VERTEX
  8
DETAIL
  6
CONTINUOUS
 62
     5
 10
-336.68254829782995
 20
1501.3515083101897
 30
0.0
  0
VERTEX
  8
DETAIL
  6
CONTINUOUS
 62
     5
 10
-337.29710332804098
 20
1502.1047698166399
 30
0.0
  0
VERTEX
  8
DETAIL
  6
CONTINUOUS
 62
     5
 10
-338.00180332120334
 20
1502.774873996269
 30
0.0
  0
VERTEX
  8
DETAIL
  6
CONTINUOUS
 62
     5
 10
-338.79771075803023
 20
1503.3332729707959
 30
0.0
  0
VERTEX
  8
DETAIL
  6
CONTINUOUS
 62
     5
 10
-339.67920299992301
 20
1503.7440544088622
 30
0.0
  0
VERTEX
  8
DETAIL
  6
CONTINUOUS
 62
     5
 10
-340.6251095286425
 20
1503.9679778858369
 30
0.0
  0
SEQEND
  8
DETAIL
  6
CONTINUOUS
 62
     5
  0
POLYLINE
  8
DETAIL
  6
CONTINUOUS
 62
     5
 66
     1
 10
0.0
 20
0.0
 30
0.0
  0
VERTEX
  8
DETAIL
  6
CONTINUOUS
 62
     5
 10
-341.11703443354048
 20
1503.893081135637
 30
0.0
  0
VERTEX
  8
DETAIL
  6
CONTINUOUS
 62
     5
 10
-342.10658119953928
 20
1503.5828270357322
 30
0.0
  0
VERTEX
  8
DETAIL
  6
CONTINUOUS
 62
     5
 10
-343.02301299905884
 20
1503.0964729975508
 30
0.0
  0
VERTEX
  8
DETAIL
  6
CONTINUOUS
 62
     5
 10
-343.84759609112689
 20
1502.4674441377181
 30
0.0
  0
VERTEX
  8
DETAIL
  6
CONTINUOUS
 62
     5
 10
-344.57413745163609
 20
1501.727186285364
 30
0.0
  0
VERTEX
  8
DETAIL
  6
CONTINUOUS
 62
     5
 10
-345.20236713113712
 20
1500.9021951806578
 30
0.0
  0
VERTEX
  8
DETAIL
  6
CONTINUOUS
 62
     5
 10
-345.73622656178372
 20
1500.0125925676996
 30
0.0
  0
VERTEX
  8
DETAIL
  6
CONTINUOUS
 62
     5
 10
-346.17983555098687
 20
1499.0732030259337
 30
0.0
  0
VERTEX
  8
DETAIL
  6
CONTINUOUS
 62
     5
 10
-346.53677697346768
 20
1498.095565250921
 30
0.0
  0
VERTEX
  8
DETAIL
  6
CONTINUOUS
 62
     5
 10
-346.81059923562435
 20
1497.091074799373
 30
0.0
  0
VERTEX
  8
DETAIL
  6
CONTINUOUS
 62
     5
 10
-347.00407343274503
 20
1496.0691521096608
 30
0.0
  0
VERTEX
  8
DETAIL
  6
CONTINUOUS
 62
     5
 10
-347.11893662040683
 20
1495.0365901640739
 30
0.0
  0
VERTEX
  8
DETAIL
  6
CONTINUOUS
 62
     5
 10
-347.1568542494424
 20
1493.999999999937
 30
0.0
  0
SEQEND
  8
DETAIL
  6
CONTINUOUS
 62
     5
  0
POLYLINE
  8
DETAIL
  6
CONTINUOUS
 62
     5
 66
     1
 10
0.0
 20
0.0
 30
0.0
  0
VERTEX
  8
DETAIL
  6
CONTINUOUS
 62
     5
 10
-340.62567943784228
 20
1134.0319522197369
 30
0.0
  0
VERTEX
  8
DETAIL
  6
CONTINUOUS
 62
     5
 10
-339.67970270730399
 20
1134.2557697613722
 30
0.0
  0
VERTEX
  8
DETAIL
  6
CONTINUOUS
 62
     5
 10
-338.79812989262808
 20
1134.6664821715042
 30
0.0
  0
VERTEX
  8
DETAIL
  6
CONTINUOUS
 62
     5
 10
-338.00214353064979
 20
1135.2248451588823
 30
0.0
  0
VERTEX
  8
DETAIL
  6
CONTINUOUS
 62
     5
 10
-337.29737219095881
 20
1135.8949381511532
 30
0.0
  0
VERTEX
  8
DETAIL
  6
CONTINUOUS
 62
     5
 10
-336.68275538267187
 20
1136.6482059217183
 30
0.0
  0
VERTEX
  8
DETAIL
  6
CONTINUOUS
 62
     5
 10
-336.15394996408321
 20
1137.4641516878482
 30
0.0
  0
VERTEX
  8
DETAIL
  6
CONTINUOUS
 62
     5
 10
-335.70615510101686
 20
1138.3270488236037
 30
0.0
  0
VERTEX
  8
DETAIL
  6
CONTINUOUS
 62
     5
 10
-335.33486484991727
 20
1139.2250795359605
 30
0.0
  0
VERTEX
  8
DETAIL
  6
CONTINUOUS
 62
     5
 10
-335.03603778127336
 20
1140.1502287830549
 30
0.0
  0
VERTEX
  8
DETAIL
  6
CONTINUOUS
 62
     5
 10
-334.80617373064314
 20
1141.0965092890253
 30
0.0
  0
VERTEX
  8
DETAIL
  6
CONTINUOUS
 62
     5
 10
-334.64346028395624
 20
1142.057739455071
 30
0.0
  0
VERTEX
  8
DETAIL
  6
CONTINUOUS
 62
     5
 10
-334.54670555430664
 20
1143.0276571208431
 30
0.0
  0
VERTEX
  8
DETAIL
  6
CONTINUOUS
 62
     5
 10
-334.5147186257455
 20
1143.999999999937
 30
0.0
  0
SEQEND
  8
DETAIL
  6
CONTINUOUS
 62
     5
  0
POLYLINE
  8
DETAIL
  6
CONTINUOUS
 62
     5
 66
     1
 10
0.0
 20
0.0
 30
0.0
  0
VERTEX
  8
DETAIL
  6
CONTINUOUS
 62
     5
 10
-334.5147186257455
 20
1293.999999999937
 30
0.0
  0
VERTEX
  8
DETAIL
  6
CONTINUOUS
 62
     5
 10
-334.54670267758837
 20
1294.9722989426321
 30
0.0
  0
VERTEX
  8
DETAIL
  6
CONTINUOUS
 62
     5
 10
-334.6434486146652
 20
1295.9421729284011
 30
0.0
  0
VERTEX
  8
DETAIL
  6
CONTINUOUS
 62
     5
 10
-334.80614710929865
 20
1296.9033606110704
 30
0.0
  0
VERTEX
  8
DETAIL
  6
CONTINUOUS
 62
     5
 10
-335.03598980603851
 20
1297.8496007708375
 30
0.0
  0
VERTEX
  8
DETAIL
  6
CONTINUOUS
 62
     5
 10
-335.33478885179898
 20
1298.7747128421518
 30
0.0
  0
VERTEX
  8
DETAIL
  6
CONTINUOUS
 62
     5
 10
-335.70604375693284
 20
1299.6727107775978
 30
0.0
  0
VERTEX
  8
DETAIL
  6
CONTINUOUS
 62
     5
 10
-336.15379519309528
 20
1300.535580995903
 30
0.0
  0
VERTEX
  8
DETAIL
  6
CONTINUOUS
 62
     5
 10
-336.68254829782995
 20
1301.3515083101897
 30
0.0
  0
VERTEX
  8
DETAIL
  6
CONTINUOUS
 62
     5
 10
-337.29710332804098
 20
1302.1047698166399
 30
0.0
  0
VERTEX
  8
DETAIL
  6
CONTINUOUS
 62
     5
 10
-338.00180332120334
 20
1302.7748739962688
 30
0.0
  0
VERTEX
  8
DETAIL
  6
CONTINUOUS
 62
     5
 10
-338.79771075803023
 20
1303.3332729707956
 30
0.0
  0
VERTEX
  8
DETAIL
  6
CONTINUOUS
 62
     5
 10
-339.67920299992301
 20
1303.744054408862
 30
0.0
  0
VERTEX
  8
DETAIL
  6
CONTINUOUS
 62
     5
 10
-340.6251095286425
 20
1303.9679778858369
 30
0.0
  0
SEQEND
  8
DETAIL
  6
CONTINUOUS
 62
     5
  0
POLYLINE
  8
DETAIL
  6
CONTINUOUS
 62
     5
 66
     1
 10
0.0
 20
0.0
 30
0.0
  0
VERTEX
  8
DETAIL
  6
CONTINUOUS
 62
     5
 10
-341.11703443354048
 20
1303.893081135637
 30
0.0
  0
VERTEX
  8
DETAIL
  6
CONTINUOUS
 62
     5
 10
-342.10658119953928
 20
1303.5828270357322
 30
0.0
  0
VERTEX
  8
DETAIL
  6
CONTINUOUS
 62
     5
 10
-343.02301299905884
 20
1303.0964729975508
 30
0.0
  0
VERTEX
  8
DETAIL
  6
CONTINUOUS
 62
     5
 10
-343.84759609112689
 20
1302.4674441377181
 30
0.0
  0
VERTEX
  8
DETAIL
  6
CONTINUOUS
 62
     5
 10
-344.57413745163609
 20
1301.727186285364
 30
0.0
  0
VERTEX
  8
DETAIL
  6
CONTINUOUS
 62
     5
 10
-345.20236713113712
 20
1300.9021951806581
 30
0.0
  0
VERTEX
  8
DETAIL
  6
CONTINUOUS
 62
     5
 10
-345.73622656178372
 20
1300.0125925676994
 30
0.0
  0
VERTEX
  8
DETAIL
  6
CONTINUOUS
 62
     5
 10
-346.17983555098687
 20
1299.0732030259335
 30
0.0
  0
VERTEX
  8
DETAIL
  6
CONTINUOUS
 62
     5
 10
-346.53677697346768
 20
1298.0955652509206
 30
0.0
  0
VERTEX
  8
DETAIL
  6
CONTINUOUS
 62
     5
 10
-346.81059923562435
 20
1297.0910747993732
 30
0.0
  0
VERTEX
  8
DETAIL
  6
CONTINUOUS
 62
     5
 10
-347.00407343274503
 20
1296.0691521096605
 30
0.0
  0
VERTEX
  8
DETAIL
  6
CONTINUOUS
 62
     5
 10
-347.11893662040683
 20
1295.0365901640739
 30
0.0
  0
VERTEX
  8
DETAIL
  6
CONTINUOUS
 62
     5
 10
-347.1568542494424
 20
1293.999999999937
 30
0.0
  0
SEQEND
  8
DETAIL
  6
CONTINUOUS
 62
     5
  0
POLYLINE
  8
DETAIL
  6
CONTINUOUS
 62
     5
 66
     1
 10
0.0
 20
0.0
 30
0.0
  0
VERTEX
  8
DETAIL
  6
CONTINUOUS
 62
     5
 10
-347.1568542494424
 20
758.99999999993634
 30
0.0
  0
VERTEX
  8
DETAIL
  6
CONTINUOUS
 62
     5
 10
-347.11893662040688
 20
757.96340983574692
 30
0.0
  0
VERTEX
  8
DETAIL
  6
CONTINUOUS
 62
     5
 10
-347.00407343274509
 20
756.93084789015847
 30
0.0
  0
VERTEX
  8
DETAIL
  6
CONTINUOUS
 62
     5
 10
-346.81059923562435
 20
755.90892520046793
 30
0.0
  0
VERTEX
  8
DETAIL
  6
CONTINUOUS
 62
     5
 10
-346.53677697346774
 20
754.90443474894062
 30
0.0
  0
VERTEX
  8
DETAIL
  6
CONTINUOUS
 62
     5
 10
-346.17983555098687
 20
753.92679697393271
 30
0.0
  0
VERTEX
  8
DETAIL
  6
CONTINUOUS
 62
     5
 10
-345.73622656178367
 20
752.98740743215455
 30
0.0
  0
VERTEX
  8
DETAIL
  6
CONTINUOUS
 62
     5
 10
-345.20236713113712
 20
752.09780481916528
 30
0.0
  0
VERTEX
  8
DETAIL
  6
CONTINUOUS
 62
     5
 10
-344.57413745163609
 20
751.27281371443928
 30
0.0
  0
VERTEX
  8
DETAIL
  6
CONTINUOUS
 62
     5
 10
-343.84759609112689
 20
750.53255586211628
 30
0.0
  0
VERTEX
  8
DETAIL
  6
CONTINUOUS
 62
     5
 10
-343.02301299905884
 20
749.90352700227447
 30
0.0
  0
VERTEX
  8
DETAIL
  6
CONTINUOUS
 62
     5
 10
-342.10658119953928
 20
749.41717296404943
 30
0.0
  0
VERTEX
  8
DETAIL
  6
CONTINUOUS
 62
     5
 10
-341.11703443354048
 20
749.10691886413758
 30
0.0
  0
SEQEND
  8
DETAIL
  6
CONTINUOUS
 62
     5
  0
POLYLINE
  8
DETAIL
  6
CONTINUOUS
 62
     5
 66
     1
 10
0.0
 20
0.0
 30
0.0
  0
VERTEX
  8
DETAIL
  6
CONTINUOUS
 62
     5
 10
-325.17971049334301
 20
1573.4016390909369
 30
0.0
  0
VERTEX
  8
DETAIL
  6
CONTINUOUS
 62
     5
 10
-325.18650777732051
 20
1573.4066270321216
 30
0.0
  0
VERTEX
  8
DETAIL
  6
CONTINUOUS
 62
     5
 10
-325.19191497249057
 20
1573.4133558368205
 30
0.0
  0
VERTEX
  8
DETAIL
  6
CONTINUOUS
 62
     5
 10
-325.19580020265244
 20
1573.4211721586914
 30
0.0
  0
VERTEX
  8
DETAIL
  6
CONTINUOUS
 62
     5
 10
-325.19805342165705
 20
1573.4294487575555
 30
0.0
  0
VERTEX
  8
DETAIL
  6
CONTINUOUS
 62
     5
 10
-325.1988308227854
 20
1573.4378767841235
 30
0.0
  0
VERTEX
  8
DETAIL
  6
CONTINUOUS
 62
     5
 10
-325.19846647705089
 20
1573.4463601098494
 30
0.0
  0
VERTEX
  8
DETAIL
  6
CONTINUOUS
 62
     5
 10
-325.19729770711564
 20
1573.454806494773
 30
0.0
  0
VERTEX
  8
DETAIL
  6
CONTINUOUS
 62
     5
 10
-325.19566183564172
 20
1573.4631236989369
 30
0.0
  0
SEQEND
  8
DETAIL
  6
CONTINUOUS
 62
     5
  0
POLYLINE
  8
DETAIL
  6
CONTINUOUS
 62
     5
 66
     1
 10
0.0
 20
0.0
 30
0.0
  0
VERTEX
  8
DETAIL
  6
CONTINUOUS
 62
     5
 10
-307.7790957884427
 20
1594.0366210518371
 30
0.0
  0
VERTEX
  8
DETAIL
  6
CONTINUOUS
 62
     5
 10
-307.7742102573614
 20
1594.0344160597122
 30
0.0
  0
VERTEX
  8
DETAIL
  6
CONTINUOUS
 62
     5
 10
-307.76910614173767
 20
1594.0327550517352
 30
0.0
  0
VERTEX
  8
DETAIL
  6
CONTINUOUS
 62
     5
 10
-307.76385854862286
 20
1594.0316067500346
 30
0.0
  0
VERTEX
  8
DETAIL
  6
CONTINUOUS
 62
     5
 10
-307.75851175792496
 20
1594.0309245352441
 30
0.0
  0
VERTEX
  8
DETAIL
  6
CONTINUOUS
 62
     5
 10
-307.75310616931625
 20
1594.0306598569507
 30
0.0
  0
VERTEX
  8
DETAIL
  6
CONTINUOUS
 62
     5
 10
-307.74768218246896
 20
1594.0307641647435
 30
0.0
  0
VERTEX
  8
DETAIL
  6
CONTINUOUS
 62
     5
 10
-307.74228019705515
 20
1594.0311889082095
 30
0.0
  0
VERTEX
  8
DETAIL
  6
CONTINUOUS
 62
     5
 10
-307.73694061274728
 20
1594.0318855369369
 30
0.0
  0
SEQEND
  8
DETAIL
  6
CONTINUOUS
 62
     5
  0
POLYLINE
  8
DETAIL
  6
CONTINUOUS
 62
     5
 66
     1
 10
0.0
 20
0.0
 30
0.0
  0
VERTEX
  8
DETAIL
  6
CONTINUOUS
 62
     5
 10
-282.16348758964159
 20
1593.890720727537
 30
0.0
  0
VERTEX
  8
DETAIL
  6
CONTINUOUS
 62
     5
 10
-282.15397600120781
 20
1593.8895450422481
 30
0.0
  0
VERTEX
  8
DETAIL
  6
CONTINUOUS
 62
     5
 10
-282.14451126813367
 20
1593.8879884490577
 30
0.0
  0
VERTEX
  8
DETAIL
  6
CONTINUOUS
 62
     5
 10
-282.13509850446678
 20
1593.8860232179461
 30
0.0
  0
VERTEX
  8
DETAIL
  6
CONTINUOUS
 62
     5
 10
-282.12576733815348
 20
1593.8836333645356
 30
0.0
  0
VERTEX
  8
DETAIL
  6
CONTINUOUS
 62
     5
 10
-282.11655597645165
 20
1593.8808070151563
 30
0.0
  0
VERTEX
  8
DETAIL
  6
CONTINUOUS
 62
     5
 10
-282.10750263572419
 20
1593.8775323005016
 30
0.0
  0
VERTEX
  8
DETAIL
  6
CONTINUOUS
 62
     5
 10
-282.09864553233382
 20
1593.8737973512639
 30
0.0
  0
VERTEX
  8
DETAIL
  6
CONTINUOUS
 62
     5
 10
-282.0900228826431
 20
1593.8695902981369
 30
0.0
  0
SEQEND
  8
DETAIL
  6
CONTINUOUS
 62
     5
  0
POLYLINE
  8
DETAIL
  6
CONTINUOUS
 62
     5
 66
     1
 10
0.0
 20
0.0
 30
0.0
  0
VERTEX
  8
DETAIL
  6
CONTINUOUS
 62
     5
 10
-305.11573854563898
 20
1599.0343894139371
 30
0.0
  0
VERTEX
  8
DETAIL
  6
CONTINUOUS
 62
     5
 10
-305.09065520668912
 20
1599.0559605105823
 30
0.0
  0
VERTEX
  8
DETAIL
  6
CONTINUOUS
 62
     5
 10
-305.06535427901332
 20
1599.0766952449137
 30
0.0
  0
VERTEX
  8
DETAIL
  6
CONTINUOUS
 62
     5
 10
-305.03911436778276
 20
1599.096421579668
 30
0.0
  0
VERTEX
  8
DETAIL
  6
CONTINUOUS
 62
     5
 10
-305.01121407816834
 20
1599.114967477582
 30
0.0
  0
VERTEX
  8
DETAIL
  6
CONTINUOUS
 62
     5
 10
-304.98093201534112
 20
1599.1321609013924
 30
0.0
  0
VERTEX
  8
DETAIL
  6
CONTINUOUS
 62
     5
 10
-304.94780956170001
 20
1599.1473528729512
 30
0.0
  0
VERTEX
  8
DETAIL
  6
CONTINUOUS
 62
     5
 10
-304.91376305726601
 20
1599.1555838640716
 30
0.0
  0
VERTEX
  8
DETAIL
  6
CONTINUOUS
 62
     5
 10
-304.88196994514141
 20
1599.1496054434369
 30
0.0
  0
SEQEND
  8
DETAIL
  6
CONTINUOUS
 62
     5
  0
POLYLINE
  8
DETAIL
  6
CONTINUOUS
 62
     5
 66
     1
 10
0.0
 20
0.0
 30
0.0
  0
VERTEX
  8
DETAIL
  6
CONTINUOUS
 62
     5
 10
-322.49141195894481
 20
1583.1217972410379
 30
0.0
  0
VERTEX
  8
DETAIL
  6
CONTINUOUS
 62
     5
 10
-322.40342585393876
 20
1583.2822269126564
 30
0.0
  0
VERTEX
  8
DETAIL
  6
CONTINUOUS
 62
     5
 10
-322.30049688554493
 20
1583.4333542873644
 30
0.0
  0
VERTEX
  8
DETAIL
  6
CONTINUOUS
 62
     5
 10
-322.19181251840917
 20
1583.5805312099515
 30
0.0
  0
VERTEX
  8
DETAIL
  6
CONTINUOUS
 62
     5
 10
-322.07959108023522
 20
1583.7251312489016
 30
0.0
  0
VERTEX
  8
DETAIL
  6
CONTINUOUS
 62
     5
 10
-321.96498863001074
 20
1583.8677520514566
 30
0.0
  0
VERTEX
  8
DETAIL
  6
CONTINUOUS
 62
     5
 10
-321.84826984614807
 20
1584.0086098364172
 30
0.0
  0
VERTEX
  8
DETAIL
  6
CONTINUOUS
 62
     5
 10
-321.72955243960291
 20
1584.1478060837392
 30
0.0
  0
VERTEX
  8
DETAIL
  6
CONTINUOUS
 62
     5
 10
-321.60889962378201
 20
1584.2853948858733
 30
0.0
  0
VERTEX
  8
DETAIL
  6
CONTINUOUS
 62
     5
 10
-321.4863743004413
 20
1584.4214300592441
 30
0.0
  0
VERTEX
  8
DETAIL
  6
CONTINUOUS
 62
     5
 10
-321.361732414183
 20
1584.5556090025623
 30
0.0
  0
VERTEX
  8
DETAIL
  6
CONTINUOUS
 62
     5
 10
-321.23364017946403
 20
1584.6863637942099
 30
0.0
  0
VERTEX
  8
DETAIL
  6
CONTINUOUS
 62
     5
 10
-321.10052209663991
 20
1584.8118458506381
 30
0.0
  0
SEQEND
  8
DETAIL
  6
CONTINUOUS
 62
     5
  0
POLYLINE
  8
DETAIL
  6
CONTINUOUS
 62
     5
 66
     1
 10
0.0
 20
0.0
 30
0.0
  0
VERTEX
  8
DETAIL
  6
CONTINUOUS
 62
     5
 10
-325.19566183564172
 20
1573.4631236989369
 30
0.0
  0
VERTEX
  8
DETAIL
  6
CONTINUOUS
 62
     5
 10
-324.92604439906466
 20
1574.6880180448236
 30
0.0
  0
VERTEX
  8
DETAIL
  6
CONTINUOUS
 62
     5
 10
-324.6402287115356
 20
1575.9094231257366
 30
0.0
  0
VERTEX
  8
DETAIL
  6
CONTINUOUS
 62
     5
 10
-324.33644612544083
 20
1577.1270464244883
 30
0.0
  0
VERTEX
  8
DETAIL
  6
CONTINUOUS
 62
     5
 10
-324.01305860930614
 20
1578.3399429289739
 30
0.0
  0
VERTEX
  8
DETAIL
  6
CONTINUOUS
 62
     5
 10
-323.66846379844304
 20
1579.5469894531175
 30
0.0
  0
VERTEX
  8
DETAIL
  6
CONTINUOUS
 62
     5
 10
-323.30105932899772
 20
1580.7470628066731
 30
0.0
  0
VERTEX
  8
DETAIL
  6
CONTINUOUS
 62
     5
 10
-322.90924283711627
 20
1581.939039799395
 30
0.0
  0
VERTEX
  8
DETAIL
  6
CONTINUOUS
 62
     5
 10
-322.49141195894481
 20
1583.1217972410379
 30
0.0
  0
SEQEND
  8
DETAIL
  6
CONTINUOUS
 62
     5
  0
POLYLINE
  8
DETAIL
  6
CONTINUOUS
 62
     5
 66
     1
 10
0.0
 20
0.0
 30
0.0
  0
VERTEX
  8
DETAIL
  6
CONTINUOUS
 62
     5
 10
-321.10052209663991
 20
1584.8118458506381
 30
0.0
  0
VERTEX
  8
DETAIL
  6
CONTINUOUS
 62
     5
 10
-319.11076842682405
 20
1586.5990038836351
 30
0.0
  0
VERTEX
  8
DETAIL
  6
CONTINUOUS
 62
     5
 10
-317.12101094929358
 20
1588.3861750032731
 30
0.0
  0
VERTEX
  8
DETAIL
  6
CONTINUOUS
 62
     5
 10
-315.12990533845766
 20
1590.1718963012586
 30
0.0
  0
VERTEX
  8
DETAIL
  6
CONTINUOUS
 62
     5
 10
-313.13632343071015
 20
1591.9548759967354
 30
0.0
  0
VERTEX
  8
DETAIL
  6
CONTINUOUS
 62
     5
 10
-311.13919051180284
 20
1593.7338646227222
 30
0.0
  0
VERTEX
  8
DETAIL
  6
CONTINUOUS
 62
     5
 10
-309.13743186748729
 20
1595.5076127122386
 30
0.0
  0
VERTEX
  8
DETAIL
  6
CONTINUOUS
 62
     5
 10
-307.12997278351537
 20
1597.2748707983037
 30
0.0
  0
VERTEX
  8
DETAIL
  6
CONTINUOUS
 62
     5
 10
-305.11573854563898
 20
1599.0343894139371
 30
0.0
  0
SEQEND
  8
DETAIL
  6
CONTINUOUS
 62
     5
  0
POLYLINE
  8
DETAIL
  6
CONTINUOUS
 62
     5
 66
     1
 10
0.0
 20
0.0
 30
0.0
  0
VERTEX
  8
DETAIL
  6
CONTINUOUS
 62
     5
 10
-307.73694061274728
 20
1594.0318855369369
 30
0.0
  0
VERTEX
  8
DETAIL
  6
CONTINUOUS
 62
     5
 10
-305.19436339581472
 20
1594.3604301357057
 30
0.0
  0
VERTEX
  8
DETAIL
  6
CONTINUOUS
 62
     5
 10
-302.63902665227397
 20
1594.5782070804071
 30
0.0
  0
VERTEX
  8
DETAIL
  6
CONTINUOUS
 62
     5
 10
-300.0780090356443
 20
1594.7041904662176
 30
0.0
  0
VERTEX
  8
DETAIL
  6
CONTINUOUS
 62
     5
 10
-297.51460213821264
 20
1594.7517572765942
 30
0.0
  0
VERTEX
  8
DETAIL
  6
CONTINUOUS
 62
     5
 10
-294.9509016670313
 20
1594.7324199225277
 30
0.0
  0
VERTEX
  8
DETAIL
  6
CONTINUOUS
 62
     5
 10
-292.38831194700589
 20
1594.6551052717241
 30
0.0
  0
VERTEX
  8
DETAIL
  6
CONTINUOUS
 62
     5
 10
-289.8276790937785
 20
1594.5266521719263
 30
0.0
  0
VERTEX
  8
DETAIL
  6
CONTINUOUS
 62
     5
 10
-287.26975746639545
 20
1594.3534655102837
 30
0.0
  0
VERTEX
  8
DETAIL
  6
CONTINUOUS
 62
     5
 10
-284.71493468165676
 20
1594.1401393254173
 30
0.0
  0
VERTEX
  8
DETAIL
  6
CONTINUOUS
 62
     5
 10
-282.16348758964159
 20
1593.890720727537
 30
0.0
  0
SEQEND
  8
DETAIL
  6
CONTINUOUS
 62
     5
  0
POLYLINE
  8
DETAIL
  6
CONTINUOUS
 62
     5
 66
     1
 10
0.0
 20
0.0
 30
0.0
  0
VERTEX
  8
DETAIL
  6
CONTINUOUS
 62
     5
 10
-281.82939621844707
 20
1593.7331174678361
 30
0.0
  0
VERTEX
  8
DETAIL
  6
CONTINUOUS
 62
     5
 10
-281.76239529842712
 20
1593.6681871117908
 30
0.0
  0
VERTEX
  8
DETAIL
  6
CONTINUOUS
 62
     5
 10
-281.7335873355712
 20
1593.5789795982298
 30
0.0
  0
VERTEX
  8
DETAIL
  6
CONTINUOUS
 62
     5
 10
-281.73153166536946
 20
1593.4852250624022
 30
0.0
  0
VERTEX
  8
DETAIL
  6
CONTINUOUS
 62
     5
 10
-281.7452495052421
 20
1593.3924687733372
 30
0.0
  0
VERTEX
  8
DETAIL
  6
CONTINUOUS
 62
     5
 10
-281.76893080410599
 20
1593.3017428647959
 30
0.0
  0
VERTEX
  8
DETAIL
  6
CONTINUOUS
 62
     5
 10
-281.79988190429839
 20
1593.2131752734188
 30
0.0
  0
VERTEX
  8
DETAIL
  6
CONTINUOUS
 62
     5
 10
-281.83669635225999
 20
1593.1266870125851
 30
0.0
  0
VERTEX
  8
DETAIL
  6
CONTINUOUS
 62
     5
 10
-281.87798406314533
 20
1593.0421967932978
 30
0.0
  0
VERTEX
  8
DETAIL
  6
CONTINUOUS
 62
     5
 10
-281.92268620173508
 20
1592.9596262074751
 30
0.0
  0
VERTEX
  8
DETAIL
  6
CONTINUOUS
 62
     5
 10
-281.9704469812911
 20
1592.8789029615341
 30
0.0
  0
VERTEX
  8
DETAIL
  6
CONTINUOUS
 62
     5
 10
-282.02100039989801
 20
1592.7999555427596
 30
0.0
  0
VERTEX
  8
DETAIL
  6
CONTINUOUS
 62
     5
 10
-282.0740804556408
 20
1592.7227124384369
 30
0.0
  0
SEQEND
  8
DETAIL
  6
CONTINUOUS
 62
     5
  0
POLYLINE
  8
DETAIL
  6
CONTINUOUS
 62
     5
 66
     1
 10
0.0
 20
0.0
 30
0.0
  0
VERTEX
  8
DETAIL
  6
CONTINUOUS
 62
     5
 10
-282.0900228826431
 20
1593.8695902981369
 30
0.0
  0
VERTEX
  8
DETAIL
  6
CONTINUOUS
 62
     5
 10
-282.02304832168164
 20
1593.8046514178775
 30
0.0
  0
VERTEX
  8
DETAIL
  6
CONTINUOUS
 62
     5
 10
-281.99429851111807
 20
1593.7154370680075
 30
0.0
  0
VERTEX
  8
DETAIL
  6
CONTINUOUS
 62
     5
 10
-281.99230311663206
 20
1593.6216928282802
 30
0.0
  0
VERTEX
  8
DETAIL
  6
CONTINUOUS
 62
     5
 10
-282.00607348673788
 20
1593.5289559754754
 30
0.0
  0
VERTEX
  8
DETAIL
  6
CONTINUOUS
 62
     5
 10
-282.02979976195104
 20
1593.4382537664044
 30
0.0
  0
VERTEX
  8
DETAIL
  6
CONTINUOUS
 62
     5
 10
-282.0607902667183
 20
1593.3497121467121
 30
0.0
  0
VERTEX
  8
DETAIL
  6
CONTINUOUS
 62
     5
 10
-282.09763919382556
 20
1593.2632512359924
 30
0.0
  0
VERTEX
  8
DETAIL
  6
CONTINUOUS
 62
     5
 10
-282.13895701150074
 20
1593.1787888798519
 30
0.0
  0
VERTEX
  8
DETAIL
  6
CONTINUOUS
 62
     5
 10
-282.18368573163406
 20
1593.0962460307771
 30
0.0
  0
VERTEX
  8
DETAIL
  6
CONTINUOUS
 62
     5
 10
-282.2314700346621
 20
1593.0155502259222
 30
0.0
  0
VERTEX
  8
DETAIL
  6
CONTINUOUS
 62
     5
 10
-282.28204418764597
 20
1592.9366298419532
 30
0.0
  0
VERTEX
  8
DETAIL
  6
CONTINUOUS
 62
     5
 10
-282.33514245764673
 20
1592.859413255537
 30
0.0
  0
SEQEND
  8
DETAIL
  6
CONTINUOUS
 62
     5
  0
POLYLINE
  8
DETAIL
  6
CONTINUOUS
 62
     5
 66
     1
 10
0.0
 20
0.0
 30
0.0
  0
VERTEX
  8
DETAIL
  6
CONTINUOUS
 62
     5
 10
-304.6243620523382
 20
1599.014713248637
 30
0.0
  0
VERTEX
  8
DETAIL
  6
CONTINUOUS
 62
     5
 10
-304.59428386540515
 20
1598.9339398210275
 30
0.0
  0
VERTEX
  8
DETAIL
  6
CONTINUOUS
 62
     5
 10
-304.60764305621421
 20
1598.8450912666979
 30
0.0
  0
VERTEX
  8
DETAIL
  6
CONTINUOUS
 62
     5
 10
-304.63252465795762
 20
1598.7631663844099
 30
0.0
  0
VERTEX
  8
DETAIL
  6
CONTINUOUS
 62
     5
 10
-304.66311084579399
 20
1598.6809348908084
 30
0.0
  0
VERTEX
  8
DETAIL
  6
CONTINUOUS
 62
     5
 10
-304.6974634172492
 20
1598.6010592153461
 30
0.0
  0
VERTEX
  8
DETAIL
  6
CONTINUOUS
 62
     5
 10
-304.73458317378407
 20
1598.5225711878181
 30
0.0
  0
VERTEX
  8
DETAIL
  6
CONTINUOUS
 62
     5
 10
-304.77385101851797
 20
1598.444904381932
 30
0.0
  0
VERTEX
  8
DETAIL
  6
CONTINUOUS
 62
     5
 10
-304.81490089188532
 20
1598.3681219342695
 30
0.0
  0
VERTEX
  8
DETAIL
  6
CONTINUOUS
 62
     5
 10
-304.85749669326401
 20
1598.2922307187032
 30
0.0
  0
VERTEX
  8
DETAIL
  6
CONTINUOUS
 62
     5
 10
-304.9015043215839
 20
1598.2171747170055
 30
0.0
  0
VERTEX
  8
DETAIL
  6
CONTINUOUS
 62
     5
 10
-304.94679278616854
 20
1598.142895993107
 30
0.0
  0
VERTEX
  8
DETAIL
  6
CONTINUOUS
 62
     5
 10
-304.99323109634128
 20
1598.0693366109369
 30
0.0
  0
SEQEND
  8
DETAIL
  6
CONTINUOUS
 62
     5
  0
POLYLINE
  8
DETAIL
  6
CONTINUOUS
 62
     5
 66
     1
 10
0.0
 20
0.0
 30
0.0
  0
VERTEX
  8
DETAIL
  6
CONTINUOUS
 62
     5
 10
-304.88196994514141
 20
1599.1496054434369
 30
0.0
  0
VERTEX
  8
DETAIL
  6
CONTINUOUS
 62
     5
 10
-304.85189083969777
 20
1599.0688326277423
 30
0.0
  0
VERTEX
  8
DETAIL
  6
CONTINUOUS
 62
     5
 10
-304.86525936557672
 20
1598.9799858009287
 30
0.0
  0
VERTEX
  8
DETAIL
  6
CONTINUOUS
 62
     5
 10
-304.89015531404482
 20
1598.8980654561033
 30
0.0
  0
VERTEX
  8
DETAIL
  6
CONTINUOUS
 62
     5
 10
-304.92075624044327
 20
1598.8158401158505
 30
0.0
  0
VERTEX
  8
DETAIL
  6
CONTINUOUS
 62
     5
 10
-304.95512457186015
 20
1598.7359716938636
 30
0.0
  0
VERTEX
  8
DETAIL
  6
CONTINUOUS
 62
     5
 10
-304.99226057317838
 20
1598.6574917689995
 30
0.0
  0
VERTEX
  8
DETAIL
  6
CONTINUOUS
 62
     5
 10
-305.03154485823239
 20
1598.579833780931
 30
0.0
  0
VERTEX
  8
DETAIL
  6
CONTINUOUS
 62
     5
 10
-305.07261136602608
 20
1598.5030607548422
 30
0.0
  0
VERTEX
  8
DETAIL
  6
CONTINUOUS
 62
     5
 10
-305.11522398154239
 20
1598.4271794875494
 30
0.0
  0
VERTEX
  8
DETAIL
  6
CONTINUOUS
 62
     5
 10
-305.15924855975447
 20
1598.3521339221145
 30
0.0
  0
VERTEX
  8
DETAIL
  6
CONTINUOUS
 62
     5
 10
-305.20455406433223
 20
1598.2778660854174
 30
0.0
  0
VERTEX
  8
DETAIL
  6
CONTINUOUS
 62
     5
 10
-305.25100945894519
 20
1598.204318004337
 30
0.0
  0
SEQEND
  8
DETAIL
  6
CONTINUOUS
 62
     5
  0
POLYLINE
  8
DETAIL
  6
CONTINUOUS
 62
     5
 66
     1
 10
0.0
 20
0.0
 30
0.0
  0
VERTEX
  8
DETAIL
  6
CONTINUOUS
 62
     5
 10
-319.8296697604456
 20
1578.076984757738
 30
0.0
  0
VERTEX
  8
DETAIL
  6
CONTINUOUS
 62
     5
 10
-319.94634145741588
 20
1578.0322259952159
 30
0.0
  0
VERTEX
  8
DETAIL
  6
CONTINUOUS
 62
     5
 10
-320.05291168276034
 20
1577.9670298157309
 30
0.0
  0
VERTEX
  8
DETAIL
  6
CONTINUOUS
 62
     5
 10
-320.15458315076887
 20
1577.8940559780544
 30
0.0
  0
VERTEX
  8
DETAIL
  6
CONTINUOUS
 62
     5
 10
-320.25291890527291
 20
1577.8166986844044
 30
0.0
  0
VERTEX
  8
DETAIL
  6
CONTINUOUS
 62
     5
 10
-320.34876054633963
 20
1577.7363308721153
 30
0.0
  0
VERTEX
  8
DETAIL
  6
CONTINUOUS
 62
     5
 10
-320.44260747929115
 20
1577.6536125336447
 30
0.0
  0
VERTEX
  8
DETAIL
  6
CONTINUOUS
 62
     5
 10
-320.53465815075583
 20
1577.5688556312605
 30
0.0
  0
VERTEX
  8
DETAIL
  6
CONTINUOUS
 62
     5
 10
-320.62509282801227
 20
1577.4823511045606
 30
0.0
  0
VERTEX
  8
DETAIL
  6
CONTINUOUS
 62
     5
 10
-320.7140727939676
 20
1577.3943646716266
 30
0.0
  0
VERTEX
  8
DETAIL
  6
CONTINUOUS
 62
     5
 10
-320.80162332795214
 20
1577.3049813642035
 30
0.0
  0
VERTEX
  8
DETAIL
  6
CONTINUOUS
 62
     5
 10
-320.88771039599936
 20
1577.2142074138837
 30
0.0
  0
VERTEX
  8
DETAIL
  6
CONTINUOUS
 62
     5
 10
-320.97229971783958
 20
1577.1220487250371
 30
0.0
  0
SEQEND
  8
DETAIL
  6
CONTINUOUS
 62
     5
  0
POLYLINE
  8
DETAIL
  6
CONTINUOUS
 62
     5
 66
     1
 10
0.0
 20
0.0
 30
0.0
  0
VERTEX
  8
DETAIL
  6
CONTINUOUS
 62
     5
 10
-319.8296697604456
 20
1578.076984757738
 30
0.0
  0
VERTEX
  8
DETAIL
  6
CONTINUOUS
 62
     5
 10
-317.29927258939654
 20
1578.3647784047175
 30
0.0
  0
VERTEX
  8
DETAIL
  6
CONTINUOUS
 62
     5
 10
-314.75961914957634
 20
1578.5619512870333
 30
0.0
  0
VERTEX
  8
DETAIL
  6
CONTINUOUS
 62
     5
 10
-312.21542827348196
 20
1578.6816780306592
 30
0.0
  0
VERTEX
  8
DETAIL
  6
CONTINUOUS
 62
     5
 10
-309.66914548991662
 20
1578.7338374333101
 30
0.0
  0
VERTEX
  8
DETAIL
  6
CONTINUOUS
 62
     5
 10
-307.12238945465305
 20
1578.7270672823204
 30
0.0
  0
VERTEX
  8
DETAIL
  6
CONTINUOUS
 62
     5
 10
-304.57632440164087
 20
1578.6684274388783
 30
0.0
  0
VERTEX
  8
DETAIL
  6
CONTINUOUS
 62
     5
 10
-302.03167484806761
 20
1578.5634490367297
 30
0.0
  0
VERTEX
  8
DETAIL
  6
CONTINUOUS
 62
     5
 10
-299.48909895128702
 20
1578.4173705594797
 30
0.0
  0
VERTEX
  8
DETAIL
  6
CONTINUOUS
 62
     5
 10
-296.94898069956361
 20
1578.234125590079
 30
0.0
  0
VERTEX
  8
DETAIL
  6
CONTINUOUS
 62
     5
 10
-294.41160743524227
 20
1578.0171877277371
 30
0.0
  0
SEQEND
  8
DETAIL
  6
CONTINUOUS
 62
     5
  0
POLYLINE
  8
DETAIL
  6
CONTINUOUS
 62
     5
 66
     1
 10
0.0
 20
0.0
 30
0.0
  0
VERTEX
  8
DETAIL
  6
CONTINUOUS
 62
     5
 10
-307.12408913973923
 20
1594.832167674238
 30
0.0
  0
VERTEX
  8
DETAIL
  6
CONTINUOUS
 62
     5
 10
-307.17843307703396
 20
1594.7504447208405
 30
0.0
  0
VERTEX
  8
DETAIL
  6
CONTINUOUS
 62
     5
 10
-307.23148798303453
 20
1594.6678338882866
 30
0.0
  0
VERTEX
  8
DETAIL
  6
CONTINUOUS
 62
     5
 10
-307.28300469105284
 20
1594.5842556026869
 30
0.0
  0
VERTEX
  8
DETAIL
  6
CONTINUOUS
 62
     5
 10
-307.33273403440097
 20
1594.4996302901504
 30
0.0
  0
VERTEX
  8
DETAIL
  6
CONTINUOUS
 62
     5
 10
-307.38042684639078
 20
1594.413878376788
 30
0.0
  0
VERTEX
  8
DETAIL
  6
CONTINUOUS
 62
     5
 10
-307.42578729140337
 20
1594.3268965687475
 30
0.0
  0
VERTEX
  8
DETAIL
  6
CONTINUOUS
 62
     5
 10
-307.46806148022745
 20
1594.2383487617517
 30
0.0
  0
VERTEX
  8
DETAIL
  6
CONTINUOUS
 62
     5
 10
-307.50607179509188
 20
1594.1477521819061
 30
0.0
  0
VERTEX
  8
DETAIL
  6
CONTINUOUS
 62
     5
 10
-307.53626092804188
 20
1594.054410512337
 30
0.0
  0
SEQEND
  8
DETAIL
  6
CONTINUOUS
 62
     5
  0
POLYLINE
  8
DETAIL
  6
CONTINUOUS
 62
     5
 66
     1
 10
0.0
 20
0.0
 30
0.0
  0
VERTEX
  8
DETAIL
  6
CONTINUOUS
 62
     5
 10
-293.09325712903961
 20
1578.880110694337
 30
0.0
  0
VERTEX
  8
DETAIL
  6
CONTINUOUS
 62
     5
 10
-293.19266086607206
 20
1578.7728592515653
 30
0.0
  0
VERTEX
  8
DETAIL
  6
CONTINUOUS
 62
     5
 10
-293.29616987013088
 20
1578.6694680568937
 30
0.0
  0
VERTEX
  8
DETAIL
  6
CONTINUOUS
 62
     5
 10
-293.40349719025323
 20
1578.5700375489332
 30
0.0
  0
VERTEX
  8
DETAIL
  6
CONTINUOUS
 62
     5
 10
-293.51438241724361
 20
1578.4746863324924
 30
0.0
  0
VERTEX
  8
DETAIL
  6
CONTINUOUS
 62
     5
 10
-293.62885772063515
 20
1578.38373326442
 30
0.0
  0
VERTEX
  8
DETAIL
  6
CONTINUOUS
 62
     5
 10
-293.74713671425377
 20
1578.2976213889563
 30
0.0
  0
VERTEX
  8
DETAIL
  6
CONTINUOUS
 62
     5
 10
-293.86944582371905
 20
1578.2168562409156
 30
0.0
  0
VERTEX
  8
DETAIL
  6
CONTINUOUS
 62
     5
 10
-293.99624785191645
 20
1578.1433624192478
 30
0.0
  0
VERTEX
  8
DETAIL
  6
CONTINUOUS
 62
     5
 10
-294.1282442658154
 20
1578.0804973156896
 30
0.0
  0
VERTEX
  8
DETAIL
  6
CONTINUOUS
 62
     5
 10
-294.26641494852873
 20
1578.0329414206362
 30
0.0
  0
VERTEX
  8
DETAIL
  6
CONTINUOUS
 62
     5
 10
-294.41160743524227
 20
1578.0171877277371
 30
0.0
  0
SEQEND
  8
DETAIL
  6
CONTINUOUS
 62
     5
  0
POLYLINE
  8
DETAIL
  6
CONTINUOUS
 62
     5
 66
     1
 10
0.0
 20
0.0
 30
0.0
  0
VERTEX
  8
DETAIL
  6
CONTINUOUS
 62
     5
 10
-293.36109030603978
 20
1579.0203571257371
 30
0.0
  0
VERTEX
  8
DETAIL
  6
CONTINUOUS
 62
     5
 10
-293.46056276541651
 20
1578.9131441461682
 30
0.0
  0
VERTEX
  8
DETAIL
  6
CONTINUOUS
 62
     5
 10
-293.56413532385994
 20
1578.8097905513457
 30
0.0
  0
VERTEX
  8
DETAIL
  6
CONTINUOUS
 62
     5
 10
-293.67152125418761
 20
1578.7103963008115
 30
0.0
  0
VERTEX
  8
DETAIL
  6
CONTINUOUS
 62
     5
 10
-293.78246035551348
 20
1578.6150795193766
 30
0.0
  0
VERTEX
  8
DETAIL
  6
CONTINUOUS
 62
     5
 10
-293.8969846938607
 20
1578.5241584769251
 30
0.0
  0
VERTEX
  8
DETAIL
  6
CONTINUOUS
 62
     5
 10
-294.01530752032778
 20
1578.4380755193092
 30
0.0
  0
VERTEX
  8
DETAIL
  6
CONTINUOUS
 62
     5
 10
-294.13765489370104
 20
1578.3573354649236
 30
0.0
  0
VERTEX
  8
DETAIL
  6
CONTINUOUS
 62
     5
 10
-294.26448921552412
 20
1578.2838612934529
 30
0.0
  0
VERTEX
  8
DETAIL
  6
CONTINUOUS
 62
     5
 10
-294.39651146422403
 20
1578.2210075516218
 30
0.0
  0
VERTEX
  8
DETAIL
  6
CONTINUOUS
 62
     5
 10
-294.53470134316933
 20
1578.173450780954
 30
0.0
  0
VERTEX
  8
DETAIL
  6
CONTINUOUS
 62
     5
 10
-294.67991079284548
 20
1578.1576803614371
 30
0.0
  0
SEQEND
  8
DETAIL
  6
CONTINUOUS
 62
     5
  0
POLYLINE
  8
DETAIL
  6
CONTINUOUS
 62
     5
 66
     1
 10
0.0
 20
0.0
 30
0.0
  0
VERTEX
  8
DETAIL
  6
CONTINUOUS
 62
     5
 10
-323.68740652444109
 20
1574.1908120293369
 30
0.0
  0
VERTEX
  8
DETAIL
  6
CONTINUOUS
 62
     5
 10
-323.7706891124061
 20
1574.1046040037709
 30
0.0
  0
VERTEX
  8
DETAIL
  6
CONTINUOUS
 62
     5
 10
-323.85538932835988
 20
1574.0197626336237
 30
0.0
  0
VERTEX
  8
DETAIL
  6
CONTINUOUS
 62
     5
 10
-323.9414720584046
 20
1573.9363178939282
 30
0.0
  0
VERTEX
  8
DETAIL
  6
CONTINUOUS
 62
     5
 10
-324.02890218864258
 20
1573.8542997597169
 30
0.0
  0
VERTEX
  8
DETAIL
  6
CONTINUOUS
 62
     5
 10
-324.11765164149836
 20
1573.7737432050374
 30
0.0
  0
VERTEX
  8
DETAIL
  6
CONTINUOUS
 62
     5
 10
-324.20779472163849
 20
1573.6947559422499
 30
0.0
  0
VERTEX
  8
DETAIL
  6
CONTINUOUS
 62
     5
 10
-324.29948184809382
 20
1573.6175056618749
 30
0.0
  0
VERTEX
  8
DETAIL
  6
CONTINUOUS
 62
     5
 10
-324.39283276993569
 20
1573.5422931560745
 30
0.0
  0
VERTEX
  8
DETAIL
  6
CONTINUOUS
 62
     5
 10
-324.48796181891134
 20
1573.4695734015497
 30
0.0
  0
VERTEX
  8
DETAIL
  6
CONTINUOUS
 62
     5
 10
-324.58564475387669
 20
1573.4000932272418
 30
0.0
  0
VERTEX
  8
DETAIL
  6
CONTINUOUS
 62
     5
 10
-324.68703942978004
 20
1573.3352753353074
 30
0.0
  0
VERTEX
  8
DETAIL
  6
CONTINUOUS
 62
     5
 10
-324.79192285811683
 20
1573.2797652106296
 30
0.0
  0
VERTEX
  8
DETAIL
  6
CONTINUOUS
 62
     5
 10
-324.90937740874512
 20
1573.2600836494371
 30
0.0
  0
SEQEND
  8
DETAIL
  6
CONTINUOUS
 62
     5
  0
POLYLINE
  8
DETAIL
  6
CONTINUOUS
 62
     5
 66
     1
 10
0.0
 20
0.0
 30
0.0
  0
VERTEX
  8
DETAIL
  6
CONTINUOUS
 62
     5
 10
-323.95691597524279
 20
1574.331936213837
 30
0.0
  0
VERTEX
  8
DETAIL
  6
CONTINUOUS
 62
     5
 10
-324.04027240687356
 20
1574.2457599122479
 30
0.0
  0
VERTEX
  8
DETAIL
  6
CONTINUOUS
 62
     5
 10
-324.12504545844433
 20
1574.1609510125083
 30
0.0
  0
VERTEX
  8
DETAIL
  6
CONTINUOUS
 62
     5
 10
-324.21119996499573
 20
1574.0775394119182
 30
0.0
  0
VERTEX
  8
DETAIL
  6
CONTINUOUS
 62
     5
 10
-324.29870076156817
 20
1573.9955550077775
 30
0.0
  0
VERTEX
  8
DETAIL
  6
CONTINUOUS
 62
     5
 10
-324.3875197362371
 20
1573.9150327097195
 30
0.0
  0
VERTEX
  8
DETAIL
  6
CONTINUOUS
 62
     5
 10
-324.47773114169672
 20
1573.8360801741735
 30
0.0
  0
VERTEX
  8
DETAIL
  6
CONTINUOUS
 62
     5
 10
-324.569485189445
 20
1573.7588649760128
 30
0.0
  0
VERTEX
  8
DETAIL
  6
CONTINUOUS
 62
     5
 10
-324.66290127497092
 20
1573.683687997893
 30
0.0
  0
VERTEX
  8
DETAIL
  6
CONTINUOUS
 62
     5
 10
-324.75809340683321
 20
1573.6110042576747
 30
0.0
  0
VERTEX
  8
DETAIL
  6
CONTINUOUS
 62
     5
 10
-324.85583716150416
 20
1573.5415599456514
 30
0.0
  0
VERTEX
  8
DETAIL
  6
CONTINUOUS
 62
     5
 10
-324.95728849018008
 20
1573.4767770223361
 30
0.0
  0
VERTEX
  8
DETAIL
  6
CONTINUOUS
 62
     5
 10
-325.06222137742066
 20
1573.4213026617515
 30
0.0
  0
VERTEX
  8
DETAIL
  6
CONTINUOUS
 62
     5
 10
-325.17971049334301
 20
1573.4016390909369
 30
0.0
  0
SEQEND
  8
DETAIL
  6
CONTINUOUS
 62
     5
  0
POLYLINE
  8
DETAIL
  6
CONTINUOUS
 62
     5
 66
     1
 10
0.0
 20
0.0
 30
0.0
  0
VERTEX
  8
DETAIL
  6
CONTINUOUS
 62
     5
 10
-320.09625481224072
 20
1578.216577628938
 30
0.0
  0
VERTEX
  8
DETAIL
  6
CONTINUOUS
 62
     5
 10
-320.21296398822079
 20
1578.171846225574
 30
0.0
  0
VERTEX
  8
DETAIL
  6
CONTINUOUS
 62
     5
 10
-320.31958341908552
 20
1578.1066825040989
 30
0.0
  0
VERTEX
  8
DETAIL
  6
CONTINUOUS
 62
     5
 10
-320.42130911010122
 20
1578.0337416617572
 30
0.0
  0
VERTEX
  8
DETAIL
  6
CONTINUOUS
 62
     5
 10
-320.51970230553781
 20
1577.9564170483968
 30
0.0
  0
VERTEX
  8
DETAIL
  6
CONTINUOUS
 62
     5
 10
-320.61560362511955
 20
1577.8760816394977
 30
0.0
  0
VERTEX
  8
DETAIL
  6
CONTINUOUS
 62
     5
 10
-320.70951208471416
 20
1577.7933954761147
 30
0.0
  0
VERTEX
  8
DETAIL
  6
CONTINUOUS
 62
     5
 10
-320.80162592704016
 20
1577.7086704891028
 30
0.0
  0
VERTEX
  8
DETAIL
  6
CONTINUOUS
 62
     5
 10
-320.89212518213787
 20
1577.6221975302744
 30
0.0
  0
VERTEX
  8
DETAIL
  6
CONTINUOUS
 62
     5
 10
-320.98117094739166
 20
1577.5342422749823
 30
0.0
  0
VERTEX
  8
DETAIL
  6
CONTINUOUS
 62
     5
 10
-321.06878849101787
 20
1577.4448897742884
 30
0.0
  0
VERTEX
  8
DETAIL
  6
CONTINUOUS
 62
     5
 10
-321.15494376845726
 20
1577.3541462057105
 30
0.0
  0
VERTEX
  8
DETAIL
  6
CONTINUOUS
 62
     5
 10
-321.23960248734511
 20
1577.2620174172371
 30
0.0
  0
SEQEND
  8
DETAIL
  6
CONTINUOUS
 62
     5
  0
POLYLINE
  8
DETAIL
  6
CONTINUOUS
 62
     5
 66
     1
 10
0.0
 20
0.0
 30
0.0
  0
VERTEX
  8
DETAIL
  6
CONTINUOUS
 62
     5
 10
-307.38276281914301
 20
1594.967617885537
 30
0.0
  0
VERTEX
  8
DETAIL
  6
CONTINUOUS
 62
     5
 10
-307.43900871332778
 20
1594.8830703482161
 30
0.0
  0
VERTEX
  8
DETAIL
  6
CONTINUOUS
 62
     5
 10
-307.49388914552264
 20
1594.7975689655073
 30
0.0
  0
VERTEX
  8
DETAIL
  6
CONTINUOUS
 62
     5
 10
-307.54710189376812
 20
1594.7110219711142
 30
0.0
  0
VERTEX
  8
DETAIL
  6
CONTINUOUS
 62
     5
 10
-307.59834473610442
 20
1594.6233375987415
 30
0.0
  0
VERTEX
  8
DETAIL
  6
CONTINUOUS
 62
     5
 10
-307.64731545057208
 20
1594.5344240820937
 30
0.0
  0
VERTEX
  8
DETAIL
  6
CONTINUOUS
 62
     5
 10
-307.6936725394462
 20
1594.4441679086146
 30
0.0
  0
VERTEX
  8
DETAIL
  6
CONTINUOUS
 62
     5
 10
-307.73652602176327
 20
1594.35215188078
 30
0.0
  0
VERTEX
  8
DETAIL
  6
CONTINUOUS
 62
     5
 10
-307.77439385230667
 20
1594.2577271604343
 30
0.0
  0
VERTEX
  8
DETAIL
  6
CONTINUOUS
 62
     5
 10
-307.80198868594749
 20
1594.160069281837
 30
0.0
  0
SEQEND
  8
DETAIL
  6
CONTINUOUS
 62
     5
  0
POLYLINE
  8
DETAIL
  6
CONTINUOUS
 62
     5
 66
     1
 10
0.0
 20
0.0
 30
0.0
  0
VERTEX
  8
DETAIL
  6
CONTINUOUS
 62
     5
 10
-307.80198868594749
 20
1594.160069281837
 30
0.0
  0
VERTEX
  8
DETAIL
  6
CONTINUOUS
 62
     5
 10
-307.80484323081362
 20
1594.1444063455731
 30
0.0
  0
VERTEX
  8
DETAIL
  6
CONTINUOUS
 62
     5
 10
-307.80695854738428
 20
1594.128585404367
 30
0.0
  0
VERTEX
  8
DETAIL
  6
CONTINUOUS
 62
     5
 10
-307.80797532171067
 20
1594.1119043605795
 30
0.0
  0
VERTEX
  8
DETAIL
  6
CONTINUOUS
 62
     5
 10
-307.8074775781127
 20
1594.0941873843315
 30
0.0
  0
VERTEX
  8
DETAIL
  6
CONTINUOUS
 62
     5
 10
-307.80491306919436
 20
1594.0765243220505
 30
0.0
  0
VERTEX
  8
DETAIL
  6
CONTINUOUS
 62
     5
 10
-307.79970947874813
 20
1594.0601914170202
 30
0.0
  0
VERTEX
  8
DETAIL
  6
CONTINUOUS
 62
     5
 10
-307.79129449056671
 20
1594.0464649125215
 30
0.0
  0
VERTEX
  8
DETAIL
  6
CONTINUOUS
 62
     5
 10
-307.7790957884427
 20
1594.0366210518371
 30
0.0
  0
SEQEND
  8
DETAIL
  6
CONTINUOUS
 62
     5
  0
POLYLINE
  8
DETAIL
  6
CONTINUOUS
 62
     5
 66
     1
 10
0.0
 20
0.0
 30
0.0
  0
VERTEX
  8
DETAIL
  6
CONTINUOUS
 62
     5
 10
-294.67991079284548
 20
1578.1576803614371
 30
0.0
  0
VERTEX
  8
DETAIL
  6
CONTINUOUS
 62
     5
 10
-297.21712638376937
 20
1578.37430430423
 30
0.0
  0
VERTEX
  8
DETAIL
  6
CONTINUOUS
 62
     5
 10
-299.75708112313117
 20
1578.5572589316012
 30
0.0
  0
VERTEX
  8
DETAIL
  6
CONTINUOUS
 62
     5
 10
-302.29948764133167
 20
1578.7030758710753
 30
0.0
  0
VERTEX
  8
DETAIL
  6
CONTINUOUS
 62
     5
 10
-304.84396206371378
 20
1578.8078276059898
 30
0.0
  0
VERTEX
  8
DETAIL
  6
CONTINUOUS
 62
     5
 10
-307.38984712406562
 20
1578.8662858988068
 30
0.0
  0
VERTEX
  8
DETAIL
  6
CONTINUOUS
 62
     5
 10
-309.93641939236494
 20
1578.8729309397268
 30
0.0
  0
VERTEX
  8
DETAIL
  6
CONTINUOUS
 62
     5
 10
-312.482516783829
 20
1578.8207190097041
 30
0.0
  0
VERTEX
  8
DETAIL
  6
CONTINUOUS
 62
     5
 10
-315.02652462419616
 20
1578.7010360077354
 30
0.0
  0
VERTEX
  8
DETAIL
  6
CONTINUOUS
 62
     5
 10
-317.56600429541032
 20
1578.5040318388615
 30
0.0
  0
VERTEX
  8
DETAIL
  6
CONTINUOUS
 62
     5
 10
-320.09625481224072
 20
1578.216577628938
 30
0.0
  0
SEQEND
  8
DETAIL
  6
CONTINUOUS
 62
     5
  0
POLYLINE
  8
DETAIL
  6
CONTINUOUS
 62
     5
 66
     1
 10
0.0
 20
0.0
 30
0.0
  0
VERTEX
  8
DETAIL
  6
CONTINUOUS
 62
     5
 10
149.50000000005821
 20
93.00717967683704
 30
0.0
  0
VERTEX
  8
DETAIL
  6
CONTINUOUS
 62
     5
 10
149.80198706987355
 20
93.014722560653809
 30
0.0
  0
VERTEX
  8
DETAIL
  6
CONTINUOUS
 62
     5
 10
150.10342876052957
 20
93.03774796733515
 30
0.0
  0
VERTEX
  8
DETAIL
  6
CONTINUOUS
 62
     5
 10
150.40348148011384
 20
93.076851029727493
 30
0.0
  0
VERTEX
  8
DETAIL
  6
CONTINUOUS
 62
     5
 10
150.70129965781587
 20
93.132628966649889
 30
0.0
  0
VERTEX
  8
DETAIL
  6
CONTINUOUS
 62
     5
 10
150.99548410483555
 20
93.206262570210512
 30
0.0
  0
VERTEX
  8
DETAIL
  6
CONTINUOUS
 62
     5
 10
151.28332701047069
 20
93.300312061657806
 30
0.0
  0
VERTEX
  8
DETAIL
  6
CONTINUOUS
 62
     5
 10
151.56193152983172
 20
93.417536924736226
 30
0.0
  0
VERTEX
  8
DETAIL
  6
CONTINUOUS
 62
     5
 10
151.82790740327965
 20
93.561036225936675
 30
0.0
  0
VERTEX
  8
DETAIL
  6
CONTINUOUS
 62
     5
 10
152.0739189960222
 20
93.736577834736792
 30
0.0
  0
VERTEX
  8
DETAIL
  6
CONTINUOUS
 62
     5
 10
152.28647341047372
 20
93.951400893934149
 30
0.0
  0
VERTEX
  8
DETAIL
  6
CONTINUOUS
 62
     5
 10
152.44097312241385
 20
94.211066779139358
 30
0.0
  0
VERTEX
  8
DETAIL
  6
CONTINUOUS
 62
     5
 10
152.50000000005821
 20
94.50717967683704
 30
0.0
  0
SEQEND
  8
DETAIL
  6
CONTINUOUS
 62
     5
  0
POLYLINE
  8
DETAIL
  6
CONTINUOUS
 62
     5
 66
     1
 10
0.0
 20
0.0
 30
0.0
  0
VERTEX
  8
DETAIL
  6
CONTINUOUS
 62
     5
 10
-229.49999999994179
 20
94.50717967683704
 30
0.0
  0
VERTEX
  8
DETAIL
  6
CONTINUOUS
 62
     5
 10
-229.44097312224179
 20
94.211066779139372
 30
0.0
  0
VERTEX
  8
DETAIL
  6
CONTINUOUS
 62
     5
 10
-229.28647341032439
 20
93.951400893934149
 30
0.0
  0
VERTEX
  8
DETAIL
  6
CONTINUOUS
 62
     5
 10
-229.07391899584971
 20
93.736577834736792
 30
0.0
  0
VERTEX
  8
DETAIL
  6
CONTINUOUS
 62
     5
 10
-228.82790740310099
 20
93.561036225936661
 30
0.0
  0
VERTEX
  8
DETAIL
  6
CONTINUOUS
 62
     5
 10
-228.56193152968567
 20
93.417536924736226
 30
0.0
  0
VERTEX
  8
DETAIL
  6
CONTINUOUS
 62
     5
 10
-228.28332701034645
 20
93.30031206165782
 30
0.0
  0
VERTEX
  8
DETAIL
  6
CONTINUOUS
 62
     5
 10
-227.9954841047209
 20
93.206262570210541
 30
0.0
  0
VERTEX
  8
DETAIL
  6
CONTINUOUS
 62
     5
 10
-227.70129965770352
 20
93.132628966649875
 30
0.0
  0
VERTEX
  8
DETAIL
  6
CONTINUOUS
 62
     5
 10
-227.40348148000092
 20
93.076851029727507
 30
0.0
  0
VERTEX
  8
DETAIL
  6
CONTINUOUS
 62
     5
 10
-227.10342876041528
 20
93.037747967335108
 30
0.0
  0
VERTEX
  8
DETAIL
  6
CONTINUOUS
 62
     5
 10
-226.80198706975787
 20
93.014722560653837
 30
0.0
  0
VERTEX
  8
DETAIL
  6
CONTINUOUS
 62
     5
 10
-226.49999999994179
 20
93.00717967683704
 30
0.0
  0
SEQEND
  8
DETAIL
  6
CONTINUOUS
 62
     5
  0
POLYLINE
  8
DETAIL
  6
CONTINUOUS
 62
     5
 66
     1
 10
0.0
 20
0.0
 30
0.0
210
0.0
220
0.0
230
1.0
  0
VERTEX
  8
DETAIL
  6
CONTINUOUS
 62
     5
 10
-197.00555459704631
 20
696.39999999993745
 30
0.0
 42
0.1164179597020441
  0
VERTEX
  8
DETAIL
  6
CONTINUOUS
 62
     5
 10
-197.4528363157188
 20
696.29442719097733
 30
0.0
 42
0.0806076878196758
  0
VERTEX
  8
DETAIL
  6
CONTINUOUS
 62
     5
 10
-197.71276909043118
 20
696.10710678116072
 30
0.0
 42
0.0806154534022203
  0
VERTEX
  8
DETAIL
  6
CONTINUOUS
 62
     5
 10
-197.90011803439131
 20
695.84721359545756
 30
0.0
 42
0.1164496846417489
  0
VERTEX
  8
DETAIL
  6
CONTINUOUS
 62
     5
 10
-198.00570692504633
 20
695.39999999993779
 30
0.0
 42
0.1164496846417489
  0
SEQEND
  8
DETAIL
  6
CONTINUOUS
 62
     5
  0
POLYLINE
  8
DETAIL
  6
CONTINUOUS
 62
     5
 66
     1
 10
0.0
 20
0.0
 30
0.0
210
0.0
220
0.0
230
1.0
  0
VERTEX
  8
DETAIL
  6
CONTINUOUS
 62
     5
 10
-198.49999999994179
 20
685.49999999993634
 30
0.0
 42
0.0319522183045663
  0
VERTEX
  8
DETAIL
  6
CONTINUOUS
 62
     5
 10
-198.50780614227577
 20
685.39442719097622
 30
0.0
 42
0.0040634238667855
  0
VERTEX
  8
DETAIL
  6
CONTINUOUS
 62
     5
 10
-198.51234259469928
 20
685.20710678115938
 30
0.0
 42
0.0021305956403807
  0
VERTEX
  8
DETAIL
  6
CONTINUOUS
 62
     5
 10
-198.51561228460972
 20
684.94721359545622
 30
0.0
 42
0.0021439871142308
  0
VERTEX
  8
DETAIL
  6
CONTINUOUS
 62
     5
 10
-198.51625359936253
 20
684.86459016796414
 30
0.0
 42
0.0016909401962015
  0
SEQEND
  8
DETAIL
  6
CONTINUOUS
 62
     5
  0
POLYLINE
  8
DETAIL
  6
CONTINUOUS
 62
     5
 66
     1
 10
0.0
 20
0.0
 30
0.0
210
0.0
220
0.0
230
1.0
  0
VERTEX
  8
DETAIL
  6
CONTINUOUS
 62
     5
 10
-188.57601919003059
 20
701.40362889136827
 30
0.0
 42
0.0153224059717898
  0
VERTEX
  8
DETAIL
  6
CONTINUOUS
 62
     5
 10
-188.577011406282
 20
701.35082746507089
 30
0.0
 42
0.0020317988717876
  0
VERTEX
  8
DETAIL
  6
CONTINUOUS
 62
     5
 10
-188.57651005587587
 20
701.25714747050881
 30
0.0
 42
0.0010650165595498
  0
VERTEX
  8
DETAIL
  6
CONTINUOUS
 62
     5
 10
-188.57505868183679
 20
701.12718661480608
 30
0.0
 42
0.0010715985352908
  0
VERTEX
  8
DETAIL
  6
CONTINUOUS
 62
     5
 10
-188.57306630128494
 20
700.99047201865267
 30
0.0
 42
0.0003841592109543
  0
SEQEND
  8
DETAIL
  6
CONTINUOUS
 62
     5
  0
POLYLINE
  8
DETAIL
  6
CONTINUOUS
 62
     5
 66
     1
 10
0.0
 20
0.0
 30
0.0
210
0.0
220
0.0
230
1.0
  0
VERTEX
  8
DETAIL
  6
CONTINUOUS
 62
     5
 10
-198.02316199004409
 20
685.49999999993634
 30
0.0
 42
0.0319522183045663
  0
VERTEX
  8
DETAIL
  6
CONTINUOUS
 62
     5
 10
-198.01535584771011
 20
685.60557280889645
 30
0.0
 42
0.0040634238667855
  0
VERTEX
  8
DETAIL
  6
CONTINUOUS
 62
     5
 10
-198.0108193952866
 20
685.79289321871329
 30
0.0
 42
0.0021305956403807
  0
VERTEX
  8
DETAIL
  6
CONTINUOUS
 62
     5
 10
-198.00754970537616
 20
686.05278640441645
 30
0.0
 42
0.0021439871142308
  0
VERTEX
  8
DETAIL
  6
CONTINUOUS
 62
     5
 10
-198.0057069251441
 20
686.49999999993634
 30
0.0
 42
0.0021439871142308
  0
VERTEX
  8
DETAIL
  6
CONTINUOUS
 62
     5
 10
-198.0057069251441
 20
686.49999999993634
 30
0.0
 42
0.0021439871142308
  0
SEQEND
  8
DETAIL
  6
CONTINUOUS
 62
     5
  0
LINE
  8
DETAIL
  6
CONTINUOUS
 62
     5
 10
-363.95064030263887
 20
94.999999999936335
 30
0.0
 11
-365.49999999994179
 21
94.999999999936335
 31
0.0
  0
LINE
  8
DETAIL
  6
CONTINUOUS
 62
     5
 10
-365.49999999994179
 20
94.999999999936335
 30
0.0
 11
-365.49999999994179
 21
1522.499999999937
 31
0.0
  0
LINE
  8
DETAIL
  6
CONTINUOUS
 62
     5
 10
-317.7999999999447
 20
91.499999999936335
 30
0.0
 11
-317.7999999999447
 21
63.499999999936342
 31
0.0
  0
LINE
  8
DETAIL
  6
CONTINUOUS
 62
     5
 10
-325.16873133313487
 20
67.799999999937427
 30
0.0
 11
-363.9506403025444
 21
94.999999999936335
 31
0.0
  0
LINE
  8
DETAIL
  6
CONTINUOUS
 62
     5
 10
-364.49999999994179
 20
121.99999999993631
 30
0.0
 11
-364.49999999994179
 21
99.999999999936335
 31
0.0
  0
ARC
  8
DETAIL
  6
CONTINUOUS
 62
     5
 10
-359.49999999994179
 20
99.999999999936335
 30
0.0
 40
5.0
 50
180.0
 51
270.0
  0
LINE
  8
DETAIL
  6
CONTINUOUS
 62
     5
 10
-319.16033615210472
 20
121.99999999993631
 30
0.0
 11
-364.49999999994179
 21
121.99999999993631
 31
0.0
  0
LINE
  8
DETAIL
  6
CONTINUOUS
 62
     5
 10
-355.49999999994179
 20
92.699999999937049
 30
0.0
 11
-318.99999999994179
 21
92.699999999937049
 31
0.0
  0
LINE
  8
DETAIL
  6
CONTINUOUS
 62
     5
 10
-359.49999999994179
 20
94.999999999936335
 30
0.0
 11
-311.05805119075382
 21
94.999999999936335
 31
0.0
  0
LINE
  8
DETAIL
  6
CONTINUOUS
 62
     5
 10
-355.49999999994179
 20
94.999999999936335
 30
0.0
 11
-355.49999999994179
 21
92.699999999937049
 31
0.0
  0
LINE
  8
DETAIL
  6
CONTINUOUS
 62
     5
 10
-337.49812993174419
 20
90.199999999937049
 30
0.0
 11
-333.50187006814667
 21
90.199999999937049
 31
0.0
  0
LINE
  8
DETAIL
  6
CONTINUOUS
 62
     5
 10
-337.99999999994179
 20
90.699999999937063
 30
0.0
 11
-332.99999999994179
 21
90.699999999937063
 31
0.0
  0
LINE
  8
DETAIL
  6
CONTINUOUS
 62
     5
 10
-332.99999999994179
 20
90.699999999937063
 30
0.0
 11
-333.49999999994179
 21
90.199999999937049
 31
0.0
  0
LINE
  8
DETAIL
  6
CONTINUOUS
 62
     5
 10
-332.99999999994179
 20
92.699999999937049
 30
0.0
 11
-332.99999999994179
 21
90.699999999937063
 31
0.0
  0
LINE
  8
DETAIL
  6
CONTINUOUS
 62
     5
 10
-337.99999999994179
 20
92.699999999937049
 30
0.0
 11
-337.99999999994179
 21
90.699999999937063
 31
0.0
  0
LINE
  8
DETAIL
  6
CONTINUOUS
 62
     5
 10
-337.99999999994179
 20
90.699999999937063
 30
0.0
 11
-337.49999999994179
 21
90.199999999937049
 31
0.0
  0
ARC
  8
DETAIL
  6
CONTINUOUS
 62
     5
 10
-318.99999999994179
 20
91.499999999936335
 30
0.0
 40
1.1999999999999991
 50
0.0
 51
90.0
  0
LINE
  8
DETAIL
  6
CONTINUOUS
 62
     5
 10
-312.7999999999447
 20
89.999999999936335
 30
0.0
 11
-317.7999999999447
 21
89.999999999936335
 31
0.0
  0
LINE
  8
DETAIL
  6
CONTINUOUS
 62
     5
 10
-312.7999999999447
 20
89.999999999936335
 30
0.0
 11
-312.7999999999447
 21
94.999999999936335
 31
0.0
  0
ARC
  8
DETAIL
  6
CONTINUOUS
 62
     5
 10
-318.99999999994179
 20
91.499999999936335
 30
0.0
 40
3.5
 50
0.0
 51
90.0
  0
LINE
  8
DETAIL
  6
CONTINUOUS
 62
     5
 10
-315.49999999994179
 20
91.499999999936335
 30
0.0
 11
-315.49999999994179
 21
89.999999999936335
 31
0.0
  0
LINE
  8
DETAIL
  6
CONTINUOUS
 62
     5
 10
93.775443059705154
 20
876.44179051300489
 30
0.0
 11
93.775443059705154
 21
729.46520653673724
 31
0.0
  0
LINE
  8
DETAIL
  6
CONTINUOUS
 62
     5
 10
78.77544305970514
 20
869.97425406140417
 30
0.0
 11
78.77544305970514
 21
733.77562932574619
 31
0.0
  0
LINE
  8
DETAIL
  6
CONTINUOUS
 62
     5
 10
63.77544305970514
 20
863.50671760980538
 30
0.0
 11
63.77544305970514
 21
738.08605211475685
 31
0.0
  0
LINE
  8
DETAIL
  6
CONTINUOUS
 62
     5
 10
48.77544305970514
 20
857.03918115820682
 30
0.0
 11
48.77544305970514
 21
742.39647490376774
 31
0.0
  0
LINE
  8
DETAIL
  6
CONTINUOUS
 62
     5
 10
-177.97645262818691
 20
1479.823703335243
 30
0.0
 11
-177.97645262818691
 21
1332.847119358976
 31
0.0
  0
LINE
  8
DETAIL
  6
CONTINUOUS
 62
     5
 10
-162.97645262818691
 20
1473.356166883643
 30
0.0
 11
-162.97645262818691
 21
1337.1575421479849
 31
0.0
  0
LINE
  8
DETAIL
  6
CONTINUOUS
 62
     5
 10
-147.97645262818691
 20
1466.888630432044
 30
0.0
 11
-147.97645262818691
 21
1341.467964936995
 31
0.0
  0
LINE
  8
DETAIL
  6
CONTINUOUS
 62
     5
 10
-132.97645262818691
 20
1460.4210939804441
 30
0.0
 11
-132.97645262818691
 21
1345.7783877260049
 31
0.0
  0
LINE
  8
DETAIL
  6
CONTINUOUS
 62
     5
 10
-319.35355339054507
 20
1522.4999999999379
 30
0.0
 11
-319.35355339054507
 21
122.4307187457398
 31
0.0
  0
LINE
  8
DETAIL
  6
CONTINUOUS
 62
     5
 10
-318.29289321874239
 20
1522.4999999999379
 30
0.0
 11
-318.29289321874239
 21
120.106036432724
 31
0.0
  0
LINE
  8
DETAIL
  6
CONTINUOUS
 62
     5
 10
318.29289321885881
 20
1522.4999999999379
 30
0.0
 11
318.29289321885881
 21
64.499999999938154
 31
0.0
  0
LINE
  8
DETAIL
  6
CONTINUOUS
 62
     5
 10
319.3535533906616
 20
1522.4999999999379
 30
0.0
 11
319.3535533906616
 21
64.499999999938154
 31
0.0
  0
LINE
  8
NOTE
  6
CONTINUOUS
 62
     4
 10
153.00294372525241
 20
176.19999999993701
 30
0.0
 11
224.00294372525241
 21
176.19999999993701
 31
0.0
  0
LINE
  8
NOTE
  6
CONTINUOUS
 62
     4
 10
188.50294372525241
 20
140.69999999993709
 30
0.0
 11
188.50294372525241
 21
211.69999999993709
 31
0.0
  0
LINE
  8
DETAIL
  6
CONTINUOUS
 62
     5
 10
365.50000000005821
 20
94.999999999936335
 30
0.0
 11
363.95064030275529
 21
94.999999999936335
 31
0.0
  0
LINE
  8
OUTLINE
  6
CONTINUOUS
 62
     3
 10
369.50000000005821
 20
-0.0000000000636646
 30
0.0
 11
317.00000000005821
 21
-0.0000000000636646
 31
0.0
  0
LINE
  8
OUTLINE
  6
CONTINUOUS
 62
     3
 10
-316.99999999994179
 20
-0.0000000000636646
 30
0.0
 11
-369.49999999994179
 21
-0.0000000000636646
 31
0.0
  0
LINE
  8
OUTLINE
  6
CONTINUOUS
 62
     3
 10
369.50000000005821
 20
2.2999999999356069
 30
0.0
 11
317.00000000005821
 21
2.2999999999356069
 31
0.0
  0
LINE
  8
OUTLINE
  6
CONTINUOUS
 62
     3
 10
-316.99999999994179
 20
2.2999999999356069
 30
0.0
 11
-369.49999999994179
 21
2.2999999999356069
 31
0.0
  0
LINE
  8
OUTLINE
  6
CONTINUOUS
 62
     3
 10
-369.49999999994179
 20
2.2999999999356069
 30
0.0
 11
-369.49999999994179
 21
-0.0000000000636646
 31
0.0
  0
LINE
  8
OUTLINE
  6
CONTINUOUS
 62
     3
 10
-369.49999999994179
 20
57.699999999937063
 30
0.0
 11
-369.49999999994179
 21
62.299999999935608
 31
0.0
  0
LINE
  8
OUTLINE
  6
CONTINUOUS
 62
     3
 10
-367.49999999994179
 20
57.699999999937063
 30
0.0
 11
-367.49999999994179
 21
2.2999999999356069
 31
0.0
  0
LINE
  8
OUTLINE
  6
CONTINUOUS
 62
     3
 10
369.50000000005821
 20
57.699999999937063
 30
0.0
 11
317.00000000005821
 21
57.699999999937063
 31
0.0
  0
LINE
  8
OUTLINE
  6
CONTINUOUS
 62
     3
 10
-316.99999999994179
 20
57.699999999937063
 30
0.0
 11
-369.49999999994179
 21
57.699999999937063
 31
0.0
  0
LINE
  8
OUTLINE
  6
CONTINUOUS
 62
     3
 10
319.00000000005821
 20
59.999999999936328
 30
0.0
 11
317.00000000005821
 21
59.999999999936328
 31
0.0
  0
LINE
  8
OUTLINE
  6
CONTINUOUS
 62
     3
 10
-316.99999999994179
 20
59.999999999936328
 30
0.0
 11
-318.99999999994179
 21
59.999999999936328
 31
0.0
  0
LINE
  8
OUTLINE
  6
CONTINUOUS
 62
     3
 10
-369.49999999994179
 20
62.299999999935608
 30
0.0
 11
-318.99999999994179
 21
62.299999999935608
 31
0.0
  0
LINE
  8
OUTLINE
  6
CONTINUOUS
 62
     3
 10
319.00000000005821
 20
62.299999999935608
 30
0.0
 11
369.50000000005821
 21
62.299999999935608
 31
0.0
  0
LINE
  8
OUTLINE
  6
CONTINUOUS
 62
     3
 10
320.46357325975259
 20
64.499999999936335
 30
0.0
 11
300.8000000000539
 21
64.499999999936335
 31
0.0
  0
LINE
  8
OUTLINE
  6
CONTINUOUS
 62
     3
 10
295.80000000005379
 20
87.999999999936335
 30
0.0
 11
-295.7999999999447
 21
87.999999999936335
 31
0.0
  0
LINE
  8
OUTLINE
  6
CONTINUOUS
 62
     3
 10
365.50000000005821
 20
94.999999999936335
 30
0.0
 11
363.95064030275529
 21
94.999999999936335
 31
0.0
  0
LINE
  8
OUTLINE
  6
CONTINUOUS
 62
     3
 10
-365.49999999994179
 20
94.999999999936335
 30
0.0
 11
-365.49999999994179
 21
1522.4999999999361
 31
0.0
  0
LINE
  8
OUTLINE
  6
CONTINUOUS
 62
     3
 10
-317.7999999999447
 20
63.499999999936342
 30
0.0
 11
-317.7999999999447
 21
64.499999999936335
 31
0.0
  0
LINE
  8
OUTLINE
  6
CONTINUOUS
 62
     3
 10
-315.7999999999447
 20
3.4999999999363349
 30
0.0
 11
-315.7999999999447
 21
56.499999999936328
 31
0.0
  0
LINE
  8
OUTLINE
  6
CONTINUOUS
 62
     3
 10
-315.49999999994179
 20
63.499999999936342
 30
0.0
 11
-315.49999999994179
 21
64.499999999936335
 31
0.0
  0
LINE
  8
OUTLINE
  6
CONTINUOUS
 62
     3
 10
-313.49999999994179
 20
3.4999999999363349
 30
0.0
 11
-313.49999999994179
 21
56.499999999936328
 31
0.0
  0
LINE
  8
OUTLINE
  6
CONTINUOUS
 62
     3
 10
-295.7999999999447
 20
69.499999999936335
 30
0.0
 11
-295.7999999999447
 21
87.999999999936335
 31
0.0
  0
LINE
  8
OUTLINE
  6
CONTINUOUS
 62
     3
 10
295.80000000005379
 20
87.999999999936335
 30
0.0
 11
295.80000000005379
 21
69.499999999936335
 31
0.0
  0
LINE
  8
OUTLINE
  6
CONTINUOUS
 62
     3
 10
313.50000000005821
 20
56.499999999936328
 30
0.0
 11
313.50000000005821
 21
3.4999999999363349
 31
0.0
  0
LINE
  8
OUTLINE
  6
CONTINUOUS
 62
     3
 10
315.50000000005821
 20
64.499999999936335
 30
0.0
 11
315.50000000005821
 21
63.499999999936342
 31
0.0
  0
LINE
  8
OUTLINE
  6
CONTINUOUS
 62
     3
 10
315.8000000000539
 20
56.499999999936328
 30
0.0
 11
315.8000000000539
 21
3.4999999999363349
 31
0.0
  0
LINE
  8
OUTLINE
  6
CONTINUOUS
 62
     3
 10
317.8000000000539
 20
64.499999999936335
 30
0.0
 11
317.8000000000539
 21
63.499999999936342
 31
0.0
  0
LINE
  8
OUTLINE
  6
CONTINUOUS
 62
     3
 10
365.50000000005821
 20
94.999999999936335
 30
0.0
 11
365.50000000005821
 21
1522.4999999999361
 31
0.0
  0
LINE
  8
OUTLINE
  6
CONTINUOUS
 62
     3
 10
367.50000000005821
 20
2.2999999999356069
 30
0.0
 11
367.50000000005821
 21
57.699999999937063
 31
0.0
  0
LINE
  8
OUTLINE
  6
CONTINUOUS
 62
     3
 10
369.50000000005821
 20
2.2999999999356069
 30
0.0
 11
369.50000000005821
 21
-0.0000000000636646
 31
0.0
  0
LINE
  8
OUTLINE
  6
CONTINUOUS
 62
     3
 10
369.50000000005821
 20
57.699999999937063
 30
0.0
 11
369.50000000005821
 21
62.299999999935608
 31
0.0
  0
LINE
  8
OUTLINE
  6
CONTINUOUS
 62
     3
 10
363.95064030275529
 20
94.999999999936335
 30
0.0
 11
320.46357325975259
 21
64.499999999936335
 31
0.0
  0
ARC
  8
OUTLINE
  6
CONTINUOUS
 62
     3
 10
-300.7999999999447
 20
69.499999999936335
 30
0.0
 40
5.0
 50
270.0
 51
0.0
  0
ARC
  8
OUTLINE
  6
CONTINUOUS
 62
     3
 10
-318.99999999994179
 20
63.499999999936342
 30
0.0
 40
3.5
 50
270.0
 51
0.0
  0
ARC
  8
OUTLINE
  6
CONTINUOUS
 62
     3
 10
-316.99999999994179
 20
56.499999999936328
 30
0.0
 40
3.5
 50
0.0
 51
90.0
  0
ARC
  8
OUTLINE
  6
CONTINUOUS
 62
     3
 10
-316.99999999994179
 20
3.4999999999363349
 30
0.0
 40
3.5
 50
270.0
 51
0.0
  0
ARC
  8
OUTLINE
  6
CONTINUOUS
 62
     3
 10
-318.99999999994179
 20
63.499999999936342
 30
0.0
 40
1.1999999999999991
 50
270.0
 51
0.0
  0
ARC
  8
OUTLINE
  6
CONTINUOUS
 62
     3
 10
-316.99999999994179
 20
56.499999999936328
 30
0.0
 40
1.1999999999999991
 50
0.0
 51
90.0
  0
ARC
  8
OUTLINE
  6
CONTINUOUS
 62
     3
 10
-316.99999999994179
 20
3.4999999999363349
 30
0.0
 40
1.1999999999999991
 50
270.0
 51
0.0
  0
ARC
  8
OUTLINE
  6
CONTINUOUS
 62
     3
 10
300.8000000000539
 20
69.499999999936335
 30
0.0
 40
5.0
 50
180.0
 51
270.0
  0
ARC
  8
OUTLINE
  6
CONTINUOUS
 62
     3
 10
319.00000000005821
 20
63.499999999936342
 30
0.0
 40
3.5
 50
180.0
 51
270.0
  0
ARC
  8
OUTLINE
  6
CONTINUOUS
 62
     3
 10
317.00000000005821
 20
3.4999999999363349
 30
0.0
 40
3.5
 50
180.0
 51
270.0
  0
ARC
  8
OUTLINE
  6
CONTINUOUS
 62
     3
 10
317.00000000005821
 20
56.499999999936328
 30
0.0
 40
3.5
 50
90.0
 51
180.0
  0
ARC
  8
OUTLINE
  6
CONTINUOUS
 62
     3
 10
319.00000000005821
 20
63.499999999936342
 30
0.0
 40
1.1999999999999991
 50
180.0
 51
270.0
  0
ARC
  8
OUTLINE
  6
CONTINUOUS
 62
     3
 10
317.00000000005821
 20
3.4999999999363349
 30
0.0
 40
1.1999999999999991
 50
180.0
 51
270.0
  0
ARC
  8
OUTLINE
  6
CONTINUOUS
 62
     3
 10
317.00000000005821
 20
56.499999999936328
 30
0.0
 40
1.1999999999999991
 50
90.0
 51
180.0
  0
LINE
  8
OUTLINE
  6
CONTINUOUS
 62
     3
 10
-365.49999999994179
 20
94.999999999936335
 30
0.0
 11
-363.95064030264621
 21
94.999999999936335
 31
0.0
  0
LINE
  8
OUTLINE
  6
CONTINUOUS
 62
     3
 10
-318.03016192623909
 20
62.793307626414389
 30
0.0
 11
-363.9506403025444
 21
94.999999999936335
 31
0.0
  0
LINE
  8
OUTLINE
  6
CONTINUOUS
 62
     3
 10
-300.7999999999447
 20
64.499999999936335
 30
0.0
 11
-317.7999999999447
 21
64.499999999936335
 31
0.0
  0
POLYLINE
  8
OUTLINE
  6
CONTINUOUS
 62
     3
 66
     1
 10
0.0
 20
0.0
 30
0.0
 70
     0
  0
VERTEX
  8
OUTLINE
  6
CONTINUOUS
 62
     3
 10
332.48864381775638
 20
1810.3638347801359
  0
VERTEX
  8
OUTLINE
  6
CONTINUOUS
 62
     3
 10
332.72417021296133
 20
1810.4390943191361
  0
VERTEX
  8
OUTLINE
  6
CONTINUOUS
 62
     3
 10
332.9671834186592
 20
1810.4847151712349
  0
VERTEX
  8
OUTLINE
  6
CONTINUOUS
 62
     3
 10
333.21396885196009
 20
1810.4999999999361
  0
SEQEND
  8
OUTLINE
  6
CONTINUOUS
 62
     3
  0
POLYLINE
  8
OUTLINE
  6
CONTINUOUS
 62
     3
 66
     1
 10
0.0
 20
0.0
 30
0.0
 70
     0
  0
VERTEX
  8
OUTLINE
  6
CONTINUOUS
 62
     3
 10
331.79981632775889
 20
1809.914238845736
  0
VERTEX
  8
OUTLINE
  6
CONTINUOUS
 62
     3
 10
331.8620870800587
 20
1809.973880879236
  0
VERTEX
  8
OUTLINE
  6
CONTINUOUS
 62
     3
 10
332.05428253806173
 20
1810.1294366142361
  0
VERTEX
  8
OUTLINE
  6
CONTINUOUS
 62
     3
 10
332.26420437025808
 20
1810.260086932836
  0
VERTEX
  8
OUTLINE
  6
CONTINUOUS
 62
     3
 10
332.48864381775638
 20
1810.3638347801359
  0
SEQEND
  8
OUTLINE
  6
CONTINUOUS
 62
     3
  0
LINE
  8
OUTLINE
  6
CONTINUOUS
 62
     3
 10
-370.69999999994621
 20
1548.6912168113381
 30
0.0
 11
-370.69999999994621
 21
1522.4999999999361
 31
0.0
  0
LINE
  8
OUTLINE
  6
CONTINUOUS
 62
     3
 10
-370.69999999994621
 20
1548.6912168113361
 30
0.0
 11
-370.69999999994621
 21
1550.1337252624371
 31
0.0
  0
LINE
  8
OUTLINE
  6
CONTINUOUS
 62
     3
 10
-346.39999999994319
 20
1817.0999999999369
 30
0.0
 11
-345.68434233784501
 21
1858.0999999999369
 31
0.0
  0
LINE
  8
OUTLINE
  6
CONTINUOUS
 62
     3
 10
295.46057507985819
 20
1773.574997597837
 30
0.0
 11
331.79981632775889
 21
1809.914238845736
 31
0.0
  0
LINE
  8
OUTLINE
  6
CONTINUOUS
 62
     3
 10
337.09268426265771
 20
1815.207106780636
 30
0.0
 11
338.9855774819589
 21
1817.0999999999369
 31
0.0
  0
LINE
  8
OUTLINE
  6
CONTINUOUS
 62
     3
 10
339.82735597196
 20
1810.587867965537
 30
0.0
 11
342.22735597195418
 21
1812.987867965536
 31
0.0
  0
LINE
  8
OUTLINE
  6
CONTINUOUS
 62
     3
 10
-286.67816672694602
 20
1752.8748959431371
 30
0.0
 11
-285.49999999994179
 21
1683.9999999999361
 31
0.0
  0
POLYLINE
  8
OUTLINE
  6
CONTINUOUS
 62
     3
 66
     1
 10
0.0
 20
0.0
 30
0.0
 70
     0
  0
VERTEX
  8
OUTLINE
  6
CONTINUOUS
 62
     3
 10
-285.49999999994179
 20
1683.9999999999361
  0
VERTEX
  8
OUTLINE
  6
CONTINUOUS
 62
     3
 10
-285.8364177549447
 20
1677.208340456436
  0
VERTEX
  8
OUTLINE
  6
CONTINUOUS
 62
     3
 10
-286.48650228164479
 20
1670.2313783195359
  0
VERTEX
  8
OUTLINE
  6
CONTINUOUS
 62
     3
 10
-287.4480442945424
 20
1663.2506538217369
  0
VERTEX
  8
OUTLINE
  6
CONTINUOUS
 62
     3
 10
-288.72197985323868
 20
1656.287939311436
  0
VERTEX
  8
OUTLINE
  6
CONTINUOUS
 62
     3
 10
-290.30811012554477
 20
1649.364697734637
  0
VERTEX
  8
OUTLINE
  6
CONTINUOUS
 62
     3
 10
-292.20496336044022
 20
1642.502296562837
  0
VERTEX
  8
OUTLINE
  6
CONTINUOUS
 62
     3
 10
-294.40812297404773
 20
1635.721582448936
  0
VERTEX
  8
OUTLINE
  6
CONTINUOUS
 62
     3
 10
-296.91157578974531
 20
1629.040854192036
  0
VERTEX
  8
OUTLINE
  6
CONTINUOUS
 62
     3
 10
-299.71081217224128
 20
1622.4730928026361
  0
VERTEX
  8
OUTLINE
  6
CONTINUOUS
 62
     3
 10
-302.80189091984357
 20
1616.0305528617359
  0
VERTEX
  8
OUTLINE
  6
CONTINUOUS
 62
     3
 10
-306.18096936714568
 20
1609.7259406448361
  0
VERTEX
  8
OUTLINE
  6
CONTINUOUS
 62
     3
 10
-309.84174211154459
 20
1603.5739095443359
  0
VERTEX
  8
OUTLINE
  6
CONTINUOUS
 62
     3
 10
-313.77520872054453
 20
1597.589305036536
  0
VERTEX
  8
OUTLINE
  6
CONTINUOUS
 62
     3
 10
-317.97182342024462
 20
1591.7865958382361
  0
VERTEX
  8
OUTLINE
  6
CONTINUOUS
 62
     3
 10
-322.4236326106402
 20
1586.1775094829361
  0
VERTEX
  8
OUTLINE
  6
CONTINUOUS
 62
     3
 10
-327.12593105083943
 20
1580.770238599536
  0
VERTEX
  8
OUTLINE
  6
CONTINUOUS
 62
     3
 10
-332.07436730384501
 20
1575.572737866537
  0
VERTEX
  8
OUTLINE
  6
CONTINUOUS
 62
     3
 10
-336.1409741061434
 20
1571.6320466462359
  0
SEQEND
  8
OUTLINE
  6
CONTINUOUS
 62
     3
  0
LINE
  8
OUTLINE
  6
CONTINUOUS
 62
     3
 10
285.50000000005821
 20
1683.9999999999361
 30
0.0
 11
286.67816672705521
 21
1752.8748959431371
 31
0.0
  0
LINE
  8
OUTLINE
  6
CONTINUOUS
 62
     3
 10
346.40000000005972
 20
1817.0999999999369
 30
0.0
 11
345.68434233805601
 21
1858.0999999999369
 31
0.0
  0
LINE
  8
OUTLINE
  6
CONTINUOUS
 62
     3
 10
370.7000000000553
 20
1550.1337252624371
 30
0.0
 11
370.7000000000553
 21
1548.6796147706359
 31
0.0
  0
LINE
  8
OUTLINE
  6
CONTINUOUS
 62
     3
 10
370.7000000000553
 20
1548.6796147706359
 30
0.0
 11
370.7000000000553
 21
1522.4999999999361
 31
0.0
  0
LINE
  8
OUTLINE
  6
CONTINUOUS
 62
     3
 10
-342.2273559718451
 20
1812.987867965536
 30
0.0
 11
-339.8273559718437
 21
1810.587867965537
 31
0.0
  0
LINE
  8
OUTLINE
  6
CONTINUOUS
 62
     3
 10
-338.98557748184248
 20
1817.0999999999369
 30
0.0
 11
-337.09268426243949
 21
1815.2071067805359
 31
0.0
  0
LINE
  8
OUTLINE
  6
CONTINUOUS
 62
     3
 10
-331.7998163272423
 20
1809.9142388453361
 30
0.0
 11
-295.46057507974177
 21
1773.574997597837
 31
0.0
  0
LINE
  8
OUTLINE
  6
CONTINUOUS
 62
     3
 10
370.7000000000553
 20
1522.4999999999361
 30
0.0
 11
-370.69999999994621
 21
1522.4999999999361
 31
0.0
  0
LINE
  8
OUTLINE
  6
CONTINUOUS
 62
     3
 10
-359.4332297342408
 20
1556.666753210736
 30
0.0
 11
-364.24469792473968
 21
1556.6336653903361
 31
0.0
  0
LINE
  8
OUTLINE
  6
CONTINUOUS
 62
     3
 10
359.43322973435721
 20
1556.666753210736
 30
0.0
 11
364.2446979248561
 21
1556.6336653903361
 31
0.0
  0
POLYLINE
  8
OUTLINE
  6
CONTINUOUS
 62
     3
 66
     1
 10
0.0
 20
0.0
 30
0.0
 70
     0
  0
VERTEX
  8
OUTLINE
  6
CONTINUOUS
 62
     3
 10
-332.72417021304142
 20
1810.4390943191361
  0
VERTEX
  8
OUTLINE
  6
CONTINUOUS
 62
     3
 10
-332.48864381774189
 20
1810.3638347800361
  0
VERTEX
  8
OUTLINE
  6
CONTINUOUS
 62
     3
 10
-332.26420437003981
 20
1810.2600869327371
  0
VERTEX
  8
OUTLINE
  6
CONTINUOUS
 62
     3
 10
-332.05428253774153
 20
1810.129436614036
  0
VERTEX
  8
OUTLINE
  6
CONTINUOUS
 62
     3
 10
-331.8620870797385
 20
1809.9738808789359
  0
VERTEX
  8
OUTLINE
  6
CONTINUOUS
 62
     3
 10
-331.7998163272423
 20
1809.9142388453361
  0
SEQEND
  8
OUTLINE
  6
CONTINUOUS
 62
     3
  0
POLYLINE
  8
OUTLINE
  6
CONTINUOUS
 62
     3
 66
     1
 10
0.0
 20
0.0
 30
0.0
 70
     0
  0
VERTEX
  8
OUTLINE
  6
CONTINUOUS
 62
     3
 10
336.14097410625982
 20
1571.6320466462359
  0
VERTEX
  8
OUTLINE
  6
CONTINUOUS
 62
     3
 10
332.07436730405612
 20
1575.572737866537
  0
VERTEX
  8
OUTLINE
  6
CONTINUOUS
 62
     3
 10
327.1259310509559
 20
1580.770238599536
  0
VERTEX
  8
OUTLINE
  6
CONTINUOUS
 62
     3
 10
322.42363261075661
 20
1586.1775094829361
  0
VERTEX
  8
OUTLINE
  6
CONTINUOUS
 62
     3
 10
317.97182342035381
 20
1591.7865958382361
  0
VERTEX
  8
OUTLINE
  6
CONTINUOUS
 62
     3
 10
313.77520872065361
 20
1597.589305036536
  0
VERTEX
  8
OUTLINE
  6
CONTINUOUS
 62
     3
 10
309.84174211165367
 20
1603.5739095443359
  0
VERTEX
  8
OUTLINE
  6
CONTINUOUS
 62
     3
 10
306.18096936735668
 20
1609.7259406448361
  0
VERTEX
  8
OUTLINE
  6
CONTINUOUS
 62
     3
 10
302.80189091995271
 20
1616.0305528617359
  0
VERTEX
  8
OUTLINE
  6
CONTINUOUS
 62
     3
 10
299.71081217235769
 20
1622.4730928026361
  0
VERTEX
  8
OUTLINE
  6
CONTINUOUS
 62
     3
 10
296.91157578986167
 20
1629.040854192036
  0
VERTEX
  8
OUTLINE
  6
CONTINUOUS
 62
     3
 10
294.40812297415681
 20
1635.721582448936
  0
VERTEX
  8
OUTLINE
  6
CONTINUOUS
 62
     3
 10
292.20496336055658
 20
1642.502296562837
  0
VERTEX
  8
OUTLINE
  6
CONTINUOUS
 62
     3
 10
290.30811012566119
 20
1649.364697734637
  0
VERTEX
  8
OUTLINE
  6
CONTINUOUS
 62
     3
 10
288.72197985345701
 20
1656.287939311436
  0
VERTEX
  8
OUTLINE
  6
CONTINUOUS
 62
     3
 10
287.4480442946587
 20
1663.2506538217369
  0
VERTEX
  8
OUTLINE
  6
CONTINUOUS
 62
     3
 10
286.4865022817612
 20
1670.2313783195359
  0
VERTEX
  8
OUTLINE
  6
CONTINUOUS
 62
     3
 10
285.83641775515571
 20
1677.208340456436
  0
VERTEX
  8
OUTLINE
  6
CONTINUOUS
 62
     3
 10
285.50000000005821
 20
1683.9999999999361
  0
SEQEND
  8
OUTLINE
  6
CONTINUOUS
 62
     3
  0
POLYLINE
  8
OUTLINE
  6
CONTINUOUS
 62
     3
 66
     1
 10
0.0
 20
0.0
 30
0.0
 70
     0
  0
VERTEX
  8
OUTLINE
  6
CONTINUOUS
 62
     3
 10
-333.21396885224391
 20
1810.4999999999361
  0
VERTEX
  8
OUTLINE
  6
CONTINUOUS
 62
     3
 10
-332.9671834188411
 20
1810.4847151712349
  0
VERTEX
  8
OUTLINE
  6
CONTINUOUS
 62
     3
 10
-332.72417021304142
 20
1810.4390943191361
  0
SEQEND
  8
OUTLINE
  6
CONTINUOUS
 62
     3
  0
LINE
  8
OUTLINE
  6
CONTINUOUS
 62
     3
 10
-339.61517197164358
 20
1810.4999999999361
 30
0.0
 11
-333.21396885224391
 21
1810.4999999999361
 31
0.0
  0
LINE
  8
OUTLINE
  6
CONTINUOUS
 62
     3
 10
333.21396885196009
 20
1810.4999999999361
 30
0.0
 11
339.61517197185458
 21
1810.4999999999361
 31
0.0
  0
LINE
  8
OUTLINE
  6
CONTINUOUS
 62
     3
 10
337.7997910435588
 20
1813.4999999999361
 30
0.0
 11
342.01522393755289
 21
1813.4999999999361
 31
0.0
  0
LINE
  8
OUTLINE
  6
CONTINUOUS
 62
     3
 10
-337.7997910432386
 20
1813.4999999999361
 30
0.0
 11
-342.015173058644
 21
1813.4999999999361
 31
0.0
  0
LINE
  8
OUTLINE
  6
CONTINUOUS
 62
     3
 10
-338.98557748184248
 20
1817.0999999999369
 30
0.0
 11
-346.39999999994319
 21
1817.0999999999369
 31
0.0
  0
LINE
  8
OUTLINE
  6
CONTINUOUS
 62
     3
 10
-345.6843210772422
 20
1858.0999999999369
 30
0.0
 11
345.68432107735862
 21
1858.0999999999369
 31
0.0
  0
ARC
  8
OUTLINE
  6
CONTINUOUS
 62
     3
 10
-359.53570088504063
 20
1571.664606801837
 30
0.0
 40
14.998203742399999
 50
270.39146088955778
 51
306.3353049662997
  0
ARC
  8
OUTLINE
  6
CONTINUOUS
 62
     3
 10
-364.19994741214759
 20
1550.133766849736
 30
0.0
 40
6.5000525879999991
 50
90.394463848435606
 51
180.00036657801201
  0
ARC
  8
OUTLINE
  6
CONTINUOUS
 62
     3
 10
-445.63178034584411
 20
1688.705585097136
 30
0.0
 40
160.2948846859
 50
306.33814081118402
 51
313.0831209527995
  0
ARC
  8
OUTLINE
  6
CONTINUOUS
 62
     3
 10
-316.67377851534548
 20
1752.3617941622369
 30
0.0
 40
30.0
 50
0.9799999999638849
 51
45.000000000147367
  0
ARC
  8
OUTLINE
  6
CONTINUOUS
 62
     3
 10
-337.7997910432386
 20
1814.499999999736
 30
0.0
 40
0.9999999998000001
 50
270.0
 51
45.000000000147367
  0
ARC
  8
OUTLINE
  6
CONTINUOUS
 62
     3
 10
-339.61522393744241
 20
1810.7999999999361
 30
0.0
 40
0.3
 50
225.00000000014739
 51
270.0
  0
ARC
  8
OUTLINE
  6
CONTINUOUS
 62
     3
 10
-342.01522393744381
 20
1813.1999999999359
 30
0.0
 40
0.3
 50
90.0
 51
225.00000000014739
  0
ARC
  8
OUTLINE
  6
CONTINUOUS
 62
     3
 10
316.67377851545461
 20
1752.3617941622369
 30
0.0
 40
30.0
 50
134.99999999985261
 51
179.02000000003611
  0
ARC
  8
OUTLINE
  6
CONTINUOUS
 62
     3
 10
337.7997910435588
 20
1814.499999999736
 30
0.0
 40
0.9999999998000001
 50
134.99999999985261
 51
270.0
  0
ARC
  8
OUTLINE
  6
CONTINUOUS
 62
     3
 10
342.01522393755289
 20
1813.1999999999359
 30
0.0
 40
0.3
 50
314.99999999985249
 51
90.0
  0
ARC
  8
OUTLINE
  6
CONTINUOUS
 62
     3
 10
339.61522393755882
 20
1810.7999999999361
 30
0.0
 40
0.3
 50
270.0
 51
314.99999999985249
  0
ARC
  8
OUTLINE
  6
CONTINUOUS
 62
     3
 10
359.53570088515698
 20
1571.664606801837
 30
0.0
 40
14.998203742399999
 50
233.66469503370041
 51
269.60853911044222
  0
ARC
  8
OUTLINE
  6
CONTINUOUS
 62
     3
 10
364.19994741225668
 20
1550.133766849736
 30
0.0
 40
6.5000525879999991
 50
359.99963342198799
 51
89.605536151564408
  0
ARC
  8
OUTLINE
  6
CONTINUOUS
 62
     3
 10
445.63178034605511
 20
1688.705585097237
 30
0.0
 40
160.2948846859
 50
226.9168790472005
 51
233.66185918881601
  0
LINE
  8
OUTLINE
  6
CONTINUOUS
 62
     3
 10
346.40000000005972
 20
1817.0999999999369
 30
0.0
 11
338.9855774819589
 21
1817.0999999999369
 31
0.0
  0
LINE
  8
NOTE
  6
CONTINUOUS
 62
     4
 10
-249.56083839463821
 20
1998.3943820263671
 30
0.0
 11
-199.56083839463821
 21
1948.498336671672
 31
0.0
  0
LINE
  8
NOTE
  6
CONTINUOUS
 62
     4
 10
-299.56083839464549
 20
1948.498336671672
 30
0.0
 11
-249.56083839463821
 21
1998.3943820263671
 31
0.0
  0
LINE
  8
NOTE
  6
CONTINUOUS
 62
     4
 10
-299.56083839464549
 20
1948.498336671672
 30
0.0
 11
-274.56083839463821
 21
1948.498336671672
 31
0.0
  0
LINE
  8
NOTE
  6
CONTINUOUS
 62
     4
 10
-224.56083839463821
 20
1948.498336671672
 30
0.0
 11
-199.56083839463821
 21
1948.498336671672
 31
0.0
  0
LINE
  8
NOTE
  6
CONTINUOUS
 62
     4
 10
-224.56083839463821
 20
1948.498336671672
 30
0.0
 11
-224.56083839463821
 21
1907.812249250173
 31
0.0
  0
LINE
  8
NOTE
  6
CONTINUOUS
 62
     4
 10
-274.56083839463821
 20
1948.498336671672
 30
0.0
 11
-274.56083839463821
 21
1907.812249250173
 31
0.0
  0
LINE
  8
NOTE
  6
CONTINUOUS
 62
     4
 10
-224.56083839463821
 20
1907.812249250173
 30
0.0
 11
-274.56083839463821
 21
1907.812249250173
 31
0.0
  0
LINE
  8
NOTE
  6
CONTINUOUS
 62
     4
 10
232.0909506933167
 20
1907.812249250173
 30
0.0
 11
282.0909506933167
 21
1907.812249250173
 31
0.0
  0
LINE
  8
NOTE
  6
CONTINUOUS
 62
     4
 10
282.0909506933167
 20
1948.498336671672
 30
0.0
 11
282.0909506933167
 21
1907.812249250173
 31
0.0
  0
LINE
  8
NOTE
  6
CONTINUOUS
 62
     4
 10
232.0909506933167
 20
1948.498336671672
 30
0.0
 11
232.0909506933167
 21
1907.812249250173
 31
0.0
  0
LINE
  8
NOTE
  6
CONTINUOUS
 62
     4
 10
232.0909506933167
 20
1948.498336671672
 30
0.0
 11
207.0909506933167
 21
1948.498336671672
 31
0.0
  0
LINE
  8
NOTE
  6
CONTINUOUS
 62
     4
 10
307.0909506933167
 20
1948.498336671672
 30
0.0
 11
282.0909506933167
 21
1948.498336671672
 31
0.0
  0
LINE
  8
NOTE
  6
CONTINUOUS
 62
     4
 10
307.0909506933167
 20
1948.498336671672
 30
0.0
 11
257.0909506933167
 21
1998.3943820263671
 31
0.0
  0
LINE
  8
NOTE
  6
CONTINUOUS
 62
     4
 10
257.0909506933167
 20
1998.3943820263671
 30
0.0
 11
207.0909506933167
 21
1948.498336671672
 31
0.0
  0
LINE
  8
SIZE
  6
CONTINUOUS
 62
    30
 10
369.50000000005821
 20
-151.85749528979611
 30
0.0
 11
369.50000000005821
 21
-311.44349863027128
 31
0.0
  0
LINE
  8
SIZE
  6
CONTINUOUS
 62
    30
 10
313.50000000005821
 20
-15.803839137237439
 30
0.0
 11
313.50000000005821
 21
-311.44349863027128
 31
0.0
  0
LINE
  8
SIZE
  6
CONTINUOUS
 62
    30
 10
313.50000000005821
 20
-291.44349863027128
 30
0.0
 11
369.50000000005821
 21
-291.44349863027128
 31
0.0
  0
LINE
  8
SIZE
  6
CONTINUOUS
 62
    30
 10
369.50000000005821
 20
-291.44349863027128
 30
0.0
 11
496.07142857148989
 21
-291.44349863027128
 31
0.0
  0
CIRCLE
  8
SIZE
  6
CONTINUOUS
 62
    30
 10
313.50000000005821
 20
-291.44349863027128
 30
0.0
 40
7.5
  0
CIRCLE
  8
SIZE
  6
CONTINUOUS
 62
    30
 10
369.50000000005821
 20
-291.44349863027128
 30
0.0
 40
7.5
  0
TEXT
  8
SIZE
  6
CONTINUOUS
 62
    30
 10
414.30571428577559
 20
-271.44349863027128
 30
0.0
 40
40.0
  1
56
 50
0.0
 41
0.9
 51
0.0
  7
STANDARD
 71
     0
 72
     1
 11
447.78571428577561
 21
-271.44349863027128
 31
0.0
210
0.0
220
0.0
230
1.0
  0
POINT
  8
DEFPOINTS
  6
CONTINUOUS
 62
    30
 10
369.50000000005821
 20
-131.85749528979611
 30
0.0
  0
POINT
  8
DEFPOINTS
  6
CONTINUOUS
 62
    30
 10
313.50000000005821
 20
4.1961608627625528
 30
0.0
  0
POINT
  8
DEFPOINTS
  6
CONTINUOUS
 62
    30
 10
313.50000000005821
 20
-291.44349863027128
 30
0.0
  0
LINE
  8
SIZE
  6
CONTINUOUS
 62
    30
 10
-369.49999999994179
 20
-151.85749528979611
 30
0.0
 11
-369.49999999994179
 21
-311.44349863027128
 31
0.0
  0
LINE
  8
SIZE
  6
CONTINUOUS
 62
    30
 10
-313.49999999994179
 20
-16.500000000063661
 30
0.0
 11
-313.49999999994179
 21
-311.44349863027128
 31
0.0
  0
LINE
  8
SIZE
  6
CONTINUOUS
 62
    30
 10
-313.49999999994179
 20
-291.44349863027128
 30
0.0
 11
-369.49999999994179
 21
-291.44349863027128
 31
0.0
  0
LINE
  8
SIZE
  6
CONTINUOUS
 62
    30
 10
-369.49999999994179
 20
-291.44349863027128
 30
0.0
 11
-496.07142857137347
 21
-291.44349863027128
 31
0.0
  0
CIRCLE
  8
SIZE
  6
CONTINUOUS
 62
    30
 10
-313.49999999994179
 20
-291.44349863027128
 30
0.0
 40
7.5
  0
CIRCLE
  8
SIZE
  6
CONTINUOUS
 62
    30
 10
-369.49999999994179
 20
-291.44349863027128
 30
0.0
 40
7.5
  0
TEXT
  8
SIZE
  6
CONTINUOUS
 62
    30
 10
-481.2657142856591
 20
-271.44349863027128
 30
0.0
 40
40.0
  1
56
 50
0.0
 41
0.9
 51
0.0
  7
STANDARD
 71
     0
 72
     1
 11
-447.78571428565908
 21
-271.44349863027128
 31
0.0
210
0.0
220
0.0
230
1.0
  0
POINT
  8
DEFPOINTS
  6
CONTINUOUS
 62
    30
 10
-369.49999999994179
 20
-131.85749528979611
 30
0.0
  0
POINT
  8
DEFPOINTS
  6
CONTINUOUS
 62
    30
 10
-313.49999999994179
 20
3.4999999999363349
 30
0.0
  0
POINT
  8
DEFPOINTS
  6
CONTINUOUS
 62
    30
 10
-313.49999999994179
 20
-291.44349863027128
 30
0.0
  0
LINE
  8
SIZE
  6
CONTINUOUS
 62
    30
 10
315.50000000005821
 20
43.999999999936328
 30
0.0
 11
315.50000000005821
 21
-395.37493912572791
 31
0.0
  0
LINE
  8
SIZE
  6
CONTINUOUS
 62
    30
 10
369.50000000005821
 20
-151.85749528979611
 30
0.0
 11
369.50000000005821
 21
-395.37493912572791
 31
0.0
  0
LINE
  8
SIZE
  6
CONTINUOUS
 62
    30
 10
315.50000000005821
 20
-375.37493912572791
 30
0.0
 11
369.50000000005821
 21
-375.37493912572791
 31
0.0
  0
LINE
  8
SIZE
  6
CONTINUOUS
 62
    30
 10
369.50000000005821
 20
-375.37493912572791
 30
0.0
 11
499.50000000005809
 21
-375.37493912572791
 31
0.0
  0
CIRCLE
  8
SIZE
  6
CONTINUOUS
 62
    30
 10
315.50000000005821
 20
-375.37493912572791
 30
0.0
 40
7.5
  0
CIRCLE
  8
SIZE
  6
CONTINUOUS
 62
    30
 10
369.50000000005821
 20
-375.37493912572791
 30
0.0
 40
7.5
  0
TEXT
  8
SIZE
  6
CONTINUOUS
 62
    30
 10
415.66000000005812
 20
-355.37493912572791
 30
0.0
 40
40.0
  1
54
 50
0.0
 41
0.9
 51
0.0
  7
STANDARD
 71
     0
 72
     1
 11
449.50000000005809
 21
-355.37493912572791
 31
0.0
210
0.0
220
0.0
230
1.0
  0
POINT
  8
DEFPOINTS
  6
CONTINUOUS
 62
    30
 10
315.50000000005821
 20
63.999999999936328
 30
0.0
  0
POINT
  8
DEFPOINTS
  6
CONTINUOUS
 62
    30
 10
369.50000000005821
 20
-131.85749528979611
 30
0.0
  0
POINT
  8
DEFPOINTS
  6
CONTINUOUS
 62
    30
 10
369.50000000005821
 20
-375.37493912572791
 30
0.0
  0
LINE
  8
SIZE
  6
CONTINUOUS
 62
    30
 10
295.80000000005379
 20
49.499999999936328
 30
0.0
 11
295.80000000005379
 21
-119.86129591672029
 31
0.0
  0
LINE
  8
SIZE
  6
CONTINUOUS
 62
    30
 10
-295.7999999999447
 20
49.499999999936328
 30
0.0
 11
-295.7999999999447
 21
-119.86129591672029
 31
0.0
  0
LINE
  8
SIZE
  6
CONTINUOUS
 62
    30
 10
295.80000000005379
 20
-99.861295916720337
 30
0.0
 11
-295.7999999999447
 21
-99.861295916720337
 31
0.0
  0
CIRCLE
  8
SIZE
  6
CONTINUOUS
 62
    30
 10
295.80000000005379
 20
-99.861295916720337
 30
0.0
 40
7.5
  0
CIRCLE
  8
SIZE
  6
CONTINUOUS
 62
    30
 10
-295.7999999999447
 20
-99.861295916720337
 30
0.0
 40
7.5
  0
TEXT
  8
SIZE
  6
CONTINUOUS
 62
    30
 10
-63.99708537915896
 20
-79.861295916720337
 30
0.0
 40
40.0
  1
592
 50
0.0
 41
0.9
 51
0.0
  7
STANDARD
 71
     0
 72
     1
 11
-13.777085379158962
 21
-79.861295916720337
 31
0.0
210
0.0
220
0.0
230
1.0
  0
POINT
  8
DEFPOINTS
  6
CONTINUOUS
 62
    30
 10
295.80000000005379
 20
69.499999999936335
 30
0.0
  0
POINT
  8
DEFPOINTS
  6
CONTINUOUS
 62
    30
 10
-295.7999999999447
 20
69.499999999936335
 30
0.0
  0
POINT
  8
DEFPOINTS
  6
CONTINUOUS
 62
    30
 10
-295.7999999999447
 20
-99.861295916720337
 30
0.0
  0
LINE
  8
SIZE
  6
CONTINUOUS
 62
    30
 10
-389.49999999994179
 20
59.999999999936328
 30
0.0
 11
-600.61773395230546
 21
59.999999999936399
 31
0.0
  0
LINE
  8
SIZE
  6
CONTINUOUS
 62
    30
 10
-385.49999999994179
 20
94.999999999936335
 30
0.0
 11
-600.61773395230546
 21
94.999999999936378
 31
0.0
  0
LINE
  8
SIZE
  6
CONTINUOUS
 62
    30
 10
-580.61773395230546
 20
94.999999999936378
 30
0.0
 11
-580.61773395230546
 21
124.99999999993641
 31
0.0
  0
LINE
  8
SIZE
  6
CONTINUOUS
 62
    30
 10
-580.61773395230546
 20
59.999999999936392
 30
0.0
 11
-580.61773395230546
 21
-98.285714285777885
 31
0.0
  0
LINE
  8
SIZE
  6
CONTINUOUS
 62
    30
 10
-580.61773395230546
 20
94.999999999936378
 30
0.0
 11
-580.61773395230546
 21
59.999999999936392
 31
0.0
  0
CIRCLE
  8
SIZE
  6
CONTINUOUS
 62
    30
 10
-580.61773395230546
 20
94.999999999936378
 30
0.0
 40
7.5
  0
CIRCLE
  8
SIZE
  6
CONTINUOUS
 62
    30
 10
-580.61773395230546
 20
59.999999999936392
 30
0.0
 40
7.5
  0
TEXT
  8
SIZE
  6
CONTINUOUS
 62
    30
 10
-600.61773395230557
 20
-82.62285714292085
 30
0.0
 40
40.0
  1
35
 50
90.0
 41
0.9
 51
0.0
  7
STANDARD
 71
     0
 72
     1
 11
-600.61773395230557
 21
-49.142857142920839
 31
0.0
210
0.0
220
0.0
230
1.0
  0
POINT
  8
DEFPOINTS
  6
CONTINUOUS
 62
    30
 10
-369.49999999994179
 20
59.999999999936328
 30
0.0
  0
POINT
  8
DEFPOINTS
  6
CONTINUOUS
 62
    30
 10
-365.49999999994179
 20
94.999999999936335
 30
0.0
  0
POINT
  8
DEFPOINTS
  6
CONTINUOUS
 62
    30
 10
-580.61773395230546
 20
94.999999999936378
 30
0.0
  0
LINE
  8
SIZE
  6
CONTINUOUS
 62
    30
 10
-315.49999999994179
 20
44.499999999936328
 30
0.0
 11
-315.49999999994179
 21
-395.29102053784482
 31
0.0
  0
LINE
  8
SIZE
  6
CONTINUOUS
 62
    30
 10
-369.49999999994179
 20
-20.000000000063661
 30
0.0
 11
-369.49999999994179
 21
-395.29102053784482
 31
0.0
  0
LINE
  8
SIZE
  6
CONTINUOUS
 62
    30
 10
-315.49999999994179
 20
-375.29102053784482
 30
0.0
 11
-369.49999999994179
 21
-375.29102053784482
 31
0.0
  0
LINE
  8
SIZE
  6
CONTINUOUS
 62
    30
 10
-369.49999999994179
 20
-375.29102053784482
 30
0.0
 11
-499.49999999994179
 21
-375.29102053784482
 31
0.0
  0
CIRCLE
  8
SIZE
  6
CONTINUOUS
 62
    30
 10
-315.49999999994179
 20
-375.29102053784482
 30
0.0
 40
7.5
  0
CIRCLE
  8
SIZE
  6
CONTINUOUS
 62
    30
 10
-369.49999999994179
 20
-375.29102053784482
 30
0.0
 40
7.5
  0
TEXT
  8
SIZE
  6
CONTINUOUS
 62
    30
 10
-483.33999999994177
 20
-355.29102053784482
 30
0.0
 40
40.0
  1
54
 50
0.0
 41
0.9
 51
0.0
  7
STANDARD
 71
     0
 72
     1
 11
-449.49999999994179
 21
-355.29102053784482
 31
0.0
210
0.0
220
0.0
230
1.0
  0
POINT
  8
DEFPOINTS
  6
CONTINUOUS
 62
    30
 10
-315.49999999994179
 20
64.499999999936335
 30
0.0
  0
POINT
  8
DEFPOINTS
  6
CONTINUOUS
 62
    30
 10
-369.49999999994179
 20
-0.0000000000636646
 30
0.0
  0
POINT
  8
DEFPOINTS
  6
CONTINUOUS
 62
    30
 10
-369.49999999994179
 20
-375.29102053784482
 30
0.0
  0
LINE
  8
SIZE
  6
CONTINUOUS
 62
    30
 10
389.50000000005821
 20
59.999999999936328
 30
0.0
 11
647.33613669443002
 21
59.999999999936257
 31
0.0
  0
LINE
  8
SIZE
  6
CONTINUOUS
 62
    30
 10
244.00294372525241
 20
176.19999999993701
 30
0.0
 11
647.33613669443002
 21
176.19999999993689
 31
0.0
  0
LINE
  8
SIZE
  6
CONTINUOUS
 62
    30
 10
627.33613669443002
 20
59.999999999936257
 30
0.0
 11
627.33613669443002
 21
176.19999999993689
 31
0.0
  0
CIRCLE
  8
SIZE
  6
CONTINUOUS
 62
    30
 10
627.33613669443002
 20
59.999999999936257
 30
0.0
 40
7.5
  0
CIRCLE
  8
SIZE
  6
CONTINUOUS
 62
    30
 10
627.33613669443002
 20
176.19999999993689
 30
0.0
 40
7.5
  0
TEXT
  8
SIZE
  6
CONTINUOUS
 62
    30
 10
607.33613669443002
 20
75.91918808206222
 30
0.0
 40
40.0
  1
116
 50
90.0
 41
0.9
 51
0.0
  7
STANDARD
 71
     0
 72
     1
 11
607.33613669443002
 21
118.9391880820622
 31
0.0
210
0.0
220
0.0
230
1.0
  0
POINT
  8
DEFPOINTS
  6
CONTINUOUS
 62
    30
 10
369.50000000005821
 20
59.999999999936328
 30
0.0
  0
POINT
  8
DEFPOINTS
  6
CONTINUOUS
 62
    30
 10
224.00294372525241
 20
176.19999999993701
 30
0.0
  0
POINT
  8
DEFPOINTS
  6
CONTINUOUS
 62
    30
 10
627.33613669443002
 20
176.19999999993689
 30
0.0
  0
LINE
  8
SIZE
  6
CONTINUOUS
 62
    30
 10
188.50294372525241
 20
231.69999999993709
 30
0.0
 11
188.50294372525241
 21
493.6705385147925
 31
0.0
  0
LINE
  8
SIZE
  6
CONTINUOUS
 62
    30
 10
369.50000000005821
 20
19.999999999936328
 30
0.0
 11
369.50000000005832
 21
493.6705385147925
 31
0.0
  0
LINE
  8
SIZE
  6
CONTINUOUS
 62
    30
 10
188.50294372525241
 20
473.67053851479238
 30
0.0
 11
369.50000000005832
 21
473.67053851479238
 31
0.0
  0
LINE
  8
SIZE
  6
CONTINUOUS
 62
    30
 10
369.50000000005832
 20
473.67053851479238
 30
0.0
 11
509.78571428577249
 21
473.67053851479238
 31
0.0
  0
CIRCLE
  8
SIZE
  6
CONTINUOUS
 62
    30
 10
188.50294372525241
 20
473.67053851479238
 30
0.0
 40
7.5
  0
CIRCLE
  8
SIZE
  6
CONTINUOUS
 62
    30
 10
369.50000000005832
 20
473.67053851479238
 30
0.0
 40
7.5
  0
TEXT
  8
SIZE
  6
CONTINUOUS
 62
    30
 10
411.62285714291539
 20
493.6705385147925
 30
0.0
 40
40.0
  1
181
 50
0.0
 41
0.9
 51
0.0
  7
STANDARD
 71
     0
 72
     1
 11
454.64285714291537
 21
493.6705385147925
 31
0.0
210
0.0
220
0.0
230
1.0
  0
POINT
  8
DEFPOINTS
  6
CONTINUOUS
 62
    30
 10
188.50294372525241
 20
211.69999999993709
 30
0.0
  0
POINT
  8
DEFPOINTS
  6
CONTINUOUS
 62
    30
 10
369.50000000005821
 20
-0.0000000000636646
 30
0.0
  0
POINT
  8
DEFPOINTS
  6
CONTINUOUS
 62
    30
 10
369.50000000005832
 20
473.67053851479238
 30
0.0
  0
LINE
  8
SIZE
  6
CONTINUOUS
 62
    30
 10
295.80000000005379
 20
49.499999999936328
 30
0.0
 11
295.80000000005379
 21
-119.86129591672029
 31
0.0
  0
LINE
  8
SIZE
  6
CONTINUOUS
 62
    30
 10
315.8000000000539
 20
-16.500000000063661
 30
0.0
 11
315.8000000000539
 21
-119.86129591672029
 31
0.0
  0
LINE
  8
SIZE
  6
CONTINUOUS
 62
    30
 10
295.80000000005379
 20
-99.861295916720337
 30
0.0
 11
265.8000000000539
 21
-99.861295916720337
 31
0.0
  0
LINE
  8
SIZE
  6
CONTINUOUS
 62
    30
 10
315.8000000000539
 20
-99.861295916720337
 30
0.0
 11
474.08571428576812
 21
-99.861295916720337
 31
0.0
  0
LINE
  8
SIZE
  6
CONTINUOUS
 62
    30
 10
295.80000000005379
 20
-99.861295916720337
 30
0.0
 11
315.8000000000539
 21
-99.861295916720337
 31
0.0
  0
CIRCLE
  8
SIZE
  6
CONTINUOUS
 62
    30
 10
295.80000000005379
 20
-99.861295916720337
 30
0.0
 40
7.5
  0
CIRCLE
  8
SIZE
  6
CONTINUOUS
 62
    30
 10
315.8000000000539
 20
-99.861295916720337
 30
0.0
 40
7.5
  0
TEXT
  8
SIZE
  6
CONTINUOUS
 62
    30
 10
391.10285714291092
 20
-79.861295916720337
 30
0.0
 40
40.0
  1
20
 50
0.0
 41
0.9
 51
0.0
  7
STANDARD
 71
     0
 72
     1
 11
424.9428571429109
 21
-79.861295916720337
 31
0.0
210
0.0
220
0.0
230
1.0
  0
POINT
  8
DEFPOINTS
  6
CONTINUOUS
 62
    30
 10
295.80000000005379
 20
69.499999999936335
 30
0.0
  0
POINT
  8
DEFPOINTS
  6
CONTINUOUS
 62
    30
 10
315.8000000000539
 20
3.4999999999363349
 30
0.0
  0
POINT
  8
DEFPOINTS
  6
CONTINUOUS
 62
    30
 10
315.8000000000539
 20
-99.861295916720337
 30
0.0
  0
LINE
  8
SIZE
  6
CONTINUOUS
 62
    30
 10
-295.7999999999447
 20
49.499999999936328
 30
0.0
 11
-295.7999999999447
 21
-119.86129591672029
 31
0.0
  0
LINE
  8
SIZE
  6
CONTINUOUS
 62
    30
 10
-315.7999999999447
 20
-16.500000000063661
 30
0.0
 11
-315.7999999999447
 21
-119.86129591672029
 31
0.0
  0
LINE
  8
SIZE
  6
CONTINUOUS
 62
    30
 10
-295.7999999999447
 20
-99.861295916720337
 30
0.0
 11
-265.7999999999447
 21
-99.861295916720337
 31
0.0
  0
LINE
  8
SIZE
  6
CONTINUOUS
 62
    30
 10
-315.7999999999447
 20
-99.861295916720337
 30
0.0
 11
-474.08571428565892
 21
-99.861295916720337
 31
0.0
  0
LINE
  8
SIZE
  6
CONTINUOUS
 62
    30
 10
-295.7999999999447
 20
-99.861295916720337
 30
0.0
 11
-315.7999999999447
 21
-99.861295916720337
 31
0.0
  0
CIRCLE
  8
SIZE
  6
CONTINUOUS
 62
    30
 10
-295.7999999999447
 20
-99.861295916720337
 30
0.0
 40
7.5
  0
CIRCLE
  8
SIZE
  6
CONTINUOUS
 62
    30
 10
-315.7999999999447
 20
-99.861295916720337
 30
0.0
 40
7.5
  0
TEXT
  8
SIZE
  6
CONTINUOUS
 62
    30
 10
-458.78285714280167
 20
-79.861295916720337
 30
0.0
 40
40.0
  1
20
 50
0.0
 41
0.9
 51
0.0
  7
STANDARD
 71
     0
 72
     1
 11
-424.9428571428017
 21
-79.861295916720337
 31
0.0
210
0.0
220
0.0
230
1.0
  0
POINT
  8
DEFPOINTS
  6
CONTINUOUS
 62
    30
 10
-295.7999999999447
 20
69.499999999936335
 30
0.0
  0
POINT
  8
DEFPOINTS
  6
CONTINUOUS
 62
    30
 10
-315.7999999999447
 20
3.4999999999363349
 30
0.0
  0
POINT
  8
DEFPOINTS
  6
CONTINUOUS
 62
    30
 10
-315.7999999999447
 20
-99.861295916720337
 30
0.0
  0
CIRCLE
  8
FIX
  6
CONTINUOUS
 62
    11
 10
340.00000000005821
 20
-0.0000000000636646
 30
0.0
 40
11.0
  0
LINE
  8
NOTE
  6
CONTINUOUS
 62
     4
 10
319.88724409459252
 20
-0.0000000000636646
 30
0.0
 11
360.1127559055239
 21
-0.0000000000636646
 31
0.0
  0
LINE
  8
NOTE
  6
CONTINUOUS
 62
     4
 10
340.00000000005821
 20
-20.112755905533049
 30
0.0
 11
340.00000000005821
 21
20.11275590540572
 31
0.0
  0
CIRCLE
  8
FIX
  6
CONTINUOUS
 62
    11
 10
-339.99999999993452
 20
-0.0000000000636646
 30
0.0
 40
11.0
  0
LINE
  8
NOTE
  6
CONTINUOUS
 62
     4
 10
-360.11275590540748
 20
-0.0000000000636646
 30
0.0
 11
-319.88724409447599
 21
-0.0000000000636646
 31
0.0
  0
LINE
  8
NOTE
  6
CONTINUOUS
 62
     4
 10
-339.99999999993452
 20
-20.112755905533049
 30
0.0
 11
-339.99999999993452
 21
20.11275590540572
 31
0.0
  0
LINE
  8
SIZE
  6
CONTINUOUS
 62
    30
 10
340.00000000005821
 20
-40.112755905533049
 30
0.0
 11
340.00000000005821
 21
-229.97252547161591
 31
0.0
  0
LINE
  8
SIZE
  6
CONTINUOUS
 62
    30
 10
369.50000000005821
 20
-20.000000000063661
 30
0.0
 11
369.50000000005821
 21
-229.97252547161591
 31
0.0
  0
LINE
  8
SIZE
  6
CONTINUOUS
 62
    30
 10
340.00000000005821
 20
-209.97252547161591
 30
0.0
 11
310.00000000005821
 21
-209.97252547161591
 31
0.0
  0
LINE
  8
SIZE
  6
CONTINUOUS
 62
    30
 10
369.50000000005821
 20
-209.97252547161591
 30
0.0
 11
579.21428571434387
 21
-209.97252547161591
 31
0.0
  0
LINE
  8
SIZE
  6
CONTINUOUS
 62
    30
 10
340.00000000005821
 20
-209.97252547161591
 30
0.0
 11
369.50000000005821
 21
-209.97252547161591
 31
0.0
  0
CIRCLE
  8
SIZE
  6
CONTINUOUS
 62
    30
 10
340.00000000005821
 20
-209.97252547161591
 30
0.0
 40
7.5
  0
CIRCLE
  8
SIZE
  6
CONTINUOUS
 62
    30
 10
369.50000000005821
 20
-209.97252547161591
 30
0.0
 40
7.5
  0
TEXT
  8
SIZE
  6
CONTINUOUS
 62
    30
 10
445.49714285720097
 20
-189.97252547161591
 30
0.0
 40
40.0
  1
29.5
 50
0.0
 41
0.9
 51
0.0
  7
STANDARD
 71
     0
 72
     1
 11
504.35714285720098
 21
-189.97252547161591
 31
0.0
210
0.0
220
0.0
230
1.0
  0
POINT
  8
DEFPOINTS
  6
CONTINUOUS
 62
    30
 10
340.00000000005821
 20
-20.112755905533049
 30
0.0
  0
POINT
  8
DEFPOINTS
  6
CONTINUOUS
 62
    30
 10
369.50000000005821
 20
-0.0000000000636646
 30
0.0
  0
POINT
  8
DEFPOINTS
  6
CONTINUOUS
 62
    30
 10
369.50000000005821
 20
-209.97252547161591
 30
0.0
  0
LINE
  8
SIZE
  6
CONTINUOUS
 62
    30
 10
-339.99999999993452
 20
-40.112755905533049
 30
0.0
 11
-339.99999999993452
 21
-229.97252547161591
 31
0.0
  0
LINE
  8
SIZE
  6
CONTINUOUS
 62
    30
 10
-369.49999999994179
 20
-20.000000000063661
 30
0.0
 11
-369.49999999994179
 21
-229.97252547161591
 31
0.0
  0
LINE
  8
SIZE
  6
CONTINUOUS
 62
    30
 10
-339.99999999993452
 20
-209.97252547161591
 30
0.0
 11
-309.99999999993452
 21
-209.97252547161591
 31
0.0
  0
LINE
  8
SIZE
  6
CONTINUOUS
 62
    30
 10
-369.49999999994179
 20
-209.97252547161591
 30
0.0
 11
-579.21428571422734
 21
-209.97252547161591
 31
0.0
  0
LINE
  8
SIZE
  6
CONTINUOUS
 62
    30
 10
-339.99999999993452
 20
-209.97252547161591
 30
0.0
 11
-369.49999999994179
 21
-209.97252547161591
 31
0.0
  0
CIRCLE
  8
SIZE
  6
CONTINUOUS
 62
    30
 10
-339.99999999993452
 20
-209.97252547161591
 30
0.0
 40
7.5
  0
CIRCLE
  8
SIZE
  6
CONTINUOUS
 62
    30
 10
-369.49999999994179
 20
-209.97252547161591
 30
0.0
 40
7.5
  0
TEXT
  8
SIZE
  6
CONTINUOUS
 62
    30
 10
-563.21714285708458
 20
-189.97252547161591
 30
0.0
 40
40.0
  1
29.5
 50
0.0
 41
0.9
 51
0.0
  7
STANDARD
 71
     0
 72
     1
 11
-504.35714285708457
 21
-189.97252547161591
 31
0.0
210
0.0
220
0.0
230
1.0
  0
POINT
  8
DEFPOINTS
  6
CONTINUOUS
 62
    30
 10
-339.99999999993452
 20
-20.112755905533049
 30
0.0
  0
POINT
  8
DEFPOINTS
  6
CONTINUOUS
 62
    30
 10
-369.49999999994179
 20
-0.0000000000636646
 30
0.0
  0
POINT
  8
DEFPOINTS
  6
CONTINUOUS
 62
    30
 10
-369.49999999994179
 20
-209.97252547161591
 30
0.0
  0
LINE
  8
SIZE
  6
CONTINUOUS
 62
    30
 10
-339.99999999993452
 20
-40.112755905533049
 30
0.0
 11
-339.99999999993452
 21
-229.97252547161591
 31
0.0
  0
LINE
  8
SIZE
  6
CONTINUOUS
 62
    30
 10
340.00000000005821
 20
-40.112755905533049
 30
0.0
 11
340.00000000005821
 21
-229.97252547161591
 31
0.0
  0
LINE
  8
SIZE
  6
CONTINUOUS
 62
    30
 10
-339.99999999993452
 20
-209.97252547161591
 30
0.0
 11
340.00000000005821
 21
-209.97252547161591
 31
0.0
  0
CIRCLE
  8
SIZE
  6
CONTINUOUS
 62
    30
 10
-339.99999999993452
 20
-209.97252547161591
 30
0.0
 40
7.5
  0
CIRCLE
  8
SIZE
  6
CONTINUOUS
 62
    30
 10
340.00000000005821
 20
-209.97252547161591
 30
0.0
 40
7.5
  0
TEXT
  8
SIZE
  6
CONTINUOUS
 62
    30
 10
-193.31999999993812
 20
-179.4963349954254
 30
0.0
 40
40.0
  1
681(678~684)
 50
0.0
 41
0.9
 51
0.0
  7
STANDARD
 71
     0
 72
     1
 11
0.0000000000618456
 21
-179.4963349954254
 31
0.0
210
0.0
220
0.0
230
1.0
  0
POINT
  8
DEFPOINTS
  6
CONTINUOUS
 62
    30
 10
-339.99999999993452
 20
-20.112755905533049
 30
0.0
  0
POINT
  8
DEFPOINTS
  6
CONTINUOUS
 62
    30
 10
340.00000000005821
 20
-20.112755905533049
 30
0.0
  0
POINT
  8
DEFPOINTS
  6
CONTINUOUS
 62
    30
 10
340.00000000005821
 20
-209.97252547161591
 30
0.0
  0
TEXT
  8
SIZE
  6
CONTINUOUS
 62
    30
 10
-217.24829548249551
 20
-263.2495858912207
 30
0.0
 40
53.0
  1
(Mounting pitch) 
 50
0.0000025045208307
 41
0.51
  7
KAIGAI_STANDARD_1
  0
LINE
  8
SIZE
  6
CONTINUOUS
 62
    30
 10
369.50000000005821
 20
-20.000000000063661
 30
0.0
 11
369.50000000005821
 21
-492.90998146672598
 31
0.0
  0
LINE
  8
SIZE
  6
CONTINUOUS
 62
    30
 10
-369.49999999994179
 20
-20.000000000063661
 30
0.0
 11
-369.49999999994179
 21
-492.90998146672598
 31
0.0
  0
LINE
  8
SIZE
  6
CONTINUOUS
 62
    30
 10
369.50000000005821
 20
-472.90998146672609
 30
0.0
 11
-369.49999999994179
 21
-472.90998146672609
 31
0.0
  0
CIRCLE
  8
SIZE
  6
CONTINUOUS
 62
    30
 10
369.50000000005821
 20
-472.90998146672609
 30
0.0
 40
7.5
  0
CIRCLE
  8
SIZE
  6
CONTINUOUS
 62
    30
 10
-369.49999999994179
 20
-472.90998146672609
 30
0.0
 40
7.5
  0
TEXT
  8
SIZE
  6
CONTINUOUS
 62
    30
 10
-74.699999999941795
 20
-442.43379099053561
 30
0.0
 40
40.0
  1
(740)
 50
0.0
 41
0.9
 51
0.0
  7
STANDARD
 71
     0
 72
     1
 11
0.0000000000582077
 21
-442.43379099053561
 31
0.0
210
0.0
220
0.0
230
1.0
  0
POINT
  8
DEFPOINTS
  6
CONTINUOUS
 62
    30
 10
369.50000000005821
 20
-0.0000000000636646
 30
0.0
  0
POINT
  8
DEFPOINTS
  6
CONTINUOUS
 62
    30
 10
-369.49999999994179
 20
-0.0000000000636646
 30
0.0
  0
POINT
  8
DEFPOINTS
  6
CONTINUOUS
 62
    30
 10
-369.49999999994179
 20
-472.90998146672609
 30
0.0
  0
LINE
  8
BASIS
  6
DASHDOT
 62
     6
 10
0.0000000000582077
 20
-22.855693145056652
 30
0.0
 11
0.0000000000509317
 21
1899.574261272415
 31
0.0
  0
CIRCLE
  8
ARRANGE
  6
CONTINUOUS
 62
     1
 10
0.0
 20
0.0
 30
0.0
 40
20.0
  0
LINE
  8
ARRANGE
  6
CONTINUOUS
 62
     1
 10
-28.284271247459401
 20
28.284271247463039
 30
0.0
 11
28.284271247459401
 21
-28.28427124746668
 31
0.0
  0
LINE
  8
ARRANGE
  6
CONTINUOUS
 62
     1
 10
28.284271247459401
 20
28.284271247463039
 30
0.0
 11
-28.284271247459401
 21
-28.28427124746122
 31
0.0
  0
TEXT
  8
NOTE
  6
CONTINUOUS
 62
     4
 10
-165.99037140035941
 20
1933.3737974149719
 30
0.0
 40
53.0
  1
Discharge air
 50
0.0000025045208307
 41
0.51
  7
KAIGAI_STANDARD_1
  0
LINE
  8
NOTE
  6
CONTINUOUS
 62
     4
 10
577.60907861473243
 20
1045.829108336193
 30
0.0
 11
577.60907861473243
 21
1095.829108336193
 31
0.0
  0
LINE
  8
NOTE
  6
CONTINUOUS
 62
     4
 10
536.92299161473045
 20
1095.829108336193
 30
0.0
 11
577.60907861473243
 21
1095.829108336193
 31
0.0
  0
LINE
  8
NOTE
  6
CONTINUOUS
 62
     4
 10
536.92299161473045
 20
1045.829108336193
 30
0.0
 11
577.60907861473243
 21
1045.829108336193
 31
0.0
  0
LINE
  8
NOTE
  6
CONTINUOUS
 62
     4
 10
536.92299161473045
 20
1045.829108336193
 30
0.0
 11
536.92299161473045
 21
1020.829108336193
 31
0.0
  0
LINE
  8
NOTE
  6
CONTINUOUS
 62
     4
 10
536.92299161473045
 20
1120.8291083361919
 30
0.0
 11
536.92299161473045
 21
1095.829108336193
 31
0.0
  0
LINE
  8
NOTE
  6
CONTINUOUS
 62
     4
 10
536.92299161473045
 20
1120.8291083361919
 30
0.0
 11
487.02694661472918
 21
1070.829108336193
 31
0.0
  0
LINE
  8
NOTE
  6
CONTINUOUS
 62
     4
 10
487.02694661472918
 20
1070.829108336193
 30
0.0
 11
536.92299161473045
 21
1020.829108336193
 31
0.0
  0
LINE
  8
NOTE
  6
CONTINUOUS
 62
     4
 10
577.60907861472515
 20
1316.1644273361919
 30
0.0
 11
577.60907861472515
 21
1366.1644273361919
 31
0.0
  0
LINE
  8
NOTE
  6
CONTINUOUS
 62
     4
 10
536.92299161472317
 20
1366.1644273361919
 30
0.0
 11
577.60907861472515
 21
1366.1644273361919
 31
0.0
  0
LINE
  8
NOTE
  6
CONTINUOUS
 62
     4
 10
536.92299161472317
 20
1316.1644273361919
 30
0.0
 11
577.60907861472515
 21
1316.1644273361919
 31
0.0
  0
LINE
  8
NOTE
  6
CONTINUOUS
 62
     4
 10
536.92299161472317
 20
1316.1644273361919
 30
0.0
 11
536.92299161472317
 21
1291.1644273361919
 31
0.0
  0
LINE
  8
NOTE
  6
CONTINUOUS
 62
     4
 10
536.92299161472317
 20
1391.1644273361919
 30
0.0
 11
536.92299161472317
 21
1366.1644273361919
 31
0.0
  0
LINE
  8
NOTE
  6
CONTINUOUS
 62
     4
 10
536.92299161472317
 20
1391.1644273361919
 30
0.0
 11
487.0269456147289
 21
1341.1644273361919
 31
0.0
  0
LINE
  8
NOTE
  6
CONTINUOUS
 62
     4
 10
487.0269456147289
 20
1341.1644273361919
 30
0.0
 11
536.92299161472317
 21
1291.1644273361919
 31
0.0
  0
TEXT
  8
NOTE
  6
CONTINUOUS
 62
     4
 10
474.70982307015942
 20
1216.9810318316979
 30
0.0
 40
53.0
  1
Intake
 50
0.0000025045208307
 41
0.51
  7
KAIGAI_STANDARD_1
  0
TEXT
  8
NOTE
  6
CONTINUOUS
 62
     4
 10
474.70982307015942
 20
1151.8626591218001
 30
0.0
 40
53.0
  1
air
 50
0.0000025045208307
 41
0.51
  7
KAIGAI_STANDARD_1
  0
LINE
  8
NOTE
  6
CONTINUOUS
 62
     4
 10
536.92299161472317
 20
1316.1644273361919
 30
0.0
 11
536.92299161472317
 21
1291.1644273361919
 31
0.0
  0
LINE
  8
NOTE
  6
CONTINUOUS
 62
     4
 10
-599.65569608260557
 20
1045.829108336193
 30
0.0
 11
-599.65569608260557
 21
1095.829108336193
 31
0.0
  0
LINE
  8
NOTE
  6
CONTINUOUS
 62
     4
 10
-558.96960908261099
 20
1095.829108336193
 30
0.0
 11
-599.65569608260557
 21
1095.829108336193
 31
0.0
  0
LINE
  8
NOTE
  6
CONTINUOUS
 62
     4
 10
-558.96960908261099
 20
1045.829108336193
 30
0.0
 11
-599.65569608260557
 21
1045.829108336193
 31
0.0
  0
LINE
  8
NOTE
  6
CONTINUOUS
 62
     4
 10
-558.96960908261099
 20
1045.829108336193
 30
0.0
 11
-558.96960908261099
 21
1020.829108336193
 31
0.0
  0
LINE
  8
NOTE
  6
CONTINUOUS
 62
     4
 10
-558.96960908261099
 20
1120.8291083361919
 30
0.0
 11
-558.96960908261099
 21
1095.829108336193
 31
0.0
  0
LINE
  8
NOTE
  6
CONTINUOUS
 62
     4
 10
-558.96960908261099
 20
1120.8291083361919
 30
0.0
 11
-509.07356408260961
 21
1070.829108336193
 31
0.0
  0
LINE
  8
NOTE
  6
CONTINUOUS
 62
     4
 10
-599.65569608260557
 20
1316.1644273361919
 30
0.0
 11
-599.65569608260557
 21
1366.1644273361919
 31
0.0
  0
LINE
  8
NOTE
  6
CONTINUOUS
 62
     4
 10
-558.96960908261099
 20
1366.1644273361919
 30
0.0
 11
-599.65569608260557
 21
1366.1644273361919
 31
0.0
  0
LINE
  8
NOTE
  6
CONTINUOUS
 62
     4
 10
-558.96960908261099
 20
1316.1644273361919
 30
0.0
 11
-599.65569608260557
 21
1316.1644273361919
 31
0.0
  0
LINE
  8
NOTE
  6
CONTINUOUS
 62
     4
 10
-558.96960908261099
 20
1316.1644273361919
 30
0.0
 11
-558.96960908261099
 21
1291.1644273361919
 31
0.0
  0
LINE
  8
NOTE
  6
CONTINUOUS
 62
     4
 10
-558.96960908261099
 20
1391.1644273361919
 30
0.0
 11
-558.96960908261099
 21
1366.1644273361919
 31
0.0
  0
LINE
  8
NOTE
  6
CONTINUOUS
 62
     4
 10
-558.96960908261099
 20
1391.1644273361919
 30
0.0
 11
-509.07356308260199
 21
1341.1644273361919
 31
0.0
  0
LINE
  8
NOTE
  6
CONTINUOUS
 62
     4
 10
-509.07356308260199
 20
1341.1644273361919
 30
0.0
 11
-558.96960908261099
 21
1291.1644273361919
 31
0.0
  0
TEXT
  8
NOTE
  6
CONTINUOUS
 62
     4
 10
-645.65939544153662
 20
1216.981038500807
 30
0.0
 40
53.0
  1
Intake
 50
0.0000025045208307
 41
0.51
  7
KAIGAI_STANDARD_1
  0
TEXT
  8
NOTE
  6
CONTINUOUS
 62
     4
 10
-641.69938548342179
 20
1151.8626617444841
 30
0.0
 40
53.0
  1
air
 50
0.0000025045208307
 41
0.51
  7
KAIGAI_STANDARD_1
  0
LINE
  8
SIZE
  6
CONTINUOUS
 62
    30
 10
365.68432107735862
 20
1858.0999999999381
 30
0.0
 11
753.79545914223127
 21
1858.0999999999369
 31
0.0
  0
LINE
  8
SIZE
  6
CONTINUOUS
 62
    30
 10
384.24469792485621
 20
1556.6336653903361
 30
0.0
 11
753.79545914223115
 21
1556.6336653903361
 31
0.0
  0
LINE
  8
SIZE
  6
CONTINUOUS
 62
    30
 10
733.79545914223127
 20
1858.0999999999369
 30
0.0
 11
733.79545914223115
 21
1556.6336653903361
 31
0.0
  0
CIRCLE
  8
SIZE
  6
CONTINUOUS
 62
    30
 10
733.79545914223127
 20
1858.0999999999369
 30
0.0
 40
7.5
  0
CIRCLE
  8
SIZE
  6
CONTINUOUS
 62
    30
 10
733.79545914223115
 20
1556.6336653903361
 30
0.0
 40
7.5
  0
TEXT
  8
SIZE
  6
CONTINUOUS
 62
    30
 10
713.79545914223104
 20
1656.786832695137
 30
0.0
 40
40.0
  1
303
 50
90.0
 41
0.9
 51
0.0
  7
STANDARD
 71
     0
 72
     1
 11
713.79545914223104
 21
1707.366832695137
 31
0.0
210
0.0
220
0.0
230
1.0
  0
POINT
  8
DEFPOINTS
  6
CONTINUOUS
 62
    30
 10
345.68432107735862
 20
1858.0999999999381
 30
0.0
  0
POINT
  8
DEFPOINTS
  6
CONTINUOUS
 62
    30
 10
364.2446979248561
 20
1556.6336653903361
 30
0.0
  0
POINT
  8
DEFPOINTS
  6
CONTINUOUS
 62
    30
 10
733.79545914223115
 20
1556.6336653903361
 30
0.0
  0
LINE
  8
SIZE
  6
CONTINUOUS
 62
    30
 10
384.24469792485621
 20
1556.6336653903361
 30
0.0
 11
753.79545914230425
 21
1556.6336653903361
 31
0.0
  0
LINE
  8
SIZE
  6
CONTINUOUS
 62
    30
 10
389.50000000005821
 20
59.999999999936328
 30
0.0
 11
753.79545914230403
 21
59.999999999936222
 31
0.0
  0
LINE
  8
SIZE
  6
CONTINUOUS
 62
    30
 10
733.79545914230425
 20
1556.6336653903361
 30
0.0
 11
733.79545914230403
 21
59.999999999936229
 31
0.0
  0
CIRCLE
  8
SIZE
  6
CONTINUOUS
 62
    30
 10
733.79545914230425
 20
1556.6336653903361
 30
0.0
 40
7.5
  0
CIRCLE
  8
SIZE
  6
CONTINUOUS
 62
    30
 10
733.79545914230403
 20
59.999999999936229
 30
0.0
 40
7.5
  0
TEXT
  8
SIZE
  6
CONTINUOUS
 62
    30
 10
713.79545914230403
 20
744.59683269513619
 30
0.0
 40
40.0
  1
1495
 50
90.0
 41
0.9
 51
0.0
  7
STANDARD
 71
     0
 72
     1
 11
713.79545914230403
 21
808.31683269513621
 31
0.0
210
0.0
220
0.0
230
1.0
  0
POINT
  8
DEFPOINTS
  6
CONTINUOUS
 62
    30
 10
364.2446979248561
 20
1556.6336653903361
 30
0.0
  0
POINT
  8
DEFPOINTS
  6
CONTINUOUS
 62
    30
 10
369.50000000005821
 20
59.999999999936328
 30
0.0
  0
POINT
  8
DEFPOINTS
  6
CONTINUOUS
 62
    30
 10
733.79545914230403
 20
59.999999999936229
 30
0.0
  0
LINE
  8
SIZE
  6
CONTINUOUS
 62
    30
 10
389.50000000005821
 20
59.999999999936328
 30
0.0
 11
859.85698159910635
 21
59.9999999999362
 31
0.0
  0
LINE
  8
SIZE
  6
CONTINUOUS
 62
    30
 10
365.68432107735862
 20
1858.0999999999381
 30
0.0
 11
859.85698159910669
 21
1858.0999999999369
 31
0.0
  0
LINE
  8
SIZE
  6
CONTINUOUS
 62
    30
 10
839.85698159910635
 20
59.999999999936207
 30
0.0
 11
839.8569815991068
 21
1858.0999999999369
 31
0.0
  0
CIRCLE
  8
SIZE
  6
CONTINUOUS
 62
    30
 10
839.85698159910635
 20
59.999999999936207
 30
0.0
 40
7.5
  0
CIRCLE
  8
SIZE
  6
CONTINUOUS
 62
    30
 10
839.8569815991068
 20
1858.0999999999369
 30
0.0
 40
7.5
  0
TEXT
  8
SIZE
  6
CONTINUOUS
 62
    30
 10
819.85698159910635
 20
895.68999999993684
 30
0.0
 40
40.0
  1
1798
 50
90.0
 41
0.9
 51
0.0
  7
STANDARD
 71
     0
 72
     1
 11
819.85698159910635
 21
959.04999999993686
 31
0.0
210
0.0
220
0.0
230
1.0
  0
POINT
  8
DEFPOINTS
  6
CONTINUOUS
 62
    30
 10
369.50000000005821
 20
59.999999999936328
 30
0.0
  0
POINT
  8
DEFPOINTS
  6
CONTINUOUS
 62
    30
 10
345.68432107735862
 20
1858.0999999999381
 30
0.0
  0
POINT
  8
DEFPOINTS
  6
CONTINUOUS
 62
    30
 10
839.8569815991068
 20
1858.0999999999369
 30
0.0
  0
LINE
  8
SIZE
  6
CONTINUOUS
 62
    30
 10
389.50000000005821
 20
-0.0000000000636703
 30
0.0
 11
966.39650565807813
 21
-0.0000000000638337
 31
0.0
  0
LINE
  8
SIZE
  6
CONTINUOUS
 62
    30
 10
365.68432107735862
 20
1858.0999999999381
 30
0.0
 11
966.39650565807847
 21
1858.0999999999369
 31
0.0
  0
LINE
  8
SIZE
  6
CONTINUOUS
 62
    30
 10
946.39650565807801
 20
-0.0000000000638281
 30
0.0
 11
946.39650565807858
 21
1858.0999999999369
 31
0.0
  0
CIRCLE
  8
SIZE
  6
CONTINUOUS
 62
    30
 10
946.39650565807801
 20
-0.0000000000638281
 30
0.0
 40
7.5
  0
CIRCLE
  8
SIZE
  6
CONTINUOUS
 62
    30
 10
946.39650565807858
 20
1858.0999999999369
 30
0.0
 40
7.5
  0
TEXT
  8
SIZE
  6
CONTINUOUS
 62
    30
 10
926.39650565807824
 20
866.18999999994389
 30
0.0
 40
40.0
  1
1858
 50
90.0
 41
0.9
 51
0.0
  7
STANDARD
 71
     0
 72
     1
 11
926.39650565807824
 21
929.54999999994391
 31
0.0
210
0.0
220
0.0
230
1.0
  0
POINT
  8
DEFPOINTS
  6
CONTINUOUS
 62
    30
 10
369.50000000005821
 20
-0.0000000000636646
 30
0.0
  0
POINT
  8
DEFPOINTS
  6
CONTINUOUS
 62
    30
 10
345.68432107735862
 20
1858.0999999999381
 30
0.0
  0
POINT
  8
DEFPOINTS
  6
CONTINUOUS
 62
    30
 10
946.39650565807858
 20
1858.0999999999369
 30
0.0
  0
LINE
  8
SIZE
  6
CONTINUOUS
 62
    30
 10
389.50000000005821
 20
-0.0000000000636703
 30
0.0
 11
859.85698159914318
 21
-0.0000000000638035
 31
0.0
  0
LINE
  8
SIZE
  6
CONTINUOUS
 62
    30
 10
839.85698159914318
 20
59.999999999936328
 30
0.0
 11
839.85698159914318
 21
-0.0000000000637979
 31
0.0
  0
LINE
  8
SIZE
  6
CONTINUOUS
 62
    30
 10
839.85698159914318
 20
-0.0000000000637979
 30
0.0
 11
839.85698159914318
 21
-174.57142857149231
 31
0.0
  0
CIRCLE
  8
SIZE
  6
CONTINUOUS
 62
    30
 10
839.85698159914318
 20
59.999999999936328
 30
0.0
 40
7.5
  0
CIRCLE
  8
SIZE
  6
CONTINUOUS
 62
    30
 10
839.85698159914318
 20
-0.0000000000637979
 30
0.0
 40
7.5
  0
TEXT
  8
SIZE
  6
CONTINUOUS
 62
    30
 10
809.3807911229527
 20
-159.88571428577791
 30
0.0
 40
40.0
  1
(60)
 50
90.0
 41
0.9
 51
0.0
  7
STANDARD
 71
     0
 72
     1
 11
809.3807911229527
 21
-102.2857142857779
 31
0.0
210
0.0
220
0.0
230
1.0
  0
POINT
  8
DEFPOINTS
  6
CONTINUOUS
 62
    30
 10
839.85698159905576
 20
59.999999999936328
 30
0.0
  0
POINT
  8
DEFPOINTS
  6
CONTINUOUS
 62
    30
 10
369.50000000005821
 20
-0.0000000000636646
 30
0.0
  0
POINT
  8
DEFPOINTS
  6
CONTINUOUS
 62
    30
 10
839.85698159914318
 20
-0.0000000000637979
 30
0.0
  0
LINE
  8
NOTE
  6
CONTINUOUS
 62
     4
 10
-345.70241873443592
 20
30.53030481590395
 30
0.0
 11
-339.99999999993452
 21
-0.0000000000636646
 31
0.0
  0
LINE
  8
NOTE
  6
CONTINUOUS
 62
     4
 10
-339.99999999993452
 20
-0.0000000000636646
 30
0.0
 11
-360.20359178800572
 21
23.588810280249159
 31
0.0
  0
LINE
  8
NOTE
  6
CONTINUOUS
 62
     4
 10
-339.99999999993452
 20
-0.0000000000636646
 30
0.0
 11
-352.95300526122452
 21
27.059557548076562
 31
0.0
  0
LINE
  8
NOTE
  6
CONTINUOUS
 62
     4
 10
-352.95300526122452
 20
27.059557548076562
 30
0.0
 11
-433.00451228830201
 21
194.29166450079541
 31
0.0
  0
LINE
  8
NOTE
  6
CONTINUOUS
 62
     4
 10
-433.00451228830201
 20
194.29166450079541
 30
0.0
 11
-1557.188134227639
 21
194.29166450079541
 31
0.0
  0
TEXT
  8
NOTE
  6
CONTINUOUS
 62
     4
 10
-1546.5260186549269
 20
217.35668133395299
 30
0.0
 40
53.0
  1
2X2-14X20 Oval hole(without detachable leg)
 50
0.0000025045208307
 41
0.51
  7
KAIGAI_STANDARD_1
  0
TEXT
  8
NOTE
  6
CONTINUOUS
 62
     4
 10
-1546.887402164539
 20
285.49326093622039
 30
0.0
 40
53.0
  1
2x2-14x31 Oval hole
 50
0.0000025045208307
 41
0.51
  7
KAIGAI_STANDARD_1
  0
LINE
  8
NOTE
  6
CONTINUOUS
 62
     4
 10
-509.07356408260961
 20
1070.829108336193
 30
0.0
 11
-558.96960908261099
 21
1020.829108336193
 31
0.0
  0
TEXT
  8
ETC
  6
CONTINUOUS
 62
    61
 10
-1000.138198270979
 20
2042.276149380514
 30
0.0
 40
70.0
  1
PUHY-EM450YNW-A1_5
 41
0.9
  0
LINE
  8
DETAIL
  6
CONTINUOUS
 62
     5
 10
359.4332297336951
 20
1556.66675311667
 30
0.0
 11
-361.83896382949018
 21
1556.6502093005361
 31
0.0
  0
LINE
  8
OUTLINE
  6
CONTINUOUS
 62
     3
 10
359.4332297336951
 20
1556.66675311667
 30
0.0
 11
-361.83896382948291
 21
1556.650209300537
 31
0.0
  0
LINE
  8
NOTE
  6
CONTINUOUS
 62
     4
 10
167.11434134419679
 20
198.71987521638769
 30
0.0
 11
188.50294372525241
 21
176.19999999993519
 31
0.0
  0
LINE
  8
NOTE
  6
CONTINUOUS
 62
     4
 10
188.50294372525241
 20
176.19999999993519
 30
0.0
 11
158.71993314354771
 21
185.00848297202171
 31
0.0
  0
LINE
  8
NOTE
  6
CONTINUOUS
 62
     4
 10
188.50294372525241
 20
176.19999999993519
 30
0.0
 11
162.9171372438723
 21
191.86417909420561
 31
0.0
  0
LINE
  8
NOTE
  6
CONTINUOUS
 62
     4
 10
162.9171372438723
 20
191.86417909420561
 30
0.0
 11
-523.57088666374318
 21
612.14686044668633
 31
0.0
  0
LINE
  8
NOTE
  6
CONTINUOUS
 62
     4
 10
-523.57088666374318
 20
612.14686044668633
 30
0.0
 11
-1316.723582908824
 21
612.14686044668633
 31
0.0
  0
LINE
  8
NOTE
  6
CONTINUOUS
 62
     4
 10
164.46732116675409
 20
193.13409134168609
 30
0.0
 11
190.50294372525241
 21
176.19999999993701
 31
0.0
  0
LINE
  8
NOTE
  6
CONTINUOUS
 62
     4
 10
190.50294372525241
 20
176.19999999993701
 30
0.0
 11
159.48838752284789
 21
177.84754215334581
 31
0.0
  0
LINE
  8
NOTE
  6
CONTINUOUS
 62
     4
 10
190.50294372525241
 20
176.19999999993701
 30
0.0
 11
161.97785434479741
 21
185.4908167475169
 31
0.0
  0
LINE
  8
NOTE
  6
CONTINUOUS
 62
     4
 10
161.97785434479741
 20
185.4908167475169
 30
0.0
 11
-525.19774812643288
 21
409.30861134985747
 31
0.0
  0
LINE
  8
NOTE
  6
CONTINUOUS
 62
     4
 10
-525.19774812643288
 20
409.30861134985747
 30
0.0
 11
-1320.7218513741029
 21
409.30861134985747
 31
0.0
  0
TEXT
  8
NOTE
  6
CONTINUOUS
 62
     4
 10
-1306.8826752345119
 20
633.9903393945641
 30
0.0
 40
53.0
  1
Service valve %%C28.58<Gas> 
 50
359.99999749547919
 41
0.51
  7
KAIGAI_STANDARD_1
  0
TEXT
  8
NOTE
  6
CONTINUOUS
 62
     4
 10
-1306.6596100493989
 20
712.24272962662144
 30
0.0
 40
53.0
  1
For Refrigerant pipe %%C28.58
 50
359.99999749547919
 41
0.51
  7
KAIGAI_STANDARD_1
  0
TEXT
  8
NOTE
  6
CONTINUOUS
 62
     4
 10
-1310.1744835806669
 20
431.6976510988224
 30
0.0
 40
53.0
  1
Service valve %%C12.7<Liquid> 
 50
359.99999749547919
 41
0.51
  7
KAIGAI_STANDARD_1
  0
TEXT
  8
NOTE
  6
CONTINUOUS
 62
     4
 10
-1310.1339770935961
 20
509.95004014933869
 30
0.0
 40
53.0
  1
For Refrigerant pipe %%C15.88
 50
359.99999749547919
 41
0.51
  7
KAIGAI_STANDARD_1
  0
LINE
  8
NOTE
  6
CONTINUOUS
 62
     4
 10
155.00294372525241
 20
176.19999999993701
 30
0.0
 11
226.00294372525241
 21
176.19999999993701
 31
0.0
  0
LINE
  8
NOTE
  6
CONTINUOUS
 62
     4
 10
190.50294372525241
 20
140.69999999993709
 30
0.0
 11
190.50294372525241
 21
211.69999999993709
 31
0.0
  0
LINE
  8
SIZE
  6
CONTINUOUS
 62
    30
 10
190.50294372525241
 20
231.69999999993709
 30
0.0
 11
190.50294372525241
 21
402.71056181038318
 31
0.0
  0
LINE
  8
SIZE
  6
CONTINUOUS
 62
    30
 10
369.50000000005821
 20
196.19999999993701
 30
0.0
 11
369.50000000005821
 21
402.71056181038318
 31
0.0
  0
LINE
  8
SIZE
  6
CONTINUOUS
 62
    30
 10
190.50294372525241
 20
382.7105618103833
 30
0.0
 11
369.50000000005821
 21
382.7105618103833
 31
0.0
  0
LINE
  8
SIZE
  6
CONTINUOUS
 62
    30
 10
369.50000000005821
 20
382.7105618103833
 30
0.0
 11
523.50000000005821
 21
382.7105618103833
 31
0.0
  0
CIRCLE
  8
SIZE
  6
CONTINUOUS
 62
    30
 10
190.50294372525241
 20
382.7105618103833
 30
0.0
 40
7.5
  0
CIRCLE
  8
SIZE
  6
CONTINUOUS
 62
    30
 10
369.50000000005821
 20
382.7105618103833
 30
0.0
 40
7.5
  0
TEXT
  8
SIZE
  6
CONTINUOUS
 62
    30
 10
404.08000000005808
 20
402.71056181038318
 30
0.0
 40
40.0
  1
179 
 50
0.0
 41
0.9
 51
0.0
  7
STANDARD
 71
     0
 72
     1
 11
461.50000000005809
 21
402.71056181038318
 31
0.0
210
0.0
220
0.0
230
1.0
  0
POINT
  8
DEFPOINTS
  6
CONTINUOUS
 62
    30
 10
190.50294372525241
 20
211.69999999993709
 30
0.0
  0
POINT
  8
DEFPOINTS
  6
CONTINUOUS
 62
    30
 10
369.50000000005821
 20
176.19999999993701
 30
0.0
  0
POINT
  8
DEFPOINTS
  6
CONTINUOUS
 62
    30
 10
369.50000000005821
 20
382.7105618103833
 30
0.0
  0
ENDSEC
  0
EOF

