  0
SECTION
  2
HEADER
  9
$ACADVER
  1
AC1006
  9
$INSBASE
 10
0.0
 20
0.0
 30
0.0
  9
$EXTMIN
 10
-1554.090345367189
 20
-508.48240149521371
  9
$EXTMAX
 10
882.21050906288292
 20
2125.416206873349
  9
$LIMMIN
 10
-4267.1522210604817
 20
-2696.0832101984129
  9
$LIMMAX
 10
7190.7174225864646
 20
5141.155363923066
  9
$ORTHOMODE
 70
     0
  9
$REGENMODE
 70
     1
  9
$FILLMODE
 70
     1
  9
$QTEXTMODE
 70
     0
  9
$MIRRTEXT
 70
     0
  9
$LTSCALE
 40
20.0
  9
$ATTMODE
 70
     1
  9
$TEXTSIZE
 40
53.0
  9
$TRACEWID
 40
0.05
  9
$TEXTSTYLE
  7
KAIGAI_STANDARD_1
  9
$CLAYER
  8
NOTE
  9
$CELTYPE
  6
CONTINUOUS
  9
$CECOLOR
 62
     7
  9
$DIMSCALE
 40
1.0
  9
$DIMASZ
 40
30.0
  9
$DIMEXO
 40
20.0
  9
$DIMDLI
 40
80.0
  9
$DIMRND
 40
0.0
  9
$DIMDLE
 40
0.0
  9
$DIMEXE
 40
20.0
  9
$DIMTP
 40
0.0
  9
$DIMTM
 40
0.0
  9
$DIMTXT
 40
40.0
  9
$DIMCEN
 40
0.09
  9
$DIMTSZ
 40
0.0
  9
$DIMTOL
 70
     0
  9
$DIMLIM
 70
     0
  9
$DIMTIH
 70
     0
  9
$DIMTOH
 70
     0
  9
$DIMSE1
 70
     0
  9
$DIMSE2
 70
     0
  9
$DIMTAD
 70
     1
  9
$DIMZIN
 70
     8
  9
$DIMBLK
  1

  9
$DIMASO
 70
     1
  9
$DIMSHO
 70
     0
  9
$DIMPOST
  1

  9
$DIMAPOST
  1

  9
$DIMALT
 70
     0
  9
$DIMALTD
 70
     2
  9
$DIMALTF
 40
25.399999999999999
  9
$DIMLFAC
 40
1.0
  9
$DIMTOFL
 70
     1
  9
$DIMTVP
 40
0.0
  9
$DIMTIX
 70
     0
  9
$DIMSOXD
 70
     0
  9
$DIMSAH
 70
     0
  9
$DIMBLK1
  1

  9
$DIMBLK2
  1

  9
$LUNITS
 70
     2
  9
$LUPREC
 70
     4
  9
$SKETCHINC
 40
0.1
  9
$FILLETRAD
 40
0.0
  9
$AUNITS
 70
     1
  9
$AUPREC
 70
     3
  9
$MENU
  1
ACAD
  9
$ELEVATION
 40
0.0
  9
$THICKNESS
 40
0.0
  9
$LIMCHECK
 70
     0
  9
$CHAMFERA
 40
0.0
  9
$CHAMFERB
 40
0.0
  9
$SKPOLY
 70
     0
  9
$TDCREATE
 40
2455902.607169062
  9
$TDUPDATE
 40
2457837.412480521
  9
$TDINDWG
 40
1.637996713
  9
$TDUSRTIMER
 40
1.6379931019
  9
$USRTIMER
 70
     1
  9
$ANGBASE
 50
0.0
  9
$ANGDIR
 70
     0
  9
$PDMODE
 70
     3
  9
$PDSIZE
 40
-2.0
  9
$PLINEWID
 40
0.0
  9
$SPLFRAME
 70
     0
  9
$SPLINETYPE
 70
     6
  9
$SPLINESEGS
 70
     8
  9
$SURFTAB1
 70
     6
  9
$SURFTAB2
 70
     6
  9
$SURFTYPE
 70
     6
  9
$SURFU
 70
     6
  9
$SURFV
 70
     6
  9
$UCSNAME
  2

  9
$UCSORG
 10
0.0
 20
0.0
 30
0.0
  9
$UCSXDIR
 10
1.0
 20
0.0
 30
0.0
  9
$UCSYDIR
 10
0.0
 20
1.0
 30
0.0
  9
$USERI1
 70
     0
  9
$USERI2
 70
     0
  9
$USERI3
 70
     0
  9
$USERI4
 70
     0
  9
$USERI5
 70
     0
  9
$USERR1
 40
20.0
  9
$USERR2
 40
0.0
  9
$USERR3
 40
0.0
  9
$USERR4
 40
0.0
  9
$USERR5
 40
0.0
  9
$WORLDVIEW
 70
     1
  9
$ATTDIA
 70
     0
  9
$ATTREQ
 70
     1
  9
$BLIPMODE
 70
     1
  9
$COORDS
 70
     1
  9
$DRAGMODE
 70
     2
  9
$OSMODE
 70
     0
  9
$HANDLING
 70
     0
  9
$HANDSEED
  5
99C40
  0
ENDSEC
  0
SECTION
  2
TABLES
  0
TABLE
  2
LTYPE
 70
     2
  0
LTYPE
  2
CONTINUOUS
 70
     0
  3
実線
 72
    65
 73
     0
 40
0.0
  0
LTYPE
  2
DASHDOT
 70
     0
  3
____ _ ____ _ ____ _ ____ _ ____ _ ____ _ ____
 72
    65
 73
     4
 40
5.5
 49
4.0
 49
-0.6
 49
0.3
 49
-0.6
  0
ENDTAB
  0
TABLE
  2
LAYER
 70
    12
  0
LAYER
  2
0
 70
     0
 62
     7
  6
CONTINUOUS
  0
LAYER
  2
OUTLINE
 70
     0
 62
     3
  6
CONTINUOUS
  0
LAYER
  2
DETAIL
 70
     0
 62
     5
  6
CONTINUOUS
  0
LAYER
  2
BASIS
 70
     0
 62
     6
  6
DASHDOT
  0
LAYER
  2
SIZE
 70
     0
 62
    30
  6
CONTINUOUS
  0
LAYER
  2
NOTE
 70
     0
 62
     4
  6
CONTINUOUS
  0
LAYER
  2
ARRANGE
 70
     0
 62
     1
  6
CONTINUOUS
  0
LAYER
  2
FIX
 70
     0
 62
    11
  6
CONTINUOUS
  0
LAYER
  2
SERVICESPACE
 70
     0
 62
     2
  6
DASHDOT
  0
LAYER
  2
ETC
 70
     0
 62
    61
  6
CONTINUOUS
  0
LAYER
  2
SYMBOLLINE
 70
     0
 62
    15
  6
CONTINUOUS
  0
LAYER
  2
DEFPOINTS
 70
     0
 62
     7
  6
CONTINUOUS
  0
ENDTAB
  0
TABLE
  2
STYLE
 70
     2
  0
STYLE
  2
STANDARD
 70
     0
 40
0.0
 41
0.9
 50
0.0
 71
     0
 42
64.0
  3
SIMPLEX
  4
BIGFONT
  0
STYLE
  2
KAIGAI_STANDARD_1
 70
     0
 40
53.0
 41
0.51
 50
0.0
 71
     0
 42
53.0
  3
MONOTXT.shx
  4
BIGFONT.shx
  0
ENDTAB
  0
TABLE
  2
VIEW
 70
     1
  0
VIEW
  2
ALL
 70
     0
 40
9000.0
 10
241.50664699999999
 20
0.0
 41
12483.01
 11
0.0
 21
0.0
 31
1.0
 12
0.0
 22
0.0
 32
0.0
 42
50.0
 43
0.0
 44
0.0
 50
0.0
 71
     0
  0
ENDTAB
  0
TABLE
  2
UCS
 70
     0
  0
ENDTAB
  0
TABLE
  2
VPORT
 70
     1
  0
VPORT
  2
*ACTIVE
 70
     0
 10
0.0
 20
0.0
 11
1.0
 21
1.0
 12
-335.93991815215333
 22
808.46690268906775
 13
0.0
 23
0.0
 14
50.0
 24
50.0
 15
100.0
 25
100.0
 16
0.0
 26
0.0
 36
1.0
 17
0.0
 27
0.0
 37
0.0
 40
2654.0303174771129
 41
2.3073979591836729
 42
50.0
 43
0.0
 44
0.0
 50
0.0
 51
0.0
 71
     0
 72
  1000
 73
     1
 74
     0
 75
     0
 76
     0
 77
     0
 78
     0
  0
ENDTAB
  0
TABLE
  2
DWGMGR
 70
     0
  0
ENDTAB
  0
ENDSEC
  0
SECTION
  2
BLOCKS
  0
ENDSEC
  0
SECTION
  2
ENTITIES
  0
LINE
  8
DETAIL
  6
CONTINUOUS
 62
     5
 10
369.65294346098023
 20
1555.068379814365
 30
0.0
 11
-369.65294346005982
 21
1555.0683798143641
 31
0.0
  0
LINE
  8
DETAIL
  6
CONTINUOUS
 62
     5
 10
-306.80940107664361
 20
70.499999999936335
 30
0.0
 11
-309.11880215344718
 21
74.499999999936335
 31
0.0
  0
LINE
  8
DETAIL
  6
CONTINUOUS
 62
     5
 10
-299.8811978463491
 20
74.499999999936335
 30
0.0
 11
-302.19059892314539
 21
78.499999999936335
 31
0.0
  0
LINE
  8
DETAIL
  6
CONTINUOUS
 62
     5
 10
-255.8094010766435
 20
106.99999999993631
 30
0.0
 11
-258.11880215344718
 21
110.99999999993631
 31
0.0
  0
LINE
  8
DETAIL
  6
CONTINUOUS
 62
     5
 10
-248.8811978463491
 20
110.99999999993631
 30
0.0
 11
-251.1905989231455
 21
114.99999999993631
 31
0.0
  0
LINE
  8
DETAIL
  6
CONTINUOUS
 62
     5
 10
-189.8094010766435
 20
106.99999999993631
 30
0.0
 11
-192.11880215344721
 21
110.99999999993631
 31
0.0
  0
LINE
  8
DETAIL
  6
CONTINUOUS
 62
     5
 10
-182.8811978463491
 20
110.99999999993631
 30
0.0
 11
-185.19059892314539
 21
114.99999999993631
 31
0.0
  0
LINE
  8
DETAIL
  6
CONTINUOUS
 62
     5
 10
369.50000000005821
 20
-0.0000000000636646
 30
0.0
 11
317.00000000005821
 21
-0.0000000000636646
 31
0.0
  0
LINE
  8
DETAIL
  6
CONTINUOUS
 62
     5
 10
-316.99999999994179
 20
-0.0000000000636646
 30
0.0
 11
-369.49999999994179
 21
-0.0000000000636646
 31
0.0
  0
LINE
  8
DETAIL
  6
CONTINUOUS
 62
     5
 10
369.50000000005821
 20
2.2999999999356069
 30
0.0
 11
317.00000000005821
 21
2.2999999999356069
 31
0.0
  0
LINE
  8
DETAIL
  6
CONTINUOUS
 62
     5
 10
-316.99999999994179
 20
2.2999999999356069
 30
0.0
 11
-369.49999999994179
 21
2.2999999999356069
 31
0.0
  0
LINE
  8
DETAIL
  6
CONTINUOUS
 62
     5
 10
319.50000000005821
 20
3.9999999999363349
 30
0.0
 11
315.8000000000539
 21
3.9999999999363349
 31
0.0
  0
LINE
  8
DETAIL
  6
CONTINUOUS
 62
     5
 10
-315.7999999999447
 20
3.9999999999363349
 30
0.0
 11
-319.49999999994179
 21
3.9999999999363349
 31
0.0
  0
LINE
  8
DETAIL
  6
CONTINUOUS
 62
     5
 10
-227.30940107664361
 20
300.99999999993628
 30
0.0
 11
-229.61880215344721
 21
304.99999999993628
 31
0.0
  0
LINE
  8
DETAIL
  6
CONTINUOUS
 62
     5
 10
-220.3811978463491
 20
304.99999999993628
 30
0.0
 11
-222.69059892314539
 21
308.99999999993628
 31
0.0
  0
LINE
  8
DETAIL
  6
CONTINUOUS
 62
     5
 10
-369.49999999994179
 20
2.2999999999356069
 30
0.0
 11
-369.49999999994179
 21
-0.0000000000636646
 31
0.0
  0
LINE
  8
DETAIL
  6
CONTINUOUS
 62
     5
 10
-369.49999999994179
 20
57.699999999937063
 30
0.0
 11
-369.49999999994179
 21
62.299999999935608
 31
0.0
  0
LINE
  8
DETAIL
  6
CONTINUOUS
 62
     5
 10
-367.49999999994179
 20
57.699999999937063
 30
0.0
 11
-367.49999999994179
 21
2.2999999999356069
 31
0.0
  0
LINE
  8
DETAIL
  6
CONTINUOUS
 62
     5
 10
-370.28091039814171
 20
1522.499999999937
 30
0.0
 11
-369.99760774914461
 21
1553.963268127837
 31
0.0
  0
LINE
  8
DETAIL
  6
CONTINUOUS
 62
     5
 10
-365.02656217934418
 20
1641.0742777925359
 30
0.0
 11
-367.38842298794771
 21
1559.2549875460361
 31
0.0
  0
LINE
  8
DETAIL
  6
CONTINUOUS
 62
     5
 10
-365.02656205934181
 20
1641.0742802146369
 30
0.0
 11
-360.02855335244379
 21
1755.547499845937
 31
0.0
  0
LINE
  8
DETAIL
  6
CONTINUOUS
 62
     5
 10
319.50000000005821
 20
55.999999999936342
 30
0.0
 11
315.8000000000539
 21
55.999999999936342
 31
0.0
  0
LINE
  8
DETAIL
  6
CONTINUOUS
 62
     5
 10
-315.7999999999447
 20
55.999999999936342
 30
0.0
 11
-319.49999999994179
 21
55.999999999936342
 31
0.0
  0
LINE
  8
DETAIL
  6
CONTINUOUS
 62
     5
 10
369.50000000005821
 20
57.699999999937063
 30
0.0
 11
317.00000000005821
 21
57.699999999937063
 31
0.0
  0
LINE
  8
DETAIL
  6
CONTINUOUS
 62
     5
 10
-316.99999999994179
 20
57.699999999937063
 30
0.0
 11
-369.49999999994179
 21
57.699999999937063
 31
0.0
  0
LINE
  8
DETAIL
  6
CONTINUOUS
 62
     5
 10
369.50000000005821
 20
59.999999999936328
 30
0.0
 11
317.00000000005821
 21
59.999999999936328
 31
0.0
  0
LINE
  8
DETAIL
  6
CONTINUOUS
 62
     5
 10
-316.99999999994179
 20
59.999999999936328
 30
0.0
 11
-369.49999999994179
 21
59.999999999936328
 31
0.0
  0
LINE
  8
DETAIL
  6
CONTINUOUS
 62
     5
 10
-369.49999999994179
 20
62.299999999935608
 30
0.0
 11
-318.99999999994179
 21
62.299999999935608
 31
0.0
  0
LINE
  8
DETAIL
  6
CONTINUOUS
 62
     5
 10
319.00000000005821
 20
62.299999999935608
 30
0.0
 11
369.50000000005821
 21
62.299999999935608
 31
0.0
  0
LINE
  8
DETAIL
  6
CONTINUOUS
 62
     5
 10
320.46357325975259
 20
64.499999999936335
 30
0.0
 11
300.8000000000539
 21
64.499999999936335
 31
0.0
  0
LINE
  8
DETAIL
  6
CONTINUOUS
 62
     5
 10
306.8094010768545
 20
70.499999999936335
 30
0.0
 11
302.1905989233565
 21
70.499999999936335
 31
0.0
  0
LINE
  8
DETAIL
  6
CONTINUOUS
 62
     5
 10
-302.19059892314539
 20
70.499999999936335
 30
0.0
 11
-306.80940107664361
 21
70.499999999936335
 31
0.0
  0
LINE
  8
DETAIL
  6
CONTINUOUS
 62
     5
 10
-304.7999999999447
 20
72.499999999936335
 30
0.0
 11
-304.19999999994621
 21
72.499999999936335
 31
0.0
  0
LINE
  8
DETAIL
  6
CONTINUOUS
 62
     5
 10
304.2000000000553
 20
72.499999999936335
 30
0.0
 11
304.80000000005379
 21
72.499999999936335
 31
0.0
  0
LINE
  8
DETAIL
  6
CONTINUOUS
 62
     5
 10
-306.49999999994179
 20
74.199999999937063
 30
0.0
 11
-304.7999999999447
 21
74.199999999937063
 31
0.0
  0
LINE
  8
DETAIL
  6
CONTINUOUS
 62
     5
 10
-304.19999999994621
 20
74.199999999937063
 30
0.0
 11
-302.49999999994179
 21
74.199999999937063
 31
0.0
  0
LINE
  8
DETAIL
  6
CONTINUOUS
 62
     5
 10
302.50000000005821
 20
74.199999999937063
 30
0.0
 11
304.2000000000553
 21
74.199999999937063
 31
0.0
  0
LINE
  8
DETAIL
  6
CONTINUOUS
 62
     5
 10
304.80000000005379
 20
74.199999999937063
 30
0.0
 11
306.50000000005821
 21
74.199999999937063
 31
0.0
  0
LINE
  8
DETAIL
  6
CONTINUOUS
 62
     5
 10
306.50000000005821
 20
74.799999999935608
 30
0.0
 11
304.80000000005379
 21
74.799999999935608
 31
0.0
  0
LINE
  8
DETAIL
  6
CONTINUOUS
 62
     5
 10
304.2000000000553
 20
74.799999999935608
 30
0.0
 11
302.50000000005821
 21
74.799999999935608
 31
0.0
  0
LINE
  8
DETAIL
  6
CONTINUOUS
 62
     5
 10
-302.49999999994179
 20
74.799999999935608
 30
0.0
 11
-304.19999999994621
 21
74.799999999935608
 31
0.0
  0
LINE
  8
DETAIL
  6
CONTINUOUS
 62
     5
 10
-304.7999999999447
 20
74.799999999935608
 30
0.0
 11
-306.49999999994179
 21
74.799999999935608
 31
0.0
  0
LINE
  8
DETAIL
  6
CONTINUOUS
 62
     5
 10
304.80000000005379
 20
76.499999999936335
 30
0.0
 11
304.2000000000553
 21
76.499999999936335
 31
0.0
  0
LINE
  8
DETAIL
  6
CONTINUOUS
 62
     5
 10
-304.19999999994621
 20
76.499999999936335
 30
0.0
 11
-304.7999999999447
 21
76.499999999936335
 31
0.0
  0
LINE
  8
DETAIL
  6
CONTINUOUS
 62
     5
 10
306.8094010768545
 20
78.499999999936335
 30
0.0
 11
302.1905989233565
 21
78.499999999936335
 31
0.0
  0
LINE
  8
DETAIL
  6
CONTINUOUS
 62
     5
 10
-302.19059892314539
 20
78.499999999936335
 30
0.0
 11
-306.80940107664361
 21
78.499999999936335
 31
0.0
  0
LINE
  8
DETAIL
  6
CONTINUOUS
 62
     5
 10
295.80000000005379
 20
87.999999999936335
 30
0.0
 11
-295.7999999999447
 21
87.999999999936335
 31
0.0
  0
LINE
  8
DETAIL
  6
CONTINUOUS
 62
     5
 10
-226.49999999994179
 20
93.007179676935266
 30
0.0
 11
149.50000000005821
 21
93.007179676935266
 31
0.0
  0
LINE
  8
DETAIL
  6
CONTINUOUS
 62
     5
 10
-296.49999999994179
 20
94.999999999936335
 30
0.0
 11
-295.7999999999447
 21
94.999999999936335
 31
0.0
  0
LINE
  8
DETAIL
  6
CONTINUOUS
 62
     5
 10
365.50000000005821
 20
94.999999999934516
 30
0.0
 11
363.95064030275529
 21
94.999999999936335
 31
0.0
  0
LINE
  8
DETAIL
  6
CONTINUOUS
 62
     5
 10
296.50000000005821
 20
94.999999999936335
 30
0.0
 11
295.80000000005379
 21
94.999999999936335
 31
0.0
  0
LINE
  8
DETAIL
  6
CONTINUOUS
 62
     5
 10
295.80000000005379
 20
94.999999999936335
 30
0.0
 11
152.50000000005821
 21
94.999999999936335
 31
0.0
  0
LINE
  8
DETAIL
  6
CONTINUOUS
 62
     5
 10
-229.49999999994179
 20
94.999999999936335
 30
0.0
 11
-295.7999999999447
 21
94.999999999936335
 31
0.0
  0
LINE
  8
DETAIL
  6
CONTINUOUS
 62
     5
 10
160.0999640542577
 20
96.999999999936335
 30
0.0
 11
152.50000000005821
 21
96.999999999936335
 31
0.0
  0
LINE
  8
DETAIL
  6
CONTINUOUS
 62
     5
 10
-229.49999999994179
 20
96.999999999936335
 30
0.0
 11
-237.09996405414131
 21
96.999999999936335
 31
0.0
  0
LINE
  8
DETAIL
  6
CONTINUOUS
 62
     5
 10
291.50000000005821
 20
99.999999999936335
 30
0.0
 11
166.50000000005821
 21
99.999999999936335
 31
0.0
  0
LINE
  8
DETAIL
  6
CONTINUOUS
 62
     5
 10
-243.49999999994179
 20
99.999999999936335
 30
0.0
 11
-291.49999999994179
 21
99.999999999936335
 31
0.0
  0
LINE
  8
DETAIL
  6
CONTINUOUS
 62
     5
 10
176.8094010768545
 20
106.99999999993631
 30
0.0
 11
172.19059892335639
 21
106.99999999993631
 31
0.0
  0
LINE
  8
DETAIL
  6
CONTINUOUS
 62
     5
 10
112.8094010768545
 20
106.99999999993631
 30
0.0
 11
108.1905989233564
 21
106.99999999993631
 31
0.0
  0
LINE
  8
DETAIL
  6
CONTINUOUS
 62
     5
 10
-185.19059892314539
 20
106.99999999993631
 30
0.0
 11
-189.8094010766435
 21
106.99999999993631
 31
0.0
  0
LINE
  8
DETAIL
  6
CONTINUOUS
 62
     5
 10
-251.1905989231455
 20
106.99999999993631
 30
0.0
 11
-255.8094010766435
 21
106.99999999993631
 31
0.0
  0
LINE
  8
DETAIL
  6
CONTINUOUS
 62
     5
 10
-253.7999999999447
 20
108.99999999993631
 30
0.0
 11
-253.19999999994619
 21
108.99999999993631
 31
0.0
  0
LINE
  8
DETAIL
  6
CONTINUOUS
 62
     5
 10
-187.7999999999447
 20
108.99999999993631
 30
0.0
 11
-187.1999999999461
 21
108.99999999993631
 31
0.0
  0
LINE
  8
DETAIL
  6
CONTINUOUS
 62
     5
 10
110.2000000000553
 20
108.99999999993631
 30
0.0
 11
110.8000000000538
 21
108.99999999993631
 31
0.0
  0
LINE
  8
DETAIL
  6
CONTINUOUS
 62
     5
 10
174.2000000000553
 20
108.99999999993631
 30
0.0
 11
174.80000000005381
 21
108.99999999993631
 31
0.0
  0
LINE
  8
DETAIL
  6
CONTINUOUS
 62
     5
 10
-255.49999999994179
 20
110.69999999993701
 30
0.0
 11
-253.7999999999447
 21
110.69999999993701
 31
0.0
  0
LINE
  8
DETAIL
  6
CONTINUOUS
 62
     5
 10
-253.19999999994619
 20
110.69999999993701
 30
0.0
 11
-251.49999999994179
 21
110.69999999993701
 31
0.0
  0
LINE
  8
DETAIL
  6
CONTINUOUS
 62
     5
 10
-189.49999999994179
 20
110.69999999993701
 30
0.0
 11
-187.7999999999447
 21
110.69999999993701
 31
0.0
  0
LINE
  8
DETAIL
  6
CONTINUOUS
 62
     5
 10
-187.1999999999461
 20
110.69999999993701
 30
0.0
 11
-185.49999999994179
 21
110.69999999993701
 31
0.0
  0
LINE
  8
DETAIL
  6
CONTINUOUS
 62
     5
 10
108.50000000005819
 20
110.69999999993701
 30
0.0
 11
110.2000000000553
 21
110.69999999993701
 31
0.0
  0
LINE
  8
DETAIL
  6
CONTINUOUS
 62
     5
 10
110.8000000000538
 20
110.69999999993701
 30
0.0
 11
112.50000000005819
 21
110.69999999993701
 31
0.0
  0
LINE
  8
DETAIL
  6
CONTINUOUS
 62
     5
 10
172.50000000005821
 20
110.69999999993701
 30
0.0
 11
174.2000000000553
 21
110.69999999993701
 31
0.0
  0
LINE
  8
DETAIL
  6
CONTINUOUS
 62
     5
 10
174.80000000005381
 20
110.69999999993701
 30
0.0
 11
176.50000000005821
 21
110.69999999993701
 31
0.0
  0
LINE
  8
DETAIL
  6
CONTINUOUS
 62
     5
 10
176.50000000005821
 20
111.29999999993559
 30
0.0
 11
174.80000000005381
 21
111.29999999993559
 31
0.0
  0
LINE
  8
DETAIL
  6
CONTINUOUS
 62
     5
 10
174.2000000000553
 20
111.29999999993559
 30
0.0
 11
172.50000000005821
 21
111.29999999993559
 31
0.0
  0
LINE
  8
DETAIL
  6
CONTINUOUS
 62
     5
 10
112.50000000005819
 20
111.29999999993559
 30
0.0
 11
110.8000000000538
 21
111.29999999993559
 31
0.0
  0
LINE
  8
DETAIL
  6
CONTINUOUS
 62
     5
 10
110.2000000000553
 20
111.29999999993559
 30
0.0
 11
108.50000000005819
 21
111.29999999993559
 31
0.0
  0
LINE
  8
DETAIL
  6
CONTINUOUS
 62
     5
 10
-185.49999999994179
 20
111.29999999993559
 30
0.0
 11
-187.1999999999461
 21
111.29999999993559
 31
0.0
  0
LINE
  8
DETAIL
  6
CONTINUOUS
 62
     5
 10
-187.7999999999447
 20
111.29999999993559
 30
0.0
 11
-189.49999999994179
 21
111.29999999993559
 31
0.0
  0
LINE
  8
DETAIL
  6
CONTINUOUS
 62
     5
 10
-251.49999999994179
 20
111.29999999993559
 30
0.0
 11
-253.19999999994619
 21
111.29999999993559
 31
0.0
  0
LINE
  8
DETAIL
  6
CONTINUOUS
 62
     5
 10
-253.7999999999447
 20
111.29999999993559
 30
0.0
 11
-255.49999999994179
 21
111.29999999993559
 31
0.0
  0
LINE
  8
DETAIL
  6
CONTINUOUS
 62
     5
 10
174.80000000005381
 20
112.99999999993631
 30
0.0
 11
174.2000000000553
 21
112.99999999993631
 31
0.0
  0
LINE
  8
DETAIL
  6
CONTINUOUS
 62
     5
 10
110.8000000000538
 20
112.99999999993631
 30
0.0
 11
110.2000000000553
 21
112.99999999993631
 31
0.0
  0
LINE
  8
DETAIL
  6
CONTINUOUS
 62
     5
 10
-187.1999999999461
 20
112.99999999993631
 30
0.0
 11
-187.7999999999447
 21
112.99999999993631
 31
0.0
  0
LINE
  8
DETAIL
  6
CONTINUOUS
 62
     5
 10
-253.19999999994619
 20
112.99999999993631
 30
0.0
 11
-253.7999999999447
 21
112.99999999993631
 31
0.0
  0
LINE
  8
DETAIL
  6
CONTINUOUS
 62
     5
 10
159.30000000005381
 20
113.99999999993631
 30
0.0
 11
160.1000000000567
 21
113.99999999993631
 31
0.0
  0
LINE
  8
DETAIL
  6
CONTINUOUS
 62
     5
 10
-236.2999999999447
 20
113.99999999993631
 30
0.0
 11
-237.09999999994761
 21
113.99999999993631
 31
0.0
  0
LINE
  8
DETAIL
  6
CONTINUOUS
 62
     5
 10
176.8094010768545
 20
114.99999999993631
 30
0.0
 11
172.19059892335639
 21
114.99999999993631
 31
0.0
  0
LINE
  8
DETAIL
  6
CONTINUOUS
 62
     5
 10
112.8094010768545
 20
114.99999999993631
 30
0.0
 11
108.1905989233564
 21
114.99999999993631
 31
0.0
  0
LINE
  8
DETAIL
  6
CONTINUOUS
 62
     5
 10
-185.19059892314539
 20
114.99999999993631
 30
0.0
 11
-189.8094010766435
 21
114.99999999993631
 31
0.0
  0
LINE
  8
DETAIL
  6
CONTINUOUS
 62
     5
 10
-251.1905989231455
 20
114.99999999993631
 30
0.0
 11
-255.8094010766435
 21
114.99999999993631
 31
0.0
  0
LINE
  8
DETAIL
  6
CONTINUOUS
 62
     5
 10
159.30000000005381
 20
116.99999999993631
 30
0.0
 11
161.58962968155541
 21
116.99999999993631
 31
0.0
  0
LINE
  8
DETAIL
  6
CONTINUOUS
 62
     5
 10
163.50000000005821
 20
116.99999999993631
 30
0.0
 11
161.58962968155541
 21
116.99999999993631
 31
0.0
  0
LINE
  8
DETAIL
  6
CONTINUOUS
 62
     5
 10
-236.2999999999447
 20
116.99999999993631
 30
0.0
 11
-238.58962968134441
 21
116.99999999993631
 31
0.0
  0
LINE
  8
DETAIL
  6
CONTINUOUS
 62
     5
 10
-238.58962968134441
 20
116.99999999993631
 30
0.0
 11
-240.49999999994179
 21
116.99999999993631
 31
0.0
  0
LINE
  8
DETAIL
  6
CONTINUOUS
 62
     5
 10
-365.49999999994179
 20
94.999999999936335
 30
0.0
 11
-365.49999999994179
 21
1522.499999999937
 31
0.0
  0
LINE
  8
DETAIL
  6
CONTINUOUS
 62
     5
 10
-362.99999999994179
 20
1834.5999999999369
 30
0.0
 11
-362.99999999994179
 21
1817.0999999999369
 31
0.0
  0
LINE
  8
DETAIL
  6
CONTINUOUS
 62
     5
 10
-362.99999999994179
 20
1813.7999999999361
 30
0.0
 11
-362.99999999994179
 21
1815.6999999999359
 31
0.0
  0
LINE
  8
DETAIL
  6
CONTINUOUS
 62
     5
 10
-359.99999999994179
 20
1817.0999999999369
 30
0.0
 11
-359.99999999994179
 21
1816.999999999937
 31
0.0
  0
LINE
  8
DETAIL
  6
CONTINUOUS
 62
     5
 10
-359.99999999994179
 20
1811.499999999937
 30
0.0
 11
-359.99999999994179
 21
1756.2376035850359
 31
0.0
  0
LINE
  8
DETAIL
  6
CONTINUOUS
 62
     5
 10
-357.99999999994179
 20
1838.5999999999369
 30
0.0
 11
-357.99999999994179
 21
1857.5999999999369
 31
0.0
  0
LINE
  8
DETAIL
  6
CONTINUOUS
 62
     5
 10
-347.15685424934782
 20
1493.999999999937
 30
0.0
 11
-347.15685424934782
 21
1343.9999999999361
 31
0.0
  0
LINE
  8
DETAIL
  6
CONTINUOUS
 62
     5
 10
-347.15685424934782
 20
1293.9999999999361
 30
0.0
 11
-347.15685424934782
 21
1143.9999999999361
 31
0.0
  0
LINE
  8
DETAIL
  6
CONTINUOUS
 62
     5
 10
-347.15685424934782
 20
1093.9999999999361
 30
0.0
 11
-347.15685424934782
 21
943.99999999993634
 31
0.0
  0
LINE
  8
DETAIL
  6
CONTINUOUS
 62
     5
 10
-347.15685424934782
 20
893.99999999993634
 30
0.0
 11
-347.15685424934782
 21
758.99999999993634
 31
0.0
  0
LINE
  8
DETAIL
  6
CONTINUOUS
 62
     5
 10
-334.51471862564358
 20
1493.999999999937
 30
0.0
 11
-334.51471862564358
 21
1343.9999999999361
 31
0.0
  0
LINE
  8
DETAIL
  6
CONTINUOUS
 62
     5
 10
-334.51471862564358
 20
1293.9999999999361
 30
0.0
 11
-334.51471862564358
 21
1143.9999999999361
 31
0.0
  0
LINE
  8
DETAIL
  6
CONTINUOUS
 62
     5
 10
-334.51471862564358
 20
1093.9999999999361
 30
0.0
 11
-334.51471862564358
 21
943.99999999993634
 31
0.0
  0
LINE
  8
DETAIL
  6
CONTINUOUS
 62
     5
 10
-334.51471862564358
 20
893.99999999993634
 30
0.0
 11
-334.51471862564358
 21
758.99999999993634
 31
0.0
  0
LINE
  8
DETAIL
  6
CONTINUOUS
 62
     5
 10
-319.49999999994179
 20
57.699999999937063
 30
0.0
 11
-319.49999999994179
 21
55.999999999936342
 31
0.0
  0
LINE
  8
DETAIL
  6
CONTINUOUS
 62
     5
 10
-319.49999999994179
 20
3.9999999999363349
 30
0.0
 11
-319.49999999994179
 21
2.2999999999356069
 31
0.0
  0
LINE
  8
DETAIL
  6
CONTINUOUS
 62
     5
 10
-317.7999999999447
 20
63.499999999936342
 30
0.0
 11
-317.7999999999447
 21
64.499999999936335
 31
0.0
  0
LINE
  8
DETAIL
  6
CONTINUOUS
 62
     5
 10
-315.7999999999447
 20
3.4999999999363349
 30
0.0
 11
-315.7999999999447
 21
56.499999999936328
 31
0.0
  0
LINE
  8
DETAIL
  6
CONTINUOUS
 62
     5
 10
-315.49999999994179
 20
63.499999999936342
 30
0.0
 11
-315.49999999994179
 21
64.499999999936335
 31
0.0
  0
LINE
  8
DETAIL
  6
CONTINUOUS
 62
     5
 10
-313.49999999994179
 20
3.4999999999363349
 30
0.0
 11
-313.49999999994179
 21
56.499999999936328
 31
0.0
  0
LINE
  8
DETAIL
  6
CONTINUOUS
 62
     5
 10
-306.49999999994179
 20
74.799999999935608
 30
0.0
 11
-306.49999999994179
 21
74.199999999937063
 31
0.0
  0
LINE
  8
DETAIL
  6
CONTINUOUS
 62
     5
 10
-304.7999999999447
 20
76.499999999936335
 30
0.0
 11
-304.7999999999447
 21
74.799999999935608
 31
0.0
  0
LINE
  8
DETAIL
  6
CONTINUOUS
 62
     5
 10
-304.7999999999447
 20
74.199999999937063
 30
0.0
 11
-304.7999999999447
 21
72.499999999936335
 31
0.0
  0
LINE
  8
DETAIL
  6
CONTINUOUS
 62
     5
 10
-304.19999999994621
 20
72.499999999936335
 30
0.0
 11
-304.19999999994621
 21
74.199999999937063
 31
0.0
  0
LINE
  8
DETAIL
  6
CONTINUOUS
 62
     5
 10
-304.19999999994621
 20
74.799999999935608
 30
0.0
 11
-304.19999999994621
 21
76.499999999936335
 31
0.0
  0
LINE
  8
DETAIL
  6
CONTINUOUS
 62
     5
 10
-302.49999999994179
 20
74.199999999937063
 30
0.0
 11
-302.49999999994179
 21
74.799999999935608
 31
0.0
  0
LINE
  8
DETAIL
  6
CONTINUOUS
 62
     5
 10
-296.49999999994179
 20
69.499999999936335
 30
0.0
 11
-296.49999999994179
 21
94.999999999936335
 31
0.0
  0
LINE
  8
DETAIL
  6
CONTINUOUS
 62
     5
 10
-295.7999999999447
 20
69.499999999936335
 30
0.0
 11
-295.7999999999447
 21
94.999999999936335
 31
0.0
  0
LINE
  8
DETAIL
  6
CONTINUOUS
 62
     5
 10
-289.49999999994179
 20
1493.999999999937
 30
0.0
 11
-289.49999999994179
 21
1343.9999999999361
 31
0.0
  0
LINE
  8
DETAIL
  6
CONTINUOUS
 62
     5
 10
-289.49999999994179
 20
1293.9999999999361
 30
0.0
 11
-289.49999999994179
 21
1143.9999999999361
 31
0.0
  0
LINE
  8
DETAIL
  6
CONTINUOUS
 62
     5
 10
-289.49999999994179
 20
1093.9999999999361
 30
0.0
 11
-289.49999999994179
 21
943.99999999993634
 31
0.0
  0
LINE
  8
DETAIL
  6
CONTINUOUS
 62
     5
 10
-289.49999999994179
 20
893.99999999993634
 30
0.0
 11
-289.49999999994179
 21
758.99999999993634
 31
0.0
  0
LINE
  8
DETAIL
  6
CONTINUOUS
 62
     5
 10
-269.49999999994179
 20
758.99999999993634
 30
0.0
 11
-269.49999999994179
 21
893.99999999993634
 31
0.0
  0
LINE
  8
DETAIL
  6
CONTINUOUS
 62
     5
 10
-269.49999999994179
 20
943.99999999993634
 30
0.0
 11
-269.49999999994179
 21
1093.9999999999361
 31
0.0
  0
LINE
  8
DETAIL
  6
CONTINUOUS
 62
     5
 10
-269.49999999994179
 20
1143.9999999999361
 30
0.0
 11
-269.49999999994179
 21
1293.9999999999361
 31
0.0
  0
LINE
  8
DETAIL
  6
CONTINUOUS
 62
     5
 10
-269.49999999994179
 20
1343.9999999999361
 30
0.0
 11
-269.49999999994179
 21
1493.999999999937
 31
0.0
  0
LINE
  8
DETAIL
  6
CONTINUOUS
 62
     5
 10
-258.11880215344718
 20
1516.5999999999369
 30
0.0
 11
-255.8094010766435
 21
1520.5999999999369
 31
0.0
  0
LINE
  8
DETAIL
  6
CONTINUOUS
 62
     5
 10
-251.1905989231455
 20
1512.5999999999369
 30
0.0
 11
-248.8811978463491
 21
1516.5999999999369
 31
0.0
  0
LINE
  8
DETAIL
  6
CONTINUOUS
 62
     5
 10
-227.30940107664361
 20
640.99999999993634
 30
0.0
 11
-229.61880215344721
 21
644.99999999993634
 31
0.0
  0
LINE
  8
DETAIL
  6
CONTINUOUS
 62
     5
 10
-220.3811978463491
 20
644.99999999993634
 30
0.0
 11
-222.69059892314539
 21
648.99999999993634
 31
0.0
  0
LINE
  8
DETAIL
  6
CONTINUOUS
 62
     5
 10
108.1905989233564
 20
106.99999999993631
 30
0.0
 11
105.88119784655279
 21
110.99999999993631
 31
0.0
  0
LINE
  8
DETAIL
  6
CONTINUOUS
 62
     5
 10
115.1188021536509
 20
110.99999999993631
 30
0.0
 11
112.8094010768545
 21
114.99999999993631
 31
0.0
  0
LINE
  8
DETAIL
  6
CONTINUOUS
 62
     5
 10
172.19059892335639
 20
106.99999999993631
 30
0.0
 11
169.88119784655279
 21
110.99999999993631
 31
0.0
  0
LINE
  8
DETAIL
  6
CONTINUOUS
 62
     5
 10
179.1188021536509
 20
110.99999999993631
 30
0.0
 11
176.8094010768545
 21
114.99999999993631
 31
0.0
  0
LINE
  8
DETAIL
  6
CONTINUOUS
 62
     5
 10
-189.03807854514159
 20
711.54007549323615
 30
0.0
 11
-189.03747415244291
 21
711.51994724543499
 31
0.0
  0
LINE
  8
DETAIL
  6
CONTINUOUS
 62
     5
 10
-188.77338446214711
 20
696.39999999993768
 30
0.0
 11
-189.014931990343
 21
710.23772170163636
 31
0.0
  0
LINE
  8
DETAIL
  6
CONTINUOUS
 62
     5
 10
-188.28983744154539
 20
701.69489490063643
 30
0.0
 11
-188.3388025976455
 21
704.49999999993634
 31
0.0
  0
LINE
  8
DETAIL
  6
CONTINUOUS
 62
     5
 10
-188.49999999994179
 20
696.39999999993768
 30
0.0
 11
-188.57306630124361
 21
700.9904720187368
 31
0.0
  0
LINE
  8
DETAIL
  6
CONTINUOUS
 62
     5
 10
-255.49999999994179
 20
1516.8999999999371
 30
0.0
 11
-255.49999999994179
 21
1516.2999999999361
 31
0.0
  0
LINE
  8
DETAIL
  6
CONTINUOUS
 62
     5
 10
-255.49999999994179
 20
111.29999999993559
 30
0.0
 11
-255.49999999994179
 21
110.69999999993701
 31
0.0
  0
LINE
  8
DETAIL
  6
CONTINUOUS
 62
     5
 10
-253.7999999999447
 20
1518.5999999999369
 30
0.0
 11
-253.7999999999447
 21
1516.8999999999371
 31
0.0
  0
LINE
  8
DETAIL
  6
CONTINUOUS
 62
     5
 10
-253.7999999999447
 20
1516.2999999999361
 30
0.0
 11
-253.7999999999447
 21
1514.599999999936
 31
0.0
  0
LINE
  8
DETAIL
  6
CONTINUOUS
 62
     5
 10
-253.7999999999447
 20
112.99999999993631
 30
0.0
 11
-253.7999999999447
 21
111.29999999993559
 31
0.0
  0
LINE
  8
DETAIL
  6
CONTINUOUS
 62
     5
 10
-253.7999999999447
 20
110.69999999993701
 30
0.0
 11
-253.7999999999447
 21
108.99999999993631
 31
0.0
  0
LINE
  8
DETAIL
  6
CONTINUOUS
 62
     5
 10
-253.19999999994619
 20
108.99999999993631
 30
0.0
 11
-253.19999999994619
 21
110.69999999993701
 31
0.0
  0
LINE
  8
DETAIL
  6
CONTINUOUS
 62
     5
 10
-253.19999999994619
 20
111.29999999993559
 30
0.0
 11
-253.19999999994619
 21
112.99999999993631
 31
0.0
  0
LINE
  8
DETAIL
  6
CONTINUOUS
 62
     5
 10
-253.19999999994619
 20
1514.599999999936
 30
0.0
 11
-253.19999999994619
 21
1516.2999999999361
 31
0.0
  0
LINE
  8
DETAIL
  6
CONTINUOUS
 62
     5
 10
-253.19999999994619
 20
1516.8999999999371
 30
0.0
 11
-253.19999999994619
 21
1518.5999999999369
 31
0.0
  0
LINE
  8
DETAIL
  6
CONTINUOUS
 62
     5
 10
-251.49999999994179
 20
110.69999999993701
 30
0.0
 11
-251.49999999994179
 21
111.29999999993559
 31
0.0
  0
LINE
  8
DETAIL
  6
CONTINUOUS
 62
     5
 10
-251.49999999994179
 20
1516.2999999999361
 30
0.0
 11
-251.49999999994179
 21
1516.8999999999371
 31
0.0
  0
LINE
  8
DETAIL
  6
CONTINUOUS
 62
     5
 10
-240.49999999994179
 20
102.99999999993631
 30
0.0
 11
-240.49999999994179
 21
116.99999999993631
 31
0.0
  0
LINE
  8
DETAIL
  6
CONTINUOUS
 62
     5
 10
-238.49999999994179
 20
116.99999999993631
 30
0.0
 11
-238.49999999994179
 21
1522.499999999937
 31
0.0
  0
LINE
  8
DETAIL
  6
CONTINUOUS
 62
     5
 10
-237.49999999994179
 20
678.49999999993634
 30
0.0
 11
-237.49999999994179
 21
116.99999999993631
 31
0.0
  0
LINE
  8
DETAIL
  6
CONTINUOUS
 62
     5
 10
-237.09999999994761
 20
113.99999999993631
 30
0.0
 11
-237.09999999994761
 21
96.999999999936335
 31
0.0
  0
LINE
  8
DETAIL
  6
CONTINUOUS
 62
     5
 10
-236.2999999999447
 20
684.86396103063635
 30
0.0
 11
-236.2999999999447
 21
678.49999999993634
 31
0.0
  0
LINE
  8
DETAIL
  6
CONTINUOUS
 62
     5
 10
-236.2999999999447
 20
113.99999999993631
 30
0.0
 11
-236.2999999999447
 21
116.99999999993631
 31
0.0
  0
LINE
  8
DETAIL
  6
CONTINUOUS
 62
     5
 10
-229.49999999994179
 20
94.507179676935266
 30
0.0
 11
-229.49999999994179
 21
96.999999999936335
 31
0.0
  0
LINE
  8
DETAIL
  6
CONTINUOUS
 62
     5
 10
-226.99999999994179
 20
645.29999999993561
 30
0.0
 11
-226.99999999994179
 21
644.69999999993695
 31
0.0
  0
LINE
  8
DETAIL
  6
CONTINUOUS
 62
     5
 10
-226.99999999994179
 20
305.29999999993561
 30
0.0
 11
-226.99999999994179
 21
304.69999999993712
 31
0.0
  0
LINE
  8
DETAIL
  6
CONTINUOUS
 62
     5
 10
-225.2999999999447
 20
646.99999999993634
 30
0.0
 11
-225.2999999999447
 21
645.29999999993561
 31
0.0
  0
LINE
  8
DETAIL
  6
CONTINUOUS
 62
     5
 10
-225.2999999999447
 20
644.69999999993695
 30
0.0
 11
-225.2999999999447
 21
642.99999999993634
 31
0.0
  0
LINE
  8
DETAIL
  6
CONTINUOUS
 62
     5
 10
-225.2999999999447
 20
306.99999999993628
 30
0.0
 11
-225.2999999999447
 21
305.29999999993561
 31
0.0
  0
LINE
  8
DETAIL
  6
CONTINUOUS
 62
     5
 10
-225.2999999999447
 20
304.69999999993712
 30
0.0
 11
-225.2999999999447
 21
302.99999999993628
 31
0.0
  0
LINE
  8
DETAIL
  6
CONTINUOUS
 62
     5
 10
-224.69999999994619
 20
302.99999999993628
 30
0.0
 11
-224.69999999994619
 21
304.69999999993712
 31
0.0
  0
LINE
  8
DETAIL
  6
CONTINUOUS
 62
     5
 10
-224.69999999994619
 20
305.29999999993561
 30
0.0
 11
-224.69999999994619
 21
306.99999999993628
 31
0.0
  0
LINE
  8
DETAIL
  6
CONTINUOUS
 62
     5
 10
-224.69999999994619
 20
642.99999999993634
 30
0.0
 11
-224.69999999994619
 21
644.69999999993695
 31
0.0
  0
LINE
  8
DETAIL
  6
CONTINUOUS
 62
     5
 10
-224.69999999994619
 20
645.29999999993561
 30
0.0
 11
-224.69999999994619
 21
646.99999999993634
 31
0.0
  0
LINE
  8
DETAIL
  6
CONTINUOUS
 62
     5
 10
-222.99999999994179
 20
304.69999999993712
 30
0.0
 11
-222.99999999994179
 21
305.29999999993561
 31
0.0
  0
LINE
  8
DETAIL
  6
CONTINUOUS
 62
     5
 10
-222.99999999994179
 20
644.69999999993695
 30
0.0
 11
-222.99999999994179
 21
645.29999999993561
 31
0.0
  0
LINE
  8
DETAIL
  6
CONTINUOUS
 62
     5
 10
-217.49999999994179
 20
684.86396103063635
 30
0.0
 11
-217.49999999994179
 21
1519.999999999937
 31
0.0
  0
LINE
  8
DETAIL
  6
CONTINUOUS
 62
     5
 10
-198.00570692504689
 20
695.39999999993779
 30
0.0
 11
-198.00570692504689
 21
686.49999999993634
 31
0.0
  0
LINE
  8
DETAIL
  6
CONTINUOUS
 62
     5
 10
-196.49999999994179
 20
684.86396103063635
 30
0.0
 11
-196.49999999994179
 21
696.39999999993768
 31
0.0
  0
LINE
  8
DETAIL
  6
CONTINUOUS
 62
     5
 10
-189.49999999994179
 20
111.29999999993559
 30
0.0
 11
-189.49999999994179
 21
110.69999999993701
 31
0.0
  0
LINE
  8
DETAIL
  6
CONTINUOUS
 62
     5
 10
-187.7999999999447
 20
112.99999999993631
 30
0.0
 11
-187.7999999999447
 21
111.29999999993559
 31
0.0
  0
LINE
  8
DETAIL
  6
CONTINUOUS
 62
     5
 10
-187.7999999999447
 20
110.69999999993701
 30
0.0
 11
-187.7999999999447
 21
108.99999999993631
 31
0.0
  0
LINE
  8
DETAIL
  6
CONTINUOUS
 62
     5
 10
-187.1999999999461
 20
108.99999999993631
 30
0.0
 11
-187.1999999999461
 21
110.69999999993701
 31
0.0
  0
LINE
  8
DETAIL
  6
CONTINUOUS
 62
     5
 10
-187.1999999999461
 20
111.29999999993559
 30
0.0
 11
-187.1999999999461
 21
112.99999999993631
 31
0.0
  0
LINE
  8
DETAIL
  6
CONTINUOUS
 62
     5
 10
-185.49999999994179
 20
110.69999999993701
 30
0.0
 11
-185.49999999994179
 21
111.29999999993559
 31
0.0
  0
LINE
  8
DETAIL
  6
CONTINUOUS
 62
     5
 10
-167.85142435414309
 20
1857.5999999999369
 30
0.0
 11
-167.85142435414309
 21
1836.599999999936
 31
0.0
  0
LINE
  8
DETAIL
  6
CONTINUOUS
 62
     5
 10
-4.6188021534471773
 20
1824.7999999999361
 30
0.0
 11
-2.3094010766435531
 21
1828.7999999999361
 31
0.0
  0
LINE
  8
DETAIL
  6
CONTINUOUS
 62
     5
 10
2.309401076854555
 20
1820.7999999999361
 30
0.0
 11
4.6188021536509041
 21
1824.7999999999361
 31
0.0
  0
LINE
  8
DETAIL
  6
CONTINUOUS
 62
     5
 10
161.50000000005821
 20
273.99999999993628
 30
0.0
 11
160.50000000005821
 21
273.99999999993628
 31
0.0
  0
LINE
  8
DETAIL
  6
CONTINUOUS
 62
     5
 10
-237.49999999994179
 20
278.99999999993628
 30
0.0
 11
-238.49999999994179
 21
278.99999999993628
 31
0.0
  0
LINE
  8
DETAIL
  6
CONTINUOUS
 62
     5
 10
150.3094010768545
 20
300.99999999993628
 30
0.0
 11
145.69059892335639
 21
300.99999999993628
 31
0.0
  0
LINE
  8
DETAIL
  6
CONTINUOUS
 62
     5
 10
-222.69059892314539
 20
300.99999999993628
 30
0.0
 11
-227.30940107664361
 21
300.99999999993628
 31
0.0
  0
LINE
  8
DETAIL
  6
CONTINUOUS
 62
     5
 10
-225.2999999999447
 20
302.99999999993628
 30
0.0
 11
-224.69999999994619
 21
302.99999999993628
 31
0.0
  0
LINE
  8
DETAIL
  6
CONTINUOUS
 62
     5
 10
147.7000000000553
 20
302.99999999993628
 30
0.0
 11
148.30000000005381
 21
302.99999999993628
 31
0.0
  0
LINE
  8
DETAIL
  6
CONTINUOUS
 62
     5
 10
-226.99999999994179
 20
304.69999999993712
 30
0.0
 11
-225.2999999999447
 21
304.69999999993712
 31
0.0
  0
LINE
  8
DETAIL
  6
CONTINUOUS
 62
     5
 10
-224.69999999994619
 20
304.69999999993712
 30
0.0
 11
-222.99999999994179
 21
304.69999999993712
 31
0.0
  0
LINE
  8
DETAIL
  6
CONTINUOUS
 62
     5
 10
146.00000000005821
 20
304.69999999993712
 30
0.0
 11
147.7000000000553
 21
304.69999999993712
 31
0.0
  0
LINE
  8
DETAIL
  6
CONTINUOUS
 62
     5
 10
148.30000000005381
 20
304.69999999993712
 30
0.0
 11
150.00000000005821
 21
304.69999999993712
 31
0.0
  0
LINE
  8
DETAIL
  6
CONTINUOUS
 62
     5
 10
150.00000000005821
 20
305.29999999993561
 30
0.0
 11
148.30000000005381
 21
305.29999999993561
 31
0.0
  0
LINE
  8
DETAIL
  6
CONTINUOUS
 62
     5
 10
147.7000000000553
 20
305.29999999993561
 30
0.0
 11
146.00000000005821
 21
305.29999999993561
 31
0.0
  0
LINE
  8
DETAIL
  6
CONTINUOUS
 62
     5
 10
-222.99999999994179
 20
305.29999999993561
 30
0.0
 11
-224.69999999994619
 21
305.29999999993561
 31
0.0
  0
LINE
  8
DETAIL
  6
CONTINUOUS
 62
     5
 10
-225.2999999999447
 20
305.29999999993561
 30
0.0
 11
-226.99999999994179
 21
305.29999999993561
 31
0.0
  0
LINE
  8
DETAIL
  6
CONTINUOUS
 62
     5
 10
148.30000000005381
 20
306.99999999993628
 30
0.0
 11
147.7000000000553
 21
306.99999999993628
 31
0.0
  0
LINE
  8
DETAIL
  6
CONTINUOUS
 62
     5
 10
-224.69999999994619
 20
306.99999999993628
 30
0.0
 11
-225.2999999999447
 21
306.99999999993628
 31
0.0
  0
LINE
  8
DETAIL
  6
CONTINUOUS
 62
     5
 10
150.3094010768545
 20
308.99999999993628
 30
0.0
 11
145.69059892335639
 21
308.99999999993628
 31
0.0
  0
LINE
  8
DETAIL
  6
CONTINUOUS
 62
     5
 10
-222.69059892314539
 20
308.99999999993628
 30
0.0
 11
-227.30940107664361
 21
308.99999999993628
 31
0.0
  0
LINE
  8
DETAIL
  6
CONTINUOUS
 62
     5
 10
-237.49999999994179
 20
330.99999999993628
 30
0.0
 11
-238.49999999994179
 21
330.99999999993628
 31
0.0
  0
LINE
  8
DETAIL
  6
CONTINUOUS
 62
     5
 10
161.50000000005821
 20
335.99999999993628
 30
0.0
 11
160.50000000005821
 21
335.99999999993628
 31
0.0
  0
LINE
  8
DETAIL
  6
CONTINUOUS
 62
     5
 10
145.69059892335639
 20
300.99999999993628
 30
0.0
 11
143.38119784655279
 21
304.99999999993628
 31
0.0
  0
LINE
  8
DETAIL
  6
CONTINUOUS
 62
     5
 10
152.6188021536509
 20
304.99999999993628
 30
0.0
 11
150.3094010768545
 21
308.99999999993628
 31
0.0
  0
LINE
  8
DETAIL
  6
CONTINUOUS
 62
     5
 10
302.1905989233565
 20
70.499999999936335
 30
0.0
 11
299.88119784655282
 21
74.499999999936335
 31
0.0
  0
LINE
  8
DETAIL
  6
CONTINUOUS
 62
     5
 10
309.1188021536509
 20
74.499999999936335
 30
0.0
 11
306.8094010768545
 21
78.499999999936335
 31
0.0
  0
LINE
  8
DETAIL
  6
CONTINUOUS
 62
     5
 10
-9.9999999999417923
 20
1835.183202319836
 30
0.0
 11
-9.9999999999417923
 21
1817.0999999999369
 31
0.0
  0
LINE
  8
DETAIL
  6
CONTINUOUS
 62
     5
 10
-1.9999999999417919
 20
1825.0999999999369
 30
0.0
 11
-1.9999999999417919
 21
1824.499999999937
 31
0.0
  0
LINE
  8
DETAIL
  6
CONTINUOUS
 62
     5
 10
-0.2999999999447027
 20
1826.7999999999361
 30
0.0
 11
-0.2999999999447027
 21
1825.0999999999369
 31
0.0
  0
LINE
  8
DETAIL
  6
CONTINUOUS
 62
     5
 10
-0.2999999999447027
 20
1824.499999999937
 30
0.0
 11
-0.2999999999447027
 21
1822.7999999999361
 31
0.0
  0
LINE
  8
DETAIL
  6
CONTINUOUS
 62
     5
 10
0.3000000000538421
 20
1822.7999999999361
 30
0.0
 11
0.3000000000538421
 21
1824.499999999937
 31
0.0
  0
LINE
  8
DETAIL
  6
CONTINUOUS
 62
     5
 10
0.3000000000538421
 20
1825.0999999999369
 30
0.0
 11
0.3000000000538421
 21
1826.7999999999361
 31
0.0
  0
LINE
  8
DETAIL
  6
CONTINUOUS
 62
     5
 10
2.0000000000582072
 20
1824.499999999937
 30
0.0
 11
2.0000000000582072
 21
1825.0999999999369
 31
0.0
  0
LINE
  8
DETAIL
  6
CONTINUOUS
 62
     5
 10
10.000000000058209
 20
1835.183192706837
 30
0.0
 11
10.000000000058209
 21
1817.0999999999369
 31
0.0
  0
LINE
  8
DETAIL
  6
CONTINUOUS
 62
     5
 10
178.94596691475451
 20
1581.3573677695369
 30
0.0
 11
179.08029197115681
 21
1581.574192976336
 31
0.0
  0
LINE
  8
DETAIL
  6
CONTINUOUS
 62
     5
 10
145.69059892335639
 20
640.99999999993634
 30
0.0
 11
143.38119784655279
 21
644.99999999993634
 31
0.0
  0
LINE
  8
DETAIL
  6
CONTINUOUS
 62
     5
 10
152.6188021536509
 20
644.99999999993634
 30
0.0
 11
150.3094010768545
 21
648.99999999993634
 31
0.0
  0
LINE
  8
DETAIL
  6
CONTINUOUS
 62
     5
 10
142.19059892335639
 20
685.49999999993634
 30
0.0
 11
139.88119784655279
 21
689.49999999993634
 31
0.0
  0
LINE
  8
DETAIL
  6
CONTINUOUS
 62
     5
 10
149.1188021536509
 20
689.49999999993634
 30
0.0
 11
146.8094010768545
 21
693.49999999993634
 31
0.0
  0
LINE
  8
DETAIL
  6
CONTINUOUS
 62
     5
 10
108.50000000005819
 20
111.29999999993559
 30
0.0
 11
108.50000000005819
 21
110.69999999993701
 31
0.0
  0
LINE
  8
DETAIL
  6
CONTINUOUS
 62
     5
 10
110.2000000000553
 20
112.99999999993631
 30
0.0
 11
110.2000000000553
 21
111.29999999993559
 31
0.0
  0
LINE
  8
DETAIL
  6
CONTINUOUS
 62
     5
 10
110.2000000000553
 20
110.69999999993701
 30
0.0
 11
110.2000000000553
 21
108.99999999993631
 31
0.0
  0
LINE
  8
DETAIL
  6
CONTINUOUS
 62
     5
 10
110.8000000000538
 20
108.99999999993631
 30
0.0
 11
110.8000000000538
 21
110.69999999993701
 31
0.0
  0
LINE
  8
DETAIL
  6
CONTINUOUS
 62
     5
 10
110.8000000000538
 20
111.29999999993559
 30
0.0
 11
110.8000000000538
 21
112.99999999993631
 31
0.0
  0
LINE
  8
DETAIL
  6
CONTINUOUS
 62
     5
 10
112.50000000005819
 20
110.69999999993701
 30
0.0
 11
112.50000000005819
 21
111.29999999993559
 31
0.0
  0
LINE
  8
DETAIL
  6
CONTINUOUS
 62
     5
 10
133.50000000005821
 20
1522.499999999937
 30
0.0
 11
133.50000000005821
 21
684.86396103063635
 31
0.0
  0
LINE
  8
DETAIL
  6
CONTINUOUS
 62
     5
 10
142.50000000005821
 20
689.79999999993561
 30
0.0
 11
142.50000000005821
 21
689.19999999993695
 31
0.0
  0
LINE
  8
DETAIL
  6
CONTINUOUS
 62
     5
 10
144.2000000000553
 20
691.49999999993634
 30
0.0
 11
144.2000000000553
 21
689.79999999993561
 31
0.0
  0
LINE
  8
DETAIL
  6
CONTINUOUS
 62
     5
 10
144.2000000000553
 20
689.19999999993695
 30
0.0
 11
144.2000000000553
 21
687.49999999993634
 31
0.0
  0
LINE
  8
DETAIL
  6
CONTINUOUS
 62
     5
 10
144.80000000005381
 20
687.49999999993634
 30
0.0
 11
144.80000000005381
 21
689.19999999993695
 31
0.0
  0
LINE
  8
DETAIL
  6
CONTINUOUS
 62
     5
 10
144.80000000005381
 20
689.79999999993561
 30
0.0
 11
144.80000000005381
 21
691.49999999993634
 31
0.0
  0
LINE
  8
DETAIL
  6
CONTINUOUS
 62
     5
 10
146.00000000005821
 20
645.29999999993561
 30
0.0
 11
146.00000000005821
 21
644.69999999993695
 31
0.0
  0
LINE
  8
DETAIL
  6
CONTINUOUS
 62
     5
 10
146.00000000005821
 20
305.29999999993561
 30
0.0
 11
146.00000000005821
 21
304.69999999993712
 31
0.0
  0
LINE
  8
DETAIL
  6
CONTINUOUS
 62
     5
 10
146.50000000005821
 20
689.19999999993695
 30
0.0
 11
146.50000000005821
 21
689.79999999993561
 31
0.0
  0
LINE
  8
DETAIL
  6
CONTINUOUS
 62
     5
 10
256.88119784655282
 20
1516.5999999999369
 30
0.0
 11
259.19059892335639
 21
1520.5999999999369
 31
0.0
  0
LINE
  8
DETAIL
  6
CONTINUOUS
 62
     5
 10
263.80940107685461
 20
1512.5999999999369
 30
0.0
 11
266.1188021536509
 21
1516.5999999999369
 31
0.0
  0
LINE
  8
DETAIL
  6
CONTINUOUS
 62
     5
 10
-229.61880215344721
 20
644.99999999993634
 30
0.0
 11
-227.30940107664361
 21
648.99999999993634
 31
0.0
  0
LINE
  8
DETAIL
  6
CONTINUOUS
 62
     5
 10
226.06450480865169
 20
1568.189539596136
 30
0.0
 11
226.20211294265749
 21
1568.411664290536
 31
0.0
  0
LINE
  8
DETAIL
  6
CONTINUOUS
 62
     5
 10
282.39349053235492
 20
1574.5036248981371
 30
0.0
 11
282.52756783215591
 21
1574.720050180337
 31
0.0
  0
LINE
  8
DETAIL
  6
CONTINUOUS
 62
     5
 10
161.50000000005821
 20
619.62638114763649
 30
0.0
 11
160.50000000005821
 21
619.57397336833674
 31
0.0
  0
LINE
  8
DETAIL
  6
CONTINUOUS
 62
     5
 10
-238.49999999994179
 20
559.99999999993634
 30
0.0
 11
-237.49999999994179
 21
559.99999999993634
 31
0.0
  0
LINE
  8
DETAIL
  6
CONTINUOUS
 62
     5
 10
-237.49999999994179
 20
562.99999999993634
 30
0.0
 11
-238.49999999994179
 21
562.99999999993634
 31
0.0
  0
LINE
  8
DETAIL
  6
CONTINUOUS
 62
     5
 10
-237.49999999994179
 20
586.99999999993634
 30
0.0
 11
-238.49999999994179
 21
586.99999999993634
 31
0.0
  0
LINE
  8
DETAIL
  6
CONTINUOUS
 62
     5
 10
-238.49999999994179
 20
589.99999999993634
 30
0.0
 11
-237.49999999994179
 21
589.99999999993634
 31
0.0
  0
LINE
  8
DETAIL
  6
CONTINUOUS
 62
     5
 10
161.50000000005821
 20
613.99999999993634
 30
0.0
 11
160.50000000005821
 21
613.99999999993634
 31
0.0
  0
LINE
  8
DETAIL
  6
CONTINUOUS
 62
     5
 10
-237.49999999994179
 20
618.99999999993634
 30
0.0
 11
-238.49999999994179
 21
618.99999999993634
 31
0.0
  0
LINE
  8
DETAIL
  6
CONTINUOUS
 62
     5
 10
-237.49999999994179
 20
636.17274692213675
 30
0.0
 11
-238.49999999994179
 21
636.17274692213675
 31
0.0
  0
LINE
  8
DETAIL
  6
CONTINUOUS
 62
     5
 10
150.3094010768545
 20
640.99999999993634
 30
0.0
 11
145.69059892335639
 21
640.99999999993634
 31
0.0
  0
LINE
  8
DETAIL
  6
CONTINUOUS
 62
     5
 10
-222.69059892314539
 20
640.99999999993634
 30
0.0
 11
-227.30940107664361
 21
640.99999999993634
 31
0.0
  0
LINE
  8
DETAIL
  6
CONTINUOUS
 62
     5
 10
-225.2999999999447
 20
642.99999999993634
 30
0.0
 11
-224.69999999994619
 21
642.99999999993634
 31
0.0
  0
LINE
  8
DETAIL
  6
CONTINUOUS
 62
     5
 10
147.7000000000553
 20
642.99999999993634
 30
0.0
 11
148.30000000005381
 21
642.99999999993634
 31
0.0
  0
LINE
  8
DETAIL
  6
CONTINUOUS
 62
     5
 10
-226.99999999994179
 20
644.69999999993695
 30
0.0
 11
-225.2999999999447
 21
644.69999999993695
 31
0.0
  0
LINE
  8
DETAIL
  6
CONTINUOUS
 62
     5
 10
-224.69999999994619
 20
644.69999999993695
 30
0.0
 11
-222.99999999994179
 21
644.69999999993695
 31
0.0
  0
LINE
  8
DETAIL
  6
CONTINUOUS
 62
     5
 10
146.00000000005821
 20
644.69999999993695
 30
0.0
 11
147.7000000000553
 21
644.69999999993695
 31
0.0
  0
LINE
  8
DETAIL
  6
CONTINUOUS
 62
     5
 10
148.30000000005381
 20
644.69999999993695
 30
0.0
 11
150.00000000005821
 21
644.69999999993695
 31
0.0
  0
LINE
  8
DETAIL
  6
CONTINUOUS
 62
     5
 10
150.00000000005821
 20
645.29999999993561
 30
0.0
 11
148.30000000005381
 21
645.29999999993561
 31
0.0
  0
LINE
  8
DETAIL
  6
CONTINUOUS
 62
     5
 10
147.7000000000553
 20
645.29999999993561
 30
0.0
 11
146.00000000005821
 21
645.29999999993561
 31
0.0
  0
LINE
  8
DETAIL
  6
CONTINUOUS
 62
     5
 10
-222.99999999994179
 20
645.29999999993561
 30
0.0
 11
-224.69999999994619
 21
645.29999999993561
 31
0.0
  0
LINE
  8
DETAIL
  6
CONTINUOUS
 62
     5
 10
-225.2999999999447
 20
645.29999999993561
 30
0.0
 11
-226.99999999994179
 21
645.29999999993561
 31
0.0
  0
LINE
  8
DETAIL
  6
CONTINUOUS
 62
     5
 10
148.30000000005381
 20
646.99999999993634
 30
0.0
 11
147.7000000000553
 21
646.99999999993634
 31
0.0
  0
LINE
  8
DETAIL
  6
CONTINUOUS
 62
     5
 10
-224.69999999994619
 20
646.99999999993634
 30
0.0
 11
-225.2999999999447
 21
646.99999999993634
 31
0.0
  0
LINE
  8
DETAIL
  6
CONTINUOUS
 62
     5
 10
150.3094010768545
 20
648.99999999993634
 30
0.0
 11
145.69059892335639
 21
648.99999999993634
 31
0.0
  0
LINE
  8
DETAIL
  6
CONTINUOUS
 62
     5
 10
-222.69059892314539
 20
648.99999999993634
 30
0.0
 11
-227.30940107664361
 21
648.99999999993634
 31
0.0
  0
LINE
  8
DETAIL
  6
CONTINUOUS
 62
     5
 10
-255.8094010766435
 20
1512.5999999999369
 30
0.0
 11
-258.11880215344718
 21
1516.5999999999369
 31
0.0
  0
LINE
  8
DETAIL
  6
CONTINUOUS
 62
     5
 10
-248.8811978463491
 20
1516.5999999999369
 30
0.0
 11
-251.1905989231455
 21
1520.5999999999369
 31
0.0
  0
LINE
  8
DETAIL
  6
CONTINUOUS
 62
     5
 10
147.7000000000553
 20
646.99999999993634
 30
0.0
 11
147.7000000000553
 21
645.29999999993561
 31
0.0
  0
LINE
  8
DETAIL
  6
CONTINUOUS
 62
     5
 10
147.7000000000553
 20
644.69999999993695
 30
0.0
 11
147.7000000000553
 21
642.99999999993634
 31
0.0
  0
LINE
  8
DETAIL
  6
CONTINUOUS
 62
     5
 10
147.7000000000553
 20
306.99999999993628
 30
0.0
 11
147.7000000000553
 21
305.29999999993561
 31
0.0
  0
LINE
  8
DETAIL
  6
CONTINUOUS
 62
     5
 10
147.7000000000553
 20
304.69999999993712
 30
0.0
 11
147.7000000000553
 21
302.99999999993628
 31
0.0
  0
LINE
  8
DETAIL
  6
CONTINUOUS
 62
     5
 10
148.30000000005381
 20
302.99999999993628
 30
0.0
 11
148.30000000005381
 21
304.69999999993712
 31
0.0
  0
LINE
  8
DETAIL
  6
CONTINUOUS
 62
     5
 10
148.30000000005381
 20
305.29999999993561
 30
0.0
 11
148.30000000005381
 21
306.99999999993628
 31
0.0
  0
LINE
  8
DETAIL
  6
CONTINUOUS
 62
     5
 10
148.30000000005381
 20
642.99999999993634
 30
0.0
 11
148.30000000005381
 21
644.69999999993695
 31
0.0
  0
LINE
  8
DETAIL
  6
CONTINUOUS
 62
     5
 10
148.30000000005381
 20
645.29999999993561
 30
0.0
 11
148.30000000005381
 21
646.99999999993634
 31
0.0
  0
LINE
  8
DETAIL
  6
CONTINUOUS
 62
     5
 10
150.00000000005821
 20
304.69999999993712
 30
0.0
 11
150.00000000005821
 21
305.29999999993561
 31
0.0
  0
LINE
  8
DETAIL
  6
CONTINUOUS
 62
     5
 10
150.00000000005821
 20
644.69999999993695
 30
0.0
 11
150.00000000005821
 21
645.29999999993561
 31
0.0
  0
LINE
  8
DETAIL
  6
CONTINUOUS
 62
     5
 10
152.50000000005821
 20
94.507179676935266
 30
0.0
 11
152.50000000005821
 21
96.999999999936335
 31
0.0
  0
LINE
  8
DETAIL
  6
CONTINUOUS
 62
     5
 10
159.30000000005381
 20
113.99999999993631
 30
0.0
 11
159.30000000005381
 21
116.99999999993631
 31
0.0
  0
LINE
  8
DETAIL
  6
CONTINUOUS
 62
     5
 10
159.30000000005381
 20
678.49999999993634
 30
0.0
 11
159.30000000005381
 21
684.86396103063635
 31
0.0
  0
LINE
  8
DETAIL
  6
CONTINUOUS
 62
     5
 10
160.1000000000567
 20
96.999999999936335
 30
0.0
 11
160.1000000000567
 21
113.99999999993631
 31
0.0
  0
LINE
  8
DETAIL
  6
CONTINUOUS
 62
     5
 10
160.50000000005821
 20
116.99999999993631
 30
0.0
 11
160.50000000005821
 21
142.49362949340139
 31
0.0
  0
LINE
  8
DETAIL
  6
CONTINUOUS
 62
     5
 10
160.50000000005821
 20
142.49362949340139
 30
0.0
 11
160.50000000005821
 21
678.49999999993634
 31
0.0
  0
LINE
  8
DETAIL
  6
CONTINUOUS
 62
     5
 10
161.50000000005821
 20
116.99999999993631
 30
0.0
 11
161.50000000005821
 21
142.51904081946671
 31
0.0
  0
LINE
  8
DETAIL
  6
CONTINUOUS
 62
     5
 10
161.50000000005821
 20
142.51904081946671
 30
0.0
 11
161.50000000005821
 21
1522.499999999937
 31
0.0
  0
LINE
  8
DETAIL
  6
CONTINUOUS
 62
     5
 10
163.50000000005821
 20
116.99999999993631
 30
0.0
 11
163.50000000005821
 21
102.99999999993631
 31
0.0
  0
LINE
  8
DETAIL
  6
CONTINUOUS
 62
     5
 10
167.8514243543577
 20
1836.599999999936
 30
0.0
 11
167.85142435435409
 21
1857.5999999999369
 31
0.0
  0
LINE
  8
DETAIL
  6
CONTINUOUS
 62
     5
 10
172.50000000005821
 20
111.29999999993559
 30
0.0
 11
172.50000000005821
 21
110.69999999993701
 31
0.0
  0
LINE
  8
DETAIL
  6
CONTINUOUS
 62
     5
 10
174.2000000000553
 20
112.99999999993631
 30
0.0
 11
174.2000000000553
 21
111.29999999993559
 31
0.0
  0
LINE
  8
DETAIL
  6
CONTINUOUS
 62
     5
 10
174.2000000000553
 20
110.69999999993701
 30
0.0
 11
174.2000000000553
 21
108.99999999993631
 31
0.0
  0
LINE
  8
DETAIL
  6
CONTINUOUS
 62
     5
 10
174.80000000005381
 20
108.99999999993631
 30
0.0
 11
174.80000000005381
 21
110.69999999993701
 31
0.0
  0
LINE
  8
DETAIL
  6
CONTINUOUS
 62
     5
 10
174.80000000005381
 20
111.29999999993559
 30
0.0
 11
174.80000000005381
 21
112.99999999993631
 31
0.0
  0
LINE
  8
DETAIL
  6
CONTINUOUS
 62
     5
 10
176.50000000005821
 20
110.69999999993701
 30
0.0
 11
176.50000000005821
 21
111.29999999993559
 31
0.0
  0
LINE
  8
DETAIL
  6
CONTINUOUS
 62
     5
 10
-222.69059892314539
 20
640.99999999993634
 30
0.0
 11
-220.3811978463491
 21
644.99999999993634
 31
0.0
  0
LINE
  8
DETAIL
  6
CONTINUOUS
 62
     5
 10
161.50000000005821
 20
636.64971102963682
 30
0.0
 11
160.50000000005821
 21
636.59730325033695
 31
0.0
  0
LINE
  8
DETAIL
  6
CONTINUOUS
 62
     5
 10
-237.49999999994179
 20
670.99999999993634
 30
0.0
 11
-238.49999999994179
 21
670.99999999993634
 31
0.0
  0
LINE
  8
DETAIL
  6
CONTINUOUS
 62
     5
 10
161.50000000005821
 20
675.99999999993634
 30
0.0
 11
160.50000000005821
 21
675.99999999993634
 31
0.0
  0
LINE
  8
DETAIL
  6
CONTINUOUS
 62
     5
 10
-237.49999999994179
 20
678.49999999993634
 30
0.0
 11
-236.2999999999447
 21
678.49999999993634
 31
0.0
  0
LINE
  8
DETAIL
  6
CONTINUOUS
 62
     5
 10
159.30000000005381
 20
678.49999999993634
 30
0.0
 11
160.50000000005821
 21
678.49999999993634
 31
0.0
  0
LINE
  8
DETAIL
  6
CONTINUOUS
 62
     5
 10
-236.2999999999447
 20
684.86396103063635
 30
0.0
 11
159.30000000005381
 21
684.86396103063635
 31
0.0
  0
LINE
  8
DETAIL
  6
CONTINUOUS
 62
     5
 10
-198.49999999994179
 20
685.49999999993634
 30
0.0
 11
-198.02316198994231
 21
685.49999999993634
 31
0.0
  0
LINE
  8
DETAIL
  6
CONTINUOUS
 62
     5
 10
146.8094010768545
 20
685.49999999993634
 30
0.0
 11
142.19059892335639
 21
685.49999999993634
 31
0.0
  0
LINE
  8
DETAIL
  6
CONTINUOUS
 62
     5
 10
144.2000000000553
 20
687.49999999993634
 30
0.0
 11
144.80000000005381
 21
687.49999999993634
 31
0.0
  0
LINE
  8
DETAIL
  6
CONTINUOUS
 62
     5
 10
142.50000000005821
 20
689.19999999993695
 30
0.0
 11
144.2000000000553
 21
689.19999999993695
 31
0.0
  0
LINE
  8
DETAIL
  6
CONTINUOUS
 62
     5
 10
144.80000000005381
 20
689.19999999993695
 30
0.0
 11
146.50000000005821
 21
689.19999999993695
 31
0.0
  0
LINE
  8
DETAIL
  6
CONTINUOUS
 62
     5
 10
146.50000000005821
 20
689.79999999993561
 30
0.0
 11
144.80000000005381
 21
689.79999999993561
 31
0.0
  0
LINE
  8
DETAIL
  6
CONTINUOUS
 62
     5
 10
144.2000000000553
 20
689.79999999993561
 30
0.0
 11
142.50000000005821
 21
689.79999999993561
 31
0.0
  0
LINE
  8
DETAIL
  6
CONTINUOUS
 62
     5
 10
144.80000000005381
 20
691.49999999993634
 30
0.0
 11
144.2000000000553
 21
691.49999999993634
 31
0.0
  0
LINE
  8
DETAIL
  6
CONTINUOUS
 62
     5
 10
146.8094010768545
 20
693.49999999993634
 30
0.0
 11
142.19059892335639
 21
693.49999999993634
 31
0.0
  0
LINE
  8
DETAIL
  6
CONTINUOUS
 62
     5
 10
-188.49999999994179
 20
696.39999999993768
 30
0.0
 11
-197.00555459704631
 21
696.39999999993768
 31
0.0
  0
LINE
  8
DETAIL
  6
CONTINUOUS
 62
     5
 10
-188.91157477114751
 20
704.49999999993634
 30
0.0
 11
133.50000000005821
 21
704.49999999993634
 31
0.0
  0
LINE
  8
DETAIL
  6
CONTINUOUS
 62
     5
 10
-248.6293224930414
 20
712.49999999993634
 30
0.0
 11
-246.3706775067476
 21
712.49999999993634
 31
0.0
  0
LINE
  8
DETAIL
  6
CONTINUOUS
 62
     5
 10
-217.49999999994179
 20
712.49999999993634
 30
0.0
 11
-190.04144368134439
 21
712.49999999993634
 31
0.0
  0
LINE
  8
DETAIL
  6
CONTINUOUS
 62
     5
 10
259.50000000005821
 20
1516.8999999999371
 30
0.0
 11
259.50000000005821
 21
1516.2999999999361
 31
0.0
  0
LINE
  8
DETAIL
  6
CONTINUOUS
 62
     5
 10
261.2000000000553
 20
1518.5999999999369
 30
0.0
 11
261.2000000000553
 21
1516.8999999999371
 31
0.0
  0
LINE
  8
DETAIL
  6
CONTINUOUS
 62
     5
 10
261.2000000000553
 20
1516.2999999999361
 30
0.0
 11
261.2000000000553
 21
1514.599999999936
 31
0.0
  0
LINE
  8
DETAIL
  6
CONTINUOUS
 62
     5
 10
261.8000000000539
 20
1514.599999999936
 30
0.0
 11
261.8000000000539
 21
1516.2999999999361
 31
0.0
  0
LINE
  8
DETAIL
  6
CONTINUOUS
 62
     5
 10
261.8000000000539
 20
1516.8999999999371
 30
0.0
 11
261.8000000000539
 21
1518.5999999999369
 31
0.0
  0
LINE
  8
DETAIL
  6
CONTINUOUS
 62
     5
 10
263.50000000005821
 20
1516.2999999999361
 30
0.0
 11
263.50000000005821
 21
1516.8999999999371
 31
0.0
  0
LINE
  8
DETAIL
  6
CONTINUOUS
 62
     5
 10
295.80000000005379
 20
94.999999999936335
 30
0.0
 11
295.80000000005379
 21
69.499999999936335
 31
0.0
  0
LINE
  8
DETAIL
  6
CONTINUOUS
 62
     5
 10
296.50000000005821
 20
69.499999999936335
 30
0.0
 11
296.50000000005821
 21
94.999999999936335
 31
0.0
  0
LINE
  8
DETAIL
  6
CONTINUOUS
 62
     5
 10
302.50000000005821
 20
74.799999999935608
 30
0.0
 11
302.50000000005821
 21
74.199999999937063
 31
0.0
  0
LINE
  8
DETAIL
  6
CONTINUOUS
 62
     5
 10
304.2000000000553
 20
76.499999999936335
 30
0.0
 11
304.2000000000553
 21
74.799999999935608
 31
0.0
  0
LINE
  8
DETAIL
  6
CONTINUOUS
 62
     5
 10
304.2000000000553
 20
74.199999999937063
 30
0.0
 11
304.2000000000553
 21
72.499999999936335
 31
0.0
  0
LINE
  8
DETAIL
  6
CONTINUOUS
 62
     5
 10
304.80000000005379
 20
72.499999999936335
 30
0.0
 11
304.80000000005379
 21
74.199999999937063
 31
0.0
  0
LINE
  8
DETAIL
  6
CONTINUOUS
 62
     5
 10
304.80000000005379
 20
74.799999999935608
 30
0.0
 11
304.80000000005379
 21
76.499999999936335
 31
0.0
  0
LINE
  8
DETAIL
  6
CONTINUOUS
 62
     5
 10
306.50000000005821
 20
74.199999999937063
 30
0.0
 11
306.50000000005821
 21
74.799999999935608
 31
0.0
  0
LINE
  8
DETAIL
  6
CONTINUOUS
 62
     5
 10
313.50000000005821
 20
56.499999999936328
 30
0.0
 11
313.50000000005821
 21
3.4999999999363349
 31
0.0
  0
LINE
  8
DETAIL
  6
CONTINUOUS
 62
     5
 10
315.50000000005821
 20
64.499999999936335
 30
0.0
 11
315.50000000005821
 21
63.499999999936342
 31
0.0
  0
LINE
  8
DETAIL
  6
CONTINUOUS
 62
     5
 10
315.8000000000539
 20
56.499999999936328
 30
0.0
 11
315.8000000000539
 21
3.4999999999363349
 31
0.0
  0
LINE
  8
DETAIL
  6
CONTINUOUS
 62
     5
 10
317.8000000000539
 20
64.499999999936335
 30
0.0
 11
317.8000000000539
 21
63.499999999936342
 31
0.0
  0
LINE
  8
DETAIL
  6
CONTINUOUS
 62
     5
 10
319.50000000005821
 20
2.2999999999356069
 30
0.0
 11
319.50000000005821
 21
3.9999999999363349
 31
0.0
  0
LINE
  8
DETAIL
  6
CONTINUOUS
 62
     5
 10
319.50000000005821
 20
55.999999999936342
 30
0.0
 11
319.50000000005821
 21
57.699999999937063
 31
0.0
  0
LINE
  8
DETAIL
  6
CONTINUOUS
 62
     5
 10
-229.61880215344721
 20
304.99999999993628
 30
0.0
 11
-227.30940107664361
 21
308.99999999993628
 31
0.0
  0
LINE
  8
DETAIL
  6
CONTINUOUS
 62
     5
 10
-222.69059892314539
 20
300.99999999993628
 30
0.0
 11
-220.3811978463491
 21
304.99999999993628
 31
0.0
  0
LINE
  8
DETAIL
  6
CONTINUOUS
 62
     5
 10
143.00000000005821
 20
757.5999999999367
 30
0.0
 11
140.00000000005821
 21
757.5999999999367
 31
0.0
  0
LINE
  8
DETAIL
  6
CONTINUOUS
 62
     5
 10
140.00000000005821
 20
763.59999999993659
 30
0.0
 11
143.00000000005821
 21
763.59999999993659
 31
0.0
  0
LINE
  8
DETAIL
  6
CONTINUOUS
 62
     5
 10
151.00000000005821
 20
783.99999999993634
 30
0.0
 11
148.00000000005821
 21
783.99999999993634
 31
0.0
  0
LINE
  8
DETAIL
  6
CONTINUOUS
 62
     5
 10
148.00000000005821
 20
789.99999999993634
 30
0.0
 11
151.00000000005821
 21
789.99999999993634
 31
0.0
  0
LINE
  8
DETAIL
  6
CONTINUOUS
 62
     5
 10
365.02656205955282
 20
1641.0742802146369
 30
0.0
 11
360.02855335265491
 21
1755.547499845937
 31
0.0
  0
LINE
  8
DETAIL
  6
CONTINUOUS
 62
     5
 10
367.38842298815138
 20
1559.2549875460361
 30
0.0
 11
365.02656217955519
 21
1641.0742777925359
 31
0.0
  0
LINE
  8
DETAIL
  6
CONTINUOUS
 62
     5
 10
370.28091039835272
 20
1522.499999999937
 30
0.0
 11
369.99760774935572
 21
1553.963268124937
 31
0.0
  0
LINE
  8
DETAIL
  6
CONTINUOUS
 62
     5
 10
358.00000000005821
 20
1838.5999999999369
 30
0.0
 11
358.00000000005821
 21
1857.5999999999369
 31
0.0
  0
LINE
  8
DETAIL
  6
CONTINUOUS
 62
     5
 10
360.00000000005821
 20
1817.0999999999369
 30
0.0
 11
360.00000000005821
 21
1816.999999999937
 31
0.0
  0
LINE
  8
DETAIL
  6
CONTINUOUS
 62
     5
 10
360.00000000005821
 20
1811.499999999937
 30
0.0
 11
360.00000000005821
 21
1756.2376040852359
 31
0.0
  0
LINE
  8
DETAIL
  6
CONTINUOUS
 62
     5
 10
363.00000000005821
 20
1834.5999999999369
 30
0.0
 11
363.00000000005821
 21
1817.0999999999369
 31
0.0
  0
LINE
  8
DETAIL
  6
CONTINUOUS
 62
     5
 10
363.00000000005821
 20
1815.6999999999359
 30
0.0
 11
363.00000000005821
 21
1813.7999999999361
 31
0.0
  0
LINE
  8
DETAIL
  6
CONTINUOUS
 62
     5
 10
365.50000000005821
 20
94.999999999936335
 30
0.0
 11
365.50000000005821
 21
1522.499999999937
 31
0.0
  0
LINE
  8
DETAIL
  6
CONTINUOUS
 62
     5
 10
367.50000000005821
 20
2.2999999999356069
 30
0.0
 11
367.50000000005821
 21
57.699999999937063
 31
0.0
  0
LINE
  8
DETAIL
  6
CONTINUOUS
 62
     5
 10
369.50000000005821
 20
2.2999999999356069
 30
0.0
 11
369.50000000005821
 21
-0.0000000000636646
 31
0.0
  0
LINE
  8
DETAIL
  6
CONTINUOUS
 62
     5
 10
369.50000000005821
 20
57.699999999937063
 30
0.0
 11
369.50000000005821
 21
62.299999999935608
 31
0.0
  0
LINE
  8
DETAIL
  6
CONTINUOUS
 62
     5
 10
-309.11880215344718
 20
74.499999999936335
 30
0.0
 11
-306.80940107664361
 21
78.499999999936335
 31
0.0
  0
LINE
  8
DETAIL
  6
CONTINUOUS
 62
     5
 10
-299.8811978463491
 20
74.499999999936335
 30
0.0
 11
-302.19059892314539
 21
70.499999999936335
 31
0.0
  0
LINE
  8
DETAIL
  6
CONTINUOUS
 62
     5
 10
-258.11880215344718
 20
110.99999999993631
 30
0.0
 11
-255.8094010766435
 21
114.99999999993631
 31
0.0
  0
LINE
  8
DETAIL
  6
CONTINUOUS
 62
     5
 10
-251.1905989231455
 20
106.99999999993631
 30
0.0
 11
-248.8811978463491
 21
110.99999999993631
 31
0.0
  0
LINE
  8
DETAIL
  6
CONTINUOUS
 62
     5
 10
139.88119784655279
 20
689.49999999993634
 30
0.0
 11
142.19059892335639
 21
693.49999999993634
 31
0.0
  0
LINE
  8
DETAIL
  6
CONTINUOUS
 62
     5
 10
-192.11880215344721
 20
110.99999999993631
 30
0.0
 11
-189.8094010766435
 21
114.99999999993631
 31
0.0
  0
LINE
  8
DETAIL
  6
CONTINUOUS
 62
     5
 10
146.8094010768545
 20
685.49999999993634
 30
0.0
 11
149.1188021536509
 21
689.49999999993634
 31
0.0
  0
LINE
  8
DETAIL
  6
CONTINUOUS
 62
     5
 10
-185.19059892314539
 20
106.99999999993631
 30
0.0
 11
-182.8811978463491
 21
110.99999999993631
 31
0.0
  0
LINE
  8
DETAIL
  6
CONTINUOUS
 62
     5
 10
-188.28983744154539
 20
701.69489490063643
 30
0.0
 11
-188.5760191900481
 21
701.40362889143751
 31
0.0
  0
LINE
  8
DETAIL
  6
CONTINUOUS
 62
     5
 10
151.00000000005821
 20
909.5999999999367
 30
0.0
 11
148.00000000005821
 21
909.5999999999367
 31
0.0
  0
LINE
  8
DETAIL
  6
CONTINUOUS
 62
     5
 10
148.00000000005821
 20
915.59999999993659
 30
0.0
 11
151.00000000005821
 21
915.59999999993659
 31
0.0
  0
LINE
  8
DETAIL
  6
CONTINUOUS
 62
     5
 10
-2.3094010766435531
 20
1820.7999999999361
 30
0.0
 11
-4.6188021534471773
 21
1824.7999999999361
 31
0.0
  0
LINE
  8
DETAIL
  6
CONTINUOUS
 62
     5
 10
4.6188021536509041
 20
1824.7999999999361
 30
0.0
 11
2.309401076854555
 21
1828.7999999999361
 31
0.0
  0
LINE
  8
DETAIL
  6
CONTINUOUS
 62
     5
 10
143.38119784655279
 20
644.99999999993634
 30
0.0
 11
145.69059892335639
 21
648.99999999993634
 31
0.0
  0
LINE
  8
DETAIL
  6
CONTINUOUS
 62
     5
 10
150.3094010768545
 20
640.99999999993634
 30
0.0
 11
152.6188021536509
 21
644.99999999993634
 31
0.0
  0
LINE
  8
DETAIL
  6
CONTINUOUS
 62
     5
 10
143.00000000005821
 20
1022.799999999935
 30
0.0
 11
140.00000000005821
 21
1022.799999999935
 31
0.0
  0
LINE
  8
DETAIL
  6
CONTINUOUS
 62
     5
 10
140.00000000005821
 20
1028.7999999999349
 30
0.0
 11
143.00000000005821
 21
1028.7999999999349
 31
0.0
  0
LINE
  8
DETAIL
  6
CONTINUOUS
 62
     5
 10
259.19059892335639
 20
1512.5999999999369
 30
0.0
 11
256.88119784655282
 21
1516.5999999999369
 31
0.0
  0
LINE
  8
DETAIL
  6
CONTINUOUS
 62
     5
 10
266.1188021536509
 20
1516.5999999999369
 30
0.0
 11
263.80940107685461
 21
1520.5999999999369
 31
0.0
  0
LINE
  8
DETAIL
  6
CONTINUOUS
 62
     5
 10
143.38119784655279
 20
304.99999999993628
 30
0.0
 11
145.69059892335639
 21
308.99999999993628
 31
0.0
  0
LINE
  8
DETAIL
  6
CONTINUOUS
 62
     5
 10
150.3094010768545
 20
300.99999999993628
 30
0.0
 11
152.6188021536509
 21
304.99999999993628
 31
0.0
  0
LINE
  8
DETAIL
  6
CONTINUOUS
 62
     5
 10
151.00000000005821
 20
1097.9999999999361
 30
0.0
 11
148.00000000005821
 21
1097.9999999999361
 31
0.0
  0
LINE
  8
DETAIL
  6
CONTINUOUS
 62
     5
 10
148.00000000005821
 20
1103.9999999999361
 30
0.0
 11
151.00000000005821
 21
1103.9999999999361
 31
0.0
  0
LINE
  8
DETAIL
  6
CONTINUOUS
 62
     5
 10
105.88119784655279
 20
110.99999999993631
 30
0.0
 11
108.1905989233564
 21
114.99999999993631
 31
0.0
  0
LINE
  8
DETAIL
  6
CONTINUOUS
 62
     5
 10
112.8094010768545
 20
106.99999999993631
 30
0.0
 11
115.1188021536509
 21
110.99999999993631
 31
0.0
  0
LINE
  8
DETAIL
  6
CONTINUOUS
 62
     5
 10
169.88119784655279
 20
110.99999999993631
 30
0.0
 11
172.19059892335639
 21
114.99999999993631
 31
0.0
  0
LINE
  8
DETAIL
  6
CONTINUOUS
 62
     5
 10
176.8094010768545
 20
106.99999999993631
 30
0.0
 11
179.1188021536509
 21
110.99999999993631
 31
0.0
  0
LINE
  8
DETAIL
  6
CONTINUOUS
 62
     5
 10
143.00000000005821
 20
1226.7999999999349
 30
0.0
 11
140.00000000005821
 21
1226.7999999999349
 31
0.0
  0
LINE
  8
DETAIL
  6
CONTINUOUS
 62
     5
 10
140.00000000005821
 20
1232.7999999999349
 30
0.0
 11
143.00000000005821
 21
1232.7999999999349
 31
0.0
  0
LINE
  8
DETAIL
  6
CONTINUOUS
 62
     5
 10
151.00000000005821
 20
1286.399999999938
 30
0.0
 11
148.00000000005821
 21
1286.399999999938
 31
0.0
  0
LINE
  8
DETAIL
  6
CONTINUOUS
 62
     5
 10
148.00000000005821
 20
1292.399999999938
 30
0.0
 11
151.00000000005821
 21
1292.399999999938
 31
0.0
  0
LINE
  8
DETAIL
  6
CONTINUOUS
 62
     5
 10
299.88119784655282
 20
74.499999999936335
 30
0.0
 11
302.1905989233565
 21
78.499999999936335
 31
0.0
  0
LINE
  8
DETAIL
  6
CONTINUOUS
 62
     5
 10
306.8094010768545
 20
70.499999999936335
 30
0.0
 11
309.1188021536509
 21
74.499999999936335
 31
0.0
  0
LINE
  8
DETAIL
  6
CONTINUOUS
 62
     5
 10
143.00000000005821
 20
1451.1999999999371
 30
0.0
 11
140.00000000005821
 21
1451.1999999999371
 31
0.0
  0
LINE
  8
DETAIL
  6
CONTINUOUS
 62
     5
 10
140.00000000005821
 20
1457.1999999999371
 30
0.0
 11
143.00000000005821
 21
1457.1999999999371
 31
0.0
  0
LINE
  8
DETAIL
  6
CONTINUOUS
 62
     5
 10
151.00000000005821
 20
1490.4999999999361
 30
0.0
 11
148.00000000005821
 21
1490.4999999999361
 31
0.0
  0
LINE
  8
DETAIL
  6
CONTINUOUS
 62
     5
 10
152.6956789355535
 20
1491.0299999999361
 30
0.0
 11
151.80000000005381
 21
1491.0299999999361
 31
0.0
  0
LINE
  8
DETAIL
  6
CONTINUOUS
 62
     5
 10
148.00000000005821
 20
1496.499999999937
 30
0.0
 11
151.00000000005821
 21
1496.499999999937
 31
0.0
  0
LINE
  8
DETAIL
  6
CONTINUOUS
 62
     5
 10
263.80940107685461
 20
1512.5999999999369
 30
0.0
 11
259.19059892335639
 21
1512.5999999999369
 31
0.0
  0
LINE
  8
DETAIL
  6
CONTINUOUS
 62
     5
 10
-251.1905989231455
 20
1512.5999999999369
 30
0.0
 11
-255.8094010766435
 21
1512.5999999999369
 31
0.0
  0
LINE
  8
DETAIL
  6
CONTINUOUS
 62
     5
 10
-253.7999999999447
 20
1514.599999999936
 30
0.0
 11
-253.19999999994619
 21
1514.599999999936
 31
0.0
  0
LINE
  8
DETAIL
  6
CONTINUOUS
 62
     5
 10
261.2000000000553
 20
1514.599999999936
 30
0.0
 11
261.8000000000539
 21
1514.599999999936
 31
0.0
  0
LINE
  8
DETAIL
  6
CONTINUOUS
 62
     5
 10
-255.49999999994179
 20
1516.2999999999361
 30
0.0
 11
-253.7999999999447
 21
1516.2999999999361
 31
0.0
  0
LINE
  8
DETAIL
  6
CONTINUOUS
 62
     5
 10
-253.19999999994619
 20
1516.2999999999361
 30
0.0
 11
-251.49999999994179
 21
1516.2999999999361
 31
0.0
  0
LINE
  8
DETAIL
  6
CONTINUOUS
 62
     5
 10
259.50000000005821
 20
1516.2999999999361
 30
0.0
 11
261.2000000000553
 21
1516.2999999999361
 31
0.0
  0
LINE
  8
DETAIL
  6
CONTINUOUS
 62
     5
 10
261.8000000000539
 20
1516.2999999999361
 30
0.0
 11
263.50000000005821
 21
1516.2999999999361
 31
0.0
  0
LINE
  8
DETAIL
  6
CONTINUOUS
 62
     5
 10
263.50000000005821
 20
1516.8999999999371
 30
0.0
 11
261.8000000000539
 21
1516.8999999999371
 31
0.0
  0
LINE
  8
DETAIL
  6
CONTINUOUS
 62
     5
 10
261.2000000000553
 20
1516.8999999999371
 30
0.0
 11
259.50000000005821
 21
1516.8999999999371
 31
0.0
  0
LINE
  8
DETAIL
  6
CONTINUOUS
 62
     5
 10
-251.49999999994179
 20
1516.8999999999371
 30
0.0
 11
-253.19999999994619
 21
1516.8999999999371
 31
0.0
  0
LINE
  8
DETAIL
  6
CONTINUOUS
 62
     5
 10
-253.7999999999447
 20
1516.8999999999371
 30
0.0
 11
-255.49999999994179
 21
1516.8999999999371
 31
0.0
  0
LINE
  8
DETAIL
  6
CONTINUOUS
 62
     5
 10
261.8000000000539
 20
1518.5999999999369
 30
0.0
 11
261.2000000000553
 21
1518.5999999999369
 31
0.0
  0
LINE
  8
DETAIL
  6
CONTINUOUS
 62
     5
 10
-253.19999999994619
 20
1518.5999999999369
 30
0.0
 11
-253.7999999999447
 21
1518.5999999999369
 31
0.0
  0
LINE
  8
DETAIL
  6
CONTINUOUS
 62
     5
 10
-217.49999999994179
 20
1520.0999999999369
 30
0.0
 11
133.50000000005821
 21
1520.0999999999369
 31
0.0
  0
LINE
  8
DETAIL
  6
CONTINUOUS
 62
     5
 10
263.80940107685461
 20
1520.5999999999369
 30
0.0
 11
259.19059892335639
 21
1520.5999999999369
 31
0.0
  0
LINE
  8
DETAIL
  6
CONTINUOUS
 62
     5
 10
-251.1905989231455
 20
1520.5999999999369
 30
0.0
 11
-255.8094010766435
 21
1520.5999999999369
 31
0.0
  0
LINE
  8
DETAIL
  6
CONTINUOUS
 62
     5
 10
370.28091039835272
 20
1522.499999999937
 30
0.0
 11
-370.28091039814171
 21
1522.499999999937
 31
0.0
  0
LINE
  8
DETAIL
  6
CONTINUOUS
 62
     5
 10
363.95064030275529
 20
94.999999999936335
 30
0.0
 11
320.46357325975259
 21
64.499999999936335
 31
0.0
  0
LINE
  8
DETAIL
  6
CONTINUOUS
 62
     5
 10
362.7000000000553
 20
1813.499999999937
 30
0.0
 11
361.62521844805451
 21
1813.499999999937
 31
0.0
  0
LINE
  8
DETAIL
  6
CONTINUOUS
 62
     5
 10
-361.62521847504831
 20
1813.499999999937
 30
0.0
 11
-362.6999999999461
 21
1813.499999999937
 31
0.0
  0
LINE
  8
DETAIL
  6
CONTINUOUS
 62
     5
 10
362.7000000000553
 20
1815.999999999937
 30
0.0
 11
360.81566987905541
 21
1815.999999999937
 31
0.0
  0
LINE
  8
DETAIL
  6
CONTINUOUS
 62
     5
 10
-360.81566985494283
 20
1815.999999999937
 30
0.0
 11
-362.6999999999461
 21
1815.999999999937
 31
0.0
  0
LINE
  8
DETAIL
  6
CONTINUOUS
 62
     5
 10
363.00000000005821
 20
1817.0999999999369
 30
0.0
 11
-362.99999999994179
 21
1817.0999999999369
 31
0.0
  0
LINE
  8
DETAIL
  6
CONTINUOUS
 62
     5
 10
2.309401076854555
 20
1820.7999999999361
 30
0.0
 11
-2.3094010766435531
 21
1820.7999999999361
 31
0.0
  0
LINE
  8
DETAIL
  6
CONTINUOUS
 62
     5
 10
-0.2999999999447027
 20
1822.7999999999361
 30
0.0
 11
0.3000000000538421
 21
1822.7999999999361
 31
0.0
  0
LINE
  8
DETAIL
  6
CONTINUOUS
 62
     5
 10
-1.9999999999417919
 20
1824.499999999937
 30
0.0
 11
-0.2999999999447027
 21
1824.499999999937
 31
0.0
  0
LINE
  8
DETAIL
  6
CONTINUOUS
 62
     5
 10
0.3000000000538421
 20
1824.499999999937
 30
0.0
 11
2.0000000000582072
 21
1824.499999999937
 31
0.0
  0
LINE
  8
DETAIL
  6
CONTINUOUS
 62
     5
 10
2.0000000000582072
 20
1825.0999999999369
 30
0.0
 11
0.3000000000538421
 21
1825.0999999999369
 31
0.0
  0
LINE
  8
DETAIL
  6
CONTINUOUS
 62
     5
 10
-0.2999999999447027
 20
1825.0999999999369
 30
0.0
 11
-1.9999999999417919
 21
1825.0999999999369
 31
0.0
  0
LINE
  8
DETAIL
  6
CONTINUOUS
 62
     5
 10
0.3000000000538421
 20
1826.7999999999361
 30
0.0
 11
-0.2999999999447027
 21
1826.7999999999361
 31
0.0
  0
LINE
  8
DETAIL
  6
CONTINUOUS
 62
     5
 10
2.309401076854555
 20
1828.7999999999361
 30
0.0
 11
-2.3094010766435531
 21
1828.7999999999361
 31
0.0
  0
LINE
  8
DETAIL
  6
CONTINUOUS
 62
     5
 10
361.00000000005821
 20
1836.599999999936
 30
0.0
 11
167.85142435435409
 21
1836.599999999936
 31
0.0
  0
LINE
  8
DETAIL
  6
CONTINUOUS
 62
     5
 10
167.85142435435409
 20
1836.599999999936
 30
0.0
 11
-167.85142435414309
 21
1836.599999999936
 31
0.0
  0
LINE
  8
DETAIL
  6
CONTINUOUS
 62
     5
 10
-167.85142435414309
 20
1836.599999999936
 30
0.0
 11
-360.99999999994179
 21
1836.599999999936
 31
0.0
  0
LINE
  8
DETAIL
  6
CONTINUOUS
 62
     5
 10
-357.49999999994179
 20
1858.0999999999369
 30
0.0
 11
357.50000000005821
 21
1858.0999999999369
 31
0.0
  0
CIRCLE
  8
DETAIL
  6
CONTINUOUS
 62
     5
 10
-304.49999999994179
 20
74.499999999936335
 30
0.0
 40
6.0999999999999988
  0
CIRCLE
  8
DETAIL
  6
CONTINUOUS
 62
     5
 10
-304.49999999994179
 20
74.499999999936335
 30
0.0
 40
6.0
  0
ARC
  8
DETAIL
  6
CONTINUOUS
 62
     5
 10
-300.7999999999447
 20
69.499999999936335
 30
0.0
 40
5.0
 50
270.0
 51
0.0
  0
ARC
  8
DETAIL
  6
CONTINUOUS
 62
     5
 10
-301.49999999994179
 20
69.499999999936335
 30
0.0
 40
5.0
 50
270.0
 51
0.0
  0
ARC
  8
DETAIL
  6
CONTINUOUS
 62
     5
 10
-318.99999999994179
 20
63.499999999936342
 30
0.0
 40
3.5
 50
270.0
 51
0.0
  0
ARC
  8
DETAIL
  6
CONTINUOUS
 62
     5
 10
-316.99999999994179
 20
56.499999999936328
 30
0.0
 40
3.5
 50
0.0
 51
90.0
  0
ARC
  8
DETAIL
  6
CONTINUOUS
 62
     5
 10
-316.99999999994179
 20
3.4999999999363349
 30
0.0
 40
3.5
 50
270.0
 51
0.0
  0
ARC
  8
DETAIL
  6
CONTINUOUS
 62
     5
 10
-318.99999999994179
 20
63.499999999936342
 30
0.0
 40
1.1999999999999991
 50
270.0
 51
0.0
  0
ARC
  8
DETAIL
  6
CONTINUOUS
 62
     5
 10
-316.99999999994179
 20
56.499999999936328
 30
0.0
 40
1.1999999999999991
 50
0.0
 51
90.0
  0
ARC
  8
DETAIL
  6
CONTINUOUS
 62
     5
 10
-316.99999999994179
 20
3.4999999999363349
 30
0.0
 40
1.1999999999999991
 50
270.0
 51
0.0
  0
CIRCLE
  8
DETAIL
  6
CONTINUOUS
 62
     5
 10
-309.49999999994179
 20
146.49999999993631
 30
0.0
 40
2.2999999999999989
  0
CIRCLE
  8
DETAIL
  6
CONTINUOUS
 62
     5
 10
-253.49999999994179
 20
110.99999999993631
 30
0.0
 40
6.0999999999999988
  0
CIRCLE
  8
DETAIL
  6
CONTINUOUS
 62
     5
 10
-253.49999999994179
 20
110.99999999993631
 30
0.0
 40
6.0
  0
ARC
  8
DETAIL
  6
CONTINUOUS
 62
     5
 10
-291.49999999994179
 20
94.999999999936335
 30
0.0
 40
5.0
 50
90.0
 51
180.0
  0
ARC
  8
DETAIL
  6
CONTINUOUS
 62
     5
 10
-243.49999999994179
 20
102.99999999993631
 30
0.0
 40
3.0
 50
270.0
 51
0.0
  0
CIRCLE
  8
DETAIL
  6
CONTINUOUS
 62
     5
 10
-224.99999999994179
 20
304.99999999993628
 30
0.0
 40
6.0999999999999988
  0
CIRCLE
  8
DETAIL
  6
CONTINUOUS
 62
     5
 10
-224.99999999994179
 20
304.99999999993628
 30
0.0
 40
6.0
  0
ARC
  8
DETAIL
  6
CONTINUOUS
 62
     5
 10
-279.49999999994179
 20
893.99999999993634
 30
0.0
 40
10.0
 50
0.0
 51
180.0
  0
ARC
  8
DETAIL
  6
CONTINUOUS
 62
     5
 10
-279.49999999994179
 20
758.99999999993634
 30
0.0
 40
10.0
 50
180.0
 51
0.0
  0
CIRCLE
  8
DETAIL
  6
CONTINUOUS
 62
     5
 10
-224.99999999994179
 20
644.99999999993634
 30
0.0
 40
6.0999999999999988
  0
CIRCLE
  8
DETAIL
  6
CONTINUOUS
 62
     5
 10
-224.99999999994179
 20
644.99999999993634
 30
0.0
 40
6.0
  0
ARC
  8
DETAIL
  6
CONTINUOUS
 62
     5
 10
-340.06532333274657
 20
898.84848174513718
 30
0.0
 40
5.1530650344999991
 50
101.495741301685
 51
101.7764842367901
  0
ARC
  8
DETAIL
  6
CONTINUOUS
 62
     5
 10
-340.06532333274657
 20
754.15151825463727
 30
0.0
 40
5.1530650344999991
 50
258.22351576321
 51
258.50425869831503
  0
ARC
  8
DETAIL
  6
CONTINUOUS
 62
     5
 10
-340.076053939345
 20
754.09538044943645
 30
0.0
 40
5.0959148676999986
 50
258.49669584436481
 51
263.80212653961559
  0
ARC
  8
DETAIL
  6
CONTINUOUS
 62
     5
 10
-340.07606315334851
 20
898.90467137473559
 30
0.0
 40
5.0958622468000003
 50
96.191375150998979
 51
101.50331884054209
  0
ARC
  8
DETAIL
  6
CONTINUOUS
 62
     5
 10
-341.1475264524488
 20
899.72258578653589
 30
0.0
 40
4.277414349699999
 50
82.984732968993157
 51
89.985535548075063
  0
ARC
  8
DETAIL
  6
CONTINUOUS
 62
     5
 10
-341.14752343594591
 20
753.27733886473652
 30
0.0
 40
4.2773390003999996
 50
270.01442430079999
 51
277.00765895869063
  0
CIRCLE
  8
DETAIL
  6
CONTINUOUS
 62
     5
 10
-247.49999999994179
 20
714.49999999993634
 30
0.0
 40
2.2999999999999989
  0
CIRCLE
  8
DETAIL
  6
CONTINUOUS
 62
     5
 10
-309.49999999994179
 20
821.49999999993634
 30
0.0
 40
2.2999999999999989
  0
CIRCLE
  8
DETAIL
  6
CONTINUOUS
 62
     5
 10
-187.49999999994179
 20
110.99999999993631
 30
0.0
 40
6.0999999999999988
  0
CIRCLE
  8
DETAIL
  6
CONTINUOUS
 62
     5
 10
-187.49999999994179
 20
110.99999999993631
 30
0.0
 40
6.0
  0
ARC
  8
DETAIL
  6
CONTINUOUS
 62
     5
 10
-190.04737231304171
 20
711.48945352183534
 30
0.0
 40
1.010521510999999
 50
2.8546461491495538
 51
59.019844572621537
  0
ARC
  8
DETAIL
  6
CONTINUOUS
 62
     5
 10
-190.04191625314701
 20
711.50920979793773
 30
0.0
 40
0.9907903145999998
 50
58.702270445650171
 51
89.972671948522205
  0
ARC
  8
DETAIL
  6
CONTINUOUS
 62
     5
 10
-279.49999999994179
 20
1293.9999999999361
 30
0.0
 40
10.0
 50
0.0
 51
180.0
  0
ARC
  8
DETAIL
  6
CONTINUOUS
 62
     5
 10
-279.49999999994179
 20
1143.9999999999361
 30
0.0
 40
10.0
 50
180.0
 51
0.0
  0
ARC
  8
DETAIL
  6
CONTINUOUS
 62
     5
 10
-279.49999999994179
 20
1343.9999999999361
 30
0.0
 40
10.0
 50
180.0
 51
0.0
  0
ARC
  8
DETAIL
  6
CONTINUOUS
 62
     5
 10
-279.49999999994179
 20
1093.9999999999361
 30
0.0
 40
10.0
 50
0.0
 51
180.0
  0
ARC
  8
DETAIL
  6
CONTINUOUS
 62
     5
 10
-279.49999999994179
 20
943.99999999993634
 30
0.0
 40
10.0
 50
180.0
 51
0.0
  0
ARC
  8
DETAIL
  6
CONTINUOUS
 62
     5
 10
-340.06532331884227
 20
1339.1515183220361
 30
0.0
 40
5.1530651032999986
 50
258.22351576449802
 51
258.50425869575997
  0
ARC
  8
DETAIL
  6
CONTINUOUS
 62
     5
 10
-340.0653233302437
 20
1098.8484817327351
 30
0.0
 40
5.1530650472000001
 50
101.4957413021142
 51
101.7764842363607
  0
ARC
  8
DETAIL
  6
CONTINUOUS
 62
     5
 10
-340.0653233315461
 20
939.15151826083638
 30
0.0
 40
5.1530650407999987
 50
258.22351576363928
 51
258.50425869831503
  0
ARC
  8
DETAIL
  6
CONTINUOUS
 62
     5
 10
-340.06532333274657
 20
1139.151518254637
 30
0.0
 40
5.1530650344999991
 50
258.22351576321
 51
258.50425869831503
  0
ARC
  8
DETAIL
  6
CONTINUOUS
 62
     5
 10
-340.06532333274657
 20
1298.848481745137
 30
0.0
 40
5.1530650344999991
 50
101.495741301685
 51
101.7764842367901
  0
ARC
  8
DETAIL
  6
CONTINUOUS
 62
     5
 10
-340.0760539392432
 20
1139.0953804497369
 30
0.0
 40
5.0959148680000004
 50
258.4966958447734
 51
263.80212653918989
  0
ARC
  8
DETAIL
  6
CONTINUOUS
 62
     5
 10
-340.0760539392432
 20
1339.095380449636
 30
0.0
 40
5.0959148679000004
 50
258.4966958447734
 51
263.80212653918989
  0
ARC
  8
DETAIL
  6
CONTINUOUS
 62
     5
 10
-340.076053939345
 20
939.09538044953649
 30
0.0
 40
5.0959148677999986
 50
258.4966958447734
 51
263.80212653918989
  0
ARC
  8
DETAIL
  6
CONTINUOUS
 62
     5
 10
-340.07606315324671
 20
1098.9046713743351
 30
0.0
 40
5.0958622472000004
 50
96.191375151413439
 51
101.50331884054209
  0
ARC
  8
DETAIL
  6
CONTINUOUS
 62
     5
 10
-340.07606315334851
 20
1298.9046713745361
 30
0.0
 40
5.0958622469999986
 50
96.191375150998979
 51
101.50331884054209
  0
ARC
  8
DETAIL
  6
CONTINUOUS
 62
     5
 10
-341.1475264524488
 20
1099.7225857866381
 30
0.0
 40
4.277414349599999
 50
82.984732968993157
 51
89.985535548075063
  0
ARC
  8
DETAIL
  6
CONTINUOUS
 62
     5
 10
-341.1475264524488
 20
1299.722585786536
 30
0.0
 40
4.277414349699999
 50
82.984732968993157
 51
89.985535548075063
  0
ARC
  8
DETAIL
  6
CONTINUOUS
 62
     5
 10
-341.14752343594591
 20
938.27733886473652
 30
0.0
 40
4.2773390003999996
 50
270.01442430079999
 51
277.00765895869063
  0
ARC
  8
DETAIL
  6
CONTINUOUS
 62
     5
 10
-341.14752343594591
 20
1338.2773388648361
 30
0.0
 40
4.2773390003999996
 50
270.01442430079999
 51
277.00765895869063
  0
ARC
  8
DETAIL
  6
CONTINUOUS
 62
     5
 10
-341.14752343594591
 20
1138.2773388647361
 30
0.0
 40
4.2773390002999987
 50
270.01442430079999
 51
277.00765895869063
  0
CIRCLE
  8
DETAIL
  6
CONTINUOUS
 62
     5
 10
-247.49999999994179
 20
1098.4999999999361
 30
0.0
 40
2.2999999999999989
  0
ARC
  8
DETAIL
  6
CONTINUOUS
 62
     5
 10
-340.06532333274657
 20
1498.848481745136
 30
0.0
 40
5.1530650344999991
 50
101.495741301685
 51
101.7764842367901
  0
ARC
  8
DETAIL
  6
CONTINUOUS
 62
     5
 10
-340.07606315324671
 20
1498.904671374336
 30
0.0
 40
5.0958622472000004
 50
96.191375151413439
 51
101.50331884054209
  0
ARC
  8
DETAIL
  6
CONTINUOUS
 62
     5
 10
-341.1475264524488
 20
1499.7225857865369
 30
0.0
 40
4.277414349699999
 50
82.984732968993157
 51
89.985535548075063
  0
CIRCLE
  8
DETAIL
  6
CONTINUOUS
 62
     5
 10
-309.49999999994179
 20
1496.499999999937
 30
0.0
 40
2.2999999999999989
  0
ARC
  8
DETAIL
  6
CONTINUOUS
 62
     5
 10
-389.99999999994179
 20
1756.8560814668369
 30
0.0
 40
30.0
 50
357.50000000003809
 51
0.0
  0
ARC
  8
DETAIL
  6
CONTINUOUS
 62
     5
 10
-360.99999996704719
 20
1834.5999999999369
 30
0.0
 40
2.0
 50
90.000000941735635
 51
180.0
  0
ARC
  8
DETAIL
  6
CONTINUOUS
 62
     5
 10
-359.99999999994179
 20
1838.5999999999369
 30
0.0
 40
2.0
 50
270.0
 51
0.0
  0
ARC
  8
DETAIL
  6
CONTINUOUS
 62
     5
 10
-361.99999999784632
 20
1811.5000000020359
 30
0.0
 40
1.9999999978999989
 50
0.000000622612764
 51
81.818181866538069
  0
ARC
  8
DETAIL
  6
CONTINUOUS
 62
     5
 10
-360.99999943884899
 20
1816.999999438837
 30
0.0
 40
0.9999994388999999
 50
279.51114563697058
 51
0.0000321472041358
  0
ARC
  8
DETAIL
  6
CONTINUOUS
 62
     5
 10
-357.50000000224833
 20
1857.5999999999369
 30
0.0
 40
0.5
 50
89.999999728610035
 51
180.0
  0
ARC
  8
DETAIL
  6
CONTINUOUS
 62
     5
 10
-362.6999999999461
 20
1815.6999999999359
 30
0.0
 40
0.3
 50
90.0
 51
180.0
  0
ARC
  8
DETAIL
  6
CONTINUOUS
 62
     5
 10
-362.6999999999461
 20
1813.7999999999361
 30
0.0
 40
0.3
 50
180.0
 51
270.0
  0
ARC
  8
DETAIL
  6
CONTINUOUS
 62
     5
 10
-279.49999999994179
 20
1493.999999999937
 30
0.0
 40
10.0
 50
0.0
 51
180.0
  0
ARC
  8
DETAIL
  6
CONTINUOUS
 62
     5
 10
-253.49999999994179
 20
1516.5999999999369
 30
0.0
 40
6.0999999999999988
 50
102.1444617173148
 51
77.855538282685202
  0
ARC
  8
DETAIL
  6
CONTINUOUS
 62
     5
 10
-253.49999999994179
 20
1516.5999999999369
 30
0.0
 40
6.0
 50
95.663804351435985
 51
84.336195648564001
  0
ARC
  8
DETAIL
  6
CONTINUOUS
 62
     5
 10
-220.49999999994179
 20
1519.999999999937
 30
0.0
 40
3.0
 50
0.0
 51
56.529971084237097
  0
CIRCLE
  8
DETAIL
  6
CONTINUOUS
 62
     5
 10
-247.49999999994179
 20
1482.4999999999361
 30
0.0
 40
2.2999999999999989
  0
ARC
  8
DETAIL
  6
CONTINUOUS
 62
     5
 10
-167.35142435414309
 20
1857.5999999999369
 30
0.0
 40
0.5
 50
90.0
 51
180.0
  0
ARC
  8
DETAIL
  6
CONTINUOUS
 62
     5
 10
261.16397222155501
 20
-6151.9737338289633
 30
0.0
 40
7740.6837844605998
 50
90.213249172224891
 51
90.349648923642491
  0
ARC
  8
DETAIL
  6
CONTINUOUS
 62
     5
 10
198.3093747672537
 20
-5564.4711822979643
 30
0.0
 40
7139.5396893155012
 50
89.327158192027738
 51
89.656526329418
  0
ARC
  8
DETAIL
  6
CONTINUOUS
 62
     5
 10
198.63658347695309
 20
-5505.554557964263
 30
0.0
 40
7080.4052500467997
 50
89.325271790043701
 51
89.657337661546293
  0
ARC
  8
DETAIL
  6
CONTINUOUS
 62
     5
 10
216.0668669039587
 20
-3796.5262054903628
 30
0.0
 40
5385.2072717016999
 50
89.405157975313713
 51
89.82671333175432
  0
CIRCLE
  8
DETAIL
  6
CONTINUOUS
 62
     5
 10
174.50000000005821
 20
110.99999999993631
 30
0.0
 40
6.0999999999999988
  0
CIRCLE
  8
DETAIL
  6
CONTINUOUS
 62
     5
 10
110.50000000005819
 20
110.99999999993631
 30
0.0
 40
6.0999999999999988
  0
CIRCLE
  8
DETAIL
  6
CONTINUOUS
 62
     5
 10
148.00000000005821
 20
304.99999999993628
 30
0.0
 40
6.0999999999999988
  0
CIRCLE
  8
DETAIL
  6
CONTINUOUS
 62
     5
 10
174.50000000005821
 20
110.99999999993631
 30
0.0
 40
6.0
  0
CIRCLE
  8
DETAIL
  6
CONTINUOUS
 62
     5
 10
110.50000000005819
 20
110.99999999993631
 30
0.0
 40
6.0
  0
CIRCLE
  8
DETAIL
  6
CONTINUOUS
 62
     5
 10
148.00000000005821
 20
304.99999999993628
 30
0.0
 40
6.0
  0
ARC
  8
DETAIL
  6
CONTINUOUS
 62
     5
 10
166.50000000005821
 20
102.99999999993631
 30
0.0
 40
3.0
 50
180.0
 51
270.0
  0
ARC
  8
DETAIL
  6
CONTINUOUS
 62
     5
 10
144.50000000005821
 20
689.49999999993634
 30
0.0
 40
6.0999999999999988
 50
309.9590438056523
 51
230.04095619434781
  0
CIRCLE
  8
DETAIL
  6
CONTINUOUS
 62
     5
 10
148.00000000005821
 20
644.99999999993634
 30
0.0
 40
6.0999999999999988
  0
ARC
  8
DETAIL
  6
CONTINUOUS
 62
     5
 10
144.50000000005821
 20
689.49999999993634
 30
0.0
 40
6.0
 50
309.25026147898518
 51
230.74973852101471
  0
CIRCLE
  8
DETAIL
  6
CONTINUOUS
 62
     5
 10
148.00000000005821
 20
644.99999999993634
 30
0.0
 40
6.0
  0
ARC
  8
DETAIL
  6
CONTINUOUS
 62
     5
 10
151.00000000005821
 20
786.99999999993634
 30
0.0
 40
3.0
 50
270.0
 51
90.0
  0
ARC
  8
DETAIL
  6
CONTINUOUS
 62
     5
 10
148.00000000005821
 20
786.99999999993634
 30
0.0
 40
3.0
 50
90.0
 51
270.0
  0
ARC
  8
DETAIL
  6
CONTINUOUS
 62
     5
 10
151.00000000005821
 20
912.5999999999367
 30
0.0
 40
3.0
 50
270.0
 51
90.0
  0
ARC
  8
DETAIL
  6
CONTINUOUS
 62
     5
 10
148.00000000005821
 20
912.5999999999367
 30
0.0
 40
3.0
 50
90.0
 51
270.0
  0
ARC
  8
DETAIL
  6
CONTINUOUS
 62
     5
 10
143.00000000005821
 20
760.5999999999367
 30
0.0
 40
3.0
 50
270.0
 51
90.0
  0
ARC
  8
DETAIL
  6
CONTINUOUS
 62
     5
 10
140.00000000005821
 20
760.5999999999367
 30
0.0
 40
3.0
 50
90.0
 51
270.0
  0
CIRCLE
  8
DETAIL
  6
CONTINUOUS
 62
     5
 10
170.50000000005821
 20
714.49999999993634
 30
0.0
 40
2.2999999999999989
  0
CIRCLE
  8
DETAIL
  6
CONTINUOUS
 62
     5
 10
304.50000000005821
 20
74.499999999936335
 30
0.0
 40
6.0999999999999988
  0
CIRCLE
  8
DETAIL
  6
CONTINUOUS
 62
     5
 10
304.50000000005821
 20
74.499999999936335
 30
0.0
 40
6.0
  0
ARC
  8
DETAIL
  6
CONTINUOUS
 62
     5
 10
300.8000000000539
 20
69.499999999936335
 30
0.0
 40
5.0
 50
180.0
 51
270.0
  0
ARC
  8
DETAIL
  6
CONTINUOUS
 62
     5
 10
301.50000000005821
 20
69.499999999936335
 30
0.0
 40
5.0
 50
180.0
 51
270.0
  0
ARC
  8
DETAIL
  6
CONTINUOUS
 62
     5
 10
319.00000000005821
 20
63.499999999936342
 30
0.0
 40
3.5
 50
180.0
 51
270.0
  0
ARC
  8
DETAIL
  6
CONTINUOUS
 62
     5
 10
317.00000000005821
 20
3.4999999999363349
 30
0.0
 40
3.5
 50
180.0
 51
270.0
  0
ARC
  8
DETAIL
  6
CONTINUOUS
 62
     5
 10
317.00000000005821
 20
56.499999999936328
 30
0.0
 40
3.5
 50
90.0
 51
180.0
  0
ARC
  8
DETAIL
  6
CONTINUOUS
 62
     5
 10
319.00000000005821
 20
63.499999999936342
 30
0.0
 40
1.1999999999999991
 50
180.0
 51
270.0
  0
ARC
  8
DETAIL
  6
CONTINUOUS
 62
     5
 10
317.00000000005821
 20
3.4999999999363349
 30
0.0
 40
1.1999999999999991
 50
180.0
 51
270.0
  0
ARC
  8
DETAIL
  6
CONTINUOUS
 62
     5
 10
317.00000000005821
 20
56.499999999936328
 30
0.0
 40
1.1999999999999991
 50
90.0
 51
180.0
  0
ARC
  8
DETAIL
  6
CONTINUOUS
 62
     5
 10
291.50000000005821
 20
94.999999999936335
 30
0.0
 40
5.0
 50
0.0
 51
90.0
  0
CIRCLE
  8
DETAIL
  6
CONTINUOUS
 62
     5
 10
309.50000000005821
 20
146.49999999993631
 30
0.0
 40
2.2999999999999989
  0
CIRCLE
  8
DETAIL
  6
CONTINUOUS
 62
     5
 10
309.50000000005821
 20
821.49999999993634
 30
0.0
 40
2.2999999999999989
  0
ARC
  8
DETAIL
  6
CONTINUOUS
 62
     5
 10
151.00000000005821
 20
1100.9999999999361
 30
0.0
 40
3.0
 50
270.0
 51
90.0
  0
ARC
  8
DETAIL
  6
CONTINUOUS
 62
     5
 10
148.00000000005821
 20
1100.9999999999361
 30
0.0
 40
3.0
 50
90.0
 51
270.0
  0
ARC
  8
DETAIL
  6
CONTINUOUS
 62
     5
 10
151.00000000005821
 20
1289.399999999938
 30
0.0
 40
3.0
 50
270.0
 51
90.0
  0
ARC
  8
DETAIL
  6
CONTINUOUS
 62
     5
 10
148.00000000005821
 20
1289.399999999938
 30
0.0
 40
3.0
 50
90.0
 51
270.0
  0
ARC
  8
DETAIL
  6
CONTINUOUS
 62
     5
 10
143.00000000005821
 20
1025.7999999999349
 30
0.0
 40
3.0
 50
270.0
 51
90.0
  0
ARC
  8
DETAIL
  6
CONTINUOUS
 62
     5
 10
140.00000000005821
 20
1025.7999999999349
 30
0.0
 40
3.0
 50
90.0
 51
270.0
  0
ARC
  8
DETAIL
  6
CONTINUOUS
 62
     5
 10
143.00000000005821
 20
1229.7999999999361
 30
0.0
 40
3.0
 50
270.0
 51
90.0
  0
ARC
  8
DETAIL
  6
CONTINUOUS
 62
     5
 10
140.00000000005821
 20
1229.7999999999361
 30
0.0
 40
3.0
 50
90.0
 51
270.0
  0
CIRCLE
  8
DETAIL
  6
CONTINUOUS
 62
     5
 10
170.50000000005821
 20
1098.4999999999361
 30
0.0
 40
2.2999999999999989
  0
CIRCLE
  8
DETAIL
  6
CONTINUOUS
 62
     5
 10
0.0000000000582077
 20
1824.7999999999361
 30
0.0
 40
6.0999999999999988
  0
CIRCLE
  8
DETAIL
  6
CONTINUOUS
 62
     5
 10
0.0000000000582077
 20
1824.7999999999361
 30
0.0
 40
6.0
  0
ARC
  8
DETAIL
  6
CONTINUOUS
 62
     5
 10
151.00000000005821
 20
1493.499999999937
 30
0.0
 40
3.0
 50
270.0
 51
90.0
  0
ARC
  8
DETAIL
  6
CONTINUOUS
 62
     5
 10
148.00000000005821
 20
1493.499999999937
 30
0.0
 40
3.0
 50
90.0
 51
270.0
  0
ARC
  8
DETAIL
  6
CONTINUOUS
 62
     5
 10
143.00000000005821
 20
1454.1999999999371
 30
0.0
 40
3.0
 50
270.0
 51
90.0
  0
ARC
  8
DETAIL
  6
CONTINUOUS
 62
     5
 10
140.00000000005821
 20
1454.1999999999371
 30
0.0
 40
3.0
 50
90.0
 51
270.0
  0
CIRCLE
  8
DETAIL
  6
CONTINUOUS
 62
     5
 10
170.50000000005821
 20
1472.4999999999361
 30
0.0
 40
2.2999999999999989
  0
ARC
  8
DETAIL
  6
CONTINUOUS
 62
     5
 10
167.35142435435409
 20
1857.5999999999369
 30
0.0
 40
0.5
 50
0.0
 51
90.0
  0
ARC
  8
DETAIL
  6
CONTINUOUS
 62
     5
 10
261.50000000005821
 20
1516.5999999999369
 30
0.0
 40
6.0999999999999988
 50
102.1444617173148
 51
77.855538282685202
  0
ARC
  8
DETAIL
  6
CONTINUOUS
 62
     5
 10
261.50000000005821
 20
1516.5999999999369
 30
0.0
 40
6.0
 50
95.663804351435985
 51
84.336195648564001
  0
ARC
  8
DETAIL
  6
CONTINUOUS
 62
     5
 10
221.68919596005429
 20
1574.440510095136
 30
0.0
 40
0.3053054789
 50
148.25264872236141
 51
165.67973247846979
  0
ARC
  8
DETAIL
  6
CONTINUOUS
 62
     5
 10
372.38657282435452
 20
1559.3992675948359
 30
0.0
 40
5.0001653733999989
 50
181.65348041248669
 51
231.17312119017501
  0
CIRCLE
  8
DETAIL
  6
CONTINUOUS
 62
     5
 10
309.50000000005821
 20
1496.499999999937
 30
0.0
 40
2.2999999999999989
  0
ARC
  8
DETAIL
  6
CONTINUOUS
 62
     5
 10
367.99768376205611
 20
1553.9458312278359
 30
0.0
 40
2.0
 50
34.14396949721997
 51
51.173123656530173
  0
ARC
  8
DETAIL
  6
CONTINUOUS
 62
     5
 10
390.00000000005821
 20
1756.8560814668369
 30
0.0
 40
30.0
 50
180.0
 51
182.49999999996189
  0
ARC
  8
DETAIL
  6
CONTINUOUS
 62
     5
 10
362.00000003575411
 20
1811.499999963037
 30
0.0
 40
2.0000000368999991
 50
98.181819045290069
 51
179.99999894226701
  0
ARC
  8
DETAIL
  6
CONTINUOUS
 62
     5
 10
361.00000000005821
 20
1834.5999999999369
 30
0.0
 40
2.0
 50
0.0
 51
90.0
  0
ARC
  8
DETAIL
  6
CONTINUOUS
 62
     5
 10
360.00000000005821
 20
1838.5999999999369
 30
0.0
 40
2.0
 50
180.0
 51
270.0
  0
ARC
  8
DETAIL
  6
CONTINUOUS
 62
     5
 10
360.99999996325641
 20
1816.9999999644369
 30
0.0
 40
0.9999999645999999
 50
179.99999796957781
 51
261.03604264178222
  0
ARC
  8
DETAIL
  6
CONTINUOUS
 62
     5
 10
357.50000000285218
 20
1857.5999999999369
 30
0.0
 40
0.5
 50
0.0
 51
90.000000317663833
  0
ARC
  8
DETAIL
  6
CONTINUOUS
 62
     5
 10
362.7000000000553
 20
1813.7999999999361
 30
0.0
 40
0.3
 50
270.0
 51
0.0
  0
ARC
  8
DETAIL
  6
CONTINUOUS
 62
     5
 10
362.7000000000553
 20
1815.6999999999359
 30
0.0
 40
0.3
 50
0.0
 51
90.0
  0
LINE
  8
DETAIL
  6
CONTINUOUS
 62
     5
 10
-189.014931990343
 20
710.23772170163636
 30
0.0
 11
-189.03743211694379
 21
711.51754603123663
 31
0.0
  0
LINE
  8
DETAIL
  6
CONTINUOUS
 62
     5
 10
-189.03743211694379
 20
711.51754603123663
 30
0.0
 11
-189.0381047659466
 21
711.53977988193765
 31
0.0
  0
POLYLINE
  8
DETAIL
  6
CONTINUOUS
 62
     5
 66
     1
 10
0.0
 20
0.0
 30
0.0
  0
VERTEX
  8
DETAIL
  6
CONTINUOUS
 62
     5
 10
-347.15685424934782
 20
1143.9999999999361
 30
0.0
  0
VERTEX
  8
DETAIL
  6
CONTINUOUS
 62
     5
 10
-347.11893662032389
 20
1142.963409835746
 30
0.0
  0
VERTEX
  8
DETAIL
  6
CONTINUOUS
 62
     5
 10
-347.00407343268859
 20
1141.9308478901573
 30
0.0
  0
VERTEX
  8
DETAIL
  6
CONTINUOUS
 62
     5
 10
-346.81059923559684
 20
1140.9089252004674
 30
0.0
  0
VERTEX
  8
DETAIL
  6
CONTINUOUS
 62
     5
 10
-346.53677697345978
 20
1139.9044347489403
 30
0.0
  0
VERTEX
  8
DETAIL
  6
CONTINUOUS
 62
     5
 10
-346.17983555098681
 20
1138.9267969739326
 30
0.0
  0
VERTEX
  8
DETAIL
  6
CONTINUOUS
 62
     5
 10
-345.73622656178469
 20
1137.9874074321544
 30
0.0
  0
VERTEX
  8
DETAIL
  6
CONTINUOUS
 62
     5
 10
-345.20236713113684
 20
1137.097804819165
 30
0.0
  0
VERTEX
  8
DETAIL
  6
CONTINUOUS
 62
     5
 10
-344.57413745161961
 20
1136.2728137144393
 30
0.0
  0
VERTEX
  8
DETAIL
  6
CONTINUOUS
 62
     5
 10
-343.84759609106681
 20
1135.5325558621162
 30
0.0
  0
VERTEX
  8
DETAIL
  6
CONTINUOUS
 62
     5
 10
-343.02301299900995
 20
1134.9035270022764
 30
0.0
  0
VERTEX
  8
DETAIL
  6
CONTINUOUS
 62
     5
 10
-342.10658119953473
 20
1134.4171729640923
 30
0.0
  0
VERTEX
  8
DETAIL
  6
CONTINUOUS
 62
     5
 10
-341.11703443354781
 20
1134.106918864238
 30
0.0
  0
SEQEND
  8
DETAIL
  6
CONTINUOUS
 62
     5
  0
POLYLINE
  8
DETAIL
  6
CONTINUOUS
 62
     5
 66
     1
 10
0.0
 20
0.0
 30
0.0
  0
VERTEX
  8
DETAIL
  6
CONTINUOUS
 62
     5
 10
-347.15685424934782
 20
1343.9999999999361
 30
0.0
  0
VERTEX
  8
DETAIL
  6
CONTINUOUS
 62
     5
 10
-347.11893662032389
 20
1342.963409835746
 30
0.0
  0
VERTEX
  8
DETAIL
  6
CONTINUOUS
 62
     5
 10
-347.00407343268859
 20
1341.9308478901576
 30
0.0
  0
VERTEX
  8
DETAIL
  6
CONTINUOUS
 62
     5
 10
-346.81059923559684
 20
1340.9089252004671
 30
0.0
  0
VERTEX
  8
DETAIL
  6
CONTINUOUS
 62
     5
 10
-346.53677697345978
 20
1339.9044347489403
 30
0.0
  0
VERTEX
  8
DETAIL
  6
CONTINUOUS
 62
     5
 10
-346.17983555098681
 20
1338.9267969739326
 30
0.0
  0
VERTEX
  8
DETAIL
  6
CONTINUOUS
 62
     5
 10
-345.73622656178469
 20
1337.9874074321542
 30
0.0
  0
VERTEX
  8
DETAIL
  6
CONTINUOUS
 62
     5
 10
-345.20236713113684
 20
1337.097804819165
 30
0.0
  0
VERTEX
  8
DETAIL
  6
CONTINUOUS
 62
     5
 10
-344.57413745161961
 20
1336.2728137144393
 30
0.0
  0
VERTEX
  8
DETAIL
  6
CONTINUOUS
 62
     5
 10
-343.84759609106681
 20
1335.5325558621162
 30
0.0
  0
VERTEX
  8
DETAIL
  6
CONTINUOUS
 62
     5
 10
-343.02301299900995
 20
1334.9035270022766
 30
0.0
  0
VERTEX
  8
DETAIL
  6
CONTINUOUS
 62
     5
 10
-342.10658119953473
 20
1334.4171729640925
 30
0.0
  0
VERTEX
  8
DETAIL
  6
CONTINUOUS
 62
     5
 10
-341.11703443354781
 20
1334.106918864238
 30
0.0
  0
SEQEND
  8
DETAIL
  6
CONTINUOUS
 62
     5
  0
POLYLINE
  8
DETAIL
  6
CONTINUOUS
 62
     5
 66
     1
 10
0.0
 20
0.0
 30
0.0
  0
VERTEX
  8
DETAIL
  6
CONTINUOUS
 62
     5
 10
-340.62567943784228
 20
749.03195221973692
 30
0.0
  0
VERTEX
  8
DETAIL
  6
CONTINUOUS
 62
     5
 10
-339.67970270726283
 20
749.2557697613712
 30
0.0
  0
VERTEX
  8
DETAIL
  6
CONTINUOUS
 62
     5
 10
-338.79812989262689
 20
749.66648217150396
 30
0.0
  0
VERTEX
  8
DETAIL
  6
CONTINUOUS
 62
     5
 10
-338.00214353061853
 20
750.22484515888232
 30
0.0
  0
VERTEX
  8
DETAIL
  6
CONTINUOUS
 62
     5
 10
-337.29737219087639
 20
750.89493815116816
 30
0.0
  0
VERTEX
  8
DETAIL
  6
CONTINUOUS
 62
     5
 10
-336.68275538257501
 20
751.6482059217725
 30
0.0
  0
VERTEX
  8
DETAIL
  6
CONTINUOUS
 62
     5
 10
-336.1539499640117
 20
752.464151687911
 30
0.0
  0
VERTEX
  8
DETAIL
  6
CONTINUOUS
 62
     5
 10
-335.7061551009819
 20
753.32704882363214
 30
0.0
  0
VERTEX
  8
DETAIL
  6
CONTINUOUS
 62
     5
 10
-335.33486484988481
 20
754.22507953596562
 30
0.0
  0
VERTEX
  8
DETAIL
  6
CONTINUOUS
 62
     5
 10
-335.03603778121493
 20
755.15022878306308
 30
0.0
  0
VERTEX
  8
DETAIL
  6
CONTINUOUS
 62
     5
 10
-334.8061737305618
 20
756.09650928905478
 30
0.0
  0
VERTEX
  8
DETAIL
  6
CONTINUOUS
 62
     5
 10
-334.64346028386177
 20
757.05773945512044
 30
0.0
  0
VERTEX
  8
DETAIL
  6
CONTINUOUS
 62
     5
 10
-334.5467055542062
 20
758.02765712089013
 30
0.0
  0
VERTEX
  8
DETAIL
  6
CONTINUOUS
 62
     5
 10
-334.51471862564358
 20
758.99999999993634
 30
0.0
  0
SEQEND
  8
DETAIL
  6
CONTINUOUS
 62
     5
  0
POLYLINE
  8
DETAIL
  6
CONTINUOUS
 62
     5
 66
     1
 10
0.0
 20
0.0
 30
0.0
  0
VERTEX
  8
DETAIL
  6
CONTINUOUS
 62
     5
 10
-334.51471862564358
 20
893.99999999993634
 30
0.0
  0
VERTEX
  8
DETAIL
  6
CONTINUOUS
 62
     5
 10
-334.54670267749833
 20
894.97229894263228
 30
0.0
  0
VERTEX
  8
DETAIL
  6
CONTINUOUS
 62
     5
 10
-334.64344861460262
 20
895.94217292840608
 30
0.0
  0
VERTEX
  8
DETAIL
  6
CONTINUOUS
 62
     5
 10
-334.80614710926727
 20
896.9033606110869
 30
0.0
  0
VERTEX
  8
DETAIL
  6
CONTINUOUS
 62
     5
 10
-335.03598980602999
 20
897.84960077087669
 30
0.0
  0
VERTEX
  8
DETAIL
  6
CONTINUOUS
 62
     5
 10
-335.33478885179863
 20
898.77471284221781
 30
0.0
  0
VERTEX
  8
DETAIL
  6
CONTINUOUS
 62
     5
 10
-335.70604375693489
 20
899.67271077766338
 30
0.0
  0
VERTEX
  8
DETAIL
  6
CONTINUOUS
 62
     5
 10
-336.15379519310034
 20
900.53558099593329
 30
0.0
  0
VERTEX
  8
DETAIL
  6
CONTINUOUS
 62
     5
 10
-336.68254829783683
 20
901.35150831019416
 30
0.0
  0
VERTEX
  8
DETAIL
  6
CONTINUOUS
 62
     5
 10
-337.29710332804689
 20
902.10476981663987
 30
0.0
  0
VERTEX
  8
DETAIL
  6
CONTINUOUS
 62
     5
 10
-338.00180332120584
 20
902.77487399626796
 30
0.0
  0
VERTEX
  8
DETAIL
  6
CONTINUOUS
 62
     5
 10
-338.79771075803046
 20
903.33327297079586
 30
0.0
  0
VERTEX
  8
DETAIL
  6
CONTINUOUS
 62
     5
 10
-339.67920299992301
 20
903.744054408902
 30
0.0
  0
VERTEX
  8
DETAIL
  6
CONTINUOUS
 62
     5
 10
-340.6251095286425
 20
903.96797788583535
 30
0.0
  0
SEQEND
  8
DETAIL
  6
CONTINUOUS
 62
     5
  0
POLYLINE
  8
DETAIL
  6
CONTINUOUS
 62
     5
 66
     1
 10
0.0
 20
0.0
 30
0.0
  0
VERTEX
  8
DETAIL
  6
CONTINUOUS
 62
     5
 10
-347.15685424934782
 20
943.99999999993634
 30
0.0
  0
VERTEX
  8
DETAIL
  6
CONTINUOUS
 62
     5
 10
-347.11893662032389
 20
942.96340983574589
 30
0.0
  0
VERTEX
  8
DETAIL
  6
CONTINUOUS
 62
     5
 10
-347.00407343268859
 20
941.93084789015745
 30
0.0
  0
VERTEX
  8
DETAIL
  6
CONTINUOUS
 62
     5
 10
-346.81059923559684
 20
940.90892520046737
 30
0.0
  0
VERTEX
  8
DETAIL
  6
CONTINUOUS
 62
     5
 10
-346.53677697345978
 20
939.9044347489405
 30
0.0
  0
VERTEX
  8
DETAIL
  6
CONTINUOUS
 62
     5
 10
-346.17983555098681
 20
938.9267969739326
 30
0.0
  0
VERTEX
  8
DETAIL
  6
CONTINUOUS
 62
     5
 10
-345.73622656178469
 20
937.98740743215421
 30
0.0
  0
VERTEX
  8
DETAIL
  6
CONTINUOUS
 62
     5
 10
-345.20236713113684
 20
937.09780481916437
 30
0.0
  0
VERTEX
  8
DETAIL
  6
CONTINUOUS
 62
     5
 10
-344.57413745161961
 20
936.27281371443792
 30
0.0
  0
VERTEX
  8
DETAIL
  6
CONTINUOUS
 62
     5
 10
-343.84759609106681
 20
935.53255586211549
 30
0.0
  0
VERTEX
  8
DETAIL
  6
CONTINUOUS
 62
     5
 10
-343.02301299900995
 20
934.90352700227641
 30
0.0
  0
VERTEX
  8
DETAIL
  6
CONTINUOUS
 62
     5
 10
-342.10658119953473
 20
934.41717296409274
 30
0.0
  0
VERTEX
  8
DETAIL
  6
CONTINUOUS
 62
     5
 10
-341.11703443354781
 20
934.10691886423774
 30
0.0
  0
SEQEND
  8
DETAIL
  6
CONTINUOUS
 62
     5
  0
POLYLINE
  8
DETAIL
  6
CONTINUOUS
 62
     5
 66
     1
 10
0.0
 20
0.0
 30
0.0
  0
VERTEX
  8
DETAIL
  6
CONTINUOUS
 62
     5
 10
-341.11703443354781
 20
903.89308113563675
 30
0.0
  0
VERTEX
  8
DETAIL
  6
CONTINUOUS
 62
     5
 10
-342.10658119953473
 20
903.58282703577981
 30
0.0
  0
VERTEX
  8
DETAIL
  6
CONTINUOUS
 62
     5
 10
-343.02301299900995
 20
903.09647299759615
 30
0.0
  0
VERTEX
  8
DETAIL
  6
CONTINUOUS
 62
     5
 10
-343.84759609106681
 20
902.46744413775707
 30
0.0
  0
VERTEX
  8
DETAIL
  6
CONTINUOUS
 62
     5
 10
-344.57413745161961
 20
901.72718628543475
 30
0.0
  0
VERTEX
  8
DETAIL
  6
CONTINUOUS
 62
     5
 10
-345.20236713113684
 20
900.90219518070853
 30
0.0
  0
VERTEX
  8
DETAIL
  6
CONTINUOUS
 62
     5
 10
-345.73622656178469
 20
900.01259256771823
 30
0.0
  0
VERTEX
  8
DETAIL
  6
CONTINUOUS
 62
     5
 10
-346.17983555098681
 20
899.07320302593712
 30
0.0
  0
VERTEX
  8
DETAIL
  6
CONTINUOUS
 62
     5
 10
-346.53677697345972
 20
898.09556525091966
 30
0.0
  0
VERTEX
  8
DETAIL
  6
CONTINUOUS
 62
     5
 10
-346.81059923559678
 20
897.09107479937211
 30
0.0
  0
VERTEX
  8
DETAIL
  6
CONTINUOUS
 62
     5
 10
-347.00407343268859
 20
896.06915210965997
 30
0.0
  0
VERTEX
  8
DETAIL
  6
CONTINUOUS
 62
     5
 10
-347.11893662032389
 20
895.03659016407335
 30
0.0
  0
VERTEX
  8
DETAIL
  6
CONTINUOUS
 62
     5
 10
-347.15685424934782
 20
893.99999999993634
 30
0.0
  0
SEQEND
  8
DETAIL
  6
CONTINUOUS
 62
     5
  0
POLYLINE
  8
DETAIL
  6
CONTINUOUS
 62
     5
 66
     1
 10
0.0
 20
0.0
 30
0.0
  0
VERTEX
  8
DETAIL
  6
CONTINUOUS
 62
     5
 10
-340.62567943784228
 20
934.03195221973681
 30
0.0
  0
VERTEX
  8
DETAIL
  6
CONTINUOUS
 62
     5
 10
-339.67970270726283
 20
934.25576976137131
 30
0.0
  0
VERTEX
  8
DETAIL
  6
CONTINUOUS
 62
     5
 10
-338.79812989262689
 20
934.66648217150396
 30
0.0
  0
VERTEX
  8
DETAIL
  6
CONTINUOUS
 62
     5
 10
-338.00214353061853
 20
935.22484515888243
 30
0.0
  0
VERTEX
  8
DETAIL
  6
CONTINUOUS
 62
     5
 10
-337.29737219087639
 20
935.89493815116816
 30
0.0
  0
VERTEX
  8
DETAIL
  6
CONTINUOUS
 62
     5
 10
-336.68275538257501
 20
936.64820592177261
 30
0.0
  0
VERTEX
  8
DETAIL
  6
CONTINUOUS
 62
     5
 10
-336.1539499640117
 20
937.46415168791123
 30
0.0
  0
VERTEX
  8
DETAIL
  6
CONTINUOUS
 62
     5
 10
-335.7061551009819
 20
938.32704882363225
 30
0.0
  0
VERTEX
  8
DETAIL
  6
CONTINUOUS
 62
     5
 10
-335.33486484988481
 20
939.22507953596551
 30
0.0
  0
VERTEX
  8
DETAIL
  6
CONTINUOUS
 62
     5
 10
-335.03603778121493
 20
940.15022878306297
 30
0.0
  0
VERTEX
  8
DETAIL
  6
CONTINUOUS
 62
     5
 10
-334.8061737305618
 20
941.09650928905467
 30
0.0
  0
VERTEX
  8
DETAIL
  6
CONTINUOUS
 62
     5
 10
-334.64346028386177
 20
942.05773945512055
 30
0.0
  0
VERTEX
  8
DETAIL
  6
CONTINUOUS
 62
     5
 10
-334.5467055542062
 20
943.02765712089013
 30
0.0
  0
VERTEX
  8
DETAIL
  6
CONTINUOUS
 62
     5
 10
-334.51471862564358
 20
943.99999999993634
 30
0.0
  0
SEQEND
  8
DETAIL
  6
CONTINUOUS
 62
     5
  0
POLYLINE
  8
DETAIL
  6
CONTINUOUS
 62
     5
 66
     1
 10
0.0
 20
0.0
 30
0.0
  0
VERTEX
  8
DETAIL
  6
CONTINUOUS
 62
     5
 10
-334.51471862564358
 20
1093.9999999999361
 30
0.0
  0
VERTEX
  8
DETAIL
  6
CONTINUOUS
 62
     5
 10
-334.54670267749833
 20
1094.9722989426323
 30
0.0
  0
VERTEX
  8
DETAIL
  6
CONTINUOUS
 62
     5
 10
-334.64344861460262
 20
1095.9421729284059
 30
0.0
  0
VERTEX
  8
DETAIL
  6
CONTINUOUS
 62
     5
 10
-334.80614710926727
 20
1096.9033606110868
 30
0.0
  0
VERTEX
  8
DETAIL
  6
CONTINUOUS
 62
     5
 10
-335.03598980602999
 20
1097.8496007708766
 30
0.0
  0
VERTEX
  8
DETAIL
  6
CONTINUOUS
 62
     5
 10
-335.33478885179863
 20
1098.7747128422177
 30
0.0
  0
VERTEX
  8
DETAIL
  6
CONTINUOUS
 62
     5
 10
-335.70604375693489
 20
1099.6727107776633
 30
0.0
  0
VERTEX
  8
DETAIL
  6
CONTINUOUS
 62
     5
 10
-336.15379519310034
 20
1100.5355809959331
 30
0.0
  0
VERTEX
  8
DETAIL
  6
CONTINUOUS
 62
     5
 10
-336.68254829783683
 20
1101.3515083101938
 30
0.0
  0
VERTEX
  8
DETAIL
  6
CONTINUOUS
 62
     5
 10
-337.29710332804689
 20
1102.1047698166394
 30
0.0
  0
VERTEX
  8
DETAIL
  6
CONTINUOUS
 62
     5
 10
-338.00180332120584
 20
1102.7748739962676
 30
0.0
  0
VERTEX
  8
DETAIL
  6
CONTINUOUS
 62
     5
 10
-338.79771075803046
 20
1103.3332729707956
 30
0.0
  0
VERTEX
  8
DETAIL
  6
CONTINUOUS
 62
     5
 10
-339.67920299992301
 20
1103.7440544089015
 30
0.0
  0
VERTEX
  8
DETAIL
  6
CONTINUOUS
 62
     5
 10
-340.6251095286425
 20
1103.9679778858349
 30
0.0
  0
SEQEND
  8
DETAIL
  6
CONTINUOUS
 62
     5
  0
POLYLINE
  8
DETAIL
  6
CONTINUOUS
 62
     5
 66
     1
 10
0.0
 20
0.0
 30
0.0
  0
VERTEX
  8
DETAIL
  6
CONTINUOUS
 62
     5
 10
-341.11703443354781
 20
1103.893081135637
 30
0.0
  0
VERTEX
  8
DETAIL
  6
CONTINUOUS
 62
     5
 10
-342.10658119948505
 20
1103.5828270357797
 30
0.0
  0
VERTEX
  8
DETAIL
  6
CONTINUOUS
 62
     5
 10
-343.02301299896516
 20
1103.0964729975963
 30
0.0
  0
VERTEX
  8
DETAIL
  6
CONTINUOUS
 62
     5
 10
-343.84759609106106
 20
1102.4674441377567
 30
0.0
  0
VERTEX
  8
DETAIL
  6
CONTINUOUS
 62
     5
 10
-344.57413745161961
 20
1101.7271862854343
 30
0.0
  0
VERTEX
  8
DETAIL
  6
CONTINUOUS
 62
     5
 10
-345.20236713113684
 20
1100.9021951807083
 30
0.0
  0
VERTEX
  8
DETAIL
  6
CONTINUOUS
 62
     5
 10
-345.73622656178469
 20
1100.012592567718
 30
0.0
  0
VERTEX
  8
DETAIL
  6
CONTINUOUS
 62
     5
 10
-346.17983555098681
 20
1099.0732030259369
 30
0.0
  0
VERTEX
  8
DETAIL
  6
CONTINUOUS
 62
     5
 10
-346.53677697345972
 20
1098.0955652509194
 30
0.0
  0
VERTEX
  8
DETAIL
  6
CONTINUOUS
 62
     5
 10
-346.81059923559678
 20
1097.0910747993721
 30
0.0
  0
VERTEX
  8
DETAIL
  6
CONTINUOUS
 62
     5
 10
-347.00407343268859
 20
1096.0691521096599
 30
0.0
  0
VERTEX
  8
DETAIL
  6
CONTINUOUS
 62
     5
 10
-347.11893662032389
 20
1095.0365901640735
 30
0.0
  0
VERTEX
  8
DETAIL
  6
CONTINUOUS
 62
     5
 10
-347.15685424934782
 20
1093.9999999999361
 30
0.0
  0
SEQEND
  8
DETAIL
  6
CONTINUOUS
 62
     5
  0
POLYLINE
  8
DETAIL
  6
CONTINUOUS
 62
     5
 66
     1
 10
0.0
 20
0.0
 30
0.0
  0
VERTEX
  8
DETAIL
  6
CONTINUOUS
 62
     5
 10
-340.62567943784228
 20
1334.0319522197369
 30
0.0
  0
VERTEX
  8
DETAIL
  6
CONTINUOUS
 62
     5
 10
-339.67970270726283
 20
1334.2557697613711
 30
0.0
  0
VERTEX
  8
DETAIL
  6
CONTINUOUS
 62
     5
 10
-338.79812989262689
 20
1334.666482171504
 30
0.0
  0
VERTEX
  8
DETAIL
  6
CONTINUOUS
 62
     5
 10
-338.00214353061853
 20
1335.2248451588825
 30
0.0
  0
VERTEX
  8
DETAIL
  6
CONTINUOUS
 62
     5
 10
-337.29737219087639
 20
1335.8949381511682
 30
0.0
  0
VERTEX
  8
DETAIL
  6
CONTINUOUS
 62
     5
 10
-336.68275538257501
 20
1336.6482059217728
 30
0.0
  0
VERTEX
  8
DETAIL
  6
CONTINUOUS
 62
     5
 10
-336.1539499640117
 20
1337.4641516879112
 30
0.0
  0
VERTEX
  8
DETAIL
  6
CONTINUOUS
 62
     5
 10
-335.7061551009819
 20
1338.3270488236385
 30
0.0
  0
VERTEX
  8
DETAIL
  6
CONTINUOUS
 62
     5
 10
-335.33486484988481
 20
1339.2250795359942
 30
0.0
  0
VERTEX
  8
DETAIL
  6
CONTINUOUS
 62
     5
 10
-335.03603778121493
 20
1340.1502287831149
 30
0.0
  0
VERTEX
  8
DETAIL
  6
CONTINUOUS
 62
     5
 10
-334.8061737305618
 20
1341.0965092891063
 30
0.0
  0
VERTEX
  8
DETAIL
  6
CONTINUOUS
 62
     5
 10
-334.64346028386177
 20
1342.0577394551533
 30
0.0
  0
VERTEX
  8
DETAIL
  6
CONTINUOUS
 62
     5
 10
-334.5467055542062
 20
1343.0276571209006
 30
0.0
  0
VERTEX
  8
DETAIL
  6
CONTINUOUS
 62
     5
 10
-334.51471862564358
 20
1343.9999999999361
 30
0.0
  0
SEQEND
  8
DETAIL
  6
CONTINUOUS
 62
     5
  0
POLYLINE
  8
DETAIL
  6
CONTINUOUS
 62
     5
 66
     1
 10
0.0
 20
0.0
 30
0.0
  0
VERTEX
  8
DETAIL
  6
CONTINUOUS
 62
     5
 10
-334.51471862564358
 20
1493.999999999937
 30
0.0
  0
VERTEX
  8
DETAIL
  6
CONTINUOUS
 62
     5
 10
-334.54670267749833
 20
1494.9722989426323
 30
0.0
  0
VERTEX
  8
DETAIL
  6
CONTINUOUS
 62
     5
 10
-334.64344861460262
 20
1495.9421729284049
 30
0.0
  0
VERTEX
  8
DETAIL
  6
CONTINUOUS
 62
     5
 10
-334.80614710926727
 20
1496.9033606110859
 30
0.0
  0
VERTEX
  8
DETAIL
  6
CONTINUOUS
 62
     5
 10
-335.03598980602999
 20
1497.8496007708754
 30
0.0
  0
VERTEX
  8
DETAIL
  6
CONTINUOUS
 62
     5
 10
-335.33478885179863
 20
1498.7747128422168
 30
0.0
  0
VERTEX
  8
DETAIL
  6
CONTINUOUS
 62
     5
 10
-335.70604375693489
 20
1499.6727107776621
 30
0.0
  0
VERTEX
  8
DETAIL
  6
CONTINUOUS
 62
     5
 10
-336.15379519310034
 20
1500.5355809959319
 30
0.0
  0
VERTEX
  8
DETAIL
  6
CONTINUOUS
 62
     5
 10
-336.68254829783683
 20
1501.3515083101929
 30
0.0
  0
VERTEX
  8
DETAIL
  6
CONTINUOUS
 62
     5
 10
-337.29710332804689
 20
1502.1047698166387
 30
0.0
  0
VERTEX
  8
DETAIL
  6
CONTINUOUS
 62
     5
 10
-338.00180332120584
 20
1502.7748739962735
 30
0.0
  0
VERTEX
  8
DETAIL
  6
CONTINUOUS
 62
     5
 10
-338.79771075803046
 20
1503.3332729708397
 30
0.0
  0
VERTEX
  8
DETAIL
  6
CONTINUOUS
 62
     5
 10
-339.67920299992301
 20
1503.7440544089525
 30
0.0
  0
VERTEX
  8
DETAIL
  6
CONTINUOUS
 62
     5
 10
-340.6251095286425
 20
1503.967977885836
 30
0.0
  0
SEQEND
  8
DETAIL
  6
CONTINUOUS
 62
     5
  0
POLYLINE
  8
DETAIL
  6
CONTINUOUS
 62
     5
 66
     1
 10
0.0
 20
0.0
 30
0.0
  0
VERTEX
  8
DETAIL
  6
CONTINUOUS
 62
     5
 10
-341.11703443354781
 20
1503.893081135637
 30
0.0
  0
VERTEX
  8
DETAIL
  6
CONTINUOUS
 62
     5
 10
-342.10658119953473
 20
1503.5828270357808
 30
0.0
  0
VERTEX
  8
DETAIL
  6
CONTINUOUS
 62
     5
 10
-343.02301299900995
 20
1503.0964729975972
 30
0.0
  0
VERTEX
  8
DETAIL
  6
CONTINUOUS
 62
     5
 10
-343.84759609106681
 20
1502.4674441377574
 30
0.0
  0
VERTEX
  8
DETAIL
  6
CONTINUOUS
 62
     5
 10
-344.57413745161961
 20
1501.7271862854343
 30
0.0
  0
VERTEX
  8
DETAIL
  6
CONTINUOUS
 62
     5
 10
-345.20236713113684
 20
1500.9021951807085
 30
0.0
  0
VERTEX
  8
DETAIL
  6
CONTINUOUS
 62
     5
 10
-345.73622656178469
 20
1500.0125925677189
 30
0.0
  0
VERTEX
  8
DETAIL
  6
CONTINUOUS
 62
     5
 10
-346.17983555098681
 20
1499.0732030259378
 30
0.0
  0
VERTEX
  8
DETAIL
  6
CONTINUOUS
 62
     5
 10
-346.53677697345972
 20
1498.0955652509203
 30
0.0
  0
VERTEX
  8
DETAIL
  6
CONTINUOUS
 62
     5
 10
-346.81059923559678
 20
1497.0910747993723
 30
0.0
  0
VERTEX
  8
DETAIL
  6
CONTINUOUS
 62
     5
 10
-347.00407343268859
 20
1496.0691521096599
 30
0.0
  0
VERTEX
  8
DETAIL
  6
CONTINUOUS
 62
     5
 10
-347.11893662032389
 20
1495.036590164073
 30
0.0
  0
VERTEX
  8
DETAIL
  6
CONTINUOUS
 62
     5
 10
-347.15685424934782
 20
1493.999999999937
 30
0.0
  0
SEQEND
  8
DETAIL
  6
CONTINUOUS
 62
     5
  0
POLYLINE
  8
DETAIL
  6
CONTINUOUS
 62
     5
 66
     1
 10
0.0
 20
0.0
 30
0.0
  0
VERTEX
  8
DETAIL
  6
CONTINUOUS
 62
     5
 10
-340.62567943784228
 20
1134.0319522197369
 30
0.0
  0
VERTEX
  8
DETAIL
  6
CONTINUOUS
 62
     5
 10
-339.67970270726283
 20
1134.2557697613713
 30
0.0
  0
VERTEX
  8
DETAIL
  6
CONTINUOUS
 62
     5
 10
-338.79812989262689
 20
1134.6664821715042
 30
0.0
  0
VERTEX
  8
DETAIL
  6
CONTINUOUS
 62
     5
 10
-338.00214353061853
 20
1135.2248451588828
 30
0.0
  0
VERTEX
  8
DETAIL
  6
CONTINUOUS
 62
     5
 10
-337.29737219087639
 20
1135.8949381511682
 30
0.0
  0
VERTEX
  8
DETAIL
  6
CONTINUOUS
 62
     5
 10
-336.68275538257501
 20
1136.6482059217726
 30
0.0
  0
VERTEX
  8
DETAIL
  6
CONTINUOUS
 62
     5
 10
-336.1539499640117
 20
1137.464151687911
 30
0.0
  0
VERTEX
  8
DETAIL
  6
CONTINUOUS
 62
     5
 10
-335.7061551009819
 20
1138.3270488236321
 30
0.0
  0
VERTEX
  8
DETAIL
  6
CONTINUOUS
 62
     5
 10
-335.33486484988481
 20
1139.2250795359655
 30
0.0
  0
VERTEX
  8
DETAIL
  6
CONTINUOUS
 62
     5
 10
-335.03603778121493
 20
1140.1502287830631
 30
0.0
  0
VERTEX
  8
DETAIL
  6
CONTINUOUS
 62
     5
 10
-334.8061737305618
 20
1141.0965092890547
 30
0.0
  0
VERTEX
  8
DETAIL
  6
CONTINUOUS
 62
     5
 10
-334.64346028386177
 20
1142.0577394551203
 30
0.0
  0
VERTEX
  8
DETAIL
  6
CONTINUOUS
 62
     5
 10
-334.5467055542062
 20
1143.0276571208897
 30
0.0
  0
VERTEX
  8
DETAIL
  6
CONTINUOUS
 62
     5
 10
-334.51471862564358
 20
1143.9999999999361
 30
0.0
  0
SEQEND
  8
DETAIL
  6
CONTINUOUS
 62
     5
  0
POLYLINE
  8
DETAIL
  6
CONTINUOUS
 62
     5
 66
     1
 10
0.0
 20
0.0
 30
0.0
  0
VERTEX
  8
DETAIL
  6
CONTINUOUS
 62
     5
 10
-334.51471862564358
 20
1293.9999999999361
 30
0.0
  0
VERTEX
  8
DETAIL
  6
CONTINUOUS
 62
     5
 10
-334.54670267749833
 20
1294.9722989426323
 30
0.0
  0
VERTEX
  8
DETAIL
  6
CONTINUOUS
 62
     5
 10
-334.64344861460262
 20
1295.9421729284056
 30
0.0
  0
VERTEX
  8
DETAIL
  6
CONTINUOUS
 62
     5
 10
-334.80614710926727
 20
1296.9033606110868
 30
0.0
  0
VERTEX
  8
DETAIL
  6
CONTINUOUS
 62
     5
 10
-335.03598980602999
 20
1297.8496007708763
 30
0.0
  0
VERTEX
  8
DETAIL
  6
CONTINUOUS
 62
     5
 10
-335.33478885179863
 20
1298.7747128422177
 30
0.0
  0
VERTEX
  8
DETAIL
  6
CONTINUOUS
 62
     5
 10
-335.70604375693489
 20
1299.672710777663
 30
0.0
  0
VERTEX
  8
DETAIL
  6
CONTINUOUS
 62
     5
 10
-336.15379519310034
 20
1300.5355809959328
 30
0.0
  0
VERTEX
  8
DETAIL
  6
CONTINUOUS
 62
     5
 10
-336.68254829783683
 20
1301.3515083101938
 30
0.0
  0
VERTEX
  8
DETAIL
  6
CONTINUOUS
 62
     5
 10
-337.29710332804689
 20
1302.1047698166396
 30
0.0
  0
VERTEX
  8
DETAIL
  6
CONTINUOUS
 62
     5
 10
-338.00180332120584
 20
1302.7748739962733
 30
0.0
  0
VERTEX
  8
DETAIL
  6
CONTINUOUS
 62
     5
 10
-338.79771075803046
 20
1303.3332729708395
 30
0.0
  0
VERTEX
  8
DETAIL
  6
CONTINUOUS
 62
     5
 10
-339.67920299992301
 20
1303.7440544089529
 30
0.0
  0
VERTEX
  8
DETAIL
  6
CONTINUOUS
 62
     5
 10
-340.6251095286425
 20
1303.9679778858349
 30
0.0
  0
SEQEND
  8
DETAIL
  6
CONTINUOUS
 62
     5
  0
POLYLINE
  8
DETAIL
  6
CONTINUOUS
 62
     5
 66
     1
 10
0.0
 20
0.0
 30
0.0
  0
VERTEX
  8
DETAIL
  6
CONTINUOUS
 62
     5
 10
-341.11703443354781
 20
1303.893081135637
 30
0.0
  0
VERTEX
  8
DETAIL
  6
CONTINUOUS
 62
     5
 10
-342.10658119953473
 20
1303.5828270357797
 30
0.0
  0
VERTEX
  8
DETAIL
  6
CONTINUOUS
 62
     5
 10
-343.02301299900995
 20
1303.096472997596
 30
0.0
  0
VERTEX
  8
DETAIL
  6
CONTINUOUS
 62
     5
 10
-343.84759609106681
 20
1302.4674441377567
 30
0.0
  0
VERTEX
  8
DETAIL
  6
CONTINUOUS
 62
     5
 10
-344.57413745161961
 20
1301.7271862854343
 30
0.0
  0
VERTEX
  8
DETAIL
  6
CONTINUOUS
 62
     5
 10
-345.20236713113684
 20
1300.9021951807081
 30
0.0
  0
VERTEX
  8
DETAIL
  6
CONTINUOUS
 62
     5
 10
-345.73622656178469
 20
1300.012592567718
 30
0.0
  0
VERTEX
  8
DETAIL
  6
CONTINUOUS
 62
     5
 10
-346.17983555098681
 20
1299.0732030259369
 30
0.0
  0
VERTEX
  8
DETAIL
  6
CONTINUOUS
 62
     5
 10
-346.53677697345972
 20
1298.0955652509197
 30
0.0
  0
VERTEX
  8
DETAIL
  6
CONTINUOUS
 62
     5
 10
-346.81059923559678
 20
1297.0910747993721
 30
0.0
  0
VERTEX
  8
DETAIL
  6
CONTINUOUS
 62
     5
 10
-347.00407343268859
 20
1296.0691521096601
 30
0.0
  0
VERTEX
  8
DETAIL
  6
CONTINUOUS
 62
     5
 10
-347.11893662032389
 20
1295.0365901640735
 30
0.0
  0
VERTEX
  8
DETAIL
  6
CONTINUOUS
 62
     5
 10
-347.15685424934782
 20
1293.9999999999361
 30
0.0
  0
SEQEND
  8
DETAIL
  6
CONTINUOUS
 62
     5
  0
POLYLINE
  8
DETAIL
  6
CONTINUOUS
 62
     5
 66
     1
 10
0.0
 20
0.0
 30
0.0
  0
VERTEX
  8
DETAIL
  6
CONTINUOUS
 62
     5
 10
-347.15685424934782
 20
758.99999999993634
 30
0.0
  0
VERTEX
  8
DETAIL
  6
CONTINUOUS
 62
     5
 10
-347.11893662032389
 20
757.96340983574589
 30
0.0
  0
VERTEX
  8
DETAIL
  6
CONTINUOUS
 62
     5
 10
-347.00407343268859
 20
756.93084789015734
 30
0.0
  0
VERTEX
  8
DETAIL
  6
CONTINUOUS
 62
     5
 10
-346.81059923559684
 20
755.90892520046737
 30
0.0
  0
VERTEX
  8
DETAIL
  6
CONTINUOUS
 62
     5
 10
-346.53677697345978
 20
754.90443474894039
 30
0.0
  0
VERTEX
  8
DETAIL
  6
CONTINUOUS
 62
     5
 10
-346.17983555098681
 20
753.9267969739326
 30
0.0
  0
VERTEX
  8
DETAIL
  6
CONTINUOUS
 62
     5
 10
-345.73622656178469
 20
752.9874074321541
 30
0.0
  0
VERTEX
  8
DETAIL
  6
CONTINUOUS
 62
     5
 10
-345.20236713113684
 20
752.09780481916425
 30
0.0
  0
VERTEX
  8
DETAIL
  6
CONTINUOUS
 62
     5
 10
-344.57413745161961
 20
751.2728137144378
 30
0.0
  0
VERTEX
  8
DETAIL
  6
CONTINUOUS
 62
     5
 10
-343.84759609106681
 20
750.5325558621156
 30
0.0
  0
VERTEX
  8
DETAIL
  6
CONTINUOUS
 62
     5
 10
-343.02301299900995
 20
749.90352700227641
 30
0.0
  0
VERTEX
  8
DETAIL
  6
CONTINUOUS
 62
     5
 10
-342.10658119953473
 20
749.41717296409274
 30
0.0
  0
VERTEX
  8
DETAIL
  6
CONTINUOUS
 62
     5
 10
-341.11703443354781
 20
749.10691886423774
 30
0.0
  0
SEQEND
  8
DETAIL
  6
CONTINUOUS
 62
     5
  0
POLYLINE
  8
DETAIL
  6
CONTINUOUS
 62
     5
 66
     1
 10
0.0
 20
0.0
 30
0.0
  0
VERTEX
  8
DETAIL
  6
CONTINUOUS
 62
     5
 10
282.52756733275601
 20
1574.720050464836
 30
0.0
  0
VERTEX
  8
DETAIL
  6
CONTINUOUS
 62
     5
 10
282.55489013799945
 20
1574.7873769094876
 30
0.0
  0
VERTEX
  8
DETAIL
  6
CONTINUOUS
 62
     5
 10
282.56223274646072
 20
1574.8600844763516
 30
0.0
  0
VERTEX
  8
DETAIL
  6
CONTINUOUS
 62
     5
 10
282.55272650988059
 20
1574.9320766517774
 30
0.0
  0
VERTEX
  8
DETAIL
  6
CONTINUOUS
 62
     5
 10
282.53050322636886
 20
1575.0020170630876
 30
0.0
  0
VERTEX
  8
DETAIL
  6
CONTINUOUS
 62
     5
 10
282.49977244039843
 20
1575.0689740509863
 30
0.0
  0
VERTEX
  8
DETAIL
  6
CONTINUOUS
 62
     5
 10
282.46369694685421
 20
1575.1324220431329
 30
0.0
  0
VERTEX
  8
DETAIL
  6
CONTINUOUS
 62
     5
 10
282.42327031224335
 20
1575.1926770202776
 30
0.0
  0
VERTEX
  8
DETAIL
  6
CONTINUOUS
 62
     5
 10
282.37921673607394
 20
1575.2501594642142
 30
0.0
  0
VERTEX
  8
DETAIL
  6
CONTINUOUS
 62
     5
 10
282.33226041785377
 20
1575.3052898567371
 30
0.0
  0
SEQEND
  8
DETAIL
  6
CONTINUOUS
 62
     5
  0
POLYLINE
  8
DETAIL
  6
CONTINUOUS
 62
     5
 66
     1
 10
0.0
 20
0.0
 30
0.0
  0
VERTEX
  8
DETAIL
  6
CONTINUOUS
 62
     5
 10
226.20211245425159
 20
1568.4116644802371
 30
0.0
  0
VERTEX
  8
DETAIL
  6
CONTINUOUS
 62
     5
 10
226.22299867619373
 20
1568.4564468207022
 30
0.0
  0
VERTEX
  8
DETAIL
  6
CONTINUOUS
 62
     5
 10
226.23327663675613
 20
1568.5049988887231
 30
0.0
  0
VERTEX
  8
DETAIL
  6
CONTINUOUS
 62
     5
 10
226.23257422267523
 20
1568.5543689824533
 30
0.0
  0
VERTEX
  8
DETAIL
  6
CONTINUOUS
 62
     5
 10
226.22267466296788
 20
1568.602878105359
 30
0.0
  0
VERTEX
  8
DETAIL
  6
CONTINUOUS
 62
     5
 10
226.20585904246215
 20
1568.6493069330595
 30
0.0
  0
VERTEX
  8
DETAIL
  6
CONTINUOUS
 62
     5
 10
226.18371769624213
 20
1568.6933500921352
 30
0.0
  0
VERTEX
  8
DETAIL
  6
CONTINUOUS
 62
     5
 10
226.1575098360735
 20
1568.7351397350355
 30
0.0
  0
VERTEX
  8
DETAIL
  6
CONTINUOUS
 62
     5
 10
226.12829645340022
 20
1568.7748184893378
 30
0.0
  0
VERTEX
  8
DETAIL
  6
CONTINUOUS
 62
     5
 10
226.09663706735535
 20
1568.8125487663121
 30
0.0
  0
VERTEX
  8
DETAIL
  6
CONTINUOUS
 62
     5
 10
226.063012203158
 20
1568.848496093636
 30
0.0
  0
SEQEND
  8
DETAIL
  6
CONTINUOUS
 62
     5
  0
POLYLINE
  8
DETAIL
  6
CONTINUOUS
 62
     5
 66
     1
 10
0.0
 20
0.0
 30
0.0
  0
VERTEX
  8
DETAIL
  6
CONTINUOUS
 62
     5
 10
282.33226041785377
 20
1575.3052898567371
 30
0.0
  0
VERTEX
  8
DETAIL
  6
CONTINUOUS
 62
     5
 10
281.09358537222249
 20
1576.7314813578016
 30
0.0
  0
VERTEX
  8
DETAIL
  6
CONTINUOUS
 62
     5
 10
279.88961232497758
 20
1578.187528028104
 30
0.0
  0
VERTEX
  8
DETAIL
  6
CONTINUOUS
 62
     5
 10
278.7198721958402
 20
1579.6720219278445
 30
0.0
  0
VERTEX
  8
DETAIL
  6
CONTINUOUS
 62
     5
 10
277.58410831463647
 20
1581.1833478150832
 30
0.0
  0
VERTEX
  8
DETAIL
  6
CONTINUOUS
 62
     5
 10
276.48210908767118
 20
1582.7198464553856
 30
0.0
  0
VERTEX
  8
DETAIL
  6
CONTINUOUS
 62
     5
 10
275.41366292124951
 20
1584.2798586143183
 30
0.0
  0
VERTEX
  8
DETAIL
  6
CONTINUOUS
 62
     5
 10
274.37855822167637
 20
1585.8617250574462
 30
0.0
  0
VERTEX
  8
DETAIL
  6
CONTINUOUS
 62
     5
 10
273.3765833952566
 20
1587.463786550336
 30
0.0
  0
SEQEND
  8
DETAIL
  6
CONTINUOUS
 62
     5
  0
POLYLINE
  8
DETAIL
  6
CONTINUOUS
 62
     5
 66
     1
 10
0.0
 20
0.0
 30
0.0
  0
VERTEX
  8
DETAIL
  6
CONTINUOUS
 62
     5
 10
273.3765833952566
 20
1587.463786550336
 30
0.0
  0
VERTEX
  8
DETAIL
  6
CONTINUOUS
 62
     5
 10
273.27875318715104
 20
1587.6072491519562
 30
0.0
  0
VERTEX
  8
DETAIL
  6
CONTINUOUS
 62
     5
 10
273.16795906826411
 20
1587.7414209406381
 30
0.0
  0
VERTEX
  8
DETAIL
  6
CONTINUOUS
 62
     5
 10
273.04657754803844
 20
1587.8662078085381
 30
0.0
  0
VERTEX
  8
DETAIL
  6
CONTINUOUS
 62
     5
 10
272.91623174454674
 20
1587.9812855103955
 30
0.0
  0
VERTEX
  8
DETAIL
  6
CONTINUOUS
 62
     5
 10
272.77762331187392
 20
1588.0860483226234
 30
0.0
  0
VERTEX
  8
DETAIL
  6
CONTINUOUS
 62
     5
 10
272.63134877259222
 20
1588.1797633407919
 30
0.0
  0
VERTEX
  8
DETAIL
  6
CONTINUOUS
 62
     5
 10
272.47752070564803
 20
1588.2606106179073
 30
0.0
  0
VERTEX
  8
DETAIL
  6
CONTINUOUS
 62
     5
 10
272.31597808135245
 20
1588.3261462250705
 30
0.0
  0
VERTEX
  8
DETAIL
  6
CONTINUOUS
 62
     5
 10
272.14743774376774
 20
1588.372285163407
 30
0.0
  0
VERTEX
  8
DETAIL
  6
CONTINUOUS
 62
     5
 10
271.97482520925411
 20
1588.3908467386359
 30
0.0
  0
SEQEND
  8
DETAIL
  6
CONTINUOUS
 62
     5
  0
POLYLINE
  8
DETAIL
  6
CONTINUOUS
 62
     5
 66
     1
 10
0.0
 20
0.0
 30
0.0
  0
VERTEX
  8
DETAIL
  6
CONTINUOUS
 62
     5
 10
213.9265495228538
 20
1588.5659164091369
 30
0.0
  0
VERTEX
  8
DETAIL
  6
CONTINUOUS
 62
     5
 10
213.74906398315107
 20
1588.5782627859155
 30
0.0
  0
VERTEX
  8
DETAIL
  6
CONTINUOUS
 62
     5
 10
213.57413067731835
 20
1588.6146430394283
 30
0.0
  0
VERTEX
  8
DETAIL
  6
CONTINUOUS
 62
     5
 10
213.40463816451245
 20
1588.6709355722805
 30
0.0
  0
VERTEX
  8
DETAIL
  6
CONTINUOUS
 62
     5
 10
213.24235752364109
 20
1588.7444961552394
 30
0.0
  0
VERTEX
  8
DETAIL
  6
CONTINUOUS
 62
     5
 10
213.08824860675429
 20
1588.8337530451133
 30
0.0
  0
VERTEX
  8
DETAIL
  6
CONTINUOUS
 62
     5
 10
212.94340885361297
 20
1588.9373904640991
 30
0.0
  0
VERTEX
  8
DETAIL
  6
CONTINUOUS
 62
     5
 10
212.80953367035053
 20
1589.054982514951
 30
0.0
  0
VERTEX
  8
DETAIL
  6
CONTINUOUS
 62
     5
 10
212.68849347298232
 20
1589.1863076483439
 30
0.0
  0
VERTEX
  8
DETAIL
  6
CONTINUOUS
 62
     5
 10
212.58339053043011
 20
1589.3307895025928
 30
0.0
  0
VERTEX
  8
DETAIL
  6
CONTINUOUS
 62
     5
 10
212.49892968765201
 20
1589.4873901237361
 30
0.0
  0
SEQEND
  8
DETAIL
  6
CONTINUOUS
 62
     5
  0
POLYLINE
  8
DETAIL
  6
CONTINUOUS
 62
     5
 66
     1
 10
0.0
 20
0.0
 30
0.0
  0
VERTEX
  8
DETAIL
  6
CONTINUOUS
 62
     5
 10
212.49892968765201
 20
1589.4873901237361
 30
0.0
  0
VERTEX
  8
DETAIL
  6
CONTINUOUS
 62
     5
 10
212.07747902073785
 20
1590.4449260147319
 30
0.0
  0
VERTEX
  8
DETAIL
  6
CONTINUOUS
 62
     5
 10
211.66675290268842
 20
1591.4071581952501
 30
0.0
  0
VERTEX
  8
DETAIL
  6
CONTINUOUS
 62
     5
 10
211.26660243600895
 20
1592.3739303820146
 30
0.0
  0
VERTEX
  8
DETAIL
  6
CONTINUOUS
 62
     5
 10
210.87690529773741
 20
1593.3450390524893
 30
0.0
  0
VERTEX
  8
DETAIL
  6
CONTINUOUS
 62
     5
 10
210.49754516137011
 20
1594.3202700247518
 30
0.0
  0
VERTEX
  8
DETAIL
  6
CONTINUOUS
 62
     5
 10
210.12840570040322
 20
1595.2994091168789
 30
0.0
  0
VERTEX
  8
DETAIL
  6
CONTINUOUS
 62
     5
 10
209.7693705883332
 20
1596.2822421469484
 30
0.0
  0
VERTEX
  8
DETAIL
  6
CONTINUOUS
 62
     5
 10
209.42032349865619
 20
1597.268554933037
 30
0.0
  0
SEQEND
  8
DETAIL
  6
CONTINUOUS
 62
     5
  0
POLYLINE
  8
DETAIL
  6
CONTINUOUS
 62
     5
 66
     1
 10
0.0
 20
0.0
 30
0.0
  0
VERTEX
  8
DETAIL
  6
CONTINUOUS
 62
     5
 10
209.42032349865619
 20
1597.268554933037
 30
0.0
  0
VERTEX
  8
DETAIL
  6
CONTINUOUS
 62
     5
 10
209.34789762146858
 20
1597.4378340905319
 30
0.0
  0
VERTEX
  8
DETAIL
  6
CONTINUOUS
 62
     5
 10
209.25380930486972
 20
1597.5971417203123
 30
0.0
  0
VERTEX
  8
DETAIL
  6
CONTINUOUS
 62
     5
 10
209.14134509116946
 20
1597.7448115290429
 30
0.0
  0
VERTEX
  8
DETAIL
  6
CONTINUOUS
 62
     5
 10
209.01356958070318
 20
1597.8791771340943
 30
0.0
  0
VERTEX
  8
DETAIL
  6
CONTINUOUS
 62
     5
 10
208.87234230203148
 20
1597.9985716679987
 30
0.0
  0
VERTEX
  8
DETAIL
  6
CONTINUOUS
 62
     5
 10
208.71911572053472
 20
1598.101328099513
 30
0.0
  0
VERTEX
  8
DETAIL
  6
CONTINUOUS
 62
     5
 10
208.55533896732865
 20
1598.1856972553599
 30
0.0
  0
VERTEX
  8
DETAIL
  6
CONTINUOUS
 62
     5
 10
208.38242130191222
 20
1598.2488422885092
 30
0.0
  0
VERTEX
  8
DETAIL
  6
CONTINUOUS
 62
     5
 10
208.20220038003964
 20
1598.2868134590738
 30
0.0
  0
VERTEX
  8
DETAIL
  6
CONTINUOUS
 62
     5
 10
208.01817921446772
 20
1598.294431166504
 30
0.0
  0
VERTEX
  8
DETAIL
  6
CONTINUOUS
 62
     5
 10
207.83621241337261
 20
1598.2653483914428
 30
0.0
  0
VERTEX
  8
DETAIL
  6
CONTINUOUS
 62
     5
 10
207.66643047105751
 20
1598.1940969218369
 30
0.0
  0
SEQEND
  8
DETAIL
  6
CONTINUOUS
 62
     5
  0
POLYLINE
  8
DETAIL
  6
CONTINUOUS
 62
     5
 66
     1
 10
0.0
 20
0.0
 30
0.0
  0
VERTEX
  8
DETAIL
  6
CONTINUOUS
 62
     5
 10
207.66643047105751
 20
1598.1940969218369
 30
0.0
  0
VERTEX
  8
DETAIL
  6
CONTINUOUS
 62
     5
 10
204.13071805131608
 20
1596.1193625994313
 30
0.0
  0
VERTEX
  8
DETAIL
  6
CONTINUOUS
 62
     5
 10
200.59316539003908
 20
1594.0477689286629
 30
0.0
  0
VERTEX
  8
DETAIL
  6
CONTINUOUS
 62
     5
 10
197.0530059278062
 20
1591.9806257789603
 30
0.0
  0
VERTEX
  8
DETAIL
  6
CONTINUOUS
 62
     5
 10
193.50947310519746
 20
1589.9192430197518
 30
0.0
  0
VERTEX
  8
DETAIL
  6
CONTINUOUS
 62
     5
 10
189.96176217640681
 20
1587.8650155729538
 30
0.0
  0
VERTEX
  8
DETAIL
  6
CONTINUOUS
 62
     5
 10
186.40890295365162
 20
1585.8197068491838
 30
0.0
  0
VERTEX
  8
DETAIL
  6
CONTINUOUS
 62
     5
 10
182.84988045507879
 20
1583.7851800288347
 30
0.0
  0
VERTEX
  8
DETAIL
  6
CONTINUOUS
 62
     5
 10
179.28367969805549
 20
1581.763298294037
 30
0.0
  0
SEQEND
  8
DETAIL
  6
CONTINUOUS
 62
     5
  0
POLYLINE
  8
DETAIL
  6
CONTINUOUS
 62
     5
 66
     1
 10
0.0
 20
0.0
 30
0.0
  0
VERTEX
  8
DETAIL
  6
CONTINUOUS
 62
     5
 10
179.28367969805549
 20
1581.763298294037
 30
0.0
  0
VERTEX
  8
DETAIL
  6
CONTINUOUS
 62
     5
 10
179.25373028493712
 20
1581.74537855522
 30
0.0
  0
VERTEX
  8
DETAIL
  6
CONTINUOUS
 62
     5
 10
179.22474931152149
 20
1581.7258438661308
 30
0.0
  0
VERTEX
  8
DETAIL
  6
CONTINUOUS
 62
     5
 10
179.19683190642127
 20
1581.7045732270969
 30
0.0
  0
VERTEX
  8
DETAIL
  6
CONTINUOUS
 62
     5
 10
179.17016302287644
 20
1581.6815946494908
 30
0.0
  0
VERTEX
  8
DETAIL
  6
CONTINUOUS
 62
     5
 10
179.1449586777189
 20
1581.6569876764133
 30
0.0
  0
VERTEX
  8
DETAIL
  6
CONTINUOUS
 62
     5
 10
179.12143491761714
 20
1581.6308319004638
 30
0.0
  0
VERTEX
  8
DETAIL
  6
CONTINUOUS
 62
     5
 10
179.09980778923969
 20
1581.6032069142389
 30
0.0
  0
VERTEX
  8
DETAIL
  6
CONTINUOUS
 62
     5
 10
179.08029333925509
 20
1581.5741923103369
 30
0.0
  0
SEQEND
  8
DETAIL
  6
CONTINUOUS
 62
     5
  0
POLYLINE
  8
DETAIL
  6
CONTINUOUS
 62
     5
 66
     1
 10
0.0
 20
0.0
 30
0.0
  0
VERTEX
  8
DETAIL
  6
CONTINUOUS
 62
     5
 10
226.063012203158
 20
1568.848496093636
 30
0.0
  0
VERTEX
  8
DETAIL
  6
CONTINUOUS
 62
     5
 10
225.46078392221582
 20
1569.4724477365453
 30
0.0
  0
VERTEX
  8
DETAIL
  6
CONTINUOUS
 62
     5
 10
224.86864589314996
 20
1570.1060813235699
 30
0.0
  0
VERTEX
  8
DETAIL
  6
CONTINUOUS
 62
     5
 10
224.28649045828001
 20
1570.7490860033274
 30
0.0
  0
VERTEX
  8
DETAIL
  6
CONTINUOUS
 62
     5
 10
223.714255124461
 20
1571.4010887461509
 30
0.0
  0
VERTEX
  8
DETAIL
  6
CONTINUOUS
 62
     5
 10
223.15188730950615
 20
1572.0617028778961
 30
0.0
  0
VERTEX
  8
DETAIL
  6
CONTINUOUS
 62
     5
 10
222.59933443122861
 20
1572.7305417244211
 30
0.0
  0
VERTEX
  8
DETAIL
  6
CONTINUOUS
 62
     5
 10
222.05654390744149
 20
1573.4072186115825
 30
0.0
  0
VERTEX
  8
DETAIL
  6
CONTINUOUS
 62
     5
 10
221.5234631559579
 20
1574.091346865237
 30
0.0
  0
SEQEND
  8
DETAIL
  6
CONTINUOUS
 62
     5
  0
POLYLINE
  8
DETAIL
  6
CONTINUOUS
 62
     5
 66
     1
 10
0.0
 20
0.0
 30
0.0
  0
VERTEX
  8
DETAIL
  6
CONTINUOUS
 62
     5
 10
221.5234631559579
 20
1574.091346865237
 30
0.0
  0
VERTEX
  8
DETAIL
  6
CONTINUOUS
 62
     5
 10
221.48995374425627
 20
1574.1375229541243
 30
0.0
  0
VERTEX
  8
DETAIL
  6
CONTINUOUS
 62
     5
 10
221.45940150308425
 20
1574.1858423645269
 30
0.0
  0
VERTEX
  8
DETAIL
  6
CONTINUOUS
 62
     5
 10
221.43273216896009
 20
1574.2364401946315
 30
0.0
  0
VERTEX
  8
DETAIL
  6
CONTINUOUS
 62
     5
 10
221.41087147840193
 20
1574.2894515426224
 30
0.0
  0
VERTEX
  8
DETAIL
  6
CONTINUOUS
 62
     5
 10
221.39475848344583
 20
1574.3449625359251
 30
0.0
  0
VERTEX
  8
DETAIL
  6
CONTINUOUS
 62
     5
 10
221.38556208231074
 20
1574.4022139918336
 30
0.0
  0
VERTEX
  8
DETAIL
  6
CONTINUOUS
 62
     5
 10
221.38464519838755
 20
1574.459733157194
 30
0.0
  0
VERTEX
  8
DETAIL
  6
CONTINUOUS
 62
     5
 10
221.39337684185739
 20
1574.516024893336
 30
0.0
  0
SEQEND
  8
DETAIL
  6
CONTINUOUS
 62
     5
  0
POLYLINE
  8
DETAIL
  6
CONTINUOUS
 62
     5
 66
     1
 10
0.0
 20
0.0
 30
0.0
  0
VERTEX
  8
DETAIL
  6
CONTINUOUS
 62
     5
 10
179.95375108335429
 20
1580.0730310949359
 30
0.0
  0
VERTEX
  8
DETAIL
  6
CONTINUOUS
 62
     5
 10
185.55993308964935
 20
1578.4947705609552
 30
0.0
  0
VERTEX
  8
DETAIL
  6
CONTINUOUS
 62
     5
 10
191.16989669668388
 20
1576.9299937836208
 30
0.0
  0
VERTEX
  8
DETAIL
  6
CONTINUOUS
 62
     5
 10
196.78479832392301
 20
1575.3829474491351
 30
0.0
  0
VERTEX
  8
DETAIL
  6
CONTINUOUS
 62
     5
 10
202.40579439083095
 20
1573.8578782437096
 30
0.0
  0
VERTEX
  8
DETAIL
  6
CONTINUOUS
 62
     5
 10
208.03402064886808
 20
1572.3592019118212
 30
0.0
  0
VERTEX
  8
DETAIL
  6
CONTINUOUS
 62
     5
 10
213.67053110372282
 20
1570.8920028546095
 30
0.0
  0
VERTEX
  8
DETAIL
  6
CONTINUOUS
 62
     5
 10
219.31635955361287
 20
1569.4615307644544
 30
0.0
  0
VERTEX
  8
DETAIL
  6
CONTINUOUS
 62
     5
 10
224.97253979675591
 20
1568.0730353337369
 30
0.0
  0
SEQEND
  8
DETAIL
  6
CONTINUOUS
 62
     5
  0
POLYLINE
  8
DETAIL
  6
CONTINUOUS
 62
     5
 66
     1
 10
0.0
 20
0.0
 30
0.0
  0
VERTEX
  8
DETAIL
  6
CONTINUOUS
 62
     5
 10
224.9725397970542
 20
1568.0730353341371
 30
0.0
  0
VERTEX
  8
DETAIL
  6
CONTINUOUS
 62
     5
 10
225.08451533877309
 20
1568.0483658366295
 30
0.0
  0
VERTEX
  8
DETAIL
  6
CONTINUOUS
 62
     5
 10
225.19748782046977
 20
1568.0284585720201
 30
0.0
  0
VERTEX
  8
DETAIL
  6
CONTINUOUS
 62
     5
 10
225.3113008652256
 20
1568.0138291406461
 30
0.0
  0
VERTEX
  8
DETAIL
  6
CONTINUOUS
 62
     5
 10
225.42577606328416
 20
1568.0050363907617
 30
0.0
  0
VERTEX
  8
DETAIL
  6
CONTINUOUS
 62
     5
 10
225.54053884014886
 20
1568.0030242193354
 30
0.0
  0
VERTEX
  8
DETAIL
  6
CONTINUOUS
 62
     5
 10
225.65511172253477
 20
1568.0089385017711
 30
0.0
  0
VERTEX
  8
DETAIL
  6
CONTINUOUS
 62
     5
 10
225.7687803872625
 20
1568.0245792576641
 30
0.0
  0
VERTEX
  8
DETAIL
  6
CONTINUOUS
 62
     5
 10
225.8794925273917
 20
1568.0554459355403
 30
0.0
  0
VERTEX
  8
DETAIL
  6
CONTINUOUS
 62
     5
 10
225.98370448746678
 20
1568.1083096734096
 30
0.0
  0
VERTEX
  8
DETAIL
  6
CONTINUOUS
 62
     5
 10
226.0645043220575
 20
1568.189539785436
 30
0.0
  0
SEQEND
  8
DETAIL
  6
CONTINUOUS
 62
     5
  0
POLYLINE
  8
DETAIL
  6
CONTINUOUS
 62
     5
 66
     1
 10
0.0
 20
0.0
 30
0.0
  0
VERTEX
  8
DETAIL
  6
CONTINUOUS
 62
     5
 10
221.84629218575719
 20
1574.6037493016361
 30
0.0
  0
VERTEX
  8
DETAIL
  6
CONTINUOUS
 62
     5
 10
224.23815680805606
 20
1574.6205871767622
 30
0.0
  0
VERTEX
  8
DETAIL
  6
CONTINUOUS
 62
     5
 10
226.63002497939596
 20
1574.6369195245218
 30
0.0
  0
VERTEX
  8
DETAIL
  6
CONTINUOUS
 62
     5
 10
229.0218966549721
 20
1574.6527457473564
 30
0.0
  0
VERTEX
  8
DETAIL
  6
CONTINUOUS
 62
     5
 10
231.4137717335189
 20
1574.6680604183048
 30
0.0
  0
VERTEX
  8
DETAIL
  6
CONTINUOUS
 62
     5
 10
233.80565009830352
 20
1574.6828567874193
 30
0.0
  0
VERTEX
  8
DETAIL
  6
CONTINUOUS
 62
     5
 10
236.1975316325927
 20
1574.6971281047174
 30
0.0
  0
VERTEX
  8
DETAIL
  6
CONTINUOUS
 62
     5
 10
238.58941621965329
 20
1574.7108676202165
 30
0.0
  0
VERTEX
  8
DETAIL
  6
CONTINUOUS
 62
     5
 10
240.98130374275209
 20
1574.7240685839361
 30
0.0
  0
SEQEND
  8
DETAIL
  6
CONTINUOUS
 62
     5
  0
POLYLINE
  8
DETAIL
  6
CONTINUOUS
 62
     5
 66
     1
 10
0.0
 20
0.0
 30
0.0
  0
VERTEX
  8
DETAIL
  6
CONTINUOUS
 62
     5
 10
282.0151286798573
 20
1574.3597439952359
 30
0.0
  0
VERTEX
  8
DETAIL
  6
CONTINUOUS
 62
     5
 10
282.06748191680407
 20
1574.3602955252732
 30
0.0
  0
VERTEX
  8
DETAIL
  6
CONTINUOUS
 62
     5
 10
282.11980622552176
 20
1574.363922134984
 30
0.0
  0
VERTEX
  8
DETAIL
  6
CONTINUOUS
 62
     5
 10
282.17169050373144
 20
1574.3716730449325
 30
0.0
  0
VERTEX
  8
DETAIL
  6
CONTINUOUS
 62
     5
 10
282.22272364915409
 20
1574.3845974756819
 30
0.0
  0
VERTEX
  8
DETAIL
  6
CONTINUOUS
 62
     5
 10
282.27246539529
 20
1574.4037351975373
 30
0.0
  0
VERTEX
  8
DETAIL
  6
CONTINUOUS
 62
     5
 10
282.3194142637085
 20
1574.4297821098453
 30
0.0
  0
VERTEX
  8
DETAIL
  6
CONTINUOUS
 62
     5
 10
282.36073078429882
 20
1574.4630005543718
 30
0.0
  0
VERTEX
  8
DETAIL
  6
CONTINUOUS
 62
     5
 10
282.39349003305688
 20
1574.5036251827371
 30
0.0
  0
SEQEND
  8
DETAIL
  6
CONTINUOUS
 62
     5
  0
POLYLINE
  8
DETAIL
  6
CONTINUOUS
 62
     5
 66
     1
 10
0.0
 20
0.0
 30
0.0
  0
VERTEX
  8
DETAIL
  6
CONTINUOUS
 62
     5
 10
221.42957134005701
 20
1574.601154087137
 30
0.0
  0
VERTEX
  8
DETAIL
  6
CONTINUOUS
 62
     5
 10
221.47161860067098
 20
1574.6550736861566
 30
0.0
  0
VERTEX
  8
DETAIL
  6
CONTINUOUS
 62
     5
 10
221.5233168663556
 20
1574.7002623602798
 30
0.0
  0
VERTEX
  8
DETAIL
  6
CONTINUOUS
 62
     5
 10
221.58142395947036
 20
1574.7364764994718
 30
0.0
  0
VERTEX
  8
DETAIL
  6
CONTINUOUS
 62
     5
 10
221.64405891635079
 20
1574.7646849347284
 30
0.0
  0
VERTEX
  8
DETAIL
  6
CONTINUOUS
 62
     5
 10
221.70954028500648
 20
1574.7860342032277
 30
0.0
  0
VERTEX
  8
DETAIL
  6
CONTINUOUS
 62
     5
 10
221.77638907599444
 20
1574.8015926569765
 30
0.0
  0
VERTEX
  8
DETAIL
  6
CONTINUOUS
 62
     5
 10
221.84403454849647
 20
1574.8120779086687
 30
0.0
  0
VERTEX
  8
DETAIL
  6
CONTINUOUS
 62
     5
 10
221.91216054074681
 20
1574.8181092599411
 30
0.0
  0
VERTEX
  8
DETAIL
  6
CONTINUOUS
 62
     5
 10
221.98045090365491
 20
1574.8203060075359
 30
0.0
  0
SEQEND
  8
DETAIL
  6
CONTINUOUS
 62
     5
  0
POLYLINE
  8
DETAIL
  6
CONTINUOUS
 62
     5
 66
     1
 10
0.0
 20
0.0
 30
0.0
  0
VERTEX
  8
DETAIL
  6
CONTINUOUS
 62
     5
 10
221.38731493675729
 20
1574.482264903937
 30
0.0
  0
VERTEX
  8
DETAIL
  6
CONTINUOUS
 62
     5
 10
221.40735674160317
 20
1574.4962025010173
 30
0.0
  0
VERTEX
  8
DETAIL
  6
CONTINUOUS
 62
     5
 10
221.42812738807189
 20
1574.509057879636
 30
0.0
  0
VERTEX
  8
DETAIL
  6
CONTINUOUS
 62
     5
 10
221.44952702741094
 20
1574.5208773507845
 30
0.0
  0
VERTEX
  8
DETAIL
  6
CONTINUOUS
 62
     5
 10
221.47147284566609
 20
1574.531704598071
 30
0.0
  0
VERTEX
  8
DETAIL
  6
CONTINUOUS
 62
     5
 10
221.49388482971767
 20
1574.541582873112
 30
0.0
  0
VERTEX
  8
DETAIL
  6
CONTINUOUS
 62
     5
 10
221.51668296644618
 20
1574.5505554275251
 30
0.0
  0
VERTEX
  8
DETAIL
  6
CONTINUOUS
 62
     5
 10
221.53978724273196
 20
1574.5586655129277
 30
0.0
  0
VERTEX
  8
DETAIL
  6
CONTINUOUS
 62
     5
 10
221.56311764545541
 20
1574.565956380937
 30
0.0
  0
SEQEND
  8
DETAIL
  6
CONTINUOUS
 62
     5
  0
POLYLINE
  8
DETAIL
  6
CONTINUOUS
 62
     5
 66
     1
 10
0.0
 20
0.0
 30
0.0
  0
VERTEX
  8
DETAIL
  6
CONTINUOUS
 62
     5
 10
221.56311764545541
 20
1574.565956380937
 30
0.0
  0
VERTEX
  8
DETAIL
  6
CONTINUOUS
 62
     5
 10
221.59766369975185
 20
1574.5752662541422
 30
0.0
  0
VERTEX
  8
DETAIL
  6
CONTINUOUS
 62
     5
 10
221.63259567620489
 20
1574.5830739494429
 30
0.0
  0
VERTEX
  8
DETAIL
  6
CONTINUOUS
 62
     5
 10
221.66782625230877
 20
1574.5895017127777
 30
0.0
  0
VERTEX
  8
DETAIL
  6
CONTINUOUS
 62
     5
 10
221.70329142754659
 20
1574.5946332620333
 30
0.0
  0
VERTEX
  8
DETAIL
  6
CONTINUOUS
 62
     5
 10
221.73893090521446
 20
1574.5985461963787
 30
0.0
  0
VERTEX
  8
DETAIL
  6
CONTINUOUS
 62
     5
 10
221.77468438860814
 20
1574.6013181149817
 30
0.0
  0
VERTEX
  8
DETAIL
  6
CONTINUOUS
 62
     5
 10
221.81049158102371
 20
1574.6030266170112
 30
0.0
  0
VERTEX
  8
DETAIL
  6
CONTINUOUS
 62
     5
 10
221.84629218575719
 20
1574.6037493016361
 30
0.0
  0
SEQEND
  8
DETAIL
  6
CONTINUOUS
 62
     5
  0
POLYLINE
  8
DETAIL
  6
CONTINUOUS
 62
     5
 66
     1
 10
0.0
 20
0.0
 30
0.0
  0
VERTEX
  8
DETAIL
  6
CONTINUOUS
 62
     5
 10
179.08029333925509
 20
1581.5741923103369
 30
0.0
  0
VERTEX
  8
DETAIL
  6
CONTINUOUS
 62
     5
 10
179.02185665862137
 20
1581.4318816836837
 30
0.0
  0
VERTEX
  8
DETAIL
  6
CONTINUOUS
 62
     5
 10
179.01120876157199
 20
1581.2783859264175
 30
0.0
  0
VERTEX
  8
DETAIL
  6
CONTINUOUS
 62
     5
 10
179.04243253102854
 20
1581.1277298299799
 30
0.0
  0
VERTEX
  8
DETAIL
  6
CONTINUOUS
 62
     5
 10
179.10516664876059
 20
1580.9871873024661
 30
0.0
  0
VERTEX
  8
DETAIL
  6
CONTINUOUS
 62
     5
 10
179.19039917623579
 20
1580.8591054842223
 30
0.0
  0
VERTEX
  8
DETAIL
  6
CONTINUOUS
 62
     5
 10
179.29183322414951
 20
1580.7433789399013
 30
0.0
  0
VERTEX
  8
DETAIL
  6
CONTINUOUS
 62
     5
 10
179.40599073377049
 20
1580.6396170055621
 30
0.0
  0
VERTEX
  8
DETAIL
  6
CONTINUOUS
 62
     5
 10
179.53022228762978
 20
1580.5473921676198
 30
0.0
  0
VERTEX
  8
DETAIL
  6
CONTINUOUS
 62
     5
 10
179.66193865066487
 20
1580.4662975716503
 30
0.0
  0
VERTEX
  8
DETAIL
  6
CONTINUOUS
 62
     5
 10
179.79946214723398
 20
1580.3962408163018
 30
0.0
  0
VERTEX
  8
DETAIL
  6
CONTINUOUS
 62
     5
 10
179.9418245479759
 20
1580.3373742320055
 30
0.0
  0
VERTEX
  8
DETAIL
  6
CONTINUOUS
 62
     5
 10
180.0880763248569
 20
1580.289856600436
 30
0.0
  0
SEQEND
  8
DETAIL
  6
CONTINUOUS
 62
     5
  0
POLYLINE
  8
DETAIL
  6
CONTINUOUS
 62
     5
 66
     1
 10
0.0
 20
0.0
 30
0.0
  0
VERTEX
  8
DETAIL
  6
CONTINUOUS
 62
     5
 10
178.94596828245261
 20
1581.3573671037359
 30
0.0
  0
VERTEX
  8
DETAIL
  6
CONTINUOUS
 62
     5
 10
178.88752869581648
 20
1581.2150558056371
 30
0.0
  0
VERTEX
  8
DETAIL
  6
CONTINUOUS
 62
     5
 10
178.87687532675432
 20
1581.0615587090581
 30
0.0
  0
VERTEX
  8
DETAIL
  6
CONTINUOUS
 62
     5
 10
178.90809406897023
 20
1580.9108998414272
 30
0.0
  0
VERTEX
  8
DETAIL
  6
CONTINUOUS
 62
     5
 10
178.9708250391636
 20
1580.7703540350392
 30
0.0
  0
VERTEX
  8
DETAIL
  6
CONTINUOUS
 62
     5
 10
179.05605630911504
 20
1580.6422693435306
 30
0.0
  0
VERTEX
  8
DETAIL
  6
CONTINUOUS
 62
     5
 10
179.15749063087011
 20
1580.5265407528543
 30
0.0
  0
VERTEX
  8
DETAIL
  6
CONTINUOUS
 62
     5
 10
179.27164956037367
 20
1580.4227777860535
 30
0.0
  0
VERTEX
  8
DETAIL
  6
CONTINUOUS
 62
     5
 10
179.39588344796809
 20
1580.3305530610853
 30
0.0
  0
VERTEX
  8
DETAIL
  6
CONTINUOUS
 62
     5
 10
179.52760281756045
 20
1580.2494598478445
 30
0.0
  0
VERTEX
  8
DETAIL
  6
CONTINUOUS
 62
     5
 10
179.66512972880005
 20
1580.1794058023036
 30
0.0
  0
VERTEX
  8
DETAIL
  6
CONTINUOUS
 62
     5
 10
179.8074957319273
 20
1580.1205432817148
 30
0.0
  0
VERTEX
  8
DETAIL
  6
CONTINUOUS
 62
     5
 10
179.95375108335429
 20
1580.0730310950371
 30
0.0
  0
SEQEND
  8
DETAIL
  6
CONTINUOUS
 62
     5
  0
POLYLINE
  8
DETAIL
  6
CONTINUOUS
 62
     5
 66
     1
 10
0.0
 20
0.0
 30
0.0
  0
VERTEX
  8
DETAIL
  6
CONTINUOUS
 62
     5
 10
282.14923914665269
 20
1574.576222815037
 30
0.0
  0
VERTEX
  8
DETAIL
  6
CONTINUOUS
 62
     5
 10
282.2015850735765
 20
1574.5767750312523
 30
0.0
  0
VERTEX
  8
DETAIL
  6
CONTINUOUS
 62
     5
 10
282.25390188400951
 20
1574.5803997681178
 30
0.0
  0
VERTEX
  8
DETAIL
  6
CONTINUOUS
 62
     5
 10
282.30577926422291
 20
1574.5881461585323
 30
0.0
  0
VERTEX
  8
DETAIL
  6
CONTINUOUS
 62
     5
 10
282.35680690048792
 20
1574.6010633353924
 30
0.0
  0
VERTEX
  8
DETAIL
  6
CONTINUOUS
 62
     5
 10
282.40654538703649
 20
1574.6201910430582
 30
0.0
  0
VERTEX
  8
DETAIL
  6
CONTINUOUS
 62
     5
 10
282.45349361006964
 20
1574.6462263930919
 30
0.0
  0
VERTEX
  8
DETAIL
  6
CONTINUOUS
 62
     5
 10
282.4948100329396
 20
1574.6794339178382
 30
0.0
  0
VERTEX
  8
DETAIL
  6
CONTINUOUS
 62
     5
 10
282.52756733275601
 20
1574.720050464836
 30
0.0
  0
SEQEND
  8
DETAIL
  6
CONTINUOUS
 62
     5
  0
POLYLINE
  8
DETAIL
  6
CONTINUOUS
 62
     5
 66
     1
 10
0.0
 20
0.0
 30
0.0
  0
VERTEX
  8
DETAIL
  6
CONTINUOUS
 62
     5
 10
180.0880763248569
 20
1580.289856600436
 30
0.0
  0
VERTEX
  8
DETAIL
  6
CONTINUOUS
 62
     5
 10
185.69444825274275
 20
1578.7113898624309
 30
0.0
  0
VERTEX
  8
DETAIL
  6
CONTINUOUS
 62
     5
 10
191.30466556220668
 20
1577.1466330076169
 30
0.0
  0
VERTEX
  8
DETAIL
  6
CONTINUOUS
 62
     5
 10
196.91988674163014
 20
1575.5998452432866
 30
0.0
  0
VERTEX
  8
DETAIL
  6
CONTINUOUS
 62
     5
 10
202.54127027939319
 20
1574.0752857767434
 30
0.0
  0
VERTEX
  8
DETAIL
  6
CONTINUOUS
 62
     5
 10
208.1699534532053
 20
1572.5773842066021
 30
0.0
  0
VERTEX
  8
DETAIL
  6
CONTINUOUS
 62
     5
 10
213.80698965738097
 20
1571.1112439904955
 30
0.0
  0
VERTEX
  8
DETAIL
  6
CONTINUOUS
 62
     5
 10
219.45341155250276
 20
1569.6821351459866
 30
0.0
  0
VERTEX
  8
DETAIL
  6
CONTINUOUS
 62
     5
 10
225.11025179915299
 20
1568.295327690636
 30
0.0
  0
SEQEND
  8
DETAIL
  6
CONTINUOUS
 62
     5
  0
POLYLINE
  8
DETAIL
  6
CONTINUOUS
 62
     5
 66
     1
 10
0.0
 20
0.0
 30
0.0
  0
VERTEX
  8
DETAIL
  6
CONTINUOUS
 62
     5
 10
225.11025179915299
 20
1568.295327690636
 30
0.0
  0
VERTEX
  8
DETAIL
  6
CONTINUOUS
 62
     5
 10
225.22221358220872
 20
1568.2706964168651
 30
0.0
  0
VERTEX
  8
DETAIL
  6
CONTINUOUS
 62
     5
 10
225.33516893581506
 20
1568.2508179478546
 30
0.0
  0
VERTEX
  8
DETAIL
  6
CONTINUOUS
 62
     5
 10
225.44896244588813
 20
1568.2362070639917
 30
0.0
  0
VERTEX
  8
DETAIL
  6
CONTINUOUS
 62
     5
 10
225.56341671358535
 20
1568.227421536378
 30
0.0
  0
VERTEX
  8
DETAIL
  6
CONTINUOUS
 62
     5
 10
225.67815804345781
 20
1568.2254029898177
 30
0.0
  0
VERTEX
  8
DETAIL
  6
CONTINUOUS
 62
     5
 10
225.79270953184465
 20
1568.2312948705076
 30
0.0
  0
VERTEX
  8
DETAIL
  6
CONTINUOUS
 62
     5
 10
225.90635964384913
 20
1568.2468926570964
 30
0.0
  0
VERTEX
  8
DETAIL
  6
CONTINUOUS
 62
     5
 10
226.01706560049803
 20
1568.2776956213941
 30
0.0
  0
VERTEX
  8
DETAIL
  6
CONTINUOUS
 62
     5
 10
226.12129573303434
 20
1568.3304840378476
 30
0.0
  0
VERTEX
  8
DETAIL
  6
CONTINUOUS
 62
     5
 10
226.20211245425159
 20
1568.4116644802371
 30
0.0
  0
SEQEND
  8
DETAIL
  6
CONTINUOUS
 62
     5
  0
POLYLINE
  8
DETAIL
  6
CONTINUOUS
 62
     5
 66
     1
 10
0.0
 20
0.0
 30
0.0
  0
VERTEX
  8
DETAIL
  6
CONTINUOUS
 62
     5
 10
221.98045090365491
 20
1574.8203060075359
 30
0.0
  0
VERTEX
  8
DETAIL
  6
CONTINUOUS
 62
     5
 10
224.37148896080311
 20
1574.8370735176125
 30
0.0
  0
VERTEX
  8
DETAIL
  6
CONTINUOUS
 62
     5
 10
226.76253051496479
 20
1574.8533409752699
 30
0.0
  0
VERTEX
  8
DETAIL
  6
CONTINUOUS
 62
     5
 10
229.1535755219702
 20
1574.8691078521636
 30
0.0
  0
VERTEX
  8
DETAIL
  6
CONTINUOUS
 62
     5
 10
231.54462388280203
 20
1574.8843688175027
 30
0.0
  0
VERTEX
  8
DETAIL
  6
CONTINUOUS
 62
     5
 10
233.93567548341866
 20
1574.8991172249659
 30
0.0
  0
VERTEX
  8
DETAIL
  6
CONTINUOUS
 62
     5
 10
236.32673020977813
 20
1574.9133464281974
 30
0.0
  0
VERTEX
  8
DETAIL
  6
CONTINUOUS
 62
     5
 10
238.71778794783827
 20
1574.9270497808398
 30
0.0
  0
VERTEX
  8
DETAIL
  6
CONTINUOUS
 62
     5
 10
241.10884858355709
 20
1574.9402206365371
 30
0.0
  0
SEQEND
  8
DETAIL
  6
CONTINUOUS
 62
     5
  0
POLYLINE
  8
DETAIL
  6
CONTINUOUS
 62
     5
 66
     1
 10
0.0
 20
0.0
 30
0.0
  0
VERTEX
  8
DETAIL
  6
CONTINUOUS
 62
     5
 10
149.50000000005821
 20
93.007179676935266
 30
0.0
  0
VERTEX
  8
DETAIL
  6
CONTINUOUS
 62
     5
 10
149.80198706987912
 20
93.014722560742783
 30
0.0
  0
VERTEX
  8
DETAIL
  6
CONTINUOUS
 62
     5
 10
150.10342876055458
 20
93.037747967401955
 30
0.0
  0
VERTEX
  8
DETAIL
  6
CONTINUOUS
 62
     5
 10
150.40348148015926
 20
93.076851029767823
 30
0.0
  0
VERTEX
  8
DETAIL
  6
CONTINUOUS
 62
     5
 10
150.70129965786995
 20
93.13262896666788
 30
0.0
  0
VERTEX
  8
DETAIL
  6
CONTINUOUS
 62
     5
 10
150.99548410488006
 20
93.206262570215699
 30
0.0
  0
VERTEX
  8
DETAIL
  6
CONTINUOUS
 62
     5
 10
151.28332701049615
 20
93.30031206165765
 30
0.0
  0
VERTEX
  8
DETAIL
  6
CONTINUOUS
 62
     5
 10
151.56193152983943
 20
93.417536924735145
 30
0.0
  0
VERTEX
  8
DETAIL
  6
CONTINUOUS
 62
     5
 10
151.82790740328016
 20
93.561036225936064
 30
0.0
  0
VERTEX
  8
DETAIL
  6
CONTINUOUS
 62
     5
 10
152.0739189960222
 20
93.736577834736039
 30
0.0
  0
VERTEX
  8
DETAIL
  6
CONTINUOUS
 62
     5
 10
152.28647341047372
 20
93.951400893932529
 30
0.0
  0
VERTEX
  8
DETAIL
  6
CONTINUOUS
 62
     5
 10
152.44097312241385
 20
94.211066779138022
 30
0.0
  0
VERTEX
  8
DETAIL
  6
CONTINUOUS
 62
     5
 10
152.50000000005821
 20
94.507179676935266
 30
0.0
  0
SEQEND
  8
DETAIL
  6
CONTINUOUS
 62
     5
  0
POLYLINE
  8
DETAIL
  6
CONTINUOUS
 62
     5
 66
     1
 10
0.0
 20
0.0
 30
0.0
  0
VERTEX
  8
DETAIL
  6
CONTINUOUS
 62
     5
 10
-229.49999999994179
 20
94.507179676935266
 30
0.0
  0
VERTEX
  8
DETAIL
  6
CONTINUOUS
 62
     5
 10
-229.44097312222797
 20
94.211066779138022
 30
0.0
  0
VERTEX
  8
DETAIL
  6
CONTINUOUS
 62
     5
 10
-229.28647341026283
 20
93.951400893932529
 30
0.0
  0
VERTEX
  8
DETAIL
  6
CONTINUOUS
 62
     5
 10
-229.07391899581128
 20
93.736577834736053
 30
0.0
  0
VERTEX
  8
DETAIL
  6
CONTINUOUS
 62
     5
 10
-228.82790740306916
 20
93.561036225936064
 30
0.0
  0
VERTEX
  8
DETAIL
  6
CONTINUOUS
 62
     5
 10
-228.56193152962848
 20
93.417536924735131
 30
0.0
  0
VERTEX
  8
DETAIL
  6
CONTINUOUS
 62
     5
 10
-228.28332701028521
 20
93.30031206165765
 30
0.0
  0
VERTEX
  8
DETAIL
  6
CONTINUOUS
 62
     5
 10
-227.99548410466915
 20
93.206262570215713
 30
0.0
  0
VERTEX
  8
DETAIL
  6
CONTINUOUS
 62
     5
 10
-227.70129965765898
 20
93.132628966667895
 30
0.0
  0
VERTEX
  8
DETAIL
  6
CONTINUOUS
 62
     5
 10
-227.40348147994919
 20
93.076851029767838
 30
0.0
  0
VERTEX
  8
DETAIL
  6
CONTINUOUS
 62
     5
 10
-227.10342876035375
 20
93.037747967401941
 30
0.0
  0
VERTEX
  8
DETAIL
  6
CONTINUOUS
 62
     5
 10
-226.8019870697062
 20
93.014722560742783
 30
0.0
  0
VERTEX
  8
DETAIL
  6
CONTINUOUS
 62
     5
 10
-226.49999999994179
 20
93.007179676935266
 30
0.0
  0
SEQEND
  8
DETAIL
  6
CONTINUOUS
 62
     5
  0
POLYLINE
  8
DETAIL
  6
CONTINUOUS
 62
     5
 66
     1
 10
0.0
 20
0.0
 30
0.0
210
0.0
220
0.0
230
1.0
  0
VERTEX
  8
DETAIL
  6
CONTINUOUS
 62
     5
 10
-197.00555459704631
 20
696.39999999993745
 30
0.0
 42
0.1164179597020441
  0
VERTEX
  8
DETAIL
  6
CONTINUOUS
 62
     5
 10
-197.4528363157188
 20
696.29442719097733
 30
0.0
 42
0.0806076878196758
  0
VERTEX
  8
DETAIL
  6
CONTINUOUS
 62
     5
 10
-197.71276909043118
 20
696.10710678116072
 30
0.0
 42
0.0806154534022203
  0
VERTEX
  8
DETAIL
  6
CONTINUOUS
 62
     5
 10
-197.90011803439131
 20
695.84721359545756
 30
0.0
 42
0.1164496846417489
  0
VERTEX
  8
DETAIL
  6
CONTINUOUS
 62
     5
 10
-198.00570692504633
 20
695.39999999993779
 30
0.0
 42
0.1164496846417489
  0
SEQEND
  8
DETAIL
  6
CONTINUOUS
 62
     5
  0
POLYLINE
  8
DETAIL
  6
CONTINUOUS
 62
     5
 66
     1
 10
0.0
 20
0.0
 30
0.0
210
0.0
220
0.0
230
1.0
  0
VERTEX
  8
DETAIL
  6
CONTINUOUS
 62
     5
 10
-198.49999999994179
 20
685.49999999993634
 30
0.0
 42
0.0319522183045663
  0
VERTEX
  8
DETAIL
  6
CONTINUOUS
 62
     5
 10
-198.50780614227577
 20
685.39442719097622
 30
0.0
 42
0.0040634238667855
  0
VERTEX
  8
DETAIL
  6
CONTINUOUS
 62
     5
 10
-198.51234259469928
 20
685.20710678115938
 30
0.0
 42
0.0021305956403807
  0
VERTEX
  8
DETAIL
  6
CONTINUOUS
 62
     5
 10
-198.51561228460972
 20
684.94721359545622
 30
0.0
 42
0.0021439871142308
  0
VERTEX
  8
DETAIL
  6
CONTINUOUS
 62
     5
 10
-198.51625359936253
 20
684.86459016796414
 30
0.0
 42
0.0016909401962015
  0
SEQEND
  8
DETAIL
  6
CONTINUOUS
 62
     5
  0
POLYLINE
  8
DETAIL
  6
CONTINUOUS
 62
     5
 66
     1
 10
0.0
 20
0.0
 30
0.0
210
0.0
220
0.0
230
1.0
  0
VERTEX
  8
DETAIL
  6
CONTINUOUS
 62
     5
 10
-188.57601919003059
 20
701.40362889136657
 30
0.0
 42
0.0153224062306901
  0
VERTEX
  8
DETAIL
  6
CONTINUOUS
 62
     5
 10
-188.577011406282
 20
701.35082746506919
 30
0.0
 42
0.0020317988716358
  0
VERTEX
  8
DETAIL
  6
CONTINUOUS
 62
     5
 10
-188.57651005587587
 20
701.25714747050711
 30
0.0
 42
0.0010650165595497
  0
VERTEX
  8
DETAIL
  6
CONTINUOUS
 62
     5
 10
-188.57505868183679
 20
701.12718661480437
 30
0.0
 42
0.0010715985351637
  0
VERTEX
  8
DETAIL
  6
CONTINUOUS
 62
     5
 10
-188.57306630128494
 20
700.99047201865096
 30
0.0
 42
0.0003841577384017
  0
SEQEND
  8
DETAIL
  6
CONTINUOUS
 62
     5
  0
POLYLINE
  8
DETAIL
  6
CONTINUOUS
 62
     5
 66
     1
 10
0.0
 20
0.0
 30
0.0
210
0.0
220
0.0
230
1.0
  0
VERTEX
  8
DETAIL
  6
CONTINUOUS
 62
     5
 10
-198.02316198994231
 20
685.49999999993634
 30
0.0
 42
0.0319522183045663
  0
VERTEX
  8
DETAIL
  6
CONTINUOUS
 62
     5
 10
-198.01535584760833
 20
685.60557280889645
 30
0.0
 42
0.0040634238667855
  0
VERTEX
  8
DETAIL
  6
CONTINUOUS
 62
     5
 10
-198.01081939518482
 20
685.79289321871329
 30
0.0
 42
0.0021305956403807
  0
VERTEX
  8
DETAIL
  6
CONTINUOUS
 62
     5
 10
-198.00754970527439
 20
686.05278640441645
 30
0.0
 42
0.0021439871142308
  0
VERTEX
  8
DETAIL
  6
CONTINUOUS
 62
     5
 10
-198.00570692504232
 20
686.49999999993634
 30
0.0
 42
0.0021439871142308
  0
VERTEX
  8
DETAIL
  6
CONTINUOUS
 62
     5
 10
-198.00570692504232
 20
686.49999999993634
 30
0.0
 42
0.0021439871142308
  0
SEQEND
  8
DETAIL
  6
CONTINUOUS
 62
     5
  0
LINE
  8
DETAIL
  6
CONTINUOUS
 62
     5
 10
-365.49999999994179
 20
94.999999999936335
 30
0.0
 11
-363.95064030264621
 21
94.999999999936335
 31
0.0
  0
LINE
  8
DETAIL
  6
CONTINUOUS
 62
     5
 10
-364.49999999994179
 20
121.99999999993631
 30
0.0
 11
-364.49999999994179
 21
99.999999999936335
 31
0.0
  0
ARC
  8
DETAIL
  6
CONTINUOUS
 62
     5
 10
-359.49999999994179
 20
99.999999999936335
 30
0.0
 40
5.0
 50
180.0
 51
270.0
  0
LINE
  8
DETAIL
  6
CONTINUOUS
 62
     5
 10
-319.160336152112
 20
121.99999999993631
 30
0.0
 11
-364.49999999994179
 21
121.99999999993631
 31
0.0
  0
LINE
  8
DETAIL
  6
CONTINUOUS
 62
     5
 10
-355.49999999994179
 20
92.699999999937049
 30
0.0
 11
-318.99999999994179
 21
92.699999999937049
 31
0.0
  0
LINE
  8
DETAIL
  6
CONTINUOUS
 62
     5
 10
-359.49999999994179
 20
94.999999999936335
 30
0.0
 11
-311.05805119076098
 21
94.999999999936335
 31
0.0
  0
LINE
  8
DETAIL
  6
CONTINUOUS
 62
     5
 10
-355.49999999994179
 20
94.999999999936335
 30
0.0
 11
-355.49999999994179
 21
92.699999999937049
 31
0.0
  0
LINE
  8
DETAIL
  6
CONTINUOUS
 62
     5
 10
-332.99999999994179
 20
92.699999999937049
 30
0.0
 11
-332.99999999994179
 21
90.699999999937063
 31
0.0
  0
LINE
  8
DETAIL
  6
CONTINUOUS
 62
     5
 10
-337.99999999994179
 20
92.699999999937049
 30
0.0
 11
-337.99999999994179
 21
90.699999999937063
 31
0.0
  0
ARC
  8
DETAIL
  6
CONTINUOUS
 62
     5
 10
-318.99999999994179
 20
91.499999999936335
 30
0.0
 40
1.1999999999999991
 50
0.0
 51
90.0
  0
LINE
  8
DETAIL
  6
CONTINUOUS
 62
     5
 10
-312.7999999999447
 20
89.999999999936335
 30
0.0
 11
-317.7999999999447
 21
89.999999999936335
 31
0.0
  0
LINE
  8
DETAIL
  6
CONTINUOUS
 62
     5
 10
-312.7999999999447
 20
89.999999999936335
 30
0.0
 11
-312.7999999999447
 21
94.999999999936335
 31
0.0
  0
ARC
  8
DETAIL
  6
CONTINUOUS
 62
     5
 10
-318.99999999994179
 20
91.499999999936335
 30
0.0
 40
3.5
 50
0.0
 51
90.0
  0
LINE
  8
DETAIL
  6
CONTINUOUS
 62
     5
 10
-315.49999999994179
 20
91.499999999936335
 30
0.0
 11
-315.49999999994179
 21
89.999999999936335
 31
0.0
  0
POLYLINE
  8
DETAIL
  6
CONTINUOUS
 62
     5
 66
     1
 10
0.0
 20
0.0
 30
0.0
  0
VERTEX
  8
DETAIL
  6
CONTINUOUS
 62
     5
 10
-365.49999999994179
 20
139.89414143385329
 30
0.0
  0
VERTEX
  8
DETAIL
  6
CONTINUOUS
 62
     5
 10
-359.3820046573486
 20
141.05023494328668
 30
0.0
  0
VERTEX
  8
DETAIL
  6
CONTINUOUS
 62
     5
 10
-353.37126303249187
 20
142.03544025551423
 30
0.0
  0
VERTEX
  8
DETAIL
  6
CONTINUOUS
 62
     5
 10
-347.57502884310844
 20
142.67886917332987
 30
0.0
  0
VERTEX
  8
DETAIL
  6
CONTINUOUS
 62
     5
 10
-344.79086882351186
 20
142.81901492270643
 30
0.0
  0
VERTEX
  8
DETAIL
  6
CONTINUOUS
 62
     5
 10
-342.10055580693472
 20
142.80963349952782
 30
0.0
  0
VERTEX
  8
DETAIL
  6
CONTINUOUS
 62
     5
 10
-339.51749650809421
 20
142.62936387914326
 30
0.0
  0
VERTEX
  8
DETAIL
  6
CONTINUOUS
 62
     5
 10
-337.05509764170733
 20
142.25684503690204
 30
0.0
  0
VERTEX
  8
DETAIL
  6
CONTINUOUS
 62
     5
 10
-334.72676592249132
 20
141.67071594815349
 30
0.0
  0
VERTEX
  8
DETAIL
  6
CONTINUOUS
 62
     5
 10
-332.54590806516302
 20
140.84961558824676
 30
0.0
  0
VERTEX
  8
DETAIL
  6
CONTINUOUS
 62
     5
 10
-330.52593078443959
 20
139.77218293253117
 30
0.0
  0
VERTEX
  8
DETAIL
  6
CONTINUOUS
 62
     5
 10
-328.68024079503812
 20
138.41705695635596
 30
0.0
  0
VERTEX
  8
DETAIL
  6
CONTINUOUS
 62
     5
 10
-327.02058212296384
 20
136.76548274075373
 30
0.0
  0
VERTEX
  8
DETAIL
  6
CONTINUOUS
 62
     5
 10
-325.53369238004962
 20
134.83790053156972
 30
0.0
  0
VERTEX
  8
DETAIL
  6
CONTINUOUS
 62
     5
 10
-324.18699368755244
 20
132.68502576050145
 30
0.0
  0
VERTEX
  8
DETAIL
  6
CONTINUOUS
 62
     5
 10
-322.94740750689414
 20
130.35835859569906
 30
0.0
  0
VERTEX
  8
DETAIL
  6
CONTINUOUS
 62
     5
 10
-320.65725852678162
 20
125.38964775749224
 30
0.0
  0
VERTEX
  8
DETAIL
  6
CONTINUOUS
 62
     5
 10
-316.10681690192979
 20
115.43569526731066
 30
0.0
  0
VERTEX
  8
DETAIL
  6
CONTINUOUS
 62
     5
 10
-313.99083848449061
 20
110.61076324980083
 30
0.0
  0
VERTEX
  8
DETAIL
  6
CONTINUOUS
 62
     5
 10
-313.07604543805297
 20
108.20061238429639
 30
0.0
  0
VERTEX
  8
DETAIL
  6
CONTINUOUS
 62
     5
 10
-312.29730595375122
 20
105.77721969040117
 30
0.0
  0
VERTEX
  8
DETAIL
  6
CONTINUOUS
 62
     5
 10
-311.68506212204636
 20
103.32949622519702
 30
0.0
  0
VERTEX
  8
DETAIL
  6
CONTINUOUS
 62
     5
 10
-311.26972448366911
 20
100.84636110138132
 30
0.0
  0
VERTEX
  8
DETAIL
  6
CONTINUOUS
 62
     5
 10
-311.06461707183769
 20
98.321096142123139
 30
0.0
  0
VERTEX
  8
DETAIL
  6
CONTINUOUS
 62
     5
 10
-311.03778674113642
 20
95.758543825757812
 30
0.0
  0
VERTEX
  8
DETAIL
  6
CONTINUOUS
 62
     5
 10
-311.36148555756245
 20
90.54851993618469
 30
0.0
  0
VERTEX
  8
DETAIL
  6
CONTINUOUS
 62
     5
 10
-311.92587740182404
 20
85.270175061619767
 30
0.0
  0
VERTEX
  8
DETAIL
  6
CONTINUOUS
 62
     5
 10
-312.41601874279752
 20
79.977394831020874
 30
0.0
  0
VERTEX
  8
DETAIL
  6
CONTINUOUS
 62
     5
 10
-312.53482562107519
 20
77.342430716258008
 30
0.0
  0
VERTEX
  8
DETAIL
  6
CONTINUOUS
 62
     5
 10
-312.51696604935955
 20
74.724064873345839
 30
0.0
  0
VERTEX
  8
DETAIL
  6
CONTINUOUS
 62
     5
 10
-312.32307208626014
 20
72.129033005904077
 30
0.0
  0
VERTEX
  8
DETAIL
  6
CONTINUOUS
 62
     5
 10
-311.91617201268582
 20
69.563709581747077
 30
0.0
  0
VERTEX
  8
DETAIL
  6
CONTINUOUS
 62
     5
 10
-310.63178662979772
 20
64.499999999936335
 30
0.0
  0
SEQEND
  8
DETAIL
  6
CONTINUOUS
 62
     5
  0
LINE
  8
DETAIL
  6
CONTINUOUS
 62
     5
 10
-325.1687313331422
 20
67.799999999935594
 30
0.0
 11
-363.9506403025444
 21
94.999999999936335
 31
0.0
  0
LINE
  8
DETAIL
  6
CONTINUOUS
 62
     5
 10
-337.49812993174419
 20
90.199999999937049
 30
0.0
 11
-333.50187006814667
 21
90.199999999937049
 31
0.0
  0
LINE
  8
DETAIL
  6
CONTINUOUS
 62
     5
 10
-337.99999999994179
 20
90.699999999937063
 30
0.0
 11
-332.99999999994179
 21
90.699999999937063
 31
0.0
  0
LINE
  8
DETAIL
  6
CONTINUOUS
 62
     5
 10
-332.99999999994179
 20
90.699999999937063
 30
0.0
 11
-333.49999999994179
 21
90.199999999937049
 31
0.0
  0
LINE
  8
DETAIL
  6
CONTINUOUS
 62
     5
 10
-317.7999999999447
 20
91.499999999936335
 30
0.0
 11
-317.7999999999447
 21
63.499999999936342
 31
0.0
  0
LINE
  8
DETAIL
  6
CONTINUOUS
 62
     5
 10
-337.99999999994179
 20
90.699999999937063
 30
0.0
 11
-337.49999999994179
 21
90.199999999937049
 31
0.0
  0
LINE
  8
DETAIL
  6
CONTINUOUS
 62
     5
 10
-300.7999999999447
 20
64.499999999936335
 30
0.0
 11
-317.7999999999447
 21
64.499999999936335
 31
0.0
  0
LINE
  8
NOTE
  6
CONTINUOUS
 62
     4
 10
-249.56083839463821
 20
1998.3943820263671
 30
0.0
 11
-199.56083839463821
 21
1948.498336671672
 31
0.0
  0
LINE
  8
NOTE
  6
CONTINUOUS
 62
     4
 10
-299.56083839464549
 20
1948.498336671672
 30
0.0
 11
-249.56083839463821
 21
1998.3943820263671
 31
0.0
  0
LINE
  8
NOTE
  6
CONTINUOUS
 62
     4
 10
-299.56083839464549
 20
1948.498336671672
 30
0.0
 11
-274.56083839463821
 21
1948.498336671672
 31
0.0
  0
LINE
  8
NOTE
  6
CONTINUOUS
 62
     4
 10
-224.56083839463821
 20
1948.498336671672
 30
0.0
 11
-199.56083839463821
 21
1948.498336671672
 31
0.0
  0
LINE
  8
NOTE
  6
CONTINUOUS
 62
     4
 10
-224.56083839463821
 20
1948.498336671672
 30
0.0
 11
-224.56083839463821
 21
1907.812249250173
 31
0.0
  0
LINE
  8
NOTE
  6
CONTINUOUS
 62
     4
 10
-274.56083839463821
 20
1948.498336671672
 30
0.0
 11
-274.56083839463821
 21
1907.812249250173
 31
0.0
  0
LINE
  8
NOTE
  6
CONTINUOUS
 62
     4
 10
-224.56083839463821
 20
1907.812249250173
 30
0.0
 11
-274.56083839463821
 21
1907.812249250173
 31
0.0
  0
LINE
  8
NOTE
  6
CONTINUOUS
 62
     4
 10
232.0909506933167
 20
1907.812249250173
 30
0.0
 11
282.0909506933167
 21
1907.812249250173
 31
0.0
  0
LINE
  8
NOTE
  6
CONTINUOUS
 62
     4
 10
282.0909506933167
 20
1948.498336671672
 30
0.0
 11
282.0909506933167
 21
1907.812249250173
 31
0.0
  0
LINE
  8
NOTE
  6
CONTINUOUS
 62
     4
 10
232.0909506933167
 20
1948.498336671672
 30
0.0
 11
232.0909506933167
 21
1907.812249250173
 31
0.0
  0
LINE
  8
NOTE
  6
CONTINUOUS
 62
     4
 10
232.0909506933167
 20
1948.498336671672
 30
0.0
 11
207.0909506933167
 21
1948.498336671672
 31
0.0
  0
LINE
  8
NOTE
  6
CONTINUOUS
 62
     4
 10
307.0909506933167
 20
1948.498336671672
 30
0.0
 11
282.0909506933167
 21
1948.498336671672
 31
0.0
  0
LINE
  8
NOTE
  6
CONTINUOUS
 62
     4
 10
307.0909506933167
 20
1948.498336671672
 30
0.0
 11
257.0909506933167
 21
1998.3943820263671
 31
0.0
  0
LINE
  8
NOTE
  6
CONTINUOUS
 62
     4
 10
257.0909506933167
 20
1998.3943820263671
 30
0.0
 11
207.0909506933167
 21
1948.498336671672
 31
0.0
  0
LINE
  8
DETAIL
  6
CONTINUOUS
 62
     5
 10
93.775443059705154
 20
876.44179051300489
 30
0.0
 11
93.775443059705154
 21
729.46520653673542
 31
0.0
  0
LINE
  8
DETAIL
  6
CONTINUOUS
 62
     5
 10
78.77544305970514
 20
869.97425406140417
 30
0.0
 11
78.77544305970514
 21
733.77562932574619
 31
0.0
  0
LINE
  8
DETAIL
  6
CONTINUOUS
 62
     5
 10
63.77544305970514
 20
863.50671760980356
 30
0.0
 11
63.77544305970514
 21
738.08605211475515
 31
0.0
  0
LINE
  8
DETAIL
  6
CONTINUOUS
 62
     5
 10
48.77544305970514
 20
857.03918115820477
 30
0.0
 11
48.77544305970514
 21
742.39647490376592
 31
0.0
  0
LINE
  8
DETAIL
  6
CONTINUOUS
 62
     5
 10
-177.97645262818691
 20
1479.823703335243
 30
0.0
 11
-177.97645262818691
 21
1332.8471193589739
 31
0.0
  0
LINE
  8
DETAIL
  6
CONTINUOUS
 62
     5
 10
-162.97645262818691
 20
1473.3561668836419
 30
0.0
 11
-162.97645262818691
 21
1337.157542147984
 31
0.0
  0
LINE
  8
DETAIL
  6
CONTINUOUS
 62
     5
 10
-147.97645262818691
 20
1466.888630432042
 30
0.0
 11
-147.97645262818691
 21
1341.4679649369939
 31
0.0
  0
LINE
  8
DETAIL
  6
CONTINUOUS
 62
     5
 10
-132.97645262818691
 20
1460.4210939804429
 30
0.0
 11
-132.97645262818691
 21
1345.778387726004
 31
0.0
  0
LINE
  8
SIZE
  6
CONTINUOUS
 62
    30
 10
369.50000000005821
 20
-151.85749528979611
 30
0.0
 11
369.50000000005821
 21
-311.44349863027128
 31
0.0
  0
LINE
  8
SIZE
  6
CONTINUOUS
 62
    30
 10
313.50000000005821
 20
-15.803839137237439
 30
0.0
 11
313.50000000005821
 21
-311.44349863027128
 31
0.0
  0
LINE
  8
SIZE
  6
CONTINUOUS
 62
    30
 10
313.50000000005821
 20
-291.44349863027128
 30
0.0
 11
369.50000000005821
 21
-291.44349863027128
 31
0.0
  0
LINE
  8
SIZE
  6
CONTINUOUS
 62
    30
 10
369.50000000005821
 20
-291.44349863027128
 30
0.0
 11
496.07142857148682
 21
-291.44349863027128
 31
0.0
  0
CIRCLE
  8
SIZE
  6
CONTINUOUS
 62
    30
 10
313.50000000005821
 20
-291.44349863027128
 30
0.0
 40
7.5
  0
CIRCLE
  8
SIZE
  6
CONTINUOUS
 62
    30
 10
369.50000000005821
 20
-291.44349863027128
 30
0.0
 40
7.5
  0
TEXT
  8
SIZE
  6
CONTINUOUS
 62
    30
 10
414.30571428577241
 20
-271.44349863027128
 30
0.0
 40
40.0
  1
56
 50
0.0
 41
0.9
 51
0.0
  7
STANDARD
 71
     0
 72
     1
 11
447.78571428577243
 21
-271.44349863027128
 31
0.0
210
0.0
220
0.0
230
1.0
  0
POINT
  8
DEFPOINTS
  6
CONTINUOUS
 62
    30
 10
369.50000000005821
 20
-131.85749528979611
 30
0.0
  0
POINT
  8
DEFPOINTS
  6
CONTINUOUS
 62
    30
 10
313.50000000005821
 20
4.1961608627625528
 30
0.0
  0
POINT
  8
DEFPOINTS
  6
CONTINUOUS
 62
    30
 10
313.50000000005821
 20
-291.44349863027128
 30
0.0
  0
LINE
  8
SIZE
  6
CONTINUOUS
 62
    30
 10
-369.49999999994179
 20
-151.85749528979611
 30
0.0
 11
-369.49999999994179
 21
-311.44349863027128
 31
0.0
  0
LINE
  8
SIZE
  6
CONTINUOUS
 62
    30
 10
-313.49999999994179
 20
-16.500000000063661
 30
0.0
 11
-313.49999999994179
 21
-311.44349863027128
 31
0.0
  0
LINE
  8
SIZE
  6
CONTINUOUS
 62
    30
 10
-313.49999999994179
 20
-291.44349863027128
 30
0.0
 11
-369.49999999994179
 21
-291.44349863027128
 31
0.0
  0
LINE
  8
SIZE
  6
CONTINUOUS
 62
    30
 10
-369.49999999994179
 20
-291.44349863027128
 30
0.0
 11
-496.07142857137029
 21
-291.44349863027128
 31
0.0
  0
CIRCLE
  8
SIZE
  6
CONTINUOUS
 62
    30
 10
-313.49999999994179
 20
-291.44349863027128
 30
0.0
 40
7.5
  0
CIRCLE
  8
SIZE
  6
CONTINUOUS
 62
    30
 10
-369.49999999994179
 20
-291.44349863027128
 30
0.0
 40
7.5
  0
TEXT
  8
SIZE
  6
CONTINUOUS
 62
    30
 10
-481.26571428565603
 20
-271.44349863027128
 30
0.0
 40
40.0
  1
56
 50
0.0
 41
0.9
 51
0.0
  7
STANDARD
 71
     0
 72
     1
 11
-447.78571428565601
 21
-271.44349863027128
 31
0.0
210
0.0
220
0.0
230
1.0
  0
POINT
  8
DEFPOINTS
  6
CONTINUOUS
 62
    30
 10
-369.49999999994179
 20
-131.85749528979611
 30
0.0
  0
POINT
  8
DEFPOINTS
  6
CONTINUOUS
 62
    30
 10
-313.49999999994179
 20
3.4999999999363349
 30
0.0
  0
POINT
  8
DEFPOINTS
  6
CONTINUOUS
 62
    30
 10
-313.49999999994179
 20
-291.44349863027128
 30
0.0
  0
LINE
  8
SIZE
  6
CONTINUOUS
 62
    30
 10
315.50000000005821
 20
44.499999999936328
 30
0.0
 11
315.50000000005821
 21
-395.37493912572791
 31
0.0
  0
LINE
  8
SIZE
  6
CONTINUOUS
 62
    30
 10
369.50000000005821
 20
-151.85749528979611
 30
0.0
 11
369.50000000005821
 21
-395.37493912572791
 31
0.0
  0
LINE
  8
SIZE
  6
CONTINUOUS
 62
    30
 10
315.50000000005821
 20
-375.37493912572791
 30
0.0
 11
369.50000000005821
 21
-375.37493912572791
 31
0.0
  0
LINE
  8
SIZE
  6
CONTINUOUS
 62
    30
 10
369.50000000005821
 20
-375.37493912572791
 30
0.0
 11
499.50000000005809
 21
-375.37493912572791
 31
0.0
  0
CIRCLE
  8
SIZE
  6
CONTINUOUS
 62
    30
 10
315.50000000005821
 20
-375.37493912572791
 30
0.0
 40
7.5
  0
CIRCLE
  8
SIZE
  6
CONTINUOUS
 62
    30
 10
369.50000000005821
 20
-375.37493912572791
 30
0.0
 40
7.5
  0
TEXT
  8
SIZE
  6
CONTINUOUS
 62
    30
 10
415.66000000005812
 20
-355.37493912572791
 30
0.0
 40
40.0
  1
54
 50
0.0
 41
0.9
 51
0.0
  7
STANDARD
 71
     0
 72
     1
 11
449.50000000005809
 21
-355.37493912572791
 31
0.0
210
0.0
220
0.0
230
1.0
  0
POINT
  8
DEFPOINTS
  6
CONTINUOUS
 62
    30
 10
315.50000000005821
 20
64.499999999936335
 30
0.0
  0
POINT
  8
DEFPOINTS
  6
CONTINUOUS
 62
    30
 10
369.50000000005821
 20
-131.85749528979611
 30
0.0
  0
POINT
  8
DEFPOINTS
  6
CONTINUOUS
 62
    30
 10
369.50000000005821
 20
-375.37493912572791
 30
0.0
  0
LINE
  8
SIZE
  6
CONTINUOUS
 62
    30
 10
295.80000000005379
 20
49.499999999936328
 30
0.0
 11
295.80000000005379
 21
-119.86129591672029
 31
0.0
  0
LINE
  8
SIZE
  6
CONTINUOUS
 62
    30
 10
-295.7999999999447
 20
49.499999999936328
 30
0.0
 11
-295.7999999999447
 21
-119.86129591672029
 31
0.0
  0
LINE
  8
SIZE
  6
CONTINUOUS
 62
    30
 10
295.80000000005379
 20
-99.861295916720337
 30
0.0
 11
-295.7999999999447
 21
-99.861295916720337
 31
0.0
  0
CIRCLE
  8
SIZE
  6
CONTINUOUS
 62
    30
 10
295.80000000005379
 20
-99.861295916720337
 30
0.0
 40
7.5
  0
CIRCLE
  8
SIZE
  6
CONTINUOUS
 62
    30
 10
-295.7999999999447
 20
-99.861295916720337
 30
0.0
 40
7.5
  0
TEXT
  8
SIZE
  6
CONTINUOUS
 62
    30
 10
-63.99708537915896
 20
-79.861295916720337
 30
0.0
 40
40.0
  1
592
 50
0.0
 41
0.9
 51
0.0
  7
STANDARD
 71
     0
 72
     1
 11
-13.777085379158962
 21
-79.861295916720337
 31
0.0
210
0.0
220
0.0
230
1.0
  0
POINT
  8
DEFPOINTS
  6
CONTINUOUS
 62
    30
 10
295.80000000005379
 20
69.499999999936335
 30
0.0
  0
POINT
  8
DEFPOINTS
  6
CONTINUOUS
 62
    30
 10
-295.7999999999447
 20
69.499999999936335
 30
0.0
  0
POINT
  8
DEFPOINTS
  6
CONTINUOUS
 62
    30
 10
-295.7999999999447
 20
-99.861295916720337
 30
0.0
  0
LINE
  8
SIZE
  6
CONTINUOUS
 62
    30
 10
-389.49999999994179
 20
59.999999999936328
 30
0.0
 11
-600.61773395230546
 21
59.999999999936399
 31
0.0
  0
LINE
  8
SIZE
  6
CONTINUOUS
 62
    30
 10
-385.49999999994179
 20
94.999999999934516
 30
0.0
 11
-600.61773395230546
 21
94.999999999934573
 31
0.0
  0
LINE
  8
SIZE
  6
CONTINUOUS
 62
    30
 10
-580.61773395230546
 20
94.999999999934573
 30
0.0
 11
-580.61773395230546
 21
124.9999999999346
 31
0.0
  0
LINE
  8
SIZE
  6
CONTINUOUS
 62
    30
 10
-580.61773395230546
 20
59.999999999936392
 30
0.0
 11
-580.61773395230546
 21
-98.285714285777885
 31
0.0
  0
LINE
  8
SIZE
  6
CONTINUOUS
 62
    30
 10
-580.61773395230546
 20
94.999999999934573
 30
0.0
 11
-580.61773395230546
 21
59.999999999936392
 31
0.0
  0
CIRCLE
  8
SIZE
  6
CONTINUOUS
 62
    30
 10
-580.61773395230546
 20
94.999999999934573
 30
0.0
 40
7.5
  0
CIRCLE
  8
SIZE
  6
CONTINUOUS
 62
    30
 10
-580.61773395230546
 20
59.999999999936392
 30
0.0
 40
7.5
  0
TEXT
  8
SIZE
  6
CONTINUOUS
 62
    30
 10
-600.61773395230557
 20
-82.62285714292085
 30
0.0
 40
40.0
  1
35
 50
90.0
 41
0.9
 51
0.0
  7
STANDARD
 71
     0
 72
     1
 11
-600.61773395230557
 21
-49.142857142920839
 31
0.0
210
0.0
220
0.0
230
1.0
  0
POINT
  8
DEFPOINTS
  6
CONTINUOUS
 62
    30
 10
-369.49999999994179
 20
59.999999999936328
 30
0.0
  0
POINT
  8
DEFPOINTS
  6
CONTINUOUS
 62
    30
 10
-365.49999999994179
 20
94.999999999934516
 30
0.0
  0
POINT
  8
DEFPOINTS
  6
CONTINUOUS
 62
    30
 10
-580.61773395230546
 20
94.999999999934573
 30
0.0
  0
LINE
  8
SIZE
  6
CONTINUOUS
 62
    30
 10
-315.49999999994179
 20
44.499999999936328
 30
0.0
 11
-315.49999999994179
 21
-395.29102053784482
 31
0.0
  0
LINE
  8
SIZE
  6
CONTINUOUS
 62
    30
 10
-369.49999999994179
 20
-20.000000000063661
 30
0.0
 11
-369.49999999994179
 21
-395.29102053784482
 31
0.0
  0
LINE
  8
SIZE
  6
CONTINUOUS
 62
    30
 10
-315.49999999994179
 20
-375.29102053784482
 30
0.0
 11
-369.49999999994179
 21
-375.29102053784482
 31
0.0
  0
LINE
  8
SIZE
  6
CONTINUOUS
 62
    30
 10
-369.49999999994179
 20
-375.29102053784482
 30
0.0
 11
-499.49999999994179
 21
-375.29102053784482
 31
0.0
  0
CIRCLE
  8
SIZE
  6
CONTINUOUS
 62
    30
 10
-315.49999999994179
 20
-375.29102053784482
 30
0.0
 40
7.5
  0
CIRCLE
  8
SIZE
  6
CONTINUOUS
 62
    30
 10
-369.49999999994179
 20
-375.29102053784482
 30
0.0
 40
7.5
  0
TEXT
  8
SIZE
  6
CONTINUOUS
 62
    30
 10
-483.33999999994177
 20
-355.29102053784482
 30
0.0
 40
40.0
  1
54
 50
0.0
 41
0.9
 51
0.0
  7
STANDARD
 71
     0
 72
     1
 11
-449.49999999994179
 21
-355.29102053784482
 31
0.0
210
0.0
220
0.0
230
1.0
  0
POINT
  8
DEFPOINTS
  6
CONTINUOUS
 62
    30
 10
-315.49999999994179
 20
64.499999999936335
 30
0.0
  0
POINT
  8
DEFPOINTS
  6
CONTINUOUS
 62
    30
 10
-369.49999999994179
 20
-0.0000000000636646
 30
0.0
  0
POINT
  8
DEFPOINTS
  6
CONTINUOUS
 62
    30
 10
-369.49999999994179
 20
-375.29102053784482
 30
0.0
  0
LINE
  8
SIZE
  6
CONTINUOUS
 62
    30
 10
389.50000000005821
 20
59.999999999936328
 30
0.0
 11
618.4244291056566
 21
59.999999999936271
 31
0.0
  0
LINE
  8
SIZE
  6
CONTINUOUS
 62
    30
 10
241.5000000000509
 20
176.19999999993701
 30
0.0
 11
618.4244291056566
 21
176.19999999993689
 31
0.0
  0
LINE
  8
SIZE
  6
CONTINUOUS
 62
    30
 10
598.42442910565649
 20
59.999999999936271
 30
0.0
 11
598.42442910565649
 21
176.19999999993689
 31
0.0
  0
CIRCLE
  8
SIZE
  6
CONTINUOUS
 62
    30
 10
598.42442910565649
 20
59.999999999936271
 30
0.0
 40
7.5
  0
CIRCLE
  8
SIZE
  6
CONTINUOUS
 62
    30
 10
598.42442910565649
 20
176.19999999993689
 30
0.0
 40
7.5
  0
TEXT
  8
SIZE
  6
CONTINUOUS
 62
    30
 10
578.4244291056566
 20
75.91918808206222
 30
0.0
 40
40.0
  1
116
 50
90.0
 41
0.9
 51
0.0
  7
STANDARD
 71
     0
 72
     1
 11
578.4244291056566
 21
118.9391880820622
 31
0.0
210
0.0
220
0.0
230
1.0
  0
POINT
  8
DEFPOINTS
  6
CONTINUOUS
 62
    30
 10
369.50000000005821
 20
59.999999999936328
 30
0.0
  0
POINT
  8
DEFPOINTS
  6
CONTINUOUS
 62
    30
 10
221.5000000000509
 20
176.19999999993701
 30
0.0
  0
POINT
  8
DEFPOINTS
  6
CONTINUOUS
 62
    30
 10
598.42442910565649
 20
176.19999999993689
 30
0.0
  0
LINE
  8
DETAIL
  6
CONTINUOUS
 62
     5
 10
-319.35355339053791
 20
1522.4999999999361
 30
0.0
 11
-319.35355339053791
 21
122.43071874572161
 31
0.0
  0
LINE
  8
DETAIL
  6
CONTINUOUS
 62
     5
 10
-318.29289321873512
 20
1522.4999999999361
 30
0.0
 11
-318.29289321873512
 21
120.1060364327095
 31
0.0
  0
LINE
  8
DETAIL
  6
CONTINUOUS
 62
     5
 10
318.29289321885881
 20
1522.4999999999361
 30
0.0
 11
318.29289321885881
 21
64.499999999936335
 31
0.0
  0
LINE
  8
DETAIL
  6
CONTINUOUS
 62
     5
 10
319.3535533906616
 20
1522.4999999999361
 30
0.0
 11
319.3535533906616
 21
64.499999999936335
 31
0.0
  0
LINE
  8
OUTLINE
  6
CONTINUOUS
 62
     3
 10
369.50000000005821
 20
-0.0000000000636646
 30
0.0
 11
317.00000000005821
 21
-0.0000000000636646
 31
0.0
  0
LINE
  8
OUTLINE
  6
CONTINUOUS
 62
     3
 10
-316.99999999994179
 20
-0.0000000000636646
 30
0.0
 11
-369.49999999994179
 21
-0.0000000000636646
 31
0.0
  0
LINE
  8
OUTLINE
  6
CONTINUOUS
 62
     3
 10
369.50000000005821
 20
2.2999999999356069
 30
0.0
 11
317.00000000005821
 21
2.2999999999356069
 31
0.0
  0
LINE
  8
OUTLINE
  6
CONTINUOUS
 62
     3
 10
-316.99999999994179
 20
2.2999999999356069
 30
0.0
 11
-369.49999999994179
 21
2.2999999999356069
 31
0.0
  0
LINE
  8
OUTLINE
  6
CONTINUOUS
 62
     3
 10
-369.49999999994179
 20
2.2999999999356069
 30
0.0
 11
-369.49999999994179
 21
-0.0000000000636646
 31
0.0
  0
LINE
  8
OUTLINE
  6
CONTINUOUS
 62
     3
 10
-369.49999999994179
 20
57.699999999937063
 30
0.0
 11
-369.49999999994179
 21
62.299999999935608
 31
0.0
  0
LINE
  8
OUTLINE
  6
CONTINUOUS
 62
     3
 10
-367.49999999994179
 20
57.699999999937063
 30
0.0
 11
-367.49999999994179
 21
2.2999999999356069
 31
0.0
  0
LINE
  8
OUTLINE
  6
CONTINUOUS
 62
     3
 10
-370.28091039814171
 20
1522.4999999999361
 30
0.0
 11
-369.99760774914461
 21
1553.963268127836
 31
0.0
  0
LINE
  8
OUTLINE
  6
CONTINUOUS
 62
     3
 10
-365.02656217934418
 20
1641.074277792535
 30
0.0
 11
-367.38842298794771
 21
1559.254987546037
 31
0.0
  0
LINE
  8
OUTLINE
  6
CONTINUOUS
 62
     3
 10
-365.02656205934181
 20
1641.074280214636
 30
0.0
 11
-360.02855335244379
 21
1755.5474998459381
 31
0.0
  0
LINE
  8
OUTLINE
  6
CONTINUOUS
 62
     3
 10
369.50000000005821
 20
57.699999999937063
 30
0.0
 11
317.00000000005821
 21
57.699999999937063
 31
0.0
  0
LINE
  8
OUTLINE
  6
CONTINUOUS
 62
     3
 10
-316.99999999994179
 20
57.699999999937063
 30
0.0
 11
-369.49999999994179
 21
57.699999999937063
 31
0.0
  0
LINE
  8
OUTLINE
  6
CONTINUOUS
 62
     3
 10
319.00000000005821
 20
59.999999999936328
 30
0.0
 11
317.00000000005821
 21
59.999999999936328
 31
0.0
  0
LINE
  8
OUTLINE
  6
CONTINUOUS
 62
     3
 10
-316.99999999994179
 20
59.999999999936328
 30
0.0
 11
-318.99999999994179
 21
59.999999999936328
 31
0.0
  0
LINE
  8
OUTLINE
  6
CONTINUOUS
 62
     3
 10
-369.49999999994179
 20
62.299999999935608
 30
0.0
 11
-318.99999999994179
 21
62.299999999935608
 31
0.0
  0
LINE
  8
OUTLINE
  6
CONTINUOUS
 62
     3
 10
319.00000000005821
 20
62.299999999935608
 30
0.0
 11
369.50000000005821
 21
62.299999999935608
 31
0.0
  0
LINE
  8
OUTLINE
  6
CONTINUOUS
 62
     3
 10
320.46357325975259
 20
64.499999999936335
 30
0.0
 11
300.8000000000539
 21
64.499999999936335
 31
0.0
  0
LINE
  8
OUTLINE
  6
CONTINUOUS
 62
     3
 10
295.80000000005379
 20
87.999999999936335
 30
0.0
 11
-295.7999999999447
 21
87.999999999936335
 31
0.0
  0
LINE
  8
OUTLINE
  6
CONTINUOUS
 62
     3
 10
365.50000000005821
 20
94.999999999936335
 30
0.0
 11
363.95064030275529
 21
94.999999999936335
 31
0.0
  0
LINE
  8
OUTLINE
  6
CONTINUOUS
 62
     3
 10
-365.49999999994179
 20
94.999999999936335
 30
0.0
 11
-365.49999999994179
 21
1522.4999999999361
 31
0.0
  0
LINE
  8
OUTLINE
  6
CONTINUOUS
 62
     3
 10
-362.99999999994179
 20
1834.5999999999369
 30
0.0
 11
-362.99999999994179
 21
1817.0999999999369
 31
0.0
  0
LINE
  8
OUTLINE
  6
CONTINUOUS
 62
     3
 10
-362.99999999994179
 20
1813.7999999999349
 30
0.0
 11
-362.99999999994179
 21
1815.6999999999371
 31
0.0
  0
LINE
  8
OUTLINE
  6
CONTINUOUS
 62
     3
 10
-359.99999999994179
 20
1817.0999999999369
 30
0.0
 11
-359.99999999994179
 21
1816.9999999999361
 31
0.0
  0
LINE
  8
OUTLINE
  6
CONTINUOUS
 62
     3
 10
-359.99999999994179
 20
1811.4999999999361
 30
0.0
 11
-359.99999999994179
 21
1756.237603585037
 31
0.0
  0
LINE
  8
OUTLINE
  6
CONTINUOUS
 62
     3
 10
-357.99999999994179
 20
1838.5999999999369
 30
0.0
 11
-357.99999999994179
 21
1857.5999999999369
 31
0.0
  0
LINE
  8
OUTLINE
  6
CONTINUOUS
 62
     3
 10
-317.7999999999447
 20
63.499999999936342
 30
0.0
 11
-317.7999999999447
 21
64.499999999936335
 31
0.0
  0
LINE
  8
OUTLINE
  6
CONTINUOUS
 62
     3
 10
-315.7999999999447
 20
3.4999999999363349
 30
0.0
 11
-315.7999999999447
 21
56.499999999936328
 31
0.0
  0
LINE
  8
OUTLINE
  6
CONTINUOUS
 62
     3
 10
-315.49999999994179
 20
63.499999999936342
 30
0.0
 11
-315.49999999994179
 21
64.499999999936335
 31
0.0
  0
LINE
  8
OUTLINE
  6
CONTINUOUS
 62
     3
 10
-313.49999999994179
 20
3.4999999999363349
 30
0.0
 11
-313.49999999994179
 21
56.499999999936328
 31
0.0
  0
LINE
  8
OUTLINE
  6
CONTINUOUS
 62
     3
 10
-295.7999999999447
 20
69.499999999936335
 30
0.0
 11
-295.7999999999447
 21
87.999999999936335
 31
0.0
  0
LINE
  8
OUTLINE
  6
CONTINUOUS
 62
     3
 10
295.80000000005379
 20
87.999999999936335
 30
0.0
 11
295.80000000005379
 21
69.499999999936335
 31
0.0
  0
LINE
  8
OUTLINE
  6
CONTINUOUS
 62
     3
 10
313.50000000005821
 20
56.499999999936328
 30
0.0
 11
313.50000000005821
 21
3.4999999999363349
 31
0.0
  0
LINE
  8
OUTLINE
  6
CONTINUOUS
 62
     3
 10
315.50000000005821
 20
64.499999999936335
 30
0.0
 11
315.50000000005821
 21
63.499999999936342
 31
0.0
  0
LINE
  8
OUTLINE
  6
CONTINUOUS
 62
     3
 10
315.8000000000539
 20
56.499999999936328
 30
0.0
 11
315.8000000000539
 21
3.4999999999363349
 31
0.0
  0
LINE
  8
OUTLINE
  6
CONTINUOUS
 62
     3
 10
317.8000000000539
 20
64.499999999936335
 30
0.0
 11
317.8000000000539
 21
63.499999999936342
 31
0.0
  0
LINE
  8
OUTLINE
  6
CONTINUOUS
 62
     3
 10
365.02656205955282
 20
1641.074280214636
 30
0.0
 11
360.02855335265491
 21
1755.5474998459381
 31
0.0
  0
LINE
  8
OUTLINE
  6
CONTINUOUS
 62
     3
 10
367.38842298815138
 20
1559.254987546037
 30
0.0
 11
365.02656217955519
 21
1641.074277792535
 31
0.0
  0
LINE
  8
OUTLINE
  6
CONTINUOUS
 62
     3
 10
370.28091039835272
 20
1522.4999999999361
 30
0.0
 11
369.99760774935572
 21
1553.963268124937
 31
0.0
  0
LINE
  8
OUTLINE
  6
CONTINUOUS
 62
     3
 10
358.00000000005821
 20
1838.5999999999369
 30
0.0
 11
358.00000000005821
 21
1857.5999999999369
 31
0.0
  0
LINE
  8
OUTLINE
  6
CONTINUOUS
 62
     3
 10
360.00000000005821
 20
1811.4999999999361
 30
0.0
 11
360.00000000005821
 21
1756.237604085238
 31
0.0
  0
LINE
  8
OUTLINE
  6
CONTINUOUS
 62
     3
 10
363.00000000005821
 20
1834.5999999999369
 30
0.0
 11
363.00000000005821
 21
1817.0999999999369
 31
0.0
  0
LINE
  8
OUTLINE
  6
CONTINUOUS
 62
     3
 10
363.00000000005821
 20
1815.6999999999371
 30
0.0
 11
363.00000000005821
 21
1813.7999999999349
 31
0.0
  0
LINE
  8
OUTLINE
  6
CONTINUOUS
 62
     3
 10
365.50000000005821
 20
94.999999999936335
 30
0.0
 11
365.50000000005821
 21
1522.4999999999361
 31
0.0
  0
LINE
  8
OUTLINE
  6
CONTINUOUS
 62
     3
 10
367.50000000005821
 20
2.2999999999356069
 30
0.0
 11
367.50000000005821
 21
57.699999999937063
 31
0.0
  0
LINE
  8
OUTLINE
  6
CONTINUOUS
 62
     3
 10
369.50000000005821
 20
2.2999999999356069
 30
0.0
 11
369.50000000005821
 21
-0.0000000000636646
 31
0.0
  0
LINE
  8
OUTLINE
  6
CONTINUOUS
 62
     3
 10
369.50000000005821
 20
57.699999999937063
 30
0.0
 11
369.50000000005821
 21
62.299999999935608
 31
0.0
  0
LINE
  8
OUTLINE
  6
CONTINUOUS
 62
     3
 10
365.50000000005821
 20
1522.4999999999361
 30
0.0
 11
-370.28091039814171
 21
1522.4999999999361
 31
0.0
  0
LINE
  8
OUTLINE
  6
CONTINUOUS
 62
     3
 10
363.95064030275529
 20
94.999999999936335
 30
0.0
 11
320.46357325975259
 21
64.499999999936335
 31
0.0
  0
LINE
  8
OUTLINE
  6
CONTINUOUS
 62
     3
 10
362.7000000000553
 20
1813.4999999999361
 30
0.0
 11
361.62521844805451
 21
1813.4999999999361
 31
0.0
  0
LINE
  8
OUTLINE
  6
CONTINUOUS
 62
     3
 10
-361.62521847504831
 20
1813.4999999999361
 30
0.0
 11
-362.6999999999461
 21
1813.4999999999361
 31
0.0
  0
LINE
  8
OUTLINE
  6
CONTINUOUS
 62
     3
 10
-360.81566985494283
 20
1815.9999999999361
 30
0.0
 11
-362.6999999999461
 21
1815.9999999999361
 31
0.0
  0
LINE
  8
OUTLINE
  6
CONTINUOUS
 62
     3
 10
-359.99999999994179
 20
1817.0999999999369
 30
0.0
 11
-362.99999999994179
 21
1817.0999999999369
 31
0.0
  0
LINE
  8
OUTLINE
  6
CONTINUOUS
 62
     3
 10
-359.99999999994179
 20
1836.599999999936
 30
0.0
 11
-360.99999999994179
 21
1836.599999999936
 31
0.0
  0
LINE
  8
OUTLINE
  6
CONTINUOUS
 62
     3
 10
-357.49999999994179
 20
1858.0999999999369
 30
0.0
 11
357.50000000005821
 21
1858.0999999999369
 31
0.0
  0
ARC
  8
OUTLINE
  6
CONTINUOUS
 62
     3
 10
-300.7999999999447
 20
69.499999999936335
 30
0.0
 40
5.0
 50
270.0
 51
0.0
  0
ARC
  8
OUTLINE
  6
CONTINUOUS
 62
     3
 10
-318.99999999994179
 20
63.499999999936342
 30
0.0
 40
3.5
 50
270.0
 51
0.0
  0
ARC
  8
OUTLINE
  6
CONTINUOUS
 62
     3
 10
-316.99999999994179
 20
56.499999999936328
 30
0.0
 40
3.5
 50
0.0
 51
90.0
  0
ARC
  8
OUTLINE
  6
CONTINUOUS
 62
     3
 10
-316.99999999994179
 20
3.4999999999363349
 30
0.0
 40
3.5
 50
270.0
 51
0.0
  0
ARC
  8
OUTLINE
  6
CONTINUOUS
 62
     3
 10
-318.99999999994179
 20
63.499999999936342
 30
0.0
 40
1.1999999999999991
 50
270.0
 51
0.0
  0
ARC
  8
OUTLINE
  6
CONTINUOUS
 62
     3
 10
-316.99999999994179
 20
56.499999999936328
 30
0.0
 40
1.1999999999999991
 50
0.0
 51
90.0
  0
ARC
  8
OUTLINE
  6
CONTINUOUS
 62
     3
 10
-316.99999999994179
 20
3.4999999999363349
 30
0.0
 40
1.1999999999999991
 50
270.0
 51
0.0
  0
ARC
  8
OUTLINE
  6
CONTINUOUS
 62
     3
 10
-372.8905307157475
 20
1559.5252304067931
 30
0.0
 40
5.5086739276738674
 50
305.99575701894253
 51
357.18809227684159
  0
ARC
  8
OUTLINE
  6
CONTINUOUS
 62
     3
 10
-367.99768376194697
 20
1553.9458312266379
 30
0.0
 40
2.0
 50
145.85603046129859
 51
179.50000000003519
  0
ARC
  8
OUTLINE
  6
CONTINUOUS
 62
     3
 10
-389.99999999994179
 20
1756.856081466836
 30
0.0
 40
30.0
 50
357.50000000003809
 51
0.0
  0
ARC
  8
OUTLINE
  6
CONTINUOUS
 62
     3
 10
-360.99999996704719
 20
1834.5999999999369
 30
0.0
 40
2.0
 50
90.000000941735635
 51
180.0
  0
ARC
  8
OUTLINE
  6
CONTINUOUS
 62
     3
 10
-359.99999999994179
 20
1838.5999999999369
 30
0.0
 40
2.0
 50
270.0
 51
0.0
  0
ARC
  8
OUTLINE
  6
CONTINUOUS
 62
     3
 10
-361.99999999784632
 20
1811.500000002035
 30
0.0
 40
1.9999999978999989
 50
0.000000622612764
 51
81.818181866538069
  0
ARC
  8
OUTLINE
  6
CONTINUOUS
 62
     3
 10
-360.99999943884899
 20
1816.9999994388361
 30
0.0
 40
0.9999994388999999
 50
279.51114563697058
 51
0.0000321472041358
  0
ARC
  8
OUTLINE
  6
CONTINUOUS
 62
     3
 10
-357.50000000224833
 20
1857.5999999999369
 30
0.0
 40
0.5
 50
89.999999728610035
 51
180.0
  0
ARC
  8
OUTLINE
  6
CONTINUOUS
 62
     3
 10
-362.6999999999461
 20
1815.6999999999371
 30
0.0
 40
0.3
 50
90.0
 51
180.0
  0
ARC
  8
OUTLINE
  6
CONTINUOUS
 62
     3
 10
-362.6999999999461
 20
1813.7999999999349
 30
0.0
 40
0.3
 50
180.0
 51
270.0
  0
ARC
  8
OUTLINE
  6
CONTINUOUS
 62
     3
 10
300.8000000000539
 20
69.499999999936335
 30
0.0
 40
5.0
 50
180.0
 51
270.0
  0
ARC
  8
OUTLINE
  6
CONTINUOUS
 62
     3
 10
319.00000000005821
 20
63.499999999936342
 30
0.0
 40
3.5
 50
180.0
 51
270.0
  0
ARC
  8
OUTLINE
  6
CONTINUOUS
 62
     3
 10
317.00000000005821
 20
3.4999999999363349
 30
0.0
 40
3.5
 50
180.0
 51
270.0
  0
ARC
  8
OUTLINE
  6
CONTINUOUS
 62
     3
 10
317.00000000005821
 20
56.499999999936328
 30
0.0
 40
3.5
 50
90.0
 51
180.0
  0
ARC
  8
OUTLINE
  6
CONTINUOUS
 62
     3
 10
319.00000000005821
 20
63.499999999936342
 30
0.0
 40
1.1999999999999991
 50
180.0
 51
270.0
  0
ARC
  8
OUTLINE
  6
CONTINUOUS
 62
     3
 10
317.00000000005821
 20
3.4999999999363349
 30
0.0
 40
1.1999999999999991
 50
180.0
 51
270.0
  0
ARC
  8
OUTLINE
  6
CONTINUOUS
 62
     3
 10
317.00000000005821
 20
56.499999999936328
 30
0.0
 40
1.1999999999999991
 50
90.0
 51
180.0
  0
ARC
  8
OUTLINE
  6
CONTINUOUS
 62
     3
 10
372.38657282435452
 20
1559.3992675948371
 30
0.0
 40
5.0001653733999989
 50
181.65348041248669
 51
231.17312119017501
  0
ARC
  8
OUTLINE
  6
CONTINUOUS
 62
     3
 10
367.99768376205611
 20
1553.9458312278359
 30
0.0
 40
2.0
 50
0.4999999999647253
 51
51.173123656530173
  0
ARC
  8
OUTLINE
  6
CONTINUOUS
 62
     3
 10
390.00000000005821
 20
1756.856081466836
 30
0.0
 40
30.0
 50
180.0
 51
182.49999999996189
  0
ARC
  8
OUTLINE
  6
CONTINUOUS
 62
     3
 10
362.00000003575411
 20
1811.4999999630361
 30
0.0
 40
2.0000000368999991
 50
98.181819045290069
 51
179.99999894226701
  0
ARC
  8
OUTLINE
  6
CONTINUOUS
 62
     3
 10
361.00000000005821
 20
1834.5999999999369
 30
0.0
 40
2.0
 50
0.0
 51
90.0
  0
ARC
  8
OUTLINE
  6
CONTINUOUS
 62
     3
 10
360.00000000005821
 20
1838.5999999999369
 30
0.0
 40
2.0
 50
180.0
 51
270.0
  0
ARC
  8
OUTLINE
  6
CONTINUOUS
 62
     3
 10
357.50000000285218
 20
1857.5999999999369
 30
0.0
 40
0.5
 50
0.0
 51
90.000000317663833
  0
ARC
  8
OUTLINE
  6
CONTINUOUS
 62
     3
 10
362.7000000000553
 20
1813.7999999999349
 30
0.0
 40
0.3
 50
270.0
 51
0.0
  0
LINE
  8
OUTLINE
  6
CONTINUOUS
 62
     3
 10
-365.49999999994179
 20
94.999999999936335
 30
0.0
 11
-363.95064030264621
 21
94.999999999936335
 31
0.0
  0
LINE
  8
OUTLINE
  6
CONTINUOUS
 62
     3
 10
-318.03016192623909
 20
62.793307626414389
 30
0.0
 11
-363.9506403025444
 21
94.999999999936335
 31
0.0
  0
LINE
  8
OUTLINE
  6
CONTINUOUS
 62
     3
 10
-300.7999999999447
 20
64.499999999936335
 30
0.0
 11
-317.7999999999447
 21
64.499999999936335
 31
0.0
  0
LINE
  8
OUTLINE
  6
CONTINUOUS
 62
     3
 10
361.00000000005821
 20
1836.599999999936
 30
0.0
 11
360.00000000005821
 21
1836.599999999936
 31
0.0
  0
LINE
  8
NOTE
  6
CONTINUOUS
 62
     4
 10
153.00294372525241
 20
176.19999999993701
 30
0.0
 11
224.00294372525241
 21
176.19999999993701
 31
0.0
  0
LINE
  8
NOTE
  6
CONTINUOUS
 62
     4
 10
188.50294372525241
 20
140.69999999993709
 30
0.0
 11
188.50294372525241
 21
211.69999999993709
 31
0.0
  0
LINE
  8
SIZE
  6
CONTINUOUS
 62
    30
 10
188.50294372525241
 20
231.69999999993709
 30
0.0
 11
188.50294372525241
 21
508.74016252522591
 31
0.0
  0
LINE
  8
SIZE
  6
CONTINUOUS
 62
    30
 10
369.50000000005821
 20
22.299999999935611
 30
0.0
 11
369.50000000005832
 21
508.74016252522591
 31
0.0
  0
LINE
  8
SIZE
  6
CONTINUOUS
 62
    30
 10
188.50294372525241
 20
488.74016252522591
 30
0.0
 11
369.50000000005832
 21
488.74016252522591
 31
0.0
  0
LINE
  8
SIZE
  6
CONTINUOUS
 62
    30
 10
369.50000000005832
 20
488.74016252522591
 30
0.0
 11
509.78571428577408
 21
488.74016252522591
 31
0.0
  0
CIRCLE
  8
SIZE
  6
CONTINUOUS
 62
    30
 10
188.50294372525241
 20
488.74016252522591
 30
0.0
 40
7.5
  0
CIRCLE
  8
SIZE
  6
CONTINUOUS
 62
    30
 10
369.50000000005832
 20
488.74016252522591
 30
0.0
 40
7.5
  0
TEXT
  8
SIZE
  6
CONTINUOUS
 62
    30
 10
411.62285714291693
 20
508.74016252522586
 30
0.0
 40
40.0
  1
181
 50
0.0
 41
0.9
 51
0.0
  7
STANDARD
 71
     0
 72
     1
 11
454.64285714291691
 21
508.74016252522586
 31
0.0
210
0.0
220
0.0
230
1.0
  0
POINT
  8
DEFPOINTS
  6
CONTINUOUS
 62
    30
 10
188.50294372525241
 20
211.69999999993709
 30
0.0
  0
POINT
  8
DEFPOINTS
  6
CONTINUOUS
 62
    30
 10
369.50000000005821
 20
2.2999999999356069
 30
0.0
  0
POINT
  8
DEFPOINTS
  6
CONTINUOUS
 62
    30
 10
369.50000000005832
 20
488.74016252522591
 30
0.0
  0
LINE
  8
SIZE
  6
CONTINUOUS
 62
    30
 10
295.80000000005379
 20
49.499999999936328
 30
0.0
 11
295.80000000005379
 21
-119.86129591672029
 31
0.0
  0
LINE
  8
SIZE
  6
CONTINUOUS
 62
    30
 10
315.8000000000539
 20
-16.500000000063661
 30
0.0
 11
315.8000000000539
 21
-119.86129591672029
 31
0.0
  0
LINE
  8
SIZE
  6
CONTINUOUS
 62
    30
 10
295.80000000005379
 20
-99.861295916720337
 30
0.0
 11
265.8000000000539
 21
-99.861295916720337
 31
0.0
  0
LINE
  8
SIZE
  6
CONTINUOUS
 62
    30
 10
315.8000000000539
 20
-99.861295916720337
 30
0.0
 11
474.08571428576812
 21
-99.861295916720337
 31
0.0
  0
LINE
  8
SIZE
  6
CONTINUOUS
 62
    30
 10
295.80000000005379
 20
-99.861295916720337
 30
0.0
 11
315.8000000000539
 21
-99.861295916720337
 31
0.0
  0
CIRCLE
  8
SIZE
  6
CONTINUOUS
 62
    30
 10
295.80000000005379
 20
-99.861295916720337
 30
0.0
 40
7.5
  0
CIRCLE
  8
SIZE
  6
CONTINUOUS
 62
    30
 10
315.8000000000539
 20
-99.861295916720337
 30
0.0
 40
7.5
  0
TEXT
  8
SIZE
  6
CONTINUOUS
 62
    30
 10
391.10285714291092
 20
-79.861295916720337
 30
0.0
 40
40.0
  1
20
 50
0.0
 41
0.9
 51
0.0
  7
STANDARD
 71
     0
 72
     1
 11
424.9428571429109
 21
-79.861295916720337
 31
0.0
210
0.0
220
0.0
230
1.0
  0
POINT
  8
DEFPOINTS
  6
CONTINUOUS
 62
    30
 10
295.80000000005379
 20
69.499999999936335
 30
0.0
  0
POINT
  8
DEFPOINTS
  6
CONTINUOUS
 62
    30
 10
315.8000000000539
 20
3.4999999999363349
 30
0.0
  0
POINT
  8
DEFPOINTS
  6
CONTINUOUS
 62
    30
 10
315.8000000000539
 20
-99.861295916720337
 30
0.0
  0
LINE
  8
SIZE
  6
CONTINUOUS
 62
    30
 10
-295.7999999999447
 20
49.499999999936328
 30
0.0
 11
-295.7999999999447
 21
-119.86129591672029
 31
0.0
  0
LINE
  8
SIZE
  6
CONTINUOUS
 62
    30
 10
-315.7999999999447
 20
-16.000000000063661
 30
0.0
 11
-315.7999999999447
 21
-119.86129591672029
 31
0.0
  0
LINE
  8
SIZE
  6
CONTINUOUS
 62
    30
 10
-295.7999999999447
 20
-99.861295916720337
 30
0.0
 11
-265.7999999999447
 21
-99.861295916720337
 31
0.0
  0
LINE
  8
SIZE
  6
CONTINUOUS
 62
    30
 10
-315.7999999999447
 20
-99.861295916720337
 30
0.0
 11
-474.08571428565892
 21
-99.861295916720337
 31
0.0
  0
LINE
  8
SIZE
  6
CONTINUOUS
 62
    30
 10
-295.7999999999447
 20
-99.861295916720337
 30
0.0
 11
-315.7999999999447
 21
-99.861295916720337
 31
0.0
  0
CIRCLE
  8
SIZE
  6
CONTINUOUS
 62
    30
 10
-295.7999999999447
 20
-99.861295916720337
 30
0.0
 40
7.5
  0
CIRCLE
  8
SIZE
  6
CONTINUOUS
 62
    30
 10
-315.7999999999447
 20
-99.861295916720337
 30
0.0
 40
7.5
  0
TEXT
  8
SIZE
  6
CONTINUOUS
 62
    30
 10
-458.78285714280167
 20
-79.861295916720337
 30
0.0
 40
40.0
  1
20
 50
0.0
 41
0.9
 51
0.0
  7
STANDARD
 71
     0
 72
     1
 11
-424.9428571428017
 21
-79.861295916720337
 31
0.0
210
0.0
220
0.0
230
1.0
  0
POINT
  8
DEFPOINTS
  6
CONTINUOUS
 62
    30
 10
-295.7999999999447
 20
69.499999999936335
 30
0.0
  0
POINT
  8
DEFPOINTS
  6
CONTINUOUS
 62
    30
 10
-315.7999999999447
 20
3.9999999999363349
 30
0.0
  0
POINT
  8
DEFPOINTS
  6
CONTINUOUS
 62
    30
 10
-315.7999999999447
 20
-99.861295916720337
 30
0.0
  0
CIRCLE
  8
FIX
  6
CONTINUOUS
 62
    11
 10
340.00000000005821
 20
-0.0000000000636646
 30
0.0
 40
11.0
  0
LINE
  8
NOTE
  6
CONTINUOUS
 62
     4
 10
319.88724409459252
 20
-0.0000000000636646
 30
0.0
 11
360.1127559055239
 21
-0.0000000000636646
 31
0.0
  0
LINE
  8
NOTE
  6
CONTINUOUS
 62
     4
 10
340.00000000005821
 20
-20.112755905533049
 30
0.0
 11
340.00000000005821
 21
20.11275590540572
 31
0.0
  0
CIRCLE
  8
FIX
  6
CONTINUOUS
 62
    11
 10
-339.99999999993821
 20
-0.0000000000636646
 30
0.0
 40
11.0
  0
LINE
  8
NOTE
  6
CONTINUOUS
 62
     4
 10
-360.1127559054039
 20
-0.0000000000636646
 30
0.0
 11
-319.88724409447241
 21
-0.0000000000636646
 31
0.0
  0
LINE
  8
NOTE
  6
CONTINUOUS
 62
     4
 10
-339.99999999993821
 20
-20.112755905533049
 30
0.0
 11
-339.99999999993821
 21
20.11275590540572
 31
0.0
  0
LINE
  8
SIZE
  6
CONTINUOUS
 62
    30
 10
340.00000000005821
 20
-40.112755905533049
 30
0.0
 11
340.00000000005821
 21
-229.97252547161591
 31
0.0
  0
LINE
  8
SIZE
  6
CONTINUOUS
 62
    30
 10
369.50000000005821
 20
-17.700000000064389
 30
0.0
 11
369.50000000005821
 21
-229.97252547161591
 31
0.0
  0
LINE
  8
SIZE
  6
CONTINUOUS
 62
    30
 10
340.00000000005821
 20
-209.97252547161591
 30
0.0
 11
310.00000000005821
 21
-209.97252547161591
 31
0.0
  0
LINE
  8
SIZE
  6
CONTINUOUS
 62
    30
 10
369.50000000005821
 20
-209.97252547161591
 30
0.0
 11
579.21428571434387
 21
-209.97252547161591
 31
0.0
  0
LINE
  8
SIZE
  6
CONTINUOUS
 62
    30
 10
340.00000000005821
 20
-209.97252547161591
 30
0.0
 11
369.50000000005821
 21
-209.97252547161591
 31
0.0
  0
CIRCLE
  8
SIZE
  6
CONTINUOUS
 62
    30
 10
340.00000000005821
 20
-209.97252547161591
 30
0.0
 40
7.5
  0
CIRCLE
  8
SIZE
  6
CONTINUOUS
 62
    30
 10
369.50000000005821
 20
-209.97252547161591
 30
0.0
 40
7.5
  0
TEXT
  8
SIZE
  6
CONTINUOUS
 62
    30
 10
445.49714285720097
 20
-189.97252547161591
 30
0.0
 40
40.0
  1
29.5
 50
0.0
 41
0.9
 51
0.0
  7
STANDARD
 71
     0
 72
     1
 11
504.35714285720098
 21
-189.97252547161591
 31
0.0
210
0.0
220
0.0
230
1.0
  0
POINT
  8
DEFPOINTS
  6
CONTINUOUS
 62
    30
 10
340.00000000005821
 20
-20.112755905533049
 30
0.0
  0
POINT
  8
DEFPOINTS
  6
CONTINUOUS
 62
    30
 10
369.50000000005821
 20
2.2999999999356069
 30
0.0
  0
POINT
  8
DEFPOINTS
  6
CONTINUOUS
 62
    30
 10
369.50000000005821
 20
-209.97252547161591
 30
0.0
  0
LINE
  8
SIZE
  6
CONTINUOUS
 62
    30
 10
-339.99999999993821
 20
-40.112755905533049
 30
0.0
 11
-339.99999999993821
 21
-229.97252547161591
 31
0.0
  0
LINE
  8
SIZE
  6
CONTINUOUS
 62
    30
 10
-369.49999999994179
 20
-20.000000000063661
 30
0.0
 11
-369.49999999994179
 21
-229.97252547161591
 31
0.0
  0
LINE
  8
SIZE
  6
CONTINUOUS
 62
    30
 10
-339.99999999993821
 20
-209.97252547161591
 30
0.0
 11
-309.9999999999381
 21
-209.97252547161591
 31
0.0
  0
LINE
  8
SIZE
  6
CONTINUOUS
 62
    30
 10
-369.49999999994179
 20
-209.97252547161591
 30
0.0
 11
-579.21428571422734
 21
-209.97252547161591
 31
0.0
  0
LINE
  8
SIZE
  6
CONTINUOUS
 62
    30
 10
-339.99999999993821
 20
-209.97252547161591
 30
0.0
 11
-369.49999999994179
 21
-209.97252547161591
 31
0.0
  0
CIRCLE
  8
SIZE
  6
CONTINUOUS
 62
    30
 10
-339.99999999993821
 20
-209.97252547161591
 30
0.0
 40
7.5
  0
CIRCLE
  8
SIZE
  6
CONTINUOUS
 62
    30
 10
-369.49999999994179
 20
-209.97252547161591
 30
0.0
 40
7.5
  0
TEXT
  8
SIZE
  6
CONTINUOUS
 62
    30
 10
-563.21714285708458
 20
-189.97252547161591
 30
0.0
 40
40.0
  1
29.5
 50
0.0
 41
0.9
 51
0.0
  7
STANDARD
 71
     0
 72
     1
 11
-504.35714285708457
 21
-189.97252547161591
 31
0.0
210
0.0
220
0.0
230
1.0
  0
POINT
  8
DEFPOINTS
  6
CONTINUOUS
 62
    30
 10
-339.99999999993821
 20
-20.112755905533049
 30
0.0
  0
POINT
  8
DEFPOINTS
  6
CONTINUOUS
 62
    30
 10
-369.49999999994179
 20
-0.0000000000636646
 30
0.0
  0
POINT
  8
DEFPOINTS
  6
CONTINUOUS
 62
    30
 10
-369.49999999994179
 20
-209.97252547161591
 30
0.0
  0
LINE
  8
SIZE
  6
CONTINUOUS
 62
    30
 10
-339.99999999993821
 20
-40.112755905533049
 30
0.0
 11
-339.99999999993821
 21
-229.97252547161591
 31
0.0
  0
LINE
  8
SIZE
  6
CONTINUOUS
 62
    30
 10
340.00000000005821
 20
-40.112755905533049
 30
0.0
 11
340.00000000005821
 21
-229.97252547161591
 31
0.0
  0
LINE
  8
SIZE
  6
CONTINUOUS
 62
    30
 10
-339.99999999993821
 20
-209.97252547161591
 30
0.0
 11
340.00000000005821
 21
-209.97252547161591
 31
0.0
  0
CIRCLE
  8
SIZE
  6
CONTINUOUS
 62
    30
 10
-339.99999999993821
 20
-209.97252547161591
 30
0.0
 40
7.5
  0
CIRCLE
  8
SIZE
  6
CONTINUOUS
 62
    30
 10
340.00000000005821
 20
-209.97252547161591
 30
0.0
 40
7.5
  0
TEXT
  8
SIZE
  6
CONTINUOUS
 62
    30
 10
-193.31999999993994
 20
-179.4963349954254
 30
0.0
 40
40.0
  1
681(678~684)
 50
0.0
 41
0.9
 51
0.0
  7
STANDARD
 71
     0
 72
     1
 11
0.0000000000600267
 21
-179.4963349954254
 31
0.0
210
0.0
220
0.0
230
1.0
  0
POINT
  8
DEFPOINTS
  6
CONTINUOUS
 62
    30
 10
-339.99999999993821
 20
-20.112755905533049
 30
0.0
  0
POINT
  8
DEFPOINTS
  6
CONTINUOUS
 62
    30
 10
340.00000000005821
 20
-20.112755905533049
 30
0.0
  0
POINT
  8
DEFPOINTS
  6
CONTINUOUS
 62
    30
 10
340.00000000005821
 20
-209.97252547161591
 30
0.0
  0
TEXT
  8
SIZE
  6
CONTINUOUS
 62
    30
 10
-217.24829548249551
 20
-263.2495858912207
 30
0.0
 40
53.0
  1
(Mounting pitch) 
 50
359.99999749547919
 41
0.51
  7
KAIGAI_STANDARD_1
  0
LINE
  8
SIZE
  6
CONTINUOUS
 62
    30
 10
369.50000000005821
 20
-17.700000000064389
 30
0.0
 11
369.50000000005821
 21
-507.90998146672609
 31
0.0
  0
LINE
  8
SIZE
  6
CONTINUOUS
 62
    30
 10
-369.49999999994179
 20
-20.000000000063661
 30
0.0
 11
-369.49999999994179
 21
-507.90998146672609
 31
0.0
  0
LINE
  8
SIZE
  6
CONTINUOUS
 62
    30
 10
369.50000000005821
 20
-487.90998146672598
 30
0.0
 11
-369.49999999994179
 21
-487.90998146672598
 31
0.0
  0
CIRCLE
  8
SIZE
  6
CONTINUOUS
 62
    30
 10
369.50000000005821
 20
-487.90998146672598
 30
0.0
 40
7.5
  0
CIRCLE
  8
SIZE
  6
CONTINUOUS
 62
    30
 10
-369.49999999994179
 20
-487.90998146672598
 30
0.0
 40
7.5
  0
TEXT
  8
SIZE
  6
CONTINUOUS
 62
    30
 10
-74.699999999941852
 20
-457.43379099053561
 30
0.0
 40
40.0
  1
(740)
 50
0.0
 41
0.9
 51
0.0
  7
STANDARD
 71
     0
 72
     1
 11
0.0000000000581508
 21
-457.43379099053561
 31
0.0
210
0.0
220
0.0
230
1.0
  0
POINT
  8
DEFPOINTS
  6
CONTINUOUS
 62
    30
 10
369.50000000005821
 20
2.2999999999356069
 30
0.0
  0
POINT
  8
DEFPOINTS
  6
CONTINUOUS
 62
    30
 10
-369.49999999994179
 20
-0.0000000000636646
 30
0.0
  0
POINT
  8
DEFPOINTS
  6
CONTINUOUS
 62
    30
 10
-369.49999999994179
 20
-487.90998146672598
 30
0.0
  0
LINE
  8
BASIS
  6
DASHDOT
 62
     6
 10
0.0000000000582077
 20
-22.855693145056652
 30
0.0
 11
0.0000000000545697
 21
1899.574261272415
 31
0.0
  0
CIRCLE
  8
ARRANGE
  6
CONTINUOUS
 62
     1
 10
0.0
 20
0.0
 30
0.0
 40
20.0
  0
LINE
  8
ARRANGE
  6
CONTINUOUS
 62
     1
 10
-28.284271247463039
 20
28.284271247463039
 30
0.0
 11
28.28427124745577
 21
-28.28427124746668
 31
0.0
  0
LINE
  8
ARRANGE
  6
CONTINUOUS
 62
     1
 10
28.284271247463039
 20
28.284271247463039
 30
0.0
 11
-28.284271247463039
 21
-28.28427124746122
 31
0.0
  0
TEXT
  8
NOTE
  6
CONTINUOUS
 62
     4
 10
-167.44761643299711
 20
1933.3737974149719
 30
0.0
 40
53.0
  1
Discharge air
 50
359.99999749547919
 41
0.51
  7
KAIGAI_STANDARD_1
  0
LINE
  8
NOTE
  6
CONTINUOUS
 62
     4
 10
597.9281691261458
 20
1045.829108336193
 30
0.0
 11
597.9281691261458
 21
1095.829108336193
 31
0.0
  0
LINE
  8
NOTE
  6
CONTINUOUS
 62
     4
 10
557.24208212614747
 20
1095.829108336193
 30
0.0
 11
597.9281691261458
 21
1095.829108336193
 31
0.0
  0
LINE
  8
NOTE
  6
CONTINUOUS
 62
     4
 10
557.24208212614747
 20
1045.829108336193
 30
0.0
 11
597.9281691261458
 21
1045.829108336193
 31
0.0
  0
LINE
  8
NOTE
  6
CONTINUOUS
 62
     4
 10
557.24208212614747
 20
1045.829108336193
 30
0.0
 11
557.24208212614747
 21
1020.829108336193
 31
0.0
  0
LINE
  8
NOTE
  6
CONTINUOUS
 62
     4
 10
557.24208212614747
 20
1120.8291083361919
 30
0.0
 11
557.24208212614747
 21
1095.829108336193
 31
0.0
  0
LINE
  8
NOTE
  6
CONTINUOUS
 62
     4
 10
557.24208212614747
 20
1120.8291083361919
 30
0.0
 11
507.3460371261462
 21
1070.829108336193
 31
0.0
  0
LINE
  8
NOTE
  6
CONTINUOUS
 62
     4
 10
507.3460371261462
 20
1070.829108336193
 30
0.0
 11
557.24208212614747
 21
1020.829108336193
 31
0.0
  0
LINE
  8
NOTE
  6
CONTINUOUS
 62
     4
 10
597.92816912614205
 20
1316.1644273361919
 30
0.0
 11
597.92816912614205
 21
1366.1644273361919
 31
0.0
  0
LINE
  8
NOTE
  6
CONTINUOUS
 62
     4
 10
557.24208212614394
 20
1366.1644273361919
 30
0.0
 11
597.92816912614205
 21
1366.1644273361919
 31
0.0
  0
LINE
  8
NOTE
  6
CONTINUOUS
 62
     4
 10
557.24208212614394
 20
1316.1644273361919
 30
0.0
 11
597.92816912614205
 21
1316.1644273361919
 31
0.0
  0
LINE
  8
NOTE
  6
CONTINUOUS
 62
     4
 10
557.24208212614394
 20
1316.1644273361919
 30
0.0
 11
557.24208212614394
 21
1291.1644273361919
 31
0.0
  0
LINE
  8
NOTE
  6
CONTINUOUS
 62
     4
 10
557.24208212614394
 20
1391.1644273361919
 30
0.0
 11
557.24208212614394
 21
1366.1644273361919
 31
0.0
  0
LINE
  8
NOTE
  6
CONTINUOUS
 62
     4
 10
557.24208212614394
 20
1391.1644273361919
 30
0.0
 11
507.34603612614228
 21
1341.1644273361919
 31
0.0
  0
LINE
  8
NOTE
  6
CONTINUOUS
 62
     4
 10
507.34603612614228
 20
1341.1644273361919
 30
0.0
 11
557.24208212614394
 21
1291.1644273361919
 31
0.0
  0
TEXT
  8
NOTE
  6
CONTINUOUS
 62
     4
 10
493.07609906122889
 20
1216.9810318316979
 30
0.0
 40
53.0
  1
Intake
 50
359.99999749547919
 41
0.51
  7
KAIGAI_STANDARD_1
  0
LINE
  8
NOTE
  6
CONTINUOUS
 62
     4
 10
557.24208212614394
 20
1316.1644273361919
 30
0.0
 11
597.92816912614205
 21
1316.1644273361919
 31
0.0
  0
LINE
  8
NOTE
  6
CONTINUOUS
 62
     4
 10
557.24208212614394
 20
1316.1644273361919
 30
0.0
 11
557.24208212614394
 21
1291.1644273361919
 31
0.0
  0
TEXT
  8
NOTE
  6
CONTINUOUS
 62
     4
 10
493.07609906122889
 20
1150.3740731045559
 30
0.0
 40
53.0
  1
air
 50
359.99999749547919
 41
0.51
  7
KAIGAI_STANDARD_1
  0
LINE
  8
NOTE
  6
CONTINUOUS
 62
     4
 10
-633.36751790616472
 20
1045.829108336193
 30
0.0
 11
-633.36751790616472
 21
1095.829108336193
 31
0.0
  0
LINE
  8
NOTE
  6
CONTINUOUS
 62
     4
 10
-592.6814309061665
 20
1095.829108336193
 30
0.0
 11
-633.36751790616472
 21
1095.829108336193
 31
0.0
  0
LINE
  8
NOTE
  6
CONTINUOUS
 62
     4
 10
-592.6814309061665
 20
1045.829108336193
 30
0.0
 11
-633.36751790616472
 21
1045.829108336193
 31
0.0
  0
LINE
  8
NOTE
  6
CONTINUOUS
 62
     4
 10
-592.6814309061665
 20
1045.829108336193
 30
0.0
 11
-592.6814309061665
 21
1020.829108336193
 31
0.0
  0
LINE
  8
NOTE
  6
CONTINUOUS
 62
     4
 10
-592.6814309061665
 20
1120.8291083361919
 30
0.0
 11
-592.6814309061665
 21
1095.829108336193
 31
0.0
  0
LINE
  8
NOTE
  6
CONTINUOUS
 62
     4
 10
-592.6814309061665
 20
1120.8291083361919
 30
0.0
 11
-542.78538590616506
 21
1070.829108336193
 31
0.0
  0
LINE
  8
NOTE
  6
CONTINUOUS
 62
     4
 10
-542.78538590616506
 20
1070.829108336193
 30
0.0
 11
-592.6814309061665
 21
1020.829108336193
 31
0.0
  0
LINE
  8
NOTE
  6
CONTINUOUS
 62
     4
 10
-633.36751790616108
 20
1316.1644273361919
 30
0.0
 11
-633.36751790616108
 21
1366.1644273361919
 31
0.0
  0
LINE
  8
NOTE
  6
CONTINUOUS
 62
     4
 10
-592.68143090616275
 20
1366.1644273361919
 30
0.0
 11
-633.36751790616108
 21
1366.1644273361919
 31
0.0
  0
LINE
  8
NOTE
  6
CONTINUOUS
 62
     4
 10
-592.68143090616275
 20
1316.1644273361919
 30
0.0
 11
-633.36751790616108
 21
1316.1644273361919
 31
0.0
  0
LINE
  8
NOTE
  6
CONTINUOUS
 62
     4
 10
-592.68143090616275
 20
1316.1644273361919
 30
0.0
 11
-592.68143090616275
 21
1291.1644273361919
 31
0.0
  0
LINE
  8
NOTE
  6
CONTINUOUS
 62
     4
 10
-592.68143090616275
 20
1391.1644273361919
 30
0.0
 11
-592.68143090616275
 21
1366.1644273361919
 31
0.0
  0
LINE
  8
NOTE
  6
CONTINUOUS
 62
     4
 10
-592.68143090616275
 20
1391.1644273361919
 30
0.0
 11
-542.78538490616108
 21
1341.1644273361919
 31
0.0
  0
LINE
  8
NOTE
  6
CONTINUOUS
 62
     4
 10
-542.78538490616108
 20
1341.1644273361919
 30
0.0
 11
-592.68143090616275
 21
1291.1644273361919
 31
0.0
  0
TEXT
  8
NOTE
  6
CONTINUOUS
 62
     4
 10
-688.14386900819579
 20
1216.981038500807
 30
0.0
 40
53.0
  1
Intake
 50
359.99999749547919
 41
0.51
  7
KAIGAI_STANDARD_1
  0
TEXT
  8
NOTE
  6
CONTINUOUS
 62
     4
 10
-684.93765206576415
 20
1150.374075727241
 30
0.0
 40
53.0
  1
air
 50
359.99999749547919
 41
0.51
  7
KAIGAI_STANDARD_1
  0
LINE
  8
SIZE
  6
CONTINUOUS
 62
    30
 10
377.50000000005821
 20
1858.0999999999369
 30
0.0
 11
707.60829517644015
 21
1858.099999999936
 31
0.0
  0
LINE
  8
SIZE
  6
CONTINUOUS
 62
    30
 10
389.65294346098381
 20
1555.0683798143641
 30
0.0
 11
707.60829517644015
 21
1555.068379814363
 31
0.0
  0
LINE
  8
SIZE
  6
CONTINUOUS
 62
    30
 10
687.60829517644015
 20
1858.099999999936
 30
0.0
 11
687.60829517644015
 21
1555.068379814363
 31
0.0
  0
CIRCLE
  8
SIZE
  6
CONTINUOUS
 62
    30
 10
687.60829517644015
 20
1858.099999999936
 30
0.0
 40
7.5
  0
CIRCLE
  8
SIZE
  6
CONTINUOUS
 62
    30
 10
687.60829517644015
 20
1555.068379814363
 30
0.0
 40
7.5
  0
TEXT
  8
SIZE
  6
CONTINUOUS
 62
    30
 10
667.60829517643992
 20
1656.0041899071498
 30
0.0
 40
40.0
  1
303
 50
90.0
 41
0.9
 51
0.0
  7
STANDARD
 71
     0
 72
     1
 11
667.60829517643992
 21
1706.5841899071499
 31
0.0
210
0.0
220
0.0
230
1.0
  0
POINT
  8
DEFPOINTS
  6
CONTINUOUS
 62
    30
 10
357.50000000005821
 20
1858.0999999999369
 30
0.0
  0
POINT
  8
DEFPOINTS
  6
CONTINUOUS
 62
    30
 10
369.65294346098381
 20
1555.0683798143641
 30
0.0
  0
POINT
  8
DEFPOINTS
  6
CONTINUOUS
 62
    30
 10
687.60829517644015
 20
1555.068379814363
 30
0.0
  0
LINE
  8
SIZE
  6
CONTINUOUS
 62
    30
 10
389.65294346098011
 20
1555.068379814365
 30
0.0
 11
707.60829517644049
 21
1555.0683798143641
 31
0.0
  0
LINE
  8
SIZE
  6
CONTINUOUS
 62
    30
 10
389.50000000005821
 20
59.999999999936328
 30
0.0
 11
707.60829517644015
 21
59.999999999936243
 31
0.0
  0
LINE
  8
SIZE
  6
CONTINUOUS
 62
    30
 10
687.60829517644049
 20
1555.0683798143641
 30
0.0
 11
687.60829517644015
 21
59.99999999993625
 31
0.0
  0
CIRCLE
  8
SIZE
  6
CONTINUOUS
 62
    30
 10
687.60829517644049
 20
1555.0683798143641
 30
0.0
 40
7.5
  0
CIRCLE
  8
SIZE
  6
CONTINUOUS
 62
    30
 10
687.60829517644015
 20
59.99999999993625
 30
0.0
 40
7.5
  0
TEXT
  8
SIZE
  6
CONTINUOUS
 62
    30
 10
667.60829517644015
 20
744.31418990715531
 30
0.0
 40
40.0
  1
1495
 50
90.0
 41
0.9
 51
0.0
  7
STANDARD
 71
     0
 72
     1
 11
667.60829517644015
 21
808.03418990715534
 31
0.0
210
0.0
220
0.0
230
1.0
  0
POINT
  8
DEFPOINTS
  6
CONTINUOUS
 62
    30
 10
369.65294346098023
 20
1555.068379814365
 30
0.0
  0
POINT
  8
DEFPOINTS
  6
CONTINUOUS
 62
    30
 10
369.50000000005821
 20
59.999999999936328
 30
0.0
  0
POINT
  8
DEFPOINTS
  6
CONTINUOUS
 62
    30
 10
687.60829517644015
 20
59.99999999993625
 30
0.0
  0
LINE
  8
SIZE
  6
CONTINUOUS
 62
    30
 10
389.50000000005821
 20
59.999999999936328
 30
0.0
 11
792.3488582112476
 21
59.999999999936207
 31
0.0
  0
LINE
  8
SIZE
  6
CONTINUOUS
 62
    30
 10
377.50000000005821
 20
1858.0999999999369
 30
0.0
 11
792.34885821124794
 21
1858.099999999936
 31
0.0
  0
LINE
  8
SIZE
  6
CONTINUOUS
 62
    30
 10
772.3488582112476
 20
59.999999999936222
 30
0.0
 11
772.34885821124794
 21
1858.099999999936
 31
0.0
  0
CIRCLE
  8
SIZE
  6
CONTINUOUS
 62
    30
 10
772.3488582112476
 20
59.999999999936222
 30
0.0
 40
7.5
  0
CIRCLE
  8
SIZE
  6
CONTINUOUS
 62
    30
 10
772.34885821124794
 20
1858.099999999936
 30
0.0
 40
7.5
  0
TEXT
  8
SIZE
  6
CONTINUOUS
 62
    30
 10
752.34885821124772
 20
896.18999999994105
 30
0.0
 40
40.0
  1
1798
 50
90.0
 41
0.9
 51
0.0
  7
STANDARD
 71
     0
 72
     1
 11
752.34885821124772
 21
959.54999999994106
 31
0.0
210
0.0
220
0.0
230
1.0
  0
POINT
  8
DEFPOINTS
  6
CONTINUOUS
 62
    30
 10
369.50000000005821
 20
59.999999999936328
 30
0.0
  0
POINT
  8
DEFPOINTS
  6
CONTINUOUS
 62
    30
 10
357.50000000005821
 20
1858.0999999999369
 30
0.0
  0
POINT
  8
DEFPOINTS
  6
CONTINUOUS
 62
    30
 10
772.34885821124794
 20
1858.099999999936
 30
0.0
  0
LINE
  8
SIZE
  6
CONTINUOUS
 62
    30
 10
389.50000000005821
 20
-0.0000000000636703
 30
0.0
 11
882.14401423493098
 21
-0.0000000000638098
 31
0.0
  0
LINE
  8
SIZE
  6
CONTINUOUS
 62
    30
 10
377.50000000005821
 20
1858.0999999999369
 30
0.0
 11
882.14401423493132
 21
1858.099999999936
 31
0.0
  0
LINE
  8
SIZE
  6
CONTINUOUS
 62
    30
 10
862.14401423493098
 20
-0.0000000000638042
 30
0.0
 11
862.14401423493143
 21
1858.099999999936
 31
0.0
  0
CIRCLE
  8
SIZE
  6
CONTINUOUS
 62
    30
 10
862.14401423493098
 20
-0.0000000000638042
 30
0.0
 40
7.5
  0
CIRCLE
  8
SIZE
  6
CONTINUOUS
 62
    30
 10
862.14401423493143
 20
1858.099999999936
 30
0.0
 40
7.5
  0
TEXT
  8
SIZE
  6
CONTINUOUS
 62
    30
 10
842.14401423493098
 20
866.18999999994094
 30
0.0
 40
40.0
  1
1858
 50
90.0
 41
0.9
 51
0.0
  7
STANDARD
 71
     0
 72
     1
 11
842.14401423493098
 21
929.54999999994095
 31
0.0
210
0.0
220
0.0
230
1.0
  0
POINT
  8
DEFPOINTS
  6
CONTINUOUS
 62
    30
 10
369.50000000005821
 20
-0.0000000000636646
 30
0.0
  0
POINT
  8
DEFPOINTS
  6
CONTINUOUS
 62
    30
 10
357.50000000005821
 20
1858.0999999999369
 30
0.0
  0
POINT
  8
DEFPOINTS
  6
CONTINUOUS
 62
    30
 10
862.14401423493143
 20
1858.099999999936
 30
0.0
  0
LINE
  8
NOTE
  6
CONTINUOUS
 62
     4
 10
167.23244043602969
 20
198.83145557403981
 30
0.0
 11
188.50294372525241
 21
176.19999999993701
 31
0.0
  0
LINE
  8
NOTE
  6
CONTINUOUS
 62
     4
 10
188.50294372525241
 20
176.19999999993701
 30
0.0
 11
158.76641977912001
 21
185.16416394201769
 31
0.0
  0
LINE
  8
NOTE
  6
CONTINUOUS
 62
     4
 10
188.50294372525241
 20
176.19999999993701
 30
0.0
 11
162.99943010757491
 21
191.99780975802781
 31
0.0
  0
LINE
  8
NOTE
  6
CONTINUOUS
 62
     4
 10
162.99943010757491
 20
191.99780975802781
 30
0.0
 11
-515.27668536500266
 21
612.14686044668815
 31
0.0
  0
LINE
  8
NOTE
  6
CONTINUOUS
 62
     4
 10
-515.27668536500266
 20
612.14686044668815
 30
0.0
 11
-1304.51602985659
 21
612.14686044668815
 31
0.0
  0
LINE
  8
NOTE
  6
CONTINUOUS
 62
     4
 10
145.66360057357451
 20
193.43210483565781
 30
0.0
 11
171.50294372525241
 21
176.19999999993701
 31
0.0
  0
LINE
  8
NOTE
  6
CONTINUOUS
 62
     4
 10
171.50294372525241
 20
176.19999999993701
 30
0.0
 11
140.5093637300233
 21
178.20376911311169
 31
0.0
  0
LINE
  8
NOTE
  6
CONTINUOUS
 62
     4
 10
171.50294372525241
 20
176.19999999993701
 30
0.0
 11
143.08648215180071
 21
185.81793697438479
 31
0.0
  0
LINE
  8
NOTE
  6
CONTINUOUS
 62
     4
 10
143.08648215180071
 20
185.81793697438479
 30
0.0
 11
-517.22291447748285
 21
409.30861134985929
 31
0.0
  0
LINE
  8
NOTE
  6
CONTINUOUS
 62
     4
 10
-517.22291447748285
 20
409.30861134985929
 30
0.0
 11
-1304.51602985659
 21
409.30861134985929
 31
0.0
  0
LINE
  8
NOTE
  6
CONTINUOUS
 62
     4
 10
-345.7024187344432
 20
30.53030481590395
 30
0.0
 11
-339.99999999993821
 21
-0.0000000000636646
 31
0.0
  0
LINE
  8
NOTE
  6
CONTINUOUS
 62
     4
 10
-339.99999999993821
 20
-0.0000000000636646
 30
0.0
 11
-360.20359178800572
 21
23.588810280249159
 31
0.0
  0
LINE
  8
NOTE
  6
CONTINUOUS
 62
     4
 10
-339.99999999993821
 20
-0.0000000000636646
 30
0.0
 11
-352.95300526122452
 21
27.059557548076562
 31
0.0
  0
LINE
  8
NOTE
  6
CONTINUOUS
 62
     4
 10
-352.95300526122452
 20
27.059557548076562
 30
0.0
 11
-433.00451228830201
 21
194.29166450079541
 31
0.0
  0
LINE
  8
NOTE
  6
CONTINUOUS
 62
     4
 10
-433.00451228830201
 20
194.29166450079541
 30
0.0
 11
-1553.4960231729819
 21
194.29166450079541
 31
0.0
  0
TEXT
  8
NOTE
  6
CONTINUOUS
 62
     4
 10
-1543.720090511848
 20
215.16359381206351
 30
0.0
 40
53.0
  1
2X2-14X20 Oval hole(without detachable leg)
 50
359.99999749547919
 41
0.51
  7
KAIGAI_STANDARD_1
  0
TEXT
  8
NOTE
  6
CONTINUOUS
 62
     4
 10
-1545.4409079295219
 20
285.48804350649328
 30
0.0
 40
53.0
  1
2x2-14x31 Oval hole
 50
359.99999749547919
 41
0.51
  7
KAIGAI_STANDARD_1
  0
TEXT
  8
ETC
  6
CONTINUOUS
 62
    61
 10
-1295.920818439321
 20
2055.2319685173079
 30
0.0
 40
70.0
  1
PUHY-EM300YNW-A1_5
 41
0.9
  0
LINE
  8
OUTLINE
  6
CONTINUOUS
 62
     3
 10
370.28091039835272
 20
1522.4999999999361
 30
0.0
 11
365.50000000005821
 21
1522.4999999999361
 31
0.0
  0
LINE
  8
OUTLINE
  6
CONTINUOUS
 62
     3
 10
369.65294346098023
 20
1555.068379814365
 30
0.0
 11
-369.65294346005982
 21
1555.0683798143641
 31
0.0
  0
TEXT
  8
NOTE
  6
CONTINUOUS
 62
     4
 10
-1281.287089741887
 20
633.99033939456604
 30
0.0
 40
53.0
  1
Service valve %%C22.2<Gas> 
 50
359.99999749547919
 41
0.51
  7
KAIGAI_STANDARD_1
  0
TEXT
  8
NOTE
  6
CONTINUOUS
 62
     4
 10
-1281.070776392251
 20
712.24272962662315
 30
0.0
 40
53.0
  1
For Refrigerant pipe %%C28.58
 50
359.99999749547919
 41
0.51
  7
KAIGAI_STANDARD_1
  0
TEXT
  8
NOTE
  6
CONTINUOUS
 62
     4
 10
-1283.1444835806581
 20
431.6976499172851
 30
0.0
 40
53.0
  1
Service valve %%C9.52<Liquid> 
 50
359.99999749547919
 41
0.51
  7
KAIGAI_STANDARD_1
  0
TEXT
  8
NOTE
  6
CONTINUOUS
 62
     4
 10
-1282.928170231022
 20
509.95004014934051
 30
0.0
 40
53.0
  1
For Refrigerant pipe %%C9.52 
 50
359.99999749547919
 41
0.51
  7
KAIGAI_STANDARD_1
  0
LINE
  8
OUTLINE
  6
CONTINUOUS
 62
     3
 10
360.00000000005821
 20
1817.0999999999369
 30
0.0
 11
360.00000000005821
 21
1816.999999999937
 31
0.0
  0
LINE
  8
OUTLINE
  6
CONTINUOUS
 62
     3
 10
362.7000000000553
 20
1815.999999999937
 30
0.0
 11
360.81566987905541
 21
1815.999999999937
 31
0.0
  0
ARC
  8
OUTLINE
  6
CONTINUOUS
 62
     3
 10
360.99999996325641
 20
1816.9999999644369
 30
0.0
 40
0.9999999645999999
 50
179.99999796957781
 51
261.03604264178222
  0
ARC
  8
OUTLINE
  6
CONTINUOUS
 62
     3
 10
362.7000000000553
 20
1815.6999999999359
 30
0.0
 40
0.3
 50
0.0
 51
90.0
  0
LINE
  8
OUTLINE
  6
CONTINUOUS
 62
     3
 10
363.00000000005821
 20
1817.0999999999369
 30
0.0
 11
360.00000000005821
 21
1817.0999999999369
 31
0.0
  0
LINE
  8
SIZE
  6
CONTINUOUS
 62
    30
 10
389.50000000005821
 20
-0.0000000000636703
 30
0.0
 11
792.34885821124772
 21
-0.0000000000637844
 31
0.0
  0
LINE
  8
SIZE
  6
CONTINUOUS
 62
    30
 10
389.50000000005821
 20
59.999999999936328
 30
0.0
 11
792.34885821124772
 21
59.999999999936207
 31
0.0
  0
LINE
  8
SIZE
  6
CONTINUOUS
 62
    30
 10
772.34885821124772
 20
59.999999999936222
 30
0.0
 11
772.34885821124772
 21
-0.0000000000637787
 31
0.0
  0
LINE
  8
SIZE
  6
CONTINUOUS
 62
    30
 10
772.34885821124772
 20
-0.0000000000637787
 30
0.0
 11
772.34885821124772
 21
-174.57142857149231
 31
0.0
  0
CIRCLE
  8
SIZE
  6
CONTINUOUS
 62
    30
 10
772.34885821124772
 20
59.999999999936222
 30
0.0
 40
7.5
  0
CIRCLE
  8
SIZE
  6
CONTINUOUS
 62
    30
 10
772.34885821124772
 20
-0.0000000000637787
 30
0.0
 40
7.5
  0
TEXT
  8
SIZE
  6
CONTINUOUS
 62
    30
 10
741.87266773505723
 20
-159.88571428577791
 30
0.0
 40
40.0
  1
(60)
 50
90.0
 41
0.9
 51
0.0
  7
STANDARD
 71
     0
 72
     1
 11
741.87266773505723
 21
-102.2857142857779
 31
0.0
210
0.0
220
0.0
230
1.0
  0
POINT
  8
DEFPOINTS
  6
CONTINUOUS
 62
    30
 10
369.50000000005821
 20
-0.0000000000636646
 30
0.0
  0
POINT
  8
DEFPOINTS
  6
CONTINUOUS
 62
    30
 10
369.50000000005821
 20
59.999999999936328
 30
0.0
  0
POINT
  8
DEFPOINTS
  6
CONTINUOUS
 62
    30
 10
772.34885821124772
 20
59.999999999936222
 30
0.0
  0
LINE
  8
NOTE
  6
CONTINUOUS
 62
     4
 10
136.00294372525241
 20
176.19999999993701
 30
0.0
 11
207.00294372525241
 21
176.19999999993701
 31
0.0
  0
LINE
  8
NOTE
  6
CONTINUOUS
 62
     4
 10
171.50294372525241
 20
140.69999999993709
 30
0.0
 11
171.50294372525241
 21
211.69999999993709
 31
0.0
  0
LINE
  8
SIZE
  6
CONTINUOUS
 62
    30
 10
171.50294372525241
 20
231.69999999993709
 30
0.0
 11
171.50294372525241
 21
607.04078901829587
 31
0.0
  0
LINE
  8
SIZE
  6
CONTINUOUS
 62
    30
 10
369.50000000005821
 20
196.19999999993701
 30
0.0
 11
369.50000000005821
 21
607.04078901829587
 31
0.0
  0
LINE
  8
SIZE
  6
CONTINUOUS
 62
    30
 10
171.50294372525241
 20
587.04078901829587
 30
0.0
 11
369.50000000005821
 21
587.04078901829587
 31
0.0
  0
LINE
  8
SIZE
  6
CONTINUOUS
 62
    30
 10
369.50000000005821
 20
587.04078901829587
 30
0.0
 11
525.21428571434376
 21
587.04078901829587
 31
0.0
  0
CIRCLE
  8
SIZE
  6
CONTINUOUS
 62
    30
 10
171.50294372525241
 20
587.04078901829587
 30
0.0
 40
7.5
  0
CIRCLE
  8
SIZE
  6
CONTINUOUS
 62
    30
 10
369.50000000005821
 20
587.04078901829587
 30
0.0
 40
7.5
  0
TEXT
  8
SIZE
  6
CONTINUOUS
 62
    30
 10
415.73714285720098
 20
607.04078901829587
 30
0.0
 40
40.0
  1
198
 50
0.0
 41
0.9
 51
0.0
  7
STANDARD
 71
     0
 72
     1
 11
462.35714285720098
 21
607.04078901829587
 31
0.0
210
0.0
220
0.0
230
1.0
  0
POINT
  8
DEFPOINTS
  6
CONTINUOUS
 62
    30
 10
171.50294372525241
 20
211.69999999993709
 30
0.0
  0
POINT
  8
DEFPOINTS
  6
CONTINUOUS
 62
    30
 10
369.50000000005821
 20
176.19999999993701
 30
0.0
  0
POINT
  8
DEFPOINTS
  6
CONTINUOUS
 62
    30
 10
369.50000000005821
 20
587.04078901829587
 30
0.0
  0
ENDSEC
  0
EOF

