  0
SECTION
  2
HEADER
  9
$ACADVER
  1
AC1006
  9
$INSBASE
 10
0.0
 20
0.0
 30
0.0
  9
$EXTMIN
 10
-1294.463019307866
 20
-508.48240149521371
  9
$EXTMAX
 10
1519.477582117582
 20
2142.7562885776128
  9
$LIMMIN
 10
-4267.1522210604817
 20
-2696.0832101984129
  9
$LIMMAX
 10
7190.7174225864646
 20
5141.155363923066
  9
$ORTHOMODE
 70
     0
  9
$REGENMODE
 70
     1
  9
$FILLMODE
 70
     1
  9
$QTEXTMODE
 70
     0
  9
$MIRRTEXT
 70
     0
  9
$LTSCALE
 40
20.0
  9
$ATTMODE
 70
     1
  9
$TEXTSIZE
 40
53.0
  9
$TRACEWID
 40
0.05
  9
$TEXTSTYLE
  7
KAIGAI_STANDARD_1
  9
$CLAYER
  8
NOTE
  9
$CELTYPE
  6
CONTINUOUS
  9
$CECOLOR
 62
     7
  9
$DIMSCALE
 40
1.0
  9
$DIMASZ
 40
30.0
  9
$DIMEXO
 40
20.0
  9
$DIMDLI
 40
80.0
  9
$DIMRND
 40
0.0
  9
$DIMDLE
 40
0.0
  9
$DIMEXE
 40
20.0
  9
$DIMTP
 40
0.0
  9
$DIMTM
 40
0.0
  9
$DIMTXT
 40
40.0
  9
$DIMCEN
 40
0.09
  9
$DIMTSZ
 40
0.0
  9
$DIMTOL
 70
     0
  9
$DIMLIM
 70
     0
  9
$DIMTIH
 70
     0
  9
$DIMTOH
 70
     0
  9
$DIMSE1
 70
     0
  9
$DIMSE2
 70
     0
  9
$DIMTAD
 70
     1
  9
$DIMZIN
 70
     8
  9
$DIMBLK
  1

  9
$DIMASO
 70
     1
  9
$DIMSHO
 70
     0
  9
$DIMPOST
  1

  9
$DIMAPOST
  1

  9
$DIMALT
 70
     0
  9
$DIMALTD
 70
     2
  9
$DIMALTF
 40
25.399999999999999
  9
$DIMLFAC
 40
1.0
  9
$DIMTOFL
 70
     1
  9
$DIMTVP
 40
0.0
  9
$DIMTIX
 70
     0
  9
$DIMSOXD
 70
     0
  9
$DIMSAH
 70
     0
  9
$DIMBLK1
  1

  9
$DIMBLK2
  1

  9
$LUNITS
 70
     2
  9
$LUPREC
 70
     4
  9
$SKETCHINC
 40
0.1
  9
$FILLETRAD
 40
0.0
  9
$AUNITS
 70
     1
  9
$AUPREC
 70
     3
  9
$MENU
  1
ACAD
  9
$ELEVATION
 40
0.0
  9
$THICKNESS
 40
0.0
  9
$LIMCHECK
 70
     0
  9
$CHAMFERA
 40
0.0
  9
$CHAMFERB
 40
0.0
  9
$SKPOLY
 70
     0
  9
$TDCREATE
 40
2455902.607169062
  9
$TDUPDATE
 40
2457837.412253322
  9
$TDINDWG
 40
1.6379970139
  9
$TDUSRTIMER
 40
1.6379934028
  9
$USRTIMER
 70
     1
  9
$ANGBASE
 50
0.0
  9
$ANGDIR
 70
     0
  9
$PDMODE
 70
     3
  9
$PDSIZE
 40
-2.0
  9
$PLINEWID
 40
0.0
  9
$SPLFRAME
 70
     0
  9
$SPLINETYPE
 70
     6
  9
$SPLINESEGS
 70
     8
  9
$SURFTAB1
 70
     6
  9
$SURFTAB2
 70
     6
  9
$SURFTYPE
 70
     6
  9
$SURFU
 70
     6
  9
$SURFV
 70
     6
  9
$UCSNAME
  2

  9
$UCSORG
 10
0.0
 20
0.0
 30
0.0
  9
$UCSXDIR
 10
1.0
 20
0.0
 30
0.0
  9
$UCSYDIR
 10
0.0
 20
1.0
 30
0.0
  9
$USERI1
 70
     0
  9
$USERI2
 70
     0
  9
$USERI3
 70
     0
  9
$USERI4
 70
     0
  9
$USERI5
 70
     0
  9
$USERR1
 40
20.0
  9
$USERR2
 40
0.0
  9
$USERR3
 40
0.0
  9
$USERR4
 40
0.0
  9
$USERR5
 40
0.0
  9
$WORLDVIEW
 70
     1
  9
$ATTDIA
 70
     0
  9
$ATTREQ
 70
     1
  9
$BLIPMODE
 70
     1
  9
$COORDS
 70
     1
  9
$DRAGMODE
 70
     2
  9
$OSMODE
 70
     0
  9
$HANDLING
 70
     0
  9
$HANDSEED
  5
99CF3
  0
ENDSEC
  0
SECTION
  2
TABLES
  0
TABLE
  2
LTYPE
 70
     2
  0
LTYPE
  2
CONTINUOUS
 70
     0
  3
実線
 72
    65
 73
     0
 40
0.0
  0
LTYPE
  2
DASHDOT
 70
     0
  3
____ _ ____ _ ____ _ ____ _ ____ _ ____ _ ____
 72
    65
 73
     4
 40
5.5
 49
4.0
 49
-0.6
 49
0.3
 49
-0.6
  0
ENDTAB
  0
TABLE
  2
LAYER
 70
    12
  0
LAYER
  2
0
 70
     0
 62
     7
  6
CONTINUOUS
  0
LAYER
  2
OUTLINE
 70
     0
 62
     3
  6
CONTINUOUS
  0
LAYER
  2
DETAIL
 70
     0
 62
     5
  6
CONTINUOUS
  0
LAYER
  2
BASIS
 70
     0
 62
     6
  6
DASHDOT
  0
LAYER
  2
SIZE
 70
     0
 62
    30
  6
CONTINUOUS
  0
LAYER
  2
NOTE
 70
     0
 62
     4
  6
CONTINUOUS
  0
LAYER
  2
ARRANGE
 70
     0
 62
     1
  6
CONTINUOUS
  0
LAYER
  2
FIX
 70
     0
 62
    11
  6
CONTINUOUS
  0
LAYER
  2
SERVICESPACE
 70
     0
 62
     2
  6
DASHDOT
  0
LAYER
  2
ETC
 70
     0
 62
    61
  6
CONTINUOUS
  0
LAYER
  2
SYMBOLLINE
 70
     0
 62
    15
  6
CONTINUOUS
  0
LAYER
  2
DEFPOINTS
 70
     0
 62
     7
  6
CONTINUOUS
  0
ENDTAB
  0
TABLE
  2
STYLE
 70
     2
  0
STYLE
  2
STANDARD
 70
     0
 40
0.0
 41
0.9
 50
0.0
 71
     0
 42
64.0
  3
SIMPLEX
  4
BIGFONT
  0
STYLE
  2
KAIGAI_STANDARD_1
 70
     0
 40
53.0
 41
0.51
 50
0.0
 71
     0
 42
53.0
  3
MONOTXT.shx
  4
BIGFONT.shx
  0
ENDTAB
  0
TABLE
  2
VIEW
 70
     1
  0
VIEW
  2
ALL
 70
     0
 40
9000.0
 10
241.50664699999999
 20
0.0
 41
12483.01
 11
0.0
 21
0.0
 31
1.0
 12
0.0
 22
0.0
 32
0.0
 42
50.0
 43
0.0
 44
0.0
 50
0.0
 71
     0
  0
ENDTAB
  0
TABLE
  2
UCS
 70
     0
  0
ENDTAB
  0
TABLE
  2
VPORT
 70
     1
  0
VPORT
  2
*ACTIVE
 70
     0
 10
0.0
 20
0.0
 11
1.0
 21
1.0
 12
112.5072814048583
 22
817.1369435411998
 13
0.0
 23
0.0
 14
50.0
 24
50.0
 15
100.0
 25
100.0
 16
0.0
 26
0.0
 36
1.0
 17
0.0
 27
0.0
 37
0.0
 40
2671.5029348377152
 41
2.3073979591836729
 42
50.0
 43
0.0
 44
0.0
 50
0.0
 51
0.0
 71
     0
 72
  1000
 73
     1
 74
     0
 75
     0
 76
     0
 77
     0
 78
     0
  0
ENDTAB
  0
TABLE
  2
DWGMGR
 70
     0
  0
ENDTAB
  0
ENDSEC
  0
SECTION
  2
BLOCKS
  0
ENDSEC
  0
SECTION
  2
ENTITIES
  0
LINE
  8
DETAIL
  6
CONTINUOUS
 62
     5
 10
-319.35355339065433
 20
1522.4999999999361
 30
0.0
 11
-319.35355339065433
 21
64.499999999934516
 31
0.0
  0
LINE
  8
DETAIL
  6
CONTINUOUS
 62
     5
 10
-318.29289321885148
 20
1522.4999999999361
 30
0.0
 11
-318.29289321885148
 21
64.499999999936335
 31
0.0
  0
LINE
  8
DETAIL
  6
CONTINUOUS
 62
     5
 10
369.65294346003787
 20
1555.0683798143741
 30
0.0
 11
-369.65294346100558
 21
1555.0683798143721
 31
0.0
  0
LINE
  8
DETAIL
  6
CONTINUOUS
 62
     5
 10
-369.50000000005821
 20
-0.0000000000636646
 30
0.0
 11
-317.00000000005821
 21
-0.0000000000636646
 31
0.0
  0
LINE
  8
DETAIL
  6
CONTINUOUS
 62
     5
 10
316.99999999994179
 20
-0.0000000000636646
 30
0.0
 11
369.49999999994179
 21
-0.0000000000636646
 31
0.0
  0
LINE
  8
DETAIL
  6
CONTINUOUS
 62
     5
 10
-369.50000000005821
 20
2.2999999999356069
 30
0.0
 11
-317.00000000005821
 21
2.2999999999356069
 31
0.0
  0
LINE
  8
DETAIL
  6
CONTINUOUS
 62
     5
 10
316.99999999994179
 20
2.2999999999356069
 30
0.0
 11
369.49999999994179
 21
2.2999999999356069
 31
0.0
  0
LINE
  8
DETAIL
  6
CONTINUOUS
 62
     5
 10
-319.50000000005821
 20
3.9999999999363349
 30
0.0
 11
-315.80000000006112
 21
3.9999999999363349
 31
0.0
  0
LINE
  8
DETAIL
  6
CONTINUOUS
 62
     5
 10
315.7999999999447
 20
3.9999999999363349
 30
0.0
 11
319.49999999994179
 21
3.9999999999363349
 31
0.0
  0
LINE
  8
DETAIL
  6
CONTINUOUS
 62
     5
 10
-319.50000000005821
 20
55.999999999936342
 30
0.0
 11
-315.80000000006112
 21
55.999999999936342
 31
0.0
  0
LINE
  8
DETAIL
  6
CONTINUOUS
 62
     5
 10
315.7999999999447
 20
55.999999999936342
 30
0.0
 11
319.49999999994179
 21
55.999999999936342
 31
0.0
  0
LINE
  8
DETAIL
  6
CONTINUOUS
 62
     5
 10
-369.50000000005821
 20
57.699999999937063
 30
0.0
 11
-317.00000000005821
 21
57.699999999937063
 31
0.0
  0
LINE
  8
DETAIL
  6
CONTINUOUS
 62
     5
 10
316.99999999994179
 20
57.699999999937063
 30
0.0
 11
369.49999999994179
 21
57.699999999937063
 31
0.0
  0
LINE
  8
DETAIL
  6
CONTINUOUS
 62
     5
 10
-369.50000000005821
 20
59.999999999936328
 30
0.0
 11
-317.00000000005821
 21
59.999999999936328
 31
0.0
  0
LINE
  8
DETAIL
  6
CONTINUOUS
 62
     5
 10
316.99999999994179
 20
59.999999999936328
 30
0.0
 11
369.49999999994179
 21
59.999999999936328
 31
0.0
  0
LINE
  8
DETAIL
  6
CONTINUOUS
 62
     5
 10
-369.50000000005821
 20
62.299999999935608
 30
0.0
 11
-319.00000000005821
 21
62.299999999935608
 31
0.0
  0
LINE
  8
DETAIL
  6
CONTINUOUS
 62
     5
 10
318.99999999994179
 20
62.299999999935608
 30
0.0
 11
369.49999999994179
 21
62.299999999935608
 31
0.0
  0
LINE
  8
DETAIL
  6
CONTINUOUS
 62
     5
 10
-320.46357325975259
 20
64.499999999936335
 30
0.0
 11
-300.80000000006112
 21
64.499999999936335
 31
0.0
  0
LINE
  8
DETAIL
  6
CONTINUOUS
 62
     5
 10
300.7999999999447
 20
64.499999999936335
 30
0.0
 11
320.46357325964351
 21
64.499999999936335
 31
0.0
  0
LINE
  8
DETAIL
  6
CONTINUOUS
 62
     5
 10
-306.8094010768545
 20
70.499999999936335
 30
0.0
 11
-302.1905989233565
 21
70.499999999936335
 31
0.0
  0
LINE
  8
DETAIL
  6
CONTINUOUS
 62
     5
 10
302.19059892314539
 20
70.499999999936335
 30
0.0
 11
306.80940107664361
 21
70.499999999936335
 31
0.0
  0
LINE
  8
DETAIL
  6
CONTINUOUS
 62
     5
 10
-304.80000000006112
 20
72.499999999936335
 30
0.0
 11
-304.2000000000553
 21
72.499999999936335
 31
0.0
  0
LINE
  8
DETAIL
  6
CONTINUOUS
 62
     5
 10
304.19999999993888
 20
72.499999999936335
 30
0.0
 11
304.7999999999447
 21
72.499999999936335
 31
0.0
  0
LINE
  8
DETAIL
  6
CONTINUOUS
 62
     5
 10
-306.50000000005821
 20
74.199999999937063
 30
0.0
 11
-304.80000000006112
 21
74.199999999937063
 31
0.0
  0
LINE
  8
DETAIL
  6
CONTINUOUS
 62
     5
 10
-304.2000000000553
 20
74.199999999937063
 30
0.0
 11
-302.50000000005821
 21
74.199999999937063
 31
0.0
  0
LINE
  8
DETAIL
  6
CONTINUOUS
 62
     5
 10
302.49999999994179
 20
74.199999999937063
 30
0.0
 11
304.19999999993888
 21
74.199999999937063
 31
0.0
  0
LINE
  8
DETAIL
  6
CONTINUOUS
 62
     5
 10
304.7999999999447
 20
74.199999999937063
 30
0.0
 11
306.49999999994179
 21
74.199999999937063
 31
0.0
  0
LINE
  8
DETAIL
  6
CONTINUOUS
 62
     5
 10
306.49999999994179
 20
74.799999999935608
 30
0.0
 11
304.7999999999447
 21
74.799999999935608
 31
0.0
  0
LINE
  8
DETAIL
  6
CONTINUOUS
 62
     5
 10
304.19999999993888
 20
74.799999999935608
 30
0.0
 11
302.49999999994179
 21
74.799999999935608
 31
0.0
  0
LINE
  8
DETAIL
  6
CONTINUOUS
 62
     5
 10
-302.50000000005821
 20
74.799999999935608
 30
0.0
 11
-304.2000000000553
 21
74.799999999935608
 31
0.0
  0
LINE
  8
DETAIL
  6
CONTINUOUS
 62
     5
 10
-304.80000000006112
 20
74.799999999935608
 30
0.0
 11
-306.50000000005821
 21
74.799999999935608
 31
0.0
  0
LINE
  8
DETAIL
  6
CONTINUOUS
 62
     5
 10
304.7999999999447
 20
76.499999999936335
 30
0.0
 11
304.19999999993888
 21
76.499999999936335
 31
0.0
  0
LINE
  8
DETAIL
  6
CONTINUOUS
 62
     5
 10
-304.2000000000553
 20
76.499999999936335
 30
0.0
 11
-304.80000000006112
 21
76.499999999936335
 31
0.0
  0
LINE
  8
DETAIL
  6
CONTINUOUS
 62
     5
 10
-306.8094010768545
 20
78.499999999936335
 30
0.0
 11
-302.1905989233565
 21
78.499999999936335
 31
0.0
  0
LINE
  8
DETAIL
  6
CONTINUOUS
 62
     5
 10
302.19059892314539
 20
78.499999999936335
 30
0.0
 11
306.80940107664361
 21
78.499999999936335
 31
0.0
  0
LINE
  8
DETAIL
  6
CONTINUOUS
 62
     5
 10
295.7999999999447
 20
87.999999999936335
 30
0.0
 11
-295.80000000006112
 21
87.999999999936335
 31
0.0
  0
LINE
  8
DETAIL
  6
CONTINUOUS
 62
     5
 10
-226.50000000005821
 20
93.007179676935266
 30
0.0
 11
225.49999999994179
 21
93.007179676935266
 31
0.0
  0
LINE
  8
DETAIL
  6
CONTINUOUS
 62
     5
 10
272.49812993174419
 20
93.199999999937063
 30
0.0
 11
268.5018700681394
 21
93.199999999937063
 31
0.0
  0
LINE
  8
DETAIL
  6
CONTINUOUS
 62
     5
 10
272.99999999994179
 20
93.699999999937063
 30
0.0
 11
267.99999999994179
 21
93.699999999937063
 31
0.0
  0
LINE
  8
DETAIL
  6
CONTINUOUS
 62
     5
 10
365.49999999994179
 20
94.999999999936335
 30
0.0
 11
363.9506403025444
 21
94.999999999936335
 31
0.0
  0
LINE
  8
DETAIL
  6
CONTINUOUS
 62
     5
 10
296.49999999994179
 20
94.999999999936335
 30
0.0
 11
295.7999999999447
 21
94.999999999936335
 31
0.0
  0
LINE
  8
DETAIL
  6
CONTINUOUS
 62
     5
 10
295.7999999999447
 20
94.999999999936335
 30
0.0
 11
228.49999999994179
 21
94.999999999936335
 31
0.0
  0
LINE
  8
DETAIL
  6
CONTINUOUS
 62
     5
 10
-229.50000000005821
 20
94.999999999936335
 30
0.0
 11
-295.80000000006112
 21
94.999999999936335
 31
0.0
  0
LINE
  8
DETAIL
  6
CONTINUOUS
 62
     5
 10
-365.50000000005821
 20
94.999999999936335
 30
0.0
 11
-363.95064030275529
 21
94.999999999936335
 31
0.0
  0
LINE
  8
DETAIL
  6
CONTINUOUS
 62
     5
 10
-296.50000000005821
 20
94.999999999936335
 30
0.0
 11
-295.80000000006112
 21
94.999999999936335
 31
0.0
  0
LINE
  8
DETAIL
  6
CONTINUOUS
 62
     5
 10
-237.0999640542577
 20
96.999999999936335
 30
0.0
 11
-229.50000000005821
 21
96.999999999936335
 31
0.0
  0
LINE
  8
DETAIL
  6
CONTINUOUS
 62
     5
 10
228.49999999994179
 20
96.999999999936335
 30
0.0
 11
236.09996405414131
 21
96.999999999936335
 31
0.0
  0
LINE
  8
DETAIL
  6
CONTINUOUS
 62
     5
 10
291.49999999994179
 20
99.999999999936335
 30
0.0
 11
242.49999999994179
 21
99.999999999936335
 31
0.0
  0
LINE
  8
DETAIL
  6
CONTINUOUS
 62
     5
 10
-243.50000000005821
 20
99.999999999936335
 30
0.0
 11
-291.50000000005821
 21
99.999999999936335
 31
0.0
  0
LINE
  8
DETAIL
  6
CONTINUOUS
 62
     5
 10
-255.80940107685461
 20
106.99999999993631
 30
0.0
 11
-251.19059892335639
 21
106.99999999993631
 31
0.0
  0
LINE
  8
DETAIL
  6
CONTINUOUS
 62
     5
 10
-189.8094010768545
 20
106.99999999993631
 30
0.0
 11
-185.19059892335639
 21
106.99999999993631
 31
0.0
  0
LINE
  8
DETAIL
  6
CONTINUOUS
 62
     5
 10
184.19059892314539
 20
106.99999999993631
 30
0.0
 11
188.8094010766435
 21
106.99999999993631
 31
0.0
  0
LINE
  8
DETAIL
  6
CONTINUOUS
 62
     5
 10
248.19059892314539
 20
106.99999999993631
 30
0.0
 11
252.80940107664361
 21
106.99999999993631
 31
0.0
  0
LINE
  8
DETAIL
  6
CONTINUOUS
 62
     5
 10
-253.80000000006109
 20
108.99999999993631
 30
0.0
 11
-253.2000000000553
 21
108.99999999993631
 31
0.0
  0
LINE
  8
DETAIL
  6
CONTINUOUS
 62
     5
 10
-187.80000000006109
 20
108.99999999993631
 30
0.0
 11
-187.2000000000553
 21
108.99999999993631
 31
0.0
  0
LINE
  8
DETAIL
  6
CONTINUOUS
 62
     5
 10
186.19999999993891
 20
108.99999999993631
 30
0.0
 11
186.7999999999447
 21
108.99999999993631
 31
0.0
  0
LINE
  8
DETAIL
  6
CONTINUOUS
 62
     5
 10
250.19999999993891
 20
108.99999999993631
 30
0.0
 11
250.7999999999447
 21
108.99999999993631
 31
0.0
  0
LINE
  8
DETAIL
  6
CONTINUOUS
 62
     5
 10
-255.50000000005821
 20
110.69999999993701
 30
0.0
 11
-253.80000000006109
 21
110.69999999993701
 31
0.0
  0
LINE
  8
DETAIL
  6
CONTINUOUS
 62
     5
 10
-253.2000000000553
 20
110.69999999993701
 30
0.0
 11
-251.50000000005821
 21
110.69999999993701
 31
0.0
  0
LINE
  8
DETAIL
  6
CONTINUOUS
 62
     5
 10
-189.50000000005821
 20
110.69999999993701
 30
0.0
 11
-187.80000000006109
 21
110.69999999993701
 31
0.0
  0
LINE
  8
DETAIL
  6
CONTINUOUS
 62
     5
 10
-187.2000000000553
 20
110.69999999993701
 30
0.0
 11
-185.50000000005821
 21
110.69999999993701
 31
0.0
  0
LINE
  8
DETAIL
  6
CONTINUOUS
 62
     5
 10
184.49999999994179
 20
110.69999999993701
 30
0.0
 11
186.19999999993891
 21
110.69999999993701
 31
0.0
  0
LINE
  8
DETAIL
  6
CONTINUOUS
 62
     5
 10
186.7999999999447
 20
110.69999999993701
 30
0.0
 11
188.49999999994179
 21
110.69999999993701
 31
0.0
  0
LINE
  8
DETAIL
  6
CONTINUOUS
 62
     5
 10
248.49999999994179
 20
110.69999999993701
 30
0.0
 11
250.19999999993891
 21
110.69999999993701
 31
0.0
  0
LINE
  8
DETAIL
  6
CONTINUOUS
 62
     5
 10
250.7999999999447
 20
110.69999999993701
 30
0.0
 11
252.49999999994179
 21
110.69999999993701
 31
0.0
  0
LINE
  8
DETAIL
  6
CONTINUOUS
 62
     5
 10
252.49999999994179
 20
111.29999999993559
 30
0.0
 11
250.7999999999447
 21
111.29999999993559
 31
0.0
  0
LINE
  8
DETAIL
  6
CONTINUOUS
 62
     5
 10
250.19999999993891
 20
111.29999999993559
 30
0.0
 11
248.49999999994179
 21
111.29999999993559
 31
0.0
  0
LINE
  8
DETAIL
  6
CONTINUOUS
 62
     5
 10
188.49999999994179
 20
111.29999999993559
 30
0.0
 11
186.7999999999447
 21
111.29999999993559
 31
0.0
  0
LINE
  8
DETAIL
  6
CONTINUOUS
 62
     5
 10
186.19999999993891
 20
111.29999999993559
 30
0.0
 11
184.49999999994179
 21
111.29999999993559
 31
0.0
  0
LINE
  8
DETAIL
  6
CONTINUOUS
 62
     5
 10
-185.50000000005821
 20
111.29999999993559
 30
0.0
 11
-187.2000000000553
 21
111.29999999993559
 31
0.0
  0
LINE
  8
DETAIL
  6
CONTINUOUS
 62
     5
 10
-187.80000000006109
 20
111.29999999993559
 30
0.0
 11
-189.50000000005821
 21
111.29999999993559
 31
0.0
  0
LINE
  8
DETAIL
  6
CONTINUOUS
 62
     5
 10
-251.50000000005821
 20
111.29999999993559
 30
0.0
 11
-253.2000000000553
 21
111.29999999993559
 31
0.0
  0
LINE
  8
DETAIL
  6
CONTINUOUS
 62
     5
 10
-253.80000000006109
 20
111.29999999993559
 30
0.0
 11
-255.50000000005821
 21
111.29999999993559
 31
0.0
  0
LINE
  8
DETAIL
  6
CONTINUOUS
 62
     5
 10
250.7999999999447
 20
112.99999999993631
 30
0.0
 11
250.19999999993891
 21
112.99999999993631
 31
0.0
  0
LINE
  8
DETAIL
  6
CONTINUOUS
 62
     5
 10
186.7999999999447
 20
112.99999999993631
 30
0.0
 11
186.19999999993891
 21
112.99999999993631
 31
0.0
  0
LINE
  8
DETAIL
  6
CONTINUOUS
 62
     5
 10
-187.2000000000553
 20
112.99999999993631
 30
0.0
 11
-187.80000000006109
 21
112.99999999993631
 31
0.0
  0
LINE
  8
DETAIL
  6
CONTINUOUS
 62
     5
 10
-253.2000000000553
 20
112.99999999993631
 30
0.0
 11
-253.80000000006109
 21
112.99999999993631
 31
0.0
  0
LINE
  8
DETAIL
  6
CONTINUOUS
 62
     5
 10
-236.30000000006109
 20
113.99999999993631
 30
0.0
 11
-237.1000000000567
 21
113.99999999993631
 31
0.0
  0
LINE
  8
DETAIL
  6
CONTINUOUS
 62
     5
 10
235.2999999999447
 20
113.99999999993631
 30
0.0
 11
236.09999999994761
 21
113.99999999993631
 31
0.0
  0
LINE
  8
DETAIL
  6
CONTINUOUS
 62
     5
 10
-255.80940107685461
 20
114.99999999993631
 30
0.0
 11
-251.19059892335639
 21
114.99999999993631
 31
0.0
  0
LINE
  8
DETAIL
  6
CONTINUOUS
 62
     5
 10
-189.8094010768545
 20
114.99999999993631
 30
0.0
 11
-185.19059892335639
 21
114.99999999993631
 31
0.0
  0
LINE
  8
DETAIL
  6
CONTINUOUS
 62
     5
 10
184.19059892314539
 20
114.99999999993631
 30
0.0
 11
188.8094010766435
 21
114.99999999993631
 31
0.0
  0
LINE
  8
DETAIL
  6
CONTINUOUS
 62
     5
 10
248.19059892314539
 20
114.99999999993631
 30
0.0
 11
252.80940107664361
 21
114.99999999993631
 31
0.0
  0
LINE
  8
DETAIL
  6
CONTINUOUS
 62
     5
 10
-240.50000000005821
 20
116.99999999993631
 30
0.0
 11
-238.58962968155541
 21
116.99999999993631
 31
0.0
  0
LINE
  8
DETAIL
  6
CONTINUOUS
 62
     5
 10
-238.58962968155541
 20
116.99999999993631
 30
0.0
 11
-236.30000000006109
 21
116.99999999993631
 31
0.0
  0
LINE
  8
DETAIL
  6
CONTINUOUS
 62
     5
 10
235.2999999999447
 20
116.99999999993631
 30
0.0
 11
237.58962968134441
 21
116.99999999993631
 31
0.0
  0
LINE
  8
DETAIL
  6
CONTINUOUS
 62
     5
 10
237.58962968134441
 20
116.99999999993631
 30
0.0
 11
239.49999999994179
 21
116.99999999993631
 31
0.0
  0
LINE
  8
DETAIL
  6
CONTINUOUS
 62
     5
 10
236.49999999994179
 20
217.99999999993631
 30
0.0
 11
237.49999999994179
 21
217.99999999993631
 31
0.0
  0
LINE
  8
DETAIL
  6
CONTINUOUS
 62
     5
 10
236.49999999994179
 20
261.99999999993628
 30
0.0
 11
237.49999999994179
 21
261.99999999993628
 31
0.0
  0
LINE
  8
DETAIL
  6
CONTINUOUS
 62
     5
 10
236.49999999994179
 20
273.99999999993628
 30
0.0
 11
237.49999999994179
 21
273.99999999993628
 31
0.0
  0
LINE
  8
DETAIL
  6
CONTINUOUS
 62
     5
 10
-238.50000000005821
 20
278.99999999993628
 30
0.0
 11
-237.50000000005821
 21
278.99999999993628
 31
0.0
  0
LINE
  8
DETAIL
  6
CONTINUOUS
 62
     5
 10
-227.30940107685461
 20
300.99999999993628
 30
0.0
 11
-222.69059892335639
 21
300.99999999993628
 31
0.0
  0
LINE
  8
DETAIL
  6
CONTINUOUS
 62
     5
 10
221.6905989231455
 20
300.99999999993628
 30
0.0
 11
226.3094010766435
 21
300.99999999993628
 31
0.0
  0
LINE
  8
DETAIL
  6
CONTINUOUS
 62
     5
 10
-225.30000000006109
 20
302.99999999993628
 30
0.0
 11
-224.7000000000553
 21
302.99999999993628
 31
0.0
  0
LINE
  8
DETAIL
  6
CONTINUOUS
 62
     5
 10
223.69999999993891
 20
302.99999999993628
 30
0.0
 11
224.2999999999447
 21
302.99999999993628
 31
0.0
  0
LINE
  8
DETAIL
  6
CONTINUOUS
 62
     5
 10
-227.00000000005821
 20
304.69999999993712
 30
0.0
 11
-225.30000000006109
 21
304.69999999993712
 31
0.0
  0
LINE
  8
DETAIL
  6
CONTINUOUS
 62
     5
 10
-224.7000000000553
 20
304.69999999993712
 30
0.0
 11
-223.00000000005821
 21
304.69999999993712
 31
0.0
  0
LINE
  8
DETAIL
  6
CONTINUOUS
 62
     5
 10
221.99999999994179
 20
304.69999999993712
 30
0.0
 11
223.69999999993891
 21
304.69999999993712
 31
0.0
  0
LINE
  8
DETAIL
  6
CONTINUOUS
 62
     5
 10
224.2999999999447
 20
304.69999999993712
 30
0.0
 11
225.99999999994179
 21
304.69999999993712
 31
0.0
  0
LINE
  8
DETAIL
  6
CONTINUOUS
 62
     5
 10
225.99999999994179
 20
305.29999999993561
 30
0.0
 11
224.2999999999447
 21
305.29999999993561
 31
0.0
  0
LINE
  8
DETAIL
  6
CONTINUOUS
 62
     5
 10
223.69999999993891
 20
305.29999999993561
 30
0.0
 11
221.99999999994179
 21
305.29999999993561
 31
0.0
  0
LINE
  8
DETAIL
  6
CONTINUOUS
 62
     5
 10
-223.00000000005821
 20
305.29999999993561
 30
0.0
 11
-224.7000000000553
 21
305.29999999993561
 31
0.0
  0
LINE
  8
DETAIL
  6
CONTINUOUS
 62
     5
 10
-225.30000000006109
 20
305.29999999993561
 30
0.0
 11
-227.00000000005821
 21
305.29999999993561
 31
0.0
  0
LINE
  8
DETAIL
  6
CONTINUOUS
 62
     5
 10
224.2999999999447
 20
306.99999999993628
 30
0.0
 11
223.69999999993891
 21
306.99999999993628
 31
0.0
  0
LINE
  8
DETAIL
  6
CONTINUOUS
 62
     5
 10
-224.7000000000553
 20
306.99999999993628
 30
0.0
 11
-225.30000000006109
 21
306.99999999993628
 31
0.0
  0
LINE
  8
DETAIL
  6
CONTINUOUS
 62
     5
 10
-227.30940107685461
 20
308.99999999993628
 30
0.0
 11
-222.69059892335639
 21
308.99999999993628
 31
0.0
  0
LINE
  8
DETAIL
  6
CONTINUOUS
 62
     5
 10
221.6905989231455
 20
308.99999999993628
 30
0.0
 11
226.3094010766435
 21
308.99999999993628
 31
0.0
  0
LINE
  8
DETAIL
  6
CONTINUOUS
 62
     5
 10
-238.50000000005821
 20
330.99999999993628
 30
0.0
 11
-237.50000000005821
 21
330.99999999993628
 31
0.0
  0
LINE
  8
DETAIL
  6
CONTINUOUS
 62
     5
 10
236.49999999994179
 20
335.99999999993628
 30
0.0
 11
237.49999999994179
 21
335.99999999993628
 31
0.0
  0
LINE
  8
DETAIL
  6
CONTINUOUS
 62
     5
 10
236.49999999994179
 20
507.99999999993628
 30
0.0
 11
237.49999999994179
 21
507.99999999993628
 31
0.0
  0
LINE
  8
DETAIL
  6
CONTINUOUS
 62
     5
 10
-320.46357325975259
 20
64.499999999936335
 30
0.0
 11
-363.95064030275529
 21
94.999999999936335
 31
0.0
  0
LINE
  8
DETAIL
  6
CONTINUOUS
 62
     5
 10
236.49999999994179
 20
551.99999999993634
 30
0.0
 11
237.49999999994179
 21
551.99999999993634
 31
0.0
  0
LINE
  8
DETAIL
  6
CONTINUOUS
 62
     5
 10
-238.50000000005821
 20
559.99999999993634
 30
0.0
 11
-237.50000000005821
 21
559.99999999993634
 31
0.0
  0
LINE
  8
DETAIL
  6
CONTINUOUS
 62
     5
 10
-237.50000000005821
 20
562.99999999993634
 30
0.0
 11
-238.50000000005821
 21
562.99999999993634
 31
0.0
  0
LINE
  8
DETAIL
  6
CONTINUOUS
 62
     5
 10
-238.50000000005821
 20
586.99999999993634
 30
0.0
 11
-237.50000000005821
 21
586.99999999993634
 31
0.0
  0
LINE
  8
DETAIL
  6
CONTINUOUS
 62
     5
 10
-238.50000000005821
 20
589.99999999993634
 30
0.0
 11
-237.50000000005821
 21
589.99999999993634
 31
0.0
  0
LINE
  8
DETAIL
  6
CONTINUOUS
 62
     5
 10
236.49999999994179
 20
613.99999999993634
 30
0.0
 11
237.49999999994179
 21
613.99999999993634
 31
0.0
  0
LINE
  8
DETAIL
  6
CONTINUOUS
 62
     5
 10
-238.50000000005821
 20
618.99999999993634
 30
0.0
 11
-237.50000000005821
 21
618.99999999993634
 31
0.0
  0
LINE
  8
DETAIL
  6
CONTINUOUS
 62
     5
 10
-237.50000000005821
 20
636.17274692213675
 30
0.0
 11
-238.50000000005821
 21
636.17274692213675
 31
0.0
  0
LINE
  8
DETAIL
  6
CONTINUOUS
 62
     5
 10
-227.30940107685461
 20
640.99999999993634
 30
0.0
 11
-222.69059892335639
 21
640.99999999993634
 31
0.0
  0
LINE
  8
DETAIL
  6
CONTINUOUS
 62
     5
 10
221.6905989231455
 20
640.99999999993634
 30
0.0
 11
226.3094010766435
 21
640.99999999993634
 31
0.0
  0
LINE
  8
DETAIL
  6
CONTINUOUS
 62
     5
 10
-225.30000000006109
 20
642.99999999993634
 30
0.0
 11
-224.7000000000553
 21
642.99999999993634
 31
0.0
  0
LINE
  8
DETAIL
  6
CONTINUOUS
 62
     5
 10
223.69999999993891
 20
642.99999999993634
 30
0.0
 11
224.2999999999447
 21
642.99999999993634
 31
0.0
  0
LINE
  8
DETAIL
  6
CONTINUOUS
 62
     5
 10
-227.00000000005821
 20
644.69999999993695
 30
0.0
 11
-225.30000000006109
 21
644.69999999993695
 31
0.0
  0
LINE
  8
DETAIL
  6
CONTINUOUS
 62
     5
 10
-224.7000000000553
 20
644.69999999993695
 30
0.0
 11
-223.00000000005821
 21
644.69999999993695
 31
0.0
  0
LINE
  8
DETAIL
  6
CONTINUOUS
 62
     5
 10
221.99999999994179
 20
644.69999999993695
 30
0.0
 11
223.69999999993891
 21
644.69999999993695
 31
0.0
  0
LINE
  8
DETAIL
  6
CONTINUOUS
 62
     5
 10
224.2999999999447
 20
644.69999999993695
 30
0.0
 11
225.99999999994179
 21
644.69999999993695
 31
0.0
  0
LINE
  8
DETAIL
  6
CONTINUOUS
 62
     5
 10
225.99999999994179
 20
645.29999999993561
 30
0.0
 11
224.2999999999447
 21
645.29999999993561
 31
0.0
  0
LINE
  8
DETAIL
  6
CONTINUOUS
 62
     5
 10
223.69999999993891
 20
645.29999999993561
 30
0.0
 11
221.99999999994179
 21
645.29999999993561
 31
0.0
  0
LINE
  8
DETAIL
  6
CONTINUOUS
 62
     5
 10
-223.00000000005821
 20
645.29999999993561
 30
0.0
 11
-224.7000000000553
 21
645.29999999993561
 31
0.0
  0
LINE
  8
DETAIL
  6
CONTINUOUS
 62
     5
 10
-225.30000000006109
 20
645.29999999993561
 30
0.0
 11
-227.00000000005821
 21
645.29999999993561
 31
0.0
  0
LINE
  8
DETAIL
  6
CONTINUOUS
 62
     5
 10
224.2999999999447
 20
646.99999999993634
 30
0.0
 11
223.69999999993891
 21
646.99999999993634
 31
0.0
  0
LINE
  8
DETAIL
  6
CONTINUOUS
 62
     5
 10
-224.7000000000553
 20
646.99999999993634
 30
0.0
 11
-225.30000000006109
 21
646.99999999993634
 31
0.0
  0
LINE
  8
DETAIL
  6
CONTINUOUS
 62
     5
 10
-227.30940107685461
 20
648.99999999993634
 30
0.0
 11
-222.69059892335639
 21
648.99999999993634
 31
0.0
  0
LINE
  8
DETAIL
  6
CONTINUOUS
 62
     5
 10
221.6905989231455
 20
648.99999999993634
 30
0.0
 11
226.3094010766435
 21
648.99999999993634
 31
0.0
  0
LINE
  8
DETAIL
  6
CONTINUOUS
 62
     5
 10
237.49999999994179
 20
630.00457018933776
 30
0.0
 11
236.49999999994179
 21
630.00487486853672
 31
0.0
  0
LINE
  8
DETAIL
  6
CONTINUOUS
 62
     5
 10
-238.50000000005821
 20
670.99999999993634
 30
0.0
 11
-237.50000000005821
 21
670.99999999993634
 31
0.0
  0
LINE
  8
DETAIL
  6
CONTINUOUS
 62
     5
 10
236.49999999994179
 20
675.99999999993634
 30
0.0
 11
237.49999999994179
 21
675.99999999993634
 31
0.0
  0
LINE
  8
DETAIL
  6
CONTINUOUS
 62
     5
 10
-237.50000000005821
 20
678.49999999993634
 30
0.0
 11
-236.30000000006109
 21
678.49999999993634
 31
0.0
  0
LINE
  8
DETAIL
  6
CONTINUOUS
 62
     5
 10
235.2999999999447
 20
678.49999999993634
 30
0.0
 11
236.49999999994179
 21
678.49999999993634
 31
0.0
  0
LINE
  8
DETAIL
  6
CONTINUOUS
 62
     5
 10
-236.30000000006109
 20
685.02964645553755
 30
0.0
 11
235.2999999999447
 21
685.02964645553755
 31
0.0
  0
LINE
  8
DETAIL
  6
CONTINUOUS
 62
     5
 10
-198.50000000005821
 20
685.49999999993634
 30
0.0
 11
-198.02316199016059
 21
685.49999999993634
 31
0.0
  0
LINE
  8
DETAIL
  6
CONTINUOUS
 62
     5
 10
-195.06142532085499
 20
695.49999999993634
 30
0.0
 11
-193.2316233413585
 21
695.49999999993634
 31
0.0
  0
LINE
  8
DETAIL
  6
CONTINUOUS
 62
     5
 10
-197.820466715355
 20
696.39999999993768
 30
0.0
 11
-188.50000000005821
 21
696.39999999993768
 31
0.0
  0
LINE
  8
DETAIL
  6
CONTINUOUS
 62
     5
 10
213.27852735704801
 20
698.49999999993634
 30
0.0
 11
214.4880392991472
 21
698.49999999993634
 31
0.0
  0
LINE
  8
DETAIL
  6
CONTINUOUS
 62
     5
 10
210.57705840644479
 20
700.49999999993634
 30
0.0
 11
213.4749390653451
 21
700.49999999993634
 31
0.0
  0
LINE
  8
DETAIL
  6
CONTINUOUS
 62
     5
 10
214.49999999994179
 20
701.40362889143751
 30
0.0
 11
215.49999999994179
 21
701.40362889143751
 31
0.0
  0
LINE
  8
DETAIL
  6
CONTINUOUS
 62
     5
 10
215.49999999994179
 20
701.7036979121367
 30
0.0
 11
214.49999999994179
 21
701.7036979121367
 31
0.0
  0
LINE
  8
DETAIL
  6
CONTINUOUS
 62
     5
 10
-188.91157477135849
 20
704.49999999993634
 30
0.0
 11
215.49999999994179
 21
704.49999999993634
 31
0.0
  0
LINE
  8
DETAIL
  6
CONTINUOUS
 62
     5
 10
-248.62932249325971
 20
712.49999999993634
 30
0.0
 11
-246.3706775069586
 21
712.49999999993634
 31
0.0
  0
LINE
  8
DETAIL
  6
CONTINUOUS
 62
     5
 10
-217.50000000005821
 20
712.49999999993634
 30
0.0
 11
-190.04144368155539
 21
712.49999999993634
 31
0.0
  0
LINE
  8
DETAIL
  6
CONTINUOUS
 62
     5
 10
218.49999999994179
 20
720.99999999993634
 30
0.0
 11
221.49999999994179
 21
720.99999999993634
 31
0.0
  0
LINE
  8
DETAIL
  6
CONTINUOUS
 62
     5
 10
220.49999999994179
 20
727.99999999993634
 30
0.0
 11
227.49999999994179
 21
727.99999999993634
 31
0.0
  0
LINE
  8
DETAIL
  6
CONTINUOUS
 62
     5
 10
214.49999999994179
 20
746.19999999993695
 30
0.0
 11
215.49999999994179
 21
746.19999999993695
 31
0.0
  0
LINE
  8
DETAIL
  6
CONTINUOUS
 62
     5
 10
214.49999999994179
 20
754.19999999993695
 30
0.0
 11
215.49999999994179
 21
754.19999999993695
 31
0.0
  0
LINE
  8
DETAIL
  6
CONTINUOUS
 62
     5
 10
215.49999999994179
 20
702.14583740223668
 30
0.0
 11
208.9912737967388
 21
702.25944764073745
 31
0.0
  0
LINE
  8
DETAIL
  6
CONTINUOUS
 62
     5
 10
218.49999999994179
 20
755.09999999993659
 30
0.0
 11
218.99999999994179
 21
755.09999999993659
 31
0.0
  0
LINE
  8
DETAIL
  6
CONTINUOUS
 62
     5
 10
220.49999999994179
 20
762.0999999999367
 30
0.0
 11
222.99999999994179
 21
762.0999999999367
 31
0.0
  0
LINE
  8
DETAIL
  6
CONTINUOUS
 62
     5
 10
311.09999999994761
 20
820.32499999993695
 30
0.0
 11
311.47300709933921
 21
820.32499999993695
 31
0.0
  0
LINE
  8
DETAIL
  6
CONTINUOUS
 62
     5
 10
-309.11880215355632
 20
74.499999999936335
 30
0.0
 11
-306.8094010768545
 21
70.499999999936335
 31
0.0
  0
LINE
  8
DETAIL
  6
CONTINUOUS
 62
     5
 10
-302.1905989233565
 20
78.499999999936335
 30
0.0
 11
-299.88119784655282
 21
74.499999999936335
 31
0.0
  0
LINE
  8
DETAIL
  6
CONTINUOUS
 62
     5
 10
214.49999999994179
 20
991.19999999993695
 30
0.0
 11
215.49999999994179
 21
991.19999999993695
 31
0.0
  0
LINE
  8
DETAIL
  6
CONTINUOUS
 62
     5
 10
222.27627897324419
 20
993.02499999993768
 30
0.0
 11
223.7237210266467
 21
993.02499999993768
 31
0.0
  0
LINE
  8
DETAIL
  6
CONTINUOUS
 62
     5
 10
214.49999999994179
 20
999.19999999993695
 30
0.0
 11
215.49999999994179
 21
999.19999999993695
 31
0.0
  0
LINE
  8
DETAIL
  6
CONTINUOUS
 62
     5
 10
218.49999999994179
 20
999.89999999993779
 30
0.0
 11
218.99999999994179
 21
999.89999999993779
 31
0.0
  0
LINE
  8
DETAIL
  6
CONTINUOUS
 62
     5
 10
218.49999999994179
 20
1005.1999999999369
 30
0.0
 11
225.69875033574499
 21
1005.1999999999369
 31
0.0
  0
LINE
  8
DETAIL
  6
CONTINUOUS
 62
     5
 10
220.49999999994179
 20
1006.899999999937
 30
0.0
 11
222.99999999994179
 21
1006.899999999937
 31
0.0
  0
LINE
  8
DETAIL
  6
CONTINUOUS
 62
     5
 10
267.99999999994179
 20
93.699999999937063
 30
0.0
 11
268.49999999994179
 21
93.199999999937063
 31
0.0
  0
LINE
  8
DETAIL
  6
CONTINUOUS
 62
     5
 10
-258.11880215355632
 20
110.99999999993631
 30
0.0
 11
-255.80940107685461
 21
106.99999999993631
 31
0.0
  0
LINE
  8
DETAIL
  6
CONTINUOUS
 62
     5
 10
-251.19059892335639
 20
114.99999999993631
 30
0.0
 11
-248.88119784655279
 21
110.99999999993631
 31
0.0
  0
LINE
  8
DETAIL
  6
CONTINUOUS
 62
     5
 10
-192.11880215355629
 20
110.99999999993631
 30
0.0
 11
-189.8094010768545
 21
106.99999999993631
 31
0.0
  0
LINE
  8
DETAIL
  6
CONTINUOUS
 62
     5
 10
-185.19059892335639
 20
114.99999999993631
 30
0.0
 11
-182.88119784655279
 21
110.99999999993631
 31
0.0
  0
LINE
  8
DETAIL
  6
CONTINUOUS
 62
     5
 10
248.75578049084291
 20
1098.9249999999349
 30
0.0
 11
244.24421950893881
 21
1098.9249999999349
 31
0.0
  0
LINE
  8
DETAIL
  6
CONTINUOUS
 62
     5
 10
-217.50000000005821
 20
1112.6999999999371
 30
0.0
 11
215.99999999994179
 21
1112.6999999999371
 31
0.0
  0
LINE
  8
DETAIL
  6
CONTINUOUS
 62
     5
 10
218.49999999994179
 20
1113.4999999999361
 30
0.0
 11
221.49999999994179
 21
1113.4999999999361
 31
0.0
  0
LINE
  8
DETAIL
  6
CONTINUOUS
 62
     5
 10
222.99999999994179
 20
1114.6249999999361
 30
0.0
 11
230.49999999994179
 21
1114.6249999999361
 31
0.0
  0
LINE
  8
DETAIL
  6
CONTINUOUS
 62
     5
 10
222.99999999994179
 20
1118.6249999999361
 30
0.0
 11
230.27751144224021
 21
1118.6249999999361
 31
0.0
  0
LINE
  8
DETAIL
  6
CONTINUOUS
 62
     5
 10
220.49999999994179
 20
1120.4999999999361
 30
0.0
 11
227.49999999994179
 21
1120.4999999999361
 31
0.0
  0
LINE
  8
DETAIL
  6
CONTINUOUS
 62
     5
 10
-229.61880215355629
 20
304.99999999993628
 30
0.0
 11
-227.30940107685461
 21
300.99999999993628
 31
0.0
  0
LINE
  8
DETAIL
  6
CONTINUOUS
 62
     5
 10
-222.69059892335639
 20
308.99999999993628
 30
0.0
 11
-220.38119784655279
 21
304.99999999993628
 31
0.0
  0
LINE
  8
DETAIL
  6
CONTINUOUS
 62
     5
 10
220.71864403143991
 20
1240.2249999999369
 30
0.0
 11
225.28135596834181
 21
1240.2249999999369
 31
0.0
  0
LINE
  8
DETAIL
  6
CONTINUOUS
 62
     5
 10
218.49999999994179
 20
1244.6999999999371
 30
0.0
 11
218.99999999994179
 21
1244.6999999999371
 31
0.0
  0
LINE
  8
DETAIL
  6
CONTINUOUS
 62
     5
 10
220.49999999994179
 20
1251.6999999999371
 30
0.0
 11
222.99999999994179
 21
1251.6999999999371
 31
0.0
  0
LINE
  8
DETAIL
  6
CONTINUOUS
 62
     5
 10
-227.30940107685461
 20
640.99999999993634
 30
0.0
 11
-229.61880215355629
 21
644.99999999993634
 31
0.0
  0
LINE
  8
DETAIL
  6
CONTINUOUS
 62
     5
 10
-220.38119784655279
 20
644.99999999993634
 30
0.0
 11
-222.69059892335639
 21
648.99999999993634
 31
0.0
  0
LINE
  8
DETAIL
  6
CONTINUOUS
 62
     5
 10
-258.11880215355632
 20
1516.4999999999361
 30
0.0
 11
-255.80940107685461
 21
1520.4999999999361
 31
0.0
  0
LINE
  8
DETAIL
  6
CONTINUOUS
 62
     5
 10
-251.19059892335639
 20
1512.4999999999361
 30
0.0
 11
-248.88119784655279
 21
1516.4999999999361
 31
0.0
  0
LINE
  8
DETAIL
  6
CONTINUOUS
 62
     5
 10
-4.6188021535563157
 20
1824.7999999999349
 30
0.0
 11
-2.309401076854555
 21
1828.7999999999361
 31
0.0
  0
LINE
  8
DETAIL
  6
CONTINUOUS
 62
     5
 10
181.8811978464436
 20
110.99999999993631
 30
0.0
 11
184.19059892314539
 21
106.99999999993631
 31
0.0
  0
LINE
  8
DETAIL
  6
CONTINUOUS
 62
     5
 10
188.8094010766435
 20
114.99999999993631
 30
0.0
 11
191.11880215344721
 21
110.99999999993631
 31
0.0
  0
LINE
  8
DETAIL
  6
CONTINUOUS
 62
     5
 10
-369.50000000005821
 20
2.2999999999356069
 30
0.0
 11
-369.50000000005821
 21
-0.0000000000636646
 31
0.0
  0
LINE
  8
DETAIL
  6
CONTINUOUS
 62
     5
 10
-369.50000000005821
 20
57.699999999937063
 30
0.0
 11
-369.50000000005821
 21
62.299999999935608
 31
0.0
  0
LINE
  8
DETAIL
  6
CONTINUOUS
 62
     5
 10
-367.50000000005821
 20
57.699999999937063
 30
0.0
 11
-367.50000000005821
 21
2.2999999999356069
 31
0.0
  0
LINE
  8
DETAIL
  6
CONTINUOUS
 62
     5
 10
-365.50000000005821
 20
94.999999999936335
 30
0.0
 11
-365.50000000005821
 21
1522.4999999999361
 31
0.0
  0
LINE
  8
DETAIL
  6
CONTINUOUS
 62
     5
 10
-363.00000000005821
 20
1834.5999999999369
 30
0.0
 11
-363.00000000005821
 21
1817.0999999999369
 31
0.0
  0
LINE
  8
DETAIL
  6
CONTINUOUS
 62
     5
 10
-363.00000000005821
 20
1813.7999999999349
 30
0.0
 11
-363.00000000005821
 21
1815.6999999999371
 31
0.0
  0
LINE
  8
DETAIL
  6
CONTINUOUS
 62
     5
 10
-360.00000000005821
 20
1817.0999999999369
 30
0.0
 11
-360.00000000005821
 21
1816.9999999999361
 31
0.0
  0
LINE
  8
DETAIL
  6
CONTINUOUS
 62
     5
 10
-360.00000000005821
 20
1811.4999999999361
 30
0.0
 11
-360.00000000005821
 21
1756.237603585037
 31
0.0
  0
LINE
  8
DETAIL
  6
CONTINUOUS
 62
     5
 10
-358.00000000005821
 20
1838.5999999999369
 30
0.0
 11
-358.00000000005821
 21
1857.5999999999369
 31
0.0
  0
LINE
  8
DETAIL
  6
CONTINUOUS
 62
     5
 10
-347.15685424955882
 20
1493.9999999999361
 30
0.0
 11
-347.15685424955882
 21
1343.9999999999361
 31
0.0
  0
LINE
  8
DETAIL
  6
CONTINUOUS
 62
     5
 10
-347.15685424955882
 20
1293.9999999999361
 30
0.0
 11
-347.15685424955882
 21
1143.9999999999361
 31
0.0
  0
LINE
  8
DETAIL
  6
CONTINUOUS
 62
     5
 10
-347.15685424955882
 20
1093.9999999999361
 30
0.0
 11
-347.15685424955882
 21
943.99999999993634
 31
0.0
  0
LINE
  8
DETAIL
  6
CONTINUOUS
 62
     5
 10
-347.15685424955882
 20
893.99999999993634
 30
0.0
 11
-347.15685424955882
 21
758.99999999993634
 31
0.0
  0
LINE
  8
DETAIL
  6
CONTINUOUS
 62
     5
 10
-334.51471862585458
 20
1493.9999999999361
 30
0.0
 11
-334.51471862585458
 21
1343.9999999999361
 31
0.0
  0
LINE
  8
DETAIL
  6
CONTINUOUS
 62
     5
 10
-334.51471862585458
 20
1293.9999999999361
 30
0.0
 11
-334.51471862585458
 21
1143.9999999999361
 31
0.0
  0
LINE
  8
DETAIL
  6
CONTINUOUS
 62
     5
 10
-334.51471862585458
 20
1093.9999999999361
 30
0.0
 11
-334.51471862585458
 21
943.99999999993634
 31
0.0
  0
LINE
  8
DETAIL
  6
CONTINUOUS
 62
     5
 10
-334.51471862585458
 20
893.99999999993634
 30
0.0
 11
-334.51471862585458
 21
758.99999999993634
 31
0.0
  0
LINE
  8
DETAIL
  6
CONTINUOUS
 62
     5
 10
-370.28091039835999
 20
1522.4999999999361
 30
0.0
 11
-369.99760774935572
 21
1553.963268124937
 31
0.0
  0
LINE
  8
DETAIL
  6
CONTINUOUS
 62
     5
 10
-365.02656217955519
 20
1641.074277792535
 30
0.0
 11
-367.38842298815871
 21
1559.254987546037
 31
0.0
  0
LINE
  8
DETAIL
  6
CONTINUOUS
 62
     5
 10
-365.02656205945817
 20
1641.074280214636
 30
0.0
 11
-360.02855335265491
 21
1755.5474998459381
 31
0.0
  0
LINE
  8
DETAIL
  6
CONTINUOUS
 62
     5
 10
2.3094010766435531
 20
1820.7999999999349
 30
0.0
 11
4.6188021534471773
 21
1824.7999999999349
 31
0.0
  0
LINE
  8
DETAIL
  6
CONTINUOUS
 62
     5
 10
214.49999999994179
 20
1439.9999999999361
 30
0.0
 11
215.49999999994179
 21
1439.9999999999361
 31
0.0
  0
LINE
  8
DETAIL
  6
CONTINUOUS
 62
     5
 10
225.2696055535416
 20
1444.3249999999371
 30
0.0
 11
220.7303944463419
 21
1444.3249999999371
 31
0.0
  0
LINE
  8
DETAIL
  6
CONTINUOUS
 62
     5
 10
214.49999999994179
 20
1447.9999999999361
 30
0.0
 11
215.49999999994179
 21
1447.9999999999361
 31
0.0
  0
LINE
  8
DETAIL
  6
CONTINUOUS
 62
     5
 10
218.49999999994179
 20
1448.6999999999371
 30
0.0
 11
218.99999999994179
 21
1448.6999999999371
 31
0.0
  0
LINE
  8
DETAIL
  6
CONTINUOUS
 62
     5
 10
218.49999999994179
 20
1453.9999999999361
 30
0.0
 11
225.69875033574499
 21
1453.9999999999361
 31
0.0
  0
LINE
  8
DETAIL
  6
CONTINUOUS
 62
     5
 10
220.49999999994179
 20
1455.6999999999371
 30
0.0
 11
222.99999999994179
 21
1455.6999999999371
 31
0.0
  0
LINE
  8
DETAIL
  6
CONTINUOUS
 62
     5
 10
245.88119784644371
 20
110.99999999993631
 30
0.0
 11
248.19059892314539
 21
106.99999999993631
 31
0.0
  0
LINE
  8
DETAIL
  6
CONTINUOUS
 62
     5
 10
252.80940107664361
 20
114.99999999993631
 30
0.0
 11
255.11880215344721
 21
110.99999999993631
 31
0.0
  0
LINE
  8
DETAIL
  6
CONTINUOUS
 62
     5
 10
299.88119784644368
 20
74.499999999936335
 30
0.0
 11
302.19059892314539
 21
70.499999999936335
 31
0.0
  0
LINE
  8
DETAIL
  6
CONTINUOUS
 62
     5
 10
306.80940107664361
 20
78.499999999936335
 30
0.0
 11
309.11880215344718
 21
74.499999999936335
 31
0.0
  0
POLYLINE
  8
DETAIL
  6
CONTINUOUS
 62
     5
 66
     1
 10
0.0
 20
0.0
 30
0.0
 70
     0
  0
VERTEX
  8
DETAIL
  6
CONTINUOUS
 62
     5
 10
-188.68677467685481
 20
697.96091670633723
  0
VERTEX
  8
DETAIL
  6
CONTINUOUS
 62
     5
 10
-188.6867112940526
 20
697.96006849393768
  0
VERTEX
  8
DETAIL
  6
CONTINUOUS
 62
     5
 10
-188.6868555474575
 20
697.96230059823745
  0
VERTEX
  8
DETAIL
  6
CONTINUOUS
 62
     5
 10
-188.6872996541569
 20
697.96996281753673
  0
VERTEX
  8
DETAIL
  6
CONTINUOUS
 62
     5
 10
-188.6879540032532
 20
697.98256144123661
  0
SEQEND
  8
DETAIL
  6
CONTINUOUS
 62
     5
  0
POLYLINE
  8
DETAIL
  6
CONTINUOUS
 62
     5
 66
     1
 10
0.0
 20
0.0
 30
0.0
 70
     0
  0
VERTEX
  8
DETAIL
  6
CONTINUOUS
 62
     5
 10
-188.88504530035419
 20
703.59704981673531
  0
VERTEX
  8
DETAIL
  6
CONTINUOUS
 62
     5
 10
-188.88503095225309
 20
703.59685453723614
  0
VERTEX
  8
DETAIL
  6
CONTINUOUS
 62
     5
 10
-188.8852520417567
 20
703.60032680213578
  0
VERTEX
  8
DETAIL
  6
CONTINUOUS
 62
     5
 10
-188.8857363311545
 20
703.60885854723711
  0
VERTEX
  8
DETAIL
  6
CONTINUOUS
 62
     5
 10
-188.88640803695299
 20
703.62201747453764
  0
SEQEND
  8
DETAIL
  6
CONTINUOUS
 62
     5
  0
LINE
  8
DETAIL
  6
CONTINUOUS
 62
     5
 10
-321.50000000005821
 20
62.299999999935608
 30
0.0
 11
-321.50000000005821
 21
59.999999999936328
 31
0.0
  0
LINE
  8
DETAIL
  6
CONTINUOUS
 62
     5
 10
-319.50000000005821
 20
57.699999999937063
 30
0.0
 11
-319.50000000005821
 21
55.999999999936342
 31
0.0
  0
LINE
  8
DETAIL
  6
CONTINUOUS
 62
     5
 10
-319.50000000005821
 20
3.9999999999363349
 30
0.0
 11
-319.50000000005821
 21
2.2999999999356069
 31
0.0
  0
LINE
  8
DETAIL
  6
CONTINUOUS
 62
     5
 10
-317.80000000006112
 20
63.499999999936342
 30
0.0
 11
-317.80000000006112
 21
64.499999999936335
 31
0.0
  0
LINE
  8
DETAIL
  6
CONTINUOUS
 62
     5
 10
-315.80000000006112
 20
3.4999999999363349
 30
0.0
 11
-315.80000000006112
 21
56.499999999936328
 31
0.0
  0
LINE
  8
DETAIL
  6
CONTINUOUS
 62
     5
 10
-315.50000000005821
 20
63.499999999936342
 30
0.0
 11
-315.50000000005821
 21
64.499999999936335
 31
0.0
  0
LINE
  8
DETAIL
  6
CONTINUOUS
 62
     5
 10
-313.50000000005821
 20
3.4999999999363349
 30
0.0
 11
-313.50000000005821
 21
56.499999999936328
 31
0.0
  0
LINE
  8
DETAIL
  6
CONTINUOUS
 62
     5
 10
-306.50000000005821
 20
74.799999999935608
 30
0.0
 11
-306.50000000005821
 21
74.199999999937063
 31
0.0
  0
LINE
  8
DETAIL
  6
CONTINUOUS
 62
     5
 10
-304.80000000006112
 20
76.499999999936335
 30
0.0
 11
-304.80000000006112
 21
74.799999999935608
 31
0.0
  0
LINE
  8
DETAIL
  6
CONTINUOUS
 62
     5
 10
-304.80000000006112
 20
74.199999999937063
 30
0.0
 11
-304.80000000006112
 21
72.499999999936335
 31
0.0
  0
LINE
  8
DETAIL
  6
CONTINUOUS
 62
     5
 10
-304.2000000000553
 20
72.499999999936335
 30
0.0
 11
-304.2000000000553
 21
74.199999999937063
 31
0.0
  0
LINE
  8
DETAIL
  6
CONTINUOUS
 62
     5
 10
-304.2000000000553
 20
74.799999999935608
 30
0.0
 11
-304.2000000000553
 21
76.499999999936335
 31
0.0
  0
LINE
  8
DETAIL
  6
CONTINUOUS
 62
     5
 10
-302.50000000005821
 20
74.199999999937063
 30
0.0
 11
-302.50000000005821
 21
74.799999999935608
 31
0.0
  0
LINE
  8
DETAIL
  6
CONTINUOUS
 62
     5
 10
-296.50000000005821
 20
69.499999999936335
 30
0.0
 11
-296.50000000005821
 21
94.999999999936335
 31
0.0
  0
LINE
  8
DETAIL
  6
CONTINUOUS
 62
     5
 10
-295.80000000006112
 20
69.499999999936335
 30
0.0
 11
-295.80000000006112
 21
94.999999999936335
 31
0.0
  0
LINE
  8
DETAIL
  6
CONTINUOUS
 62
     5
 10
-289.50000000005821
 20
1493.9999999999361
 30
0.0
 11
-289.50000000005821
 21
1343.9999999999361
 31
0.0
  0
LINE
  8
DETAIL
  6
CONTINUOUS
 62
     5
 10
-289.50000000005821
 20
1293.9999999999361
 30
0.0
 11
-289.50000000005821
 21
1143.9999999999361
 31
0.0
  0
LINE
  8
DETAIL
  6
CONTINUOUS
 62
     5
 10
-289.50000000005821
 20
1093.9999999999361
 30
0.0
 11
-289.50000000005821
 21
943.99999999993634
 31
0.0
  0
LINE
  8
DETAIL
  6
CONTINUOUS
 62
     5
 10
-289.50000000005821
 20
893.99999999993634
 30
0.0
 11
-289.50000000005821
 21
758.99999999993634
 31
0.0
  0
LINE
  8
DETAIL
  6
CONTINUOUS
 62
     5
 10
-269.50000000005821
 20
758.99999999993634
 30
0.0
 11
-269.50000000005821
 21
893.99999999993634
 31
0.0
  0
LINE
  8
DETAIL
  6
CONTINUOUS
 62
     5
 10
-269.50000000005821
 20
943.99999999993634
 30
0.0
 11
-269.50000000005821
 21
1093.9999999999361
 31
0.0
  0
LINE
  8
DETAIL
  6
CONTINUOUS
 62
     5
 10
-269.50000000005821
 20
1143.9999999999361
 30
0.0
 11
-269.50000000005821
 21
1293.9999999999361
 31
0.0
  0
LINE
  8
DETAIL
  6
CONTINUOUS
 62
     5
 10
-269.50000000005821
 20
1343.9999999999361
 30
0.0
 11
-269.50000000005821
 21
1493.9999999999361
 31
0.0
  0
LINE
  8
DETAIL
  6
CONTINUOUS
 62
     5
 10
-255.50000000005821
 20
1516.7999999999349
 30
0.0
 11
-255.50000000005821
 21
1516.1999999999371
 31
0.0
  0
LINE
  8
DETAIL
  6
CONTINUOUS
 62
     5
 10
-255.50000000005821
 20
111.29999999993559
 30
0.0
 11
-255.50000000005821
 21
110.69999999993701
 31
0.0
  0
LINE
  8
DETAIL
  6
CONTINUOUS
 62
     5
 10
-253.80000000006109
 20
1518.4999999999361
 30
0.0
 11
-253.80000000006109
 21
1516.7999999999349
 31
0.0
  0
LINE
  8
DETAIL
  6
CONTINUOUS
 62
     5
 10
-253.80000000006109
 20
1516.1999999999371
 30
0.0
 11
-253.80000000006109
 21
1514.4999999999361
 31
0.0
  0
LINE
  8
DETAIL
  6
CONTINUOUS
 62
     5
 10
-253.80000000006109
 20
112.99999999993631
 30
0.0
 11
-253.80000000006109
 21
111.29999999993559
 31
0.0
  0
LINE
  8
DETAIL
  6
CONTINUOUS
 62
     5
 10
-253.80000000006109
 20
110.69999999993701
 30
0.0
 11
-253.80000000006109
 21
108.99999999993631
 31
0.0
  0
LINE
  8
DETAIL
  6
CONTINUOUS
 62
     5
 10
-253.2000000000553
 20
108.99999999993631
 30
0.0
 11
-253.2000000000553
 21
110.69999999993701
 31
0.0
  0
LINE
  8
DETAIL
  6
CONTINUOUS
 62
     5
 10
-253.2000000000553
 20
111.29999999993559
 30
0.0
 11
-253.2000000000553
 21
112.99999999993631
 31
0.0
  0
LINE
  8
DETAIL
  6
CONTINUOUS
 62
     5
 10
-253.2000000000553
 20
1514.4999999999361
 30
0.0
 11
-253.2000000000553
 21
1516.1999999999371
 31
0.0
  0
LINE
  8
DETAIL
  6
CONTINUOUS
 62
     5
 10
-253.2000000000553
 20
1516.7999999999349
 30
0.0
 11
-253.2000000000553
 21
1518.4999999999361
 31
0.0
  0
LINE
  8
DETAIL
  6
CONTINUOUS
 62
     5
 10
-251.50000000005821
 20
110.69999999993701
 30
0.0
 11
-251.50000000005821
 21
111.29999999993559
 31
0.0
  0
LINE
  8
DETAIL
  6
CONTINUOUS
 62
     5
 10
-251.50000000005821
 20
1516.1999999999371
 30
0.0
 11
-251.50000000005821
 21
1516.7999999999349
 31
0.0
  0
LINE
  8
DETAIL
  6
CONTINUOUS
 62
     5
 10
-240.50000000005821
 20
102.99999999993631
 30
0.0
 11
-240.50000000005821
 21
116.99999999993631
 31
0.0
  0
LINE
  8
DETAIL
  6
CONTINUOUS
 62
     5
 10
-238.50000000005821
 20
116.99999999993631
 30
0.0
 11
-238.50000000005821
 21
1522.4999999999361
 31
0.0
  0
LINE
  8
DETAIL
  6
CONTINUOUS
 62
     5
 10
-237.50000000005821
 20
678.49999999993634
 30
0.0
 11
-237.50000000005821
 21
116.99999999993631
 31
0.0
  0
LINE
  8
DETAIL
  6
CONTINUOUS
 62
     5
 10
-237.1000000000567
 20
113.99999999993631
 30
0.0
 11
-237.1000000000567
 21
96.999999999936335
 31
0.0
  0
LINE
  8
DETAIL
  6
CONTINUOUS
 62
     5
 10
-236.30000000006109
 20
685.02962042403669
 30
0.0
 11
-236.30000000006109
 21
678.49999999993634
 31
0.0
  0
LINE
  8
DETAIL
  6
CONTINUOUS
 62
     5
 10
-236.30000000006109
 20
113.99999999993631
 30
0.0
 11
-236.30000000006109
 21
116.99999999993631
 31
0.0
  0
LINE
  8
DETAIL
  6
CONTINUOUS
 62
     5
 10
-229.50000000005821
 20
94.507179676935266
 30
0.0
 11
-229.50000000005821
 21
96.999999999936335
 31
0.0
  0
LINE
  8
DETAIL
  6
CONTINUOUS
 62
     5
 10
-227.00000000005821
 20
645.29999999993561
 30
0.0
 11
-227.00000000005821
 21
644.69999999993695
 31
0.0
  0
LINE
  8
DETAIL
  6
CONTINUOUS
 62
     5
 10
-227.00000000005821
 20
305.29999999993561
 30
0.0
 11
-227.00000000005821
 21
304.69999999993712
 31
0.0
  0
LINE
  8
DETAIL
  6
CONTINUOUS
 62
     5
 10
-225.30000000006109
 20
646.99999999993634
 30
0.0
 11
-225.30000000006109
 21
645.29999999993561
 31
0.0
  0
LINE
  8
DETAIL
  6
CONTINUOUS
 62
     5
 10
-225.30000000006109
 20
644.69999999993695
 30
0.0
 11
-225.30000000006109
 21
642.99999999993634
 31
0.0
  0
LINE
  8
DETAIL
  6
CONTINUOUS
 62
     5
 10
-225.30000000006109
 20
306.99999999993628
 30
0.0
 11
-225.30000000006109
 21
305.29999999993561
 31
0.0
  0
LINE
  8
DETAIL
  6
CONTINUOUS
 62
     5
 10
-225.30000000006109
 20
304.69999999993712
 30
0.0
 11
-225.30000000006109
 21
302.99999999993628
 31
0.0
  0
LINE
  8
DETAIL
  6
CONTINUOUS
 62
     5
 10
-224.7000000000553
 20
302.99999999993628
 30
0.0
 11
-224.7000000000553
 21
304.69999999993712
 31
0.0
  0
LINE
  8
DETAIL
  6
CONTINUOUS
 62
     5
 10
-224.7000000000553
 20
305.29999999993561
 30
0.0
 11
-224.7000000000553
 21
306.99999999993628
 31
0.0
  0
LINE
  8
DETAIL
  6
CONTINUOUS
 62
     5
 10
-224.7000000000553
 20
642.99999999993634
 30
0.0
 11
-224.7000000000553
 21
644.69999999993695
 31
0.0
  0
LINE
  8
DETAIL
  6
CONTINUOUS
 62
     5
 10
-224.7000000000553
 20
645.29999999993561
 30
0.0
 11
-224.7000000000553
 21
646.99999999993634
 31
0.0
  0
LINE
  8
DETAIL
  6
CONTINUOUS
 62
     5
 10
-223.00000000005821
 20
304.69999999993712
 30
0.0
 11
-223.00000000005821
 21
305.29999999993561
 31
0.0
  0
LINE
  8
DETAIL
  6
CONTINUOUS
 62
     5
 10
-223.00000000005821
 20
644.69999999993695
 30
0.0
 11
-223.00000000005821
 21
645.29999999993561
 31
0.0
  0
LINE
  8
DETAIL
  6
CONTINUOUS
 62
     5
 10
218.49999999994179
 20
1474.5999999999369
 30
0.0
 11
221.49999999994179
 21
1474.5999999999369
 31
0.0
  0
LINE
  8
DETAIL
  6
CONTINUOUS
 62
     5
 10
230.49999999994179
 20
1475.724999999936
 30
0.0
 11
227.7467965918477
 21
1475.724999999936
 31
0.0
  0
LINE
  8
DETAIL
  6
CONTINUOUS
 62
     5
 10
230.27751144224021
 20
1479.7249999999369
 30
0.0
 11
227.99999999994179
 21
1479.7249999999369
 31
0.0
  0
LINE
  8
DETAIL
  6
CONTINUOUS
 62
     5
 10
220.49999999994179
 20
1481.5999999999369
 30
0.0
 11
227.49999999994179
 21
1481.5999999999369
 31
0.0
  0
LINE
  8
DETAIL
  6
CONTINUOUS
 62
     5
 10
-255.80940107685461
 20
1512.4999999999361
 30
0.0
 11
-251.19059892335639
 21
1512.4999999999361
 31
0.0
  0
LINE
  8
DETAIL
  6
CONTINUOUS
 62
     5
 10
259.1905989231455
 20
1512.4999999999361
 30
0.0
 11
263.8094010766435
 21
1512.4999999999361
 31
0.0
  0
LINE
  8
DETAIL
  6
CONTINUOUS
 62
     5
 10
-253.80000000006109
 20
1514.4999999999361
 30
0.0
 11
-253.2000000000553
 21
1514.4999999999361
 31
0.0
  0
LINE
  8
DETAIL
  6
CONTINUOUS
 62
     5
 10
261.19999999993888
 20
1514.4999999999361
 30
0.0
 11
261.7999999999447
 21
1514.4999999999361
 31
0.0
  0
LINE
  8
DETAIL
  6
CONTINUOUS
 62
     5
 10
-255.50000000005821
 20
1516.1999999999371
 30
0.0
 11
-253.80000000006109
 21
1516.1999999999371
 31
0.0
  0
LINE
  8
DETAIL
  6
CONTINUOUS
 62
     5
 10
-253.2000000000553
 20
1516.1999999999371
 30
0.0
 11
-251.50000000005821
 21
1516.1999999999371
 31
0.0
  0
LINE
  8
DETAIL
  6
CONTINUOUS
 62
     5
 10
259.49999999994179
 20
1516.1999999999371
 30
0.0
 11
261.19999999993888
 21
1516.1999999999371
 31
0.0
  0
LINE
  8
DETAIL
  6
CONTINUOUS
 62
     5
 10
261.7999999999447
 20
1516.1999999999371
 30
0.0
 11
263.49999999994179
 21
1516.1999999999371
 31
0.0
  0
LINE
  8
DETAIL
  6
CONTINUOUS
 62
     5
 10
263.49999999994179
 20
1516.7999999999349
 30
0.0
 11
261.7999999999447
 21
1516.7999999999349
 31
0.0
  0
LINE
  8
DETAIL
  6
CONTINUOUS
 62
     5
 10
261.19999999993888
 20
1516.7999999999349
 30
0.0
 11
259.49999999994179
 21
1516.7999999999349
 31
0.0
  0
LINE
  8
DETAIL
  6
CONTINUOUS
 62
     5
 10
-251.50000000005821
 20
1516.7999999999349
 30
0.0
 11
-253.2000000000553
 21
1516.7999999999349
 31
0.0
  0
LINE
  8
DETAIL
  6
CONTINUOUS
 62
     5
 10
-253.80000000006109
 20
1516.7999999999349
 30
0.0
 11
-255.50000000005821
 21
1516.7999999999349
 31
0.0
  0
LINE
  8
DETAIL
  6
CONTINUOUS
 62
     5
 10
261.7999999999447
 20
1518.4999999999361
 30
0.0
 11
261.19999999993888
 21
1518.4999999999361
 31
0.0
  0
LINE
  8
DETAIL
  6
CONTINUOUS
 62
     5
 10
-253.2000000000553
 20
1518.4999999999361
 30
0.0
 11
-253.80000000006109
 21
1518.4999999999361
 31
0.0
  0
LINE
  8
DETAIL
  6
CONTINUOUS
 62
     5
 10
-217.50000000005821
 20
1520.0999999999369
 30
0.0
 11
215.49999999994179
 21
1520.0999999999369
 31
0.0
  0
LINE
  8
DETAIL
  6
CONTINUOUS
 62
     5
 10
-255.80940107685461
 20
1520.4999999999361
 30
0.0
 11
-251.19059892335639
 21
1520.4999999999361
 31
0.0
  0
LINE
  8
DETAIL
  6
CONTINUOUS
 62
     5
 10
259.1905989231455
 20
1520.4999999999361
 30
0.0
 11
263.8094010766435
 21
1520.4999999999361
 31
0.0
  0
LINE
  8
DETAIL
  6
CONTINUOUS
 62
     5
 10
-370.28091039835999
 20
1522.4999999999361
 30
0.0
 11
370.28091039814171
 21
1522.4999999999361
 31
0.0
  0
LINE
  8
DETAIL
  6
CONTINUOUS
 62
     5
 10
219.38119784644371
 20
304.99999999993628
 30
0.0
 11
221.6905989231455
 21
300.99999999993628
 31
0.0
  0
LINE
  8
DETAIL
  6
CONTINUOUS
 62
     5
 10
226.3094010766435
 20
308.99999999993628
 30
0.0
 11
228.61880215344721
 21
304.99999999993628
 31
0.0
  0
LINE
  8
DETAIL
  6
CONTINUOUS
 62
     5
 10
-188.6879540032532
 20
697.98256144123661
 30
0.0
 11
-188.6896944748587
 21
698.02098210363692
 31
0.0
  0
LINE
  8
DETAIL
  6
CONTINUOUS
 62
     5
 10
-188.88640803695299
 20
703.62201747453764
 30
0.0
 11
-188.8881390669558
 21
703.66069432653785
 31
0.0
  0
LINE
  8
DETAIL
  6
CONTINUOUS
 62
     5
 10
-188.6896944748587
 20
698.02098210363692
 30
0.0
 11
-188.69182924205961
 21
698.07559106293593
 31
0.0
  0
LINE
  8
DETAIL
  6
CONTINUOUS
 62
     5
 10
-188.8881390669558
 20
703.66069432653785
 30
0.0
 11
-188.89023102915959
 21
703.71446586753689
 31
0.0
  0
LINE
  8
DETAIL
  6
CONTINUOUS
 62
     5
 10
-188.69182924205961
 20
698.07559106293593
 30
0.0
 11
-188.6957663395587
 21
698.19164210283634
 31
0.0
  0
LINE
  8
DETAIL
  6
CONTINUOUS
 62
     5
 10
-189.03807854535989
 20
711.54007549323615
 30
0.0
 11
-189.0374741526611
 21
711.51994724543499
 31
0.0
  0
LINE
  8
DETAIL
  6
CONTINUOUS
 62
     5
 10
-188.6957663395587
 20
698.19164210283634
 30
0.0
 11
-188.70239764665891
 21
698.42067393753666
 31
0.0
  0
LINE
  8
DETAIL
  6
CONTINUOUS
 62
     5
 10
-188.70239764665891
 20
698.42067393753666
 30
0.0
 11
-188.7147640347539
 21
698.93065530623608
 31
0.0
  0
LINE
  8
DETAIL
  6
CONTINUOUS
 62
     5
 10
-188.7147640347539
 20
698.93065530623608
 30
0.0
 11
-188.72718845285999
 21
699.53654267803529
 31
0.0
  0
LINE
  8
DETAIL
  6
CONTINUOUS
 62
     5
 10
-188.72719848295671
 20
699.53500405383784
 30
0.0
 11
-188.80284314535669
 21
703.51745240633682
 31
0.0
  0
LINE
  8
DETAIL
  6
CONTINUOUS
 62
     5
 10
-188.773384462358
 20
696.39999999993768
 30
0.0
 11
-189.01493199056131
 21
710.23772170163636
 31
0.0
  0
LINE
  8
DETAIL
  6
CONTINUOUS
 62
     5
 10
-188.28983744175639
 20
701.69489490063643
 30
0.0
 11
-188.3388025978565
 21
704.49999999993634
 31
0.0
  0
LINE
  8
DETAIL
  6
CONTINUOUS
 62
     5
 10
-188.6311141019541
 20
703.51745240633682
 30
0.0
 11
-188.5733235188527
 21
699.88669445243613
 31
0.0
  0
LINE
  8
DETAIL
  6
CONTINUOUS
 62
     5
 10
-188.50000000005821
 20
696.39999999993768
 30
0.0
 11
-188.57306630145459
 21
700.9904720187368
 31
0.0
  0
LINE
  8
DETAIL
  6
CONTINUOUS
 62
     5
 10
-217.50000000005821
 20
685.02964645553755
 30
0.0
 11
-217.50000000005821
 21
1519.9999999999361
 31
0.0
  0
LINE
  8
DETAIL
  6
CONTINUOUS
 62
     5
 10
-198.00570692525801
 20
695.39999999993779
 30
0.0
 11
-198.00570692525801
 21
686.49999999993634
 31
0.0
  0
LINE
  8
DETAIL
  6
CONTINUOUS
 62
     5
 10
-196.50000000005821
 20
696.39999999993768
 30
0.0
 11
-196.50000000005821
 21
685.02964645553755
 31
0.0
  0
LINE
  8
DETAIL
  6
CONTINUOUS
 62
     5
 10
-189.50000000005821
 20
111.29999999993559
 30
0.0
 11
-189.50000000005821
 21
110.69999999993701
 31
0.0
  0
LINE
  8
DETAIL
  6
CONTINUOUS
 62
     5
 10
-187.80000000006109
 20
112.99999999993631
 30
0.0
 11
-187.80000000006109
 21
111.29999999993559
 31
0.0
  0
LINE
  8
DETAIL
  6
CONTINUOUS
 62
     5
 10
-187.80000000006109
 20
110.69999999993701
 30
0.0
 11
-187.80000000006109
 21
108.99999999993631
 31
0.0
  0
LINE
  8
DETAIL
  6
CONTINUOUS
 62
     5
 10
-187.2000000000553
 20
108.99999999993631
 30
0.0
 11
-187.2000000000553
 21
110.69999999993701
 31
0.0
  0
LINE
  8
DETAIL
  6
CONTINUOUS
 62
     5
 10
-187.2000000000553
 20
111.29999999993559
 30
0.0
 11
-187.2000000000553
 21
112.99999999993631
 31
0.0
  0
LINE
  8
DETAIL
  6
CONTINUOUS
 62
     5
 10
-185.50000000005821
 20
110.69999999993701
 30
0.0
 11
-185.50000000005821
 21
111.29999999993559
 31
0.0
  0
LINE
  8
DETAIL
  6
CONTINUOUS
 62
     5
 10
-167.8514243543614
 20
1857.5999999999369
 30
0.0
 11
-167.8514243543614
 21
1836.599999999936
 31
0.0
  0
LINE
  8
DETAIL
  6
CONTINUOUS
 62
     5
 10
179.4765104688413
 20
1581.343355950836
 30
0.0
 11
179.34219899514571
 21
1581.126552666037
 31
0.0
  0
LINE
  8
DETAIL
  6
CONTINUOUS
 62
     5
 10
226.30896100164679
 20
1568.305589057238
 30
0.0
 11
226.17126606974489
 21
1568.0833242519379
 31
0.0
  0
LINE
  8
DETAIL
  6
CONTINUOUS
 62
     5
 10
219.38119784644371
 20
644.99999999993634
 30
0.0
 11
221.6905989231455
 21
640.99999999993634
 31
0.0
  0
LINE
  8
DETAIL
  6
CONTINUOUS
 62
     5
 10
226.3094010766435
 20
648.99999999993634
 30
0.0
 11
228.61880215344721
 21
644.99999999993634
 31
0.0
  0
LINE
  8
DETAIL
  6
CONTINUOUS
 62
     5
 10
-255.80940107685461
 20
1512.4999999999361
 30
0.0
 11
-258.11880215355632
 21
1516.4999999999361
 31
0.0
  0
LINE
  8
DETAIL
  6
CONTINUOUS
 62
     5
 10
256.88119784644368
 20
1516.4999999999361
 30
0.0
 11
259.1905989231455
 21
1520.4999999999361
 31
0.0
  0
LINE
  8
DETAIL
  6
CONTINUOUS
 62
     5
 10
263.8094010766435
 20
1512.4999999999361
 30
0.0
 11
266.11880215344718
 21
1516.4999999999361
 31
0.0
  0
LINE
  8
DETAIL
  6
CONTINUOUS
 62
     5
 10
-229.61880215355629
 20
644.99999999993634
 30
0.0
 11
-227.30940107685461
 21
648.99999999993634
 31
0.0
  0
LINE
  8
DETAIL
  6
CONTINUOUS
 62
     5
 10
-222.69059892335639
 20
640.99999999993634
 30
0.0
 11
-220.38119784655279
 21
644.99999999993634
 31
0.0
  0
LINE
  8
DETAIL
  6
CONTINUOUS
 62
     5
 10
282.53136509413889
 20
1574.715875795436
 30
0.0
 11
282.39728657394153
 21
1574.4994485403361
 31
0.0
  0
LINE
  8
DETAIL
  6
CONTINUOUS
 62
     5
 10
-248.88119784655279
 20
1516.4999999999361
 30
0.0
 11
-251.19059892335639
 21
1520.4999999999361
 31
0.0
  0
LINE
  8
DETAIL
  6
CONTINUOUS
 62
     5
 10
-10.000000000058209
 20
1835.183192901635
 30
0.0
 11
-10.000000000058209
 21
1817.0999999999369
 31
0.0
  0
LINE
  8
DETAIL
  6
CONTINUOUS
 62
     5
 10
-2.0000000000582072
 20
1825.0999999999369
 30
0.0
 11
-2.0000000000582072
 21
1824.4999999999361
 31
0.0
  0
LINE
  8
DETAIL
  6
CONTINUOUS
 62
     5
 10
-0.300000000061118
 20
1826.7999999999361
 30
0.0
 11
-0.300000000061118
 21
1825.0999999999369
 31
0.0
  0
LINE
  8
DETAIL
  6
CONTINUOUS
 62
     5
 10
-0.300000000061118
 20
1824.4999999999361
 30
0.0
 11
-0.300000000061118
 21
1822.7999999999349
 31
0.0
  0
LINE
  8
DETAIL
  6
CONTINUOUS
 62
     5
 10
0.2999999999447027
 20
1822.7999999999349
 30
0.0
 11
0.2999999999447027
 21
1824.4999999999361
 31
0.0
  0
LINE
  8
DETAIL
  6
CONTINUOUS
 62
     5
 10
0.2999999999447027
 20
1825.0999999999369
 30
0.0
 11
0.2999999999447027
 21
1826.7999999999361
 31
0.0
  0
LINE
  8
DETAIL
  6
CONTINUOUS
 62
     5
 10
1.9999999999417919
 20
1824.4999999999361
 30
0.0
 11
1.9999999999417919
 21
1825.0999999999369
 31
0.0
  0
LINE
  8
DETAIL
  6
CONTINUOUS
 62
     5
 10
9.9999999999417923
 20
1835.1832021236351
 30
0.0
 11
9.9999999999417923
 21
1817.0999999999369
 31
0.0
  0
LINE
  8
DETAIL
  6
CONTINUOUS
 62
     5
 10
-188.28983744175639
 20
701.69489490063643
 30
0.0
 11
-188.5760191902591
 21
701.40362889143751
 31
0.0
  0
LINE
  8
DETAIL
  6
CONTINUOUS
 62
     5
 10
362.69999999993888
 20
1813.4999999999361
 30
0.0
 11
361.6252184460464
 21
1813.4999999999361
 31
0.0
  0
LINE
  8
DETAIL
  6
CONTINUOUS
 62
     5
 10
-361.62521847346221
 20
1813.4999999999361
 30
0.0
 11
-362.7000000000553
 21
1813.4999999999361
 31
0.0
  0
LINE
  8
DETAIL
  6
CONTINUOUS
 62
     5
 10
362.69999999993888
 20
1815.9999999999361
 30
0.0
 11
360.81566988114349
 21
1815.9999999999361
 31
0.0
  0
LINE
  8
DETAIL
  6
CONTINUOUS
 62
     5
 10
-360.81566985746031
 20
1815.9999999999361
 30
0.0
 11
-362.7000000000553
 21
1815.9999999999361
 31
0.0
  0
LINE
  8
DETAIL
  6
CONTINUOUS
 62
     5
 10
362.99999999994179
 20
1817.0999999999369
 30
0.0
 11
-363.00000000005821
 21
1817.0999999999369
 31
0.0
  0
LINE
  8
DETAIL
  6
CONTINUOUS
 62
     5
 10
-2.309401076854555
 20
1820.7999999999349
 30
0.0
 11
2.3094010766435531
 21
1820.7999999999349
 31
0.0
  0
LINE
  8
DETAIL
  6
CONTINUOUS
 62
     5
 10
-0.300000000061118
 20
1822.7999999999349
 30
0.0
 11
0.2999999999447027
 21
1822.7999999999349
 31
0.0
  0
LINE
  8
DETAIL
  6
CONTINUOUS
 62
     5
 10
-2.0000000000582072
 20
1824.4999999999361
 30
0.0
 11
-0.300000000061118
 21
1824.4999999999361
 31
0.0
  0
LINE
  8
DETAIL
  6
CONTINUOUS
 62
     5
 10
0.2999999999447027
 20
1824.4999999999361
 30
0.0
 11
1.9999999999417919
 21
1824.4999999999361
 31
0.0
  0
LINE
  8
DETAIL
  6
CONTINUOUS
 62
     5
 10
1.9999999999417919
 20
1825.0999999999369
 30
0.0
 11
0.2999999999447027
 21
1825.0999999999369
 31
0.0
  0
LINE
  8
DETAIL
  6
CONTINUOUS
 62
     5
 10
-0.300000000061118
 20
1825.0999999999369
 30
0.0
 11
-2.0000000000582072
 21
1825.0999999999369
 31
0.0
  0
LINE
  8
DETAIL
  6
CONTINUOUS
 62
     5
 10
0.2999999999447027
 20
1826.7999999999361
 30
0.0
 11
-0.300000000061118
 21
1826.7999999999361
 31
0.0
  0
LINE
  8
DETAIL
  6
CONTINUOUS
 62
     5
 10
-2.309401076854555
 20
1828.7999999999361
 30
0.0
 11
2.3094010766435531
 21
1828.7999999999361
 31
0.0
  0
LINE
  8
DETAIL
  6
CONTINUOUS
 62
     5
 10
360.99999999994179
 20
1836.599999999936
 30
0.0
 11
167.85142435414309
 21
1836.599999999936
 31
0.0
  0
LINE
  8
DETAIL
  6
CONTINUOUS
 62
     5
 10
-167.8514243543614
 20
1836.599999999936
 30
0.0
 11
-361.00000000005821
 21
1836.599999999936
 31
0.0
  0
LINE
  8
DETAIL
  6
CONTINUOUS
 62
     5
 10
-167.8514243543614
 20
1836.599999999936
 30
0.0
 11
167.85142435414309
 21
1836.599999999936
 31
0.0
  0
LINE
  8
DETAIL
  6
CONTINUOUS
 62
     5
 10
-357.50000000005821
 20
1858.0999999999369
 30
0.0
 11
357.49999999994179
 21
1858.0999999999369
 31
0.0
  0
LINE
  8
DETAIL
  6
CONTINUOUS
 62
     5
 10
167.85142435414309
 20
1836.599999999936
 30
0.0
 11
167.85142435414309
 21
1857.5999999999369
 31
0.0
  0
LINE
  8
DETAIL
  6
CONTINUOUS
 62
     5
 10
184.49999999994179
 20
111.29999999993559
 30
0.0
 11
184.49999999994179
 21
110.69999999993701
 31
0.0
  0
LINE
  8
DETAIL
  6
CONTINUOUS
 62
     5
 10
186.19999999993891
 20
112.99999999993631
 30
0.0
 11
186.19999999993891
 21
111.29999999993559
 31
0.0
  0
LINE
  8
DETAIL
  6
CONTINUOUS
 62
     5
 10
186.19999999993891
 20
110.69999999993701
 30
0.0
 11
186.19999999993891
 21
108.99999999993631
 31
0.0
  0
LINE
  8
DETAIL
  6
CONTINUOUS
 62
     5
 10
186.7999999999447
 20
108.99999999993631
 30
0.0
 11
186.7999999999447
 21
110.69999999993701
 31
0.0
  0
LINE
  8
DETAIL
  6
CONTINUOUS
 62
     5
 10
186.7999999999447
 20
111.29999999993559
 30
0.0
 11
186.7999999999447
 21
112.99999999993631
 31
0.0
  0
LINE
  8
DETAIL
  6
CONTINUOUS
 62
     5
 10
-229.61880215355629
 20
304.99999999993628
 30
0.0
 11
-227.30940107685461
 21
308.99999999993628
 31
0.0
  0
LINE
  8
DETAIL
  6
CONTINUOUS
 62
     5
 10
-222.69059892335639
 20
300.99999999993628
 30
0.0
 11
-220.38119784655279
 21
304.99999999993628
 31
0.0
  0
LINE
  8
DETAIL
  6
CONTINUOUS
 62
     5
 10
-309.11880215355632
 20
74.499999999936335
 30
0.0
 11
-306.8094010768545
 21
78.499999999936335
 31
0.0
  0
LINE
  8
DETAIL
  6
CONTINUOUS
 62
     5
 10
188.49999999994179
 20
110.69999999993701
 30
0.0
 11
188.49999999994179
 21
111.29999999993559
 31
0.0
  0
LINE
  8
DETAIL
  6
CONTINUOUS
 62
     5
 10
208.49999999994179
 20
702.7593714883368
 30
0.0
 11
208.49999999994179
 21
704.49999999993634
 31
0.0
  0
LINE
  8
DETAIL
  6
CONTINUOUS
 62
     5
 10
214.49999999994179
 20
685.02964645553755
 30
0.0
 11
214.49999999994179
 21
698.08458470823643
 31
0.0
  0
LINE
  8
DETAIL
  6
CONTINUOUS
 62
     5
 10
214.49999999994179
 20
700.00710810013697
 30
0.0
 11
214.49999999994179
 21
702.16329246723581
 31
0.0
  0
LINE
  8
DETAIL
  6
CONTINUOUS
 62
     5
 10
214.49999999994179
 20
746.19999999993695
 30
0.0
 11
214.49999999994179
 21
754.19999999993695
 31
0.0
  0
LINE
  8
DETAIL
  6
CONTINUOUS
 62
     5
 10
214.49999999994179
 20
991.19999999993695
 30
0.0
 11
214.49999999994179
 21
999.19999999993695
 31
0.0
  0
LINE
  8
DETAIL
  6
CONTINUOUS
 62
     5
 10
214.49999999994179
 20
1439.9999999999361
 30
0.0
 11
214.49999999994179
 21
1447.9999999999361
 31
0.0
  0
LINE
  8
DETAIL
  6
CONTINUOUS
 62
     5
 10
215.49999999994179
 20
1522.4999999999361
 30
0.0
 11
215.49999999994179
 21
1486.5999999999369
 31
0.0
  0
LINE
  8
DETAIL
  6
CONTINUOUS
 62
     5
 10
215.49999999994179
 20
1471.599999999936
 30
0.0
 11
215.49999999994179
 21
1460.6999999999371
 31
0.0
  0
LINE
  8
DETAIL
  6
CONTINUOUS
 62
     5
 10
215.49999999994179
 20
1450.9999999999361
 30
0.0
 11
215.49999999994179
 21
1447.9999999999361
 31
0.0
  0
LINE
  8
DETAIL
  6
CONTINUOUS
 62
     5
 10
215.49999999994179
 20
1445.6999999999371
 30
0.0
 11
215.49999999994179
 21
1256.6999999999371
 31
0.0
  0
LINE
  8
DETAIL
  6
CONTINUOUS
 62
     5
 10
215.49999999994179
 20
1241.6999999999371
 30
0.0
 11
215.49999999994179
 21
1125.4999999999361
 31
0.0
  0
LINE
  8
DETAIL
  6
CONTINUOUS
 62
     5
 10
215.49999999994179
 20
1110.4999999999361
 30
0.0
 11
215.49999999994179
 21
1011.899999999938
 31
0.0
  0
LINE
  8
DETAIL
  6
CONTINUOUS
 62
     5
 10
215.49999999994179
 20
1002.1999999999369
 30
0.0
 11
215.49999999994179
 21
999.19999999993695
 31
0.0
  0
LINE
  8
DETAIL
  6
CONTINUOUS
 62
     5
 10
215.49999999994179
 20
996.89999999993768
 30
0.0
 11
215.49999999994179
 21
754.19999999993695
 31
0.0
  0
LINE
  8
DETAIL
  6
CONTINUOUS
 62
     5
 10
215.49999999994179
 20
752.0999999999367
 30
0.0
 11
215.49999999994179
 21
685.02964645553755
 31
0.0
  0
LINE
  8
DETAIL
  6
CONTINUOUS
 62
     5
 10
215.99999999994179
 20
1003.827815407037
 30
0.0
 11
215.99999999994179
 21
1009.721816132036
 31
0.0
  0
LINE
  8
DETAIL
  6
CONTINUOUS
 62
     5
 10
215.99999999994179
 20
1112.1528339093361
 30
0.0
 11
215.99999999994179
 21
1123.321816132036
 31
0.0
  0
LINE
  8
DETAIL
  6
CONTINUOUS
 62
     5
 10
215.99999999994179
 20
1243.3528339093371
 30
0.0
 11
215.99999999994179
 21
1254.5218161320349
 31
0.0
  0
LINE
  8
DETAIL
  6
CONTINUOUS
 62
     5
 10
215.99999999994179
 20
1452.6278154070369
 30
0.0
 11
215.99999999994179
 21
1458.5218161320349
 31
0.0
  0
LINE
  8
DETAIL
  6
CONTINUOUS
 62
     5
 10
215.99999999994179
 20
1473.2528339093369
 30
0.0
 11
215.99999999994179
 21
1484.4218161320371
 31
0.0
  0
LINE
  8
DETAIL
  6
CONTINUOUS
 62
     5
 10
216.49999999994179
 20
1004.414412717236
 30
0.0
 11
216.49999999994179
 21
1008.910581636337
 31
0.0
  0
LINE
  8
DETAIL
  6
CONTINUOUS
 62
     5
 10
216.49999999994179
 20
1112.734900219137
 30
0.0
 11
216.49999999994179
 21
1122.5105816363371
 31
0.0
  0
LINE
  8
DETAIL
  6
CONTINUOUS
 62
     5
 10
216.49999999994179
 20
1243.934900219135
 30
0.0
 11
216.49999999994179
 21
1253.710581636338
 31
0.0
  0
LINE
  8
DETAIL
  6
CONTINUOUS
 62
     5
 10
216.49999999994179
 20
1453.214412717238
 30
0.0
 11
216.49999999994179
 21
1457.710581636338
 31
0.0
  0
LINE
  8
DETAIL
  6
CONTINUOUS
 62
     5
 10
216.49999999994179
 20
1473.8349002191369
 30
0.0
 11
216.49999999994179
 21
1483.6105816363361
 31
0.0
  0
LINE
  8
DETAIL
  6
CONTINUOUS
 62
     5
 10
219.99999999994179
 20
1447.6999999999371
 30
0.0
 11
219.99999999994179
 21
1444.1999999999371
 31
0.0
  0
LINE
  8
DETAIL
  6
CONTINUOUS
 62
     5
 10
219.99999999994179
 20
1243.6999999999371
 30
0.0
 11
219.99999999994179
 21
1240.1999999999371
 31
0.0
  0
LINE
  8
DETAIL
  6
CONTINUOUS
 62
     5
 10
219.99999999994179
 20
998.89999999993768
 30
0.0
 11
219.99999999994179
 21
995.39999999993779
 31
0.0
  0
LINE
  8
DETAIL
  6
CONTINUOUS
 62
     5
 10
219.99999999994179
 20
754.0999999999367
 30
0.0
 11
219.99999999994179
 21
750.59999999993659
 31
0.0
  0
LINE
  8
DETAIL
  6
CONTINUOUS
 62
     5
 10
221.99999999994179
 20
645.29999999993561
 30
0.0
 11
221.99999999994179
 21
644.69999999993695
 31
0.0
  0
LINE
  8
DETAIL
  6
CONTINUOUS
 62
     5
 10
221.99999999994179
 20
305.29999999993561
 30
0.0
 11
221.99999999994179
 21
304.69999999993712
 31
0.0
  0
LINE
  8
DETAIL
  6
CONTINUOUS
 62
     5
 10
222.99999999994179
 20
1113.0923913190361
 30
0.0
 11
222.99999999994179
 21
1120.4999999999361
 31
0.0
  0
LINE
  8
DETAIL
  6
CONTINUOUS
 62
     5
 10
223.69999999993891
 20
646.99999999993634
 30
0.0
 11
223.69999999993891
 21
645.29999999993561
 31
0.0
  0
LINE
  8
DETAIL
  6
CONTINUOUS
 62
     5
 10
223.69999999993891
 20
644.69999999993695
 30
0.0
 11
223.69999999993891
 21
642.99999999993634
 31
0.0
  0
LINE
  8
DETAIL
  6
CONTINUOUS
 62
     5
 10
223.69999999993891
 20
306.99999999993628
 30
0.0
 11
223.69999999993891
 21
305.29999999993561
 31
0.0
  0
LINE
  8
DETAIL
  6
CONTINUOUS
 62
     5
 10
223.69999999993891
 20
304.69999999993712
 30
0.0
 11
223.69999999993891
 21
302.99999999993628
 31
0.0
  0
LINE
  8
DETAIL
  6
CONTINUOUS
 62
     5
 10
224.2999999999447
 20
302.99999999993628
 30
0.0
 11
224.2999999999447
 21
304.69999999993712
 31
0.0
  0
LINE
  8
DETAIL
  6
CONTINUOUS
 62
     5
 10
224.2999999999447
 20
305.29999999993561
 30
0.0
 11
224.2999999999447
 21
306.99999999993628
 31
0.0
  0
LINE
  8
DETAIL
  6
CONTINUOUS
 62
     5
 10
224.2999999999447
 20
642.99999999993634
 30
0.0
 11
224.2999999999447
 21
644.69999999993695
 31
0.0
  0
LINE
  8
DETAIL
  6
CONTINUOUS
 62
     5
 10
224.2999999999447
 20
645.29999999993561
 30
0.0
 11
224.2999999999447
 21
646.99999999993634
 31
0.0
  0
LINE
  8
DETAIL
  6
CONTINUOUS
 62
     5
 10
224.49999999994179
 20
1471.599999999936
 30
0.0
 11
224.49999999994179
 21
1470.0999999999369
 31
0.0
  0
LINE
  8
DETAIL
  6
CONTINUOUS
 62
     5
 10
224.49999999994179
 20
1110.4999999999361
 30
0.0
 11
224.49999999994179
 21
1108.9999999999361
 31
0.0
  0
LINE
  8
DETAIL
  6
CONTINUOUS
 62
     5
 10
224.49999999994179
 20
717.99999999993634
 30
0.0
 11
224.49999999994179
 21
716.49999999993634
 31
0.0
  0
LINE
  8
DETAIL
  6
CONTINUOUS
 62
     5
 10
225.99999999994179
 20
304.69999999993712
 30
0.0
 11
225.99999999994179
 21
305.29999999993561
 31
0.0
  0
LINE
  8
DETAIL
  6
CONTINUOUS
 62
     5
 10
225.99999999994179
 20
644.69999999993695
 30
0.0
 11
225.99999999994179
 21
645.29999999993561
 31
0.0
  0
LINE
  8
DETAIL
  6
CONTINUOUS
 62
     5
 10
225.99999999994179
 20
750.59999999993659
 30
0.0
 11
225.99999999994179
 21
759.09999999993659
 31
0.0
  0
LINE
  8
DETAIL
  6
CONTINUOUS
 62
     5
 10
225.99999999994179
 20
995.39999999993779
 30
0.0
 11
225.99999999994179
 21
1003.899999999938
 31
0.0
  0
LINE
  8
DETAIL
  6
CONTINUOUS
 62
     5
 10
225.99999999994179
 20
1240.1999999999371
 30
0.0
 11
225.99999999994179
 21
1248.6999999999371
 31
0.0
  0
LINE
  8
DETAIL
  6
CONTINUOUS
 62
     5
 10
225.99999999994179
 20
1444.1999999999371
 30
0.0
 11
225.99999999994179
 21
1452.6999999999371
 31
0.0
  0
LINE
  8
DETAIL
  6
CONTINUOUS
 62
     5
 10
227.99999999994179
 20
1481.552765720937
 30
0.0
 11
227.99999999994179
 21
1476.916198487035
 31
0.0
  0
LINE
  8
DETAIL
  6
CONTINUOUS
 62
     5
 10
228.49999999994179
 20
94.507179676935266
 30
0.0
 11
228.49999999994179
 21
96.999999999936335
 31
0.0
  0
LINE
  8
DETAIL
  6
CONTINUOUS
 62
     5
 10
230.49999999994179
 20
716.49999999993634
 30
0.0
 11
230.49999999994179
 21
724.99999999993634
 31
0.0
  0
LINE
  8
DETAIL
  6
CONTINUOUS
 62
     5
 10
230.49999999994179
 20
1108.9999999999361
 30
0.0
 11
230.49999999994179
 21
1117.4999999999361
 31
0.0
  0
LINE
  8
DETAIL
  6
CONTINUOUS
 62
     5
 10
230.49999999994179
 20
1470.0999999999369
 30
0.0
 11
230.49999999994179
 21
1478.5999999999369
 31
0.0
  0
LINE
  8
DETAIL
  6
CONTINUOUS
 62
     5
 10
235.2999999999447
 20
113.99999999993631
 30
0.0
 11
235.2999999999447
 21
116.99999999993631
 31
0.0
  0
LINE
  8
DETAIL
  6
CONTINUOUS
 62
     5
 10
235.2999999999447
 20
678.49999999993634
 30
0.0
 11
235.2999999999447
 21
685.02962042403669
 31
0.0
  0
LINE
  8
DETAIL
  6
CONTINUOUS
 62
     5
 10
236.09999999994761
 20
96.999999999936335
 30
0.0
 11
236.09999999994761
 21
113.99999999993631
 31
0.0
  0
LINE
  8
DETAIL
  6
CONTINUOUS
 62
     5
 10
236.49999999994179
 20
116.99999999993631
 30
0.0
 11
236.49999999994179
 21
678.49999999993634
 31
0.0
  0
LINE
  8
DETAIL
  6
CONTINUOUS
 62
     5
 10
237.49999999994179
 20
1522.4999999999361
 30
0.0
 11
237.49999999994179
 21
116.99999999993631
 31
0.0
  0
LINE
  8
DETAIL
  6
CONTINUOUS
 62
     5
 10
239.49999999994179
 20
116.99999999993631
 30
0.0
 11
239.49999999994179
 21
102.99999999993631
 31
0.0
  0
LINE
  8
DETAIL
  6
CONTINUOUS
 62
     5
 10
248.49999999994179
 20
111.29999999993559
 30
0.0
 11
248.49999999994179
 21
110.69999999993701
 31
0.0
  0
LINE
  8
DETAIL
  6
CONTINUOUS
 62
     5
 10
250.19999999993891
 20
112.99999999993631
 30
0.0
 11
250.19999999993891
 21
111.29999999993559
 31
0.0
  0
LINE
  8
DETAIL
  6
CONTINUOUS
 62
     5
 10
250.19999999993891
 20
110.69999999993701
 30
0.0
 11
250.19999999993891
 21
108.99999999993631
 31
0.0
  0
LINE
  8
DETAIL
  6
CONTINUOUS
 62
     5
 10
250.7999999999447
 20
108.99999999993631
 30
0.0
 11
250.7999999999447
 21
110.69999999993701
 31
0.0
  0
LINE
  8
DETAIL
  6
CONTINUOUS
 62
     5
 10
250.7999999999447
 20
111.29999999993559
 30
0.0
 11
250.7999999999447
 21
112.99999999993631
 31
0.0
  0
LINE
  8
DETAIL
  6
CONTINUOUS
 62
     5
 10
252.49999999994179
 20
110.69999999993701
 30
0.0
 11
252.49999999994179
 21
111.29999999993559
 31
0.0
  0
LINE
  8
DETAIL
  6
CONTINUOUS
 62
     5
 10
259.49999999994179
 20
1516.7999999999349
 30
0.0
 11
259.49999999994179
 21
1516.1999999999371
 31
0.0
  0
LINE
  8
DETAIL
  6
CONTINUOUS
 62
     5
 10
261.19999999993888
 20
1518.4999999999361
 30
0.0
 11
261.19999999993888
 21
1516.7999999999349
 31
0.0
  0
LINE
  8
DETAIL
  6
CONTINUOUS
 62
     5
 10
261.19999999993888
 20
1516.1999999999371
 30
0.0
 11
261.19999999993888
 21
1514.4999999999361
 31
0.0
  0
LINE
  8
DETAIL
  6
CONTINUOUS
 62
     5
 10
261.7999999999447
 20
1514.4999999999361
 30
0.0
 11
261.7999999999447
 21
1516.1999999999371
 31
0.0
  0
LINE
  8
DETAIL
  6
CONTINUOUS
 62
     5
 10
261.7999999999447
 20
1516.7999999999349
 30
0.0
 11
261.7999999999447
 21
1518.4999999999361
 31
0.0
  0
LINE
  8
DETAIL
  6
CONTINUOUS
 62
     5
 10
263.49999999994179
 20
1516.1999999999371
 30
0.0
 11
263.49999999994179
 21
1516.7999999999349
 31
0.0
  0
LINE
  8
DETAIL
  6
CONTINUOUS
 62
     5
 10
267.99999999994179
 20
94.999999999936335
 30
0.0
 11
267.99999999994179
 21
93.699999999937063
 31
0.0
  0
LINE
  8
DETAIL
  6
CONTINUOUS
 62
     5
 10
272.99999999994179
 20
94.999999999936335
 30
0.0
 11
272.99999999994179
 21
93.699999999937063
 31
0.0
  0
LINE
  8
DETAIL
  6
CONTINUOUS
 62
     5
 10
-302.1905989233565
 20
70.499999999936335
 30
0.0
 11
-299.88119784655282
 21
74.499999999936335
 31
0.0
  0
LINE
  8
DETAIL
  6
CONTINUOUS
 62
     5
 10
-258.11880215355632
 20
110.99999999993631
 30
0.0
 11
-255.80940107685461
 21
114.99999999993631
 31
0.0
  0
LINE
  8
DETAIL
  6
CONTINUOUS
 62
     5
 10
-251.19059892335639
 20
106.99999999993631
 30
0.0
 11
-248.88119784655279
 21
110.99999999993631
 31
0.0
  0
LINE
  8
DETAIL
  6
CONTINUOUS
 62
     5
 10
-192.11880215355629
 20
110.99999999993631
 30
0.0
 11
-189.8094010768545
 21
114.99999999993631
 31
0.0
  0
LINE
  8
DETAIL
  6
CONTINUOUS
 62
     5
 10
-185.19059892335639
 20
106.99999999993631
 30
0.0
 11
-182.88119784655279
 21
110.99999999993631
 31
0.0
  0
LINE
  8
DETAIL
  6
CONTINUOUS
 62
     5
 10
-2.309401076854555
 20
1820.7999999999349
 30
0.0
 11
-4.6188021535563157
 21
1824.7999999999349
 31
0.0
  0
LINE
  8
DETAIL
  6
CONTINUOUS
 62
     5
 10
4.6188021534471773
 20
1824.7999999999349
 30
0.0
 11
2.3094010766435531
 21
1828.7999999999361
 31
0.0
  0
LINE
  8
DETAIL
  6
CONTINUOUS
 62
     5
 10
365.02656205934181
 20
1641.074280214636
 30
0.0
 11
360.02855335244379
 21
1755.5474998459381
 31
0.0
  0
LINE
  8
DETAIL
  6
CONTINUOUS
 62
     5
 10
367.38842298794771
 20
1559.254987546037
 30
0.0
 11
365.02656217934418
 21
1641.074277792535
 31
0.0
  0
LINE
  8
DETAIL
  6
CONTINUOUS
 62
     5
 10
370.28091039814171
 20
1522.4999999999361
 30
0.0
 11
369.99760774914461
 21
1553.963268127836
 31
0.0
  0
LINE
  8
DETAIL
  6
CONTINUOUS
 62
     5
 10
295.7999999999447
 20
94.999999999936335
 30
0.0
 11
295.7999999999447
 21
69.499999999936335
 31
0.0
  0
LINE
  8
DETAIL
  6
CONTINUOUS
 62
     5
 10
296.49999999994179
 20
69.499999999936335
 30
0.0
 11
296.49999999994179
 21
94.999999999936335
 31
0.0
  0
LINE
  8
DETAIL
  6
CONTINUOUS
 62
     5
 10
302.49999999994179
 20
74.799999999935608
 30
0.0
 11
302.49999999994179
 21
74.199999999937063
 31
0.0
  0
LINE
  8
DETAIL
  6
CONTINUOUS
 62
     5
 10
304.19999999993888
 20
76.499999999936335
 30
0.0
 11
304.19999999993888
 21
74.799999999935608
 31
0.0
  0
LINE
  8
DETAIL
  6
CONTINUOUS
 62
     5
 10
304.19999999993888
 20
74.199999999937063
 30
0.0
 11
304.19999999993888
 21
72.499999999936335
 31
0.0
  0
LINE
  8
DETAIL
  6
CONTINUOUS
 62
     5
 10
304.7999999999447
 20
72.499999999936335
 30
0.0
 11
304.7999999999447
 21
74.199999999937063
 31
0.0
  0
LINE
  8
DETAIL
  6
CONTINUOUS
 62
     5
 10
304.7999999999447
 20
74.799999999935608
 30
0.0
 11
304.7999999999447
 21
76.499999999936335
 31
0.0
  0
LINE
  8
DETAIL
  6
CONTINUOUS
 62
     5
 10
306.49999999994179
 20
74.199999999937063
 30
0.0
 11
306.49999999994179
 21
74.799999999935608
 31
0.0
  0
LINE
  8
DETAIL
  6
CONTINUOUS
 62
     5
 10
309.09999999994761
 20
823.76317398473645
 30
0.0
 11
309.09999999994761
 21
819.2368260151361
 31
0.0
  0
LINE
  8
DETAIL
  6
CONTINUOUS
 62
     5
 10
309.09999999994761
 20
1494.2368260151361
 30
0.0
 11
309.09999999994761
 21
1498.7631739847361
 31
0.0
  0
LINE
  8
DETAIL
  6
CONTINUOUS
 62
     5
 10
309.8999999999433
 20
823.76317398473645
 30
0.0
 11
309.8999999999433
 21
819.92185227603659
 31
0.0
  0
LINE
  8
DETAIL
  6
CONTINUOUS
 62
     5
 10
313.49999999994179
 20
56.499999999936328
 30
0.0
 11
313.49999999994179
 21
3.4999999999363349
 31
0.0
  0
LINE
  8
DETAIL
  6
CONTINUOUS
 62
     5
 10
315.49999999994179
 20
64.499999999936335
 30
0.0
 11
315.49999999994179
 21
63.499999999936342
 31
0.0
  0
LINE
  8
DETAIL
  6
CONTINUOUS
 62
     5
 10
315.7999999999447
 20
56.499999999936328
 30
0.0
 11
315.7999999999447
 21
3.4999999999363349
 31
0.0
  0
LINE
  8
DETAIL
  6
CONTINUOUS
 62
     5
 10
317.7999999999447
 20
64.499999999936335
 30
0.0
 11
317.7999999999447
 21
63.499999999936342
 31
0.0
  0
LINE
  8
DETAIL
  6
CONTINUOUS
 62
     5
 10
319.49999999994179
 20
2.2999999999356069
 30
0.0
 11
319.49999999994179
 21
3.9999999999363349
 31
0.0
  0
LINE
  8
DETAIL
  6
CONTINUOUS
 62
     5
 10
319.49999999994179
 20
55.999999999936342
 30
0.0
 11
319.49999999994179
 21
57.699999999937063
 31
0.0
  0
LINE
  8
DETAIL
  6
CONTINUOUS
 62
     5
 10
321.49999999994179
 20
62.299999999935608
 30
0.0
 11
321.49999999994179
 21
59.999999999936328
 31
0.0
  0
LINE
  8
DETAIL
  6
CONTINUOUS
 62
     5
 10
357.99999999994179
 20
1838.5999999999369
 30
0.0
 11
357.99999999994179
 21
1857.5999999999369
 31
0.0
  0
LINE
  8
DETAIL
  6
CONTINUOUS
 62
     5
 10
359.99999999994179
 20
1817.0999999999369
 30
0.0
 11
359.99999999994179
 21
1816.9999999999361
 31
0.0
  0
LINE
  8
DETAIL
  6
CONTINUOUS
 62
     5
 10
359.99999999994179
 20
1811.4999999999361
 30
0.0
 11
359.99999999994179
 21
1756.237604085238
 31
0.0
  0
LINE
  8
DETAIL
  6
CONTINUOUS
 62
     5
 10
362.99999999994179
 20
1834.5999999999369
 30
0.0
 11
362.99999999994179
 21
1817.0999999999369
 31
0.0
  0
LINE
  8
DETAIL
  6
CONTINUOUS
 62
     5
 10
362.99999999994179
 20
1815.6999999999371
 30
0.0
 11
362.99999999994179
 21
1813.7999999999349
 31
0.0
  0
LINE
  8
DETAIL
  6
CONTINUOUS
 62
     5
 10
365.49999999994179
 20
1522.4999999999361
 30
0.0
 11
365.49999999994179
 21
94.999999999936335
 31
0.0
  0
LINE
  8
DETAIL
  6
CONTINUOUS
 62
     5
 10
367.49999999994179
 20
2.2999999999356069
 30
0.0
 11
367.49999999994179
 21
57.699999999937063
 31
0.0
  0
LINE
  8
DETAIL
  6
CONTINUOUS
 62
     5
 10
369.49999999994179
 20
2.2999999999356069
 30
0.0
 11
369.49999999994179
 21
-0.0000000000636646
 31
0.0
  0
LINE
  8
DETAIL
  6
CONTINUOUS
 62
     5
 10
369.49999999994179
 20
57.699999999937063
 30
0.0
 11
369.49999999994179
 21
62.299999999935608
 31
0.0
  0
LINE
  8
DETAIL
  6
CONTINUOUS
 62
     5
 10
219.38119784644371
 20
644.99999999993634
 30
0.0
 11
221.6905989231455
 21
648.99999999993634
 31
0.0
  0
LINE
  8
DETAIL
  6
CONTINUOUS
 62
     5
 10
226.3094010766435
 20
640.99999999993634
 30
0.0
 11
228.61880215344721
 21
644.99999999993634
 31
0.0
  0
LINE
  8
DETAIL
  6
CONTINUOUS
 62
     5
 10
259.1905989231455
 20
1512.4999999999361
 30
0.0
 11
256.88119784644368
 21
1516.4999999999361
 31
0.0
  0
LINE
  8
DETAIL
  6
CONTINUOUS
 62
     5
 10
266.11880215344718
 20
1516.4999999999361
 30
0.0
 11
263.8094010766435
 21
1520.4999999999361
 31
0.0
  0
LINE
  8
DETAIL
  6
CONTINUOUS
 62
     5
 10
219.38119784644371
 20
304.99999999993628
 30
0.0
 11
221.6905989231455
 21
308.99999999993628
 31
0.0
  0
LINE
  8
DETAIL
  6
CONTINUOUS
 62
     5
 10
226.3094010766435
 20
300.99999999993628
 30
0.0
 11
228.61880215344721
 21
304.99999999993628
 31
0.0
  0
LINE
  8
DETAIL
  6
CONTINUOUS
 62
     5
 10
181.8811978464436
 20
110.99999999993631
 30
0.0
 11
184.19059892314539
 21
114.99999999993631
 31
0.0
  0
LINE
  8
DETAIL
  6
CONTINUOUS
 62
     5
 10
188.8094010766435
 20
106.99999999993631
 30
0.0
 11
191.11880215344721
 21
110.99999999993631
 31
0.0
  0
LINE
  8
DETAIL
  6
CONTINUOUS
 62
     5
 10
245.88119784644371
 20
110.99999999993631
 30
0.0
 11
248.19059892314539
 21
114.99999999993631
 31
0.0
  0
LINE
  8
DETAIL
  6
CONTINUOUS
 62
     5
 10
252.80940107664361
 20
106.99999999993631
 30
0.0
 11
255.11880215344721
 21
110.99999999993631
 31
0.0
  0
LINE
  8
DETAIL
  6
CONTINUOUS
 62
     5
 10
299.88119784644368
 20
74.499999999936335
 30
0.0
 11
302.19059892314539
 21
78.499999999936335
 31
0.0
  0
LINE
  8
DETAIL
  6
CONTINUOUS
 62
     5
 10
306.80940107664361
 20
70.499999999936335
 30
0.0
 11
309.11880215344718
 21
74.499999999936335
 31
0.0
  0
LINE
  8
DETAIL
  6
CONTINUOUS
 62
     5
 10
272.99999999994179
 20
93.699999999937063
 30
0.0
 11
272.49999999994179
 21
93.199999999937063
 31
0.0
  0
LINE
  8
DETAIL
  6
CONTINUOUS
 62
     5
 10
363.9506403025444
 20
94.999999999936335
 30
0.0
 11
320.46357325964351
 21
64.499999999936335
 31
0.0
  0
CIRCLE
  8
DETAIL
  6
CONTINUOUS
 62
     5
 10
-304.50000000005821
 20
74.499999999936335
 30
0.0
 40
6.0999999999999988
  0
CIRCLE
  8
DETAIL
  6
CONTINUOUS
 62
     5
 10
-304.50000000005821
 20
74.499999999936335
 30
0.0
 40
6.0
  0
ARC
  8
DETAIL
  6
CONTINUOUS
 62
     5
 10
-300.80000000006112
 20
69.499999999936335
 30
0.0
 40
5.0
 50
270.0
 51
0.0
  0
ARC
  8
DETAIL
  6
CONTINUOUS
 62
     5
 10
-301.50000000005821
 20
69.499999999936335
 30
0.0
 40
5.0
 50
270.0
 51
0.0
  0
ARC
  8
DETAIL
  6
CONTINUOUS
 62
     5
 10
-319.00000000005821
 20
63.499999999936342
 30
0.0
 40
3.5
 50
270.0
 51
0.0
  0
ARC
  8
DETAIL
  6
CONTINUOUS
 62
     5
 10
-317.00000000005821
 20
56.499999999936328
 30
0.0
 40
3.5
 50
0.0
 51
90.0
  0
ARC
  8
DETAIL
  6
CONTINUOUS
 62
     5
 10
-317.00000000005821
 20
3.4999999999363349
 30
0.0
 40
3.5
 50
270.0
 51
0.0
  0
ARC
  8
DETAIL
  6
CONTINUOUS
 62
     5
 10
-319.00000000005821
 20
63.499999999936342
 30
0.0
 40
1.1999999999999991
 50
270.0
 51
0.0
  0
ARC
  8
DETAIL
  6
CONTINUOUS
 62
     5
 10
-317.00000000005821
 20
56.499999999936328
 30
0.0
 40
1.1999999999999991
 50
0.0
 51
90.0
  0
ARC
  8
DETAIL
  6
CONTINUOUS
 62
     5
 10
-317.00000000005821
 20
3.4999999999363349
 30
0.0
 40
1.1999999999999991
 50
270.0
 51
0.0
  0
ARC
  8
DETAIL
  6
CONTINUOUS
 62
     5
 10
-291.50000000005821
 20
94.999999999936335
 30
0.0
 40
5.0
 50
90.0
 51
180.0
  0
CIRCLE
  8
DETAIL
  6
CONTINUOUS
 62
     5
 10
-309.50000000005821
 20
146.49999999993631
 30
0.0
 40
2.2999999999999989
  0
CIRCLE
  8
DETAIL
  6
CONTINUOUS
 62
     5
 10
-253.50000000005821
 20
110.99999999993631
 30
0.0
 40
6.0999999999999988
  0
CIRCLE
  8
DETAIL
  6
CONTINUOUS
 62
     5
 10
-253.50000000005821
 20
110.99999999993631
 30
0.0
 40
6.0
  0
ARC
  8
DETAIL
  6
CONTINUOUS
 62
     5
 10
-243.50000000005821
 20
102.99999999993631
 30
0.0
 40
3.0
 50
270.0
 51
0.0
  0
CIRCLE
  8
DETAIL
  6
CONTINUOUS
 62
     5
 10
-225.00000000005821
 20
304.99999999993628
 30
0.0
 40
6.0999999999999988
  0
CIRCLE
  8
DETAIL
  6
CONTINUOUS
 62
     5
 10
-225.00000000005821
 20
304.99999999993628
 30
0.0
 40
6.0
  0
ARC
  8
DETAIL
  6
CONTINUOUS
 62
     5
 10
-279.50000000005821
 20
893.99999999993634
 30
0.0
 40
10.0
 50
0.0
 51
180.0
  0
ARC
  8
DETAIL
  6
CONTINUOUS
 62
     5
 10
-279.50000000005821
 20
758.99999999993634
 30
0.0
 40
10.0
 50
180.0
 51
0.0
  0
CIRCLE
  8
DETAIL
  6
CONTINUOUS
 62
     5
 10
-225.00000000005821
 20
644.99999999993634
 30
0.0
 40
6.0999999999999988
  0
CIRCLE
  8
DETAIL
  6
CONTINUOUS
 62
     5
 10
-225.00000000005821
 20
644.99999999993634
 30
0.0
 40
6.0
  0
ARC
  8
DETAIL
  6
CONTINUOUS
 62
     5
 10
-340.06532332905772
 20
754.15151827343641
 30
0.0
 40
5.1530650536999989
 50
258.22351576406868
 51
258.5042586978858
  0
ARC
  8
DETAIL
  6
CONTINUOUS
 62
     5
 10
-340.06532333545329
 20
898.84848175693696
 30
0.0
 40
5.153065022499999
 50
101.4957413008471
 51
101.7764842367901
  0
ARC
  8
DETAIL
  6
CONTINUOUS
 62
     5
 10
-340.07605393945408
 20
754.09538044943645
 30
0.0
 40
5.0959148676000003
 50
258.49669584436481
 51
263.80212653918989
  0
ARC
  8
DETAIL
  6
CONTINUOUS
 62
     5
 10
-340.07606315345771
 20
898.90467137453561
 30
0.0
 40
5.0958622469999986
 50
96.191375150998979
 51
101.50331884054209
  0
ARC
  8
DETAIL
  6
CONTINUOUS
 62
     5
 10
-341.14752645255788
 20
899.72258578663786
 30
0.0
 40
4.277414349599999
 50
82.984732968566675
 51
89.985535548075063
  0
ARC
  8
DETAIL
  6
CONTINUOUS
 62
     5
 10
-341.14752343615692
 20
753.27733886473652
 30
0.0
 40
4.2773390003999996
 50
270.01442430079999
 51
277.00765895826407
  0
CIRCLE
  8
DETAIL
  6
CONTINUOUS
 62
     5
 10
-247.50000000005821
 20
714.49999999993634
 30
0.0
 40
2.2999999999999989
  0
CIRCLE
  8
DETAIL
  6
CONTINUOUS
 62
     5
 10
-309.50000000005821
 20
821.49999999993634
 30
0.0
 40
2.2999999999999989
  0
CIRCLE
  8
DETAIL
  6
CONTINUOUS
 62
     5
 10
-187.50000000005821
 20
110.99999999993631
 30
0.0
 40
6.0999999999999988
  0
CIRCLE
  8
DETAIL
  6
CONTINUOUS
 62
     5
 10
-187.50000000005821
 20
110.99999999993631
 30
0.0
 40
6.0
  0
ARC
  8
DETAIL
  6
CONTINUOUS
 62
     5
 10
-190.04737231326001
 20
711.48945352183534
 30
0.0
 40
1.010521510999999
 50
2.854646149159934
 51
59.01984457267519
  0
ARC
  8
DETAIL
  6
CONTINUOUS
 62
     5
 10
-189.6338681049528
 20
703.49964704973718
 30
0.0
 40
1.0029164406999991
 50
2.1356962132692998
 51
12.11599094819146
  0
ARC
  8
DETAIL
  6
CONTINUOUS
 62
     5
 10
-189.8049241395565
 20
703.49925751743638
 30
0.0
 40
1.002340306
 50
1.01533869179164
 51
24.768417382815201
  0
ARC
  8
DETAIL
  6
CONTINUOUS
 62
     5
 10
-189.3475828201554
 20
703.49997528803749
 30
0.0
 40
1.0000544308999999
 50
1.0013615892138701
 51
63.971002847556932
  0
ARC
  8
DETAIL
  6
CONTINUOUS
 62
     5
 10
-189.62640771185389
 20
703.50007467063733
 30
0.0
 40
0.9954453051999999
 50
1.0002774504139971
 51
2.1271026603258409
  0
ARC
  8
DETAIL
  6
CONTINUOUS
 62
     5
 10
-190.04191625335801
 20
711.50920979793773
 30
0.0
 40
0.9907903145999998
 50
58.702270445650171
 51
89.972671948522205
  0
ARC
  8
DETAIL
  6
CONTINUOUS
 62
     5
 10
-279.50000000005821
 20
1293.9999999999361
 30
0.0
 40
10.0
 50
0.0
 51
180.0
  0
ARC
  8
DETAIL
  6
CONTINUOUS
 62
     5
 10
-279.50000000005821
 20
1143.9999999999361
 30
0.0
 40
10.0
 50
180.0
 51
0.0
  0
ARC
  8
DETAIL
  6
CONTINUOUS
 62
     5
 10
-279.50000000005821
 20
1343.9999999999361
 30
0.0
 40
10.0
 50
180.0
 51
0.0
  0
ARC
  8
DETAIL
  6
CONTINUOUS
 62
     5
 10
-279.50000000005821
 20
1093.9999999999361
 30
0.0
 40
10.0
 50
0.0
 51
180.0
  0
ARC
  8
DETAIL
  6
CONTINUOUS
 62
     5
 10
-279.50000000005821
 20
943.99999999993634
 30
0.0
 40
10.0
 50
180.0
 51
0.0
  0
ARC
  8
DETAIL
  6
CONTINUOUS
 62
     5
 10
-340.0653233228586
 20
939.15151830403738
 30
0.0
 40
5.1530650848999988
 50
258.22351576492741
 51
258.50425869745658
  0
ARC
  8
DETAIL
  6
CONTINUOUS
 62
     5
 10
-340.0653233264602
 20
1298.8484817136359
 30
0.0
 40
5.1530650666999991
 50
101.4957413021142
 51
101.7764842355019
  0
ARC
  8
DETAIL
  6
CONTINUOUS
 62
     5
 10
-340.06532332905772
 20
1139.1515182734361
 30
0.0
 40
5.1530650536999989
 50
258.22351576406868
 51
258.5042586978858
  0
ARC
  8
DETAIL
  6
CONTINUOUS
 62
     5
 10
-340.06532333165518
 20
1098.8484817391379
 30
0.0
 40
5.1530650406999987
 50
101.4957413021142
 51
101.7764842367901
  0
ARC
  8
DETAIL
  6
CONTINUOUS
 62
     5
 10
-340.06532334415527
 20
1339.1515181999359
 30
0.0
 40
5.1530649785999989
 50
258.22351576108429
 51
258.50425869915279
  0
ARC
  8
DETAIL
  6
CONTINUOUS
 62
     5
 10
-340.07605393945408
 20
1139.0953804495359
 30
0.0
 40
5.0959148677999986
 50
258.49669584436481
 51
263.80212653918989
  0
ARC
  8
DETAIL
  6
CONTINUOUS
 62
     5
 10
-340.07605393945408
 20
1339.095380449636
 30
0.0
 40
5.0959148679000004
 50
258.4966958447734
 51
263.80212653918989
  0
ARC
  8
DETAIL
  6
CONTINUOUS
 62
     5
 10
-340.07605393945408
 20
939.09538044943645
 30
0.0
 40
5.0959148676999986
 50
258.49669584436481
 51
263.80212653918989
  0
ARC
  8
DETAIL
  6
CONTINUOUS
 62
     5
 10
-340.07606315345771
 20
1098.9046713744369
 30
0.0
 40
5.0958622470999986
 50
96.191375150998979
 51
101.50331884054209
  0
ARC
  8
DETAIL
  6
CONTINUOUS
 62
     5
 10
-340.07606315345771
 20
1298.9046713745361
 30
0.0
 40
5.0958622469999986
 50
96.191375150998979
 51
101.50331884054209
  0
ARC
  8
DETAIL
  6
CONTINUOUS
 62
     5
 10
-341.14752645265253
 20
1099.722585786536
 30
0.0
 40
4.277414349699999
 50
82.984732968566675
 51
89.985535548075063
  0
ARC
  8
DETAIL
  6
CONTINUOUS
 62
     5
 10
-341.14752645265253
 20
1299.722585786536
 30
0.0
 40
4.277414349699999
 50
82.984732968566675
 51
89.985535548075063
  0
ARC
  8
DETAIL
  6
CONTINUOUS
 62
     5
 10
-341.14752343615692
 20
938.27733886473652
 30
0.0
 40
4.2773390003999996
 50
270.01442430079999
 51
277.00765895826407
  0
ARC
  8
DETAIL
  6
CONTINUOUS
 62
     5
 10
-341.14752343615692
 20
1338.2773388648361
 30
0.0
 40
4.2773390003999996
 50
270.01442430079999
 51
277.00765895826407
  0
ARC
  8
DETAIL
  6
CONTINUOUS
 62
     5
 10
-341.14752343615692
 20
1138.2773388648361
 30
0.0
 40
4.2773390003999996
 50
270.01442430079999
 51
277.00765895826407
  0
CIRCLE
  8
DETAIL
  6
CONTINUOUS
 62
     5
 10
-247.50000000005821
 20
1098.4999999999361
 30
0.0
 40
2.2999999999999989
  0
ARC
  8
DETAIL
  6
CONTINUOUS
 62
     5
 10
-372.38657282435452
 20
1559.3992675948371
 30
0.0
 40
5.0001653733999989
 50
308.82687880982502
 51
358.3465195875072
  0
ARC
  8
DETAIL
  6
CONTINUOUS
 62
     5
 10
-367.99768376205611
 20
1553.9458312278359
 30
0.0
 40
2.0
 50
128.82687634340451
 51
179.50000000003519
  0
ARC
  8
DETAIL
  6
CONTINUOUS
 62
     5
 10
-340.06532335165679
 20
1498.8484818358361
 30
0.0
 40
5.1530649419000003
 50
101.49574129913
 51
101.7764842389157
  0
ARC
  8
DETAIL
  6
CONTINUOUS
 62
     5
 10
-340.07606315345771
 20
1498.9046713743351
 30
0.0
 40
5.0958622472000004
 50
96.191375151413439
 51
101.50331884054209
  0
ARC
  8
DETAIL
  6
CONTINUOUS
 62
     5
 10
-341.14752645255788
 20
1499.722585786536
 30
0.0
 40
4.277414349699999
 50
82.984732968993157
 51
89.985535548075063
  0
CIRCLE
  8
DETAIL
  6
CONTINUOUS
 62
     5
 10
-309.50000000005821
 20
1496.4999999999361
 30
0.0
 40
2.2999999999999989
  0
ARC
  8
DETAIL
  6
CONTINUOUS
 62
     5
 10
-390.00000000005821
 20
1756.856081466836
 30
0.0
 40
30.0
 50
357.50000000002899
 51
0.0
  0
ARC
  8
DETAIL
  6
CONTINUOUS
 62
     5
 10
-362.00000003565219
 20
1811.4999999630361
 30
0.0
 40
2.0000000368999991
 50
0.000001057733
 51
81.818180954709916
  0
ARC
  8
DETAIL
  6
CONTINUOUS
 62
     5
 10
-361.00000000005821
 20
1834.5999999999369
 30
0.0
 40
2.0
 50
90.0
 51
180.0
  0
ARC
  8
DETAIL
  6
CONTINUOUS
 62
     5
 10
-360.00000000005821
 20
1838.5999999999369
 30
0.0
 40
2.0
 50
270.0
 51
0.0
  0
ARC
  8
DETAIL
  6
CONTINUOUS
 62
     5
 10
-361.00000000005821
 20
1816.9999999999361
 30
0.0
 40
1.0
 50
279.51118453733858
 51
359.99999316230708
  0
ARC
  8
DETAIL
  6
CONTINUOUS
 62
     5
 10
-357.50000000285218
 20
1857.5999999999369
 30
0.0
 40
0.5
 50
89.999999682336181
 51
180.0
  0
ARC
  8
DETAIL
  6
CONTINUOUS
 62
     5
 10
-362.7000000000553
 20
1815.6999999999371
 30
0.0
 40
0.3
 50
90.0
 51
180.0
  0
ARC
  8
DETAIL
  6
CONTINUOUS
 62
     5
 10
-362.7000000000553
 20
1813.7999999999349
 30
0.0
 40
0.3
 50
180.0
 51
270.0
  0
ARC
  8
DETAIL
  6
CONTINUOUS
 62
     5
 10
-279.50000000005821
 20
1493.9999999999361
 30
0.0
 40
10.0
 50
0.0
 51
180.0
  0
ARC
  8
DETAIL
  6
CONTINUOUS
 62
     5
 10
-253.50000000005821
 20
1516.4999999999361
 30
0.0
 40
6.0999999999999988
 50
96.136919971149894
 51
83.863080028850092
  0
CIRCLE
  8
DETAIL
  6
CONTINUOUS
 62
     5
 10
-253.50000000005821
 20
1516.4999999999361
 30
0.0
 40
6.0
  0
ARC
  8
DETAIL
  6
CONTINUOUS
 62
     5
 10
-220.50000000005821
 20
1519.9999999999361
 30
0.0
 40
3.0
 50
0.0
 51
56.529971084757257
  0
CIRCLE
  8
DETAIL
  6
CONTINUOUS
 62
     5
 10
-247.50000000005821
 20
1482.4999999999361
 30
0.0
 40
2.2999999999999989
  0
ARC
  8
DETAIL
  6
CONTINUOUS
 62
     5
 10
-167.35142435436131
 20
1857.5999999999369
 30
0.0
 40
0.5
 50
90.0
 51
180.0
  0
ARC
  8
DETAIL
  6
CONTINUOUS
 62
     5
 10
261.79050432053918
 20
-6278.3976030751637
 30
0.0
 40
7867.1038838966006
 50
90.214366010562543
 51
90.348575731091287
  0
ARC
  8
DETAIL
  6
CONTINUOUS
 62
     5
 10
198.62743974864131
 20
-5506.3919215502629
 30
0.0
 40
7081.2385457174996
 50
89.325246418533709
 51
89.657277267653214
  0
ARC
  8
DETAIL
  6
CONTINUOUS
 62
     5
 10
203.18489522854361
 20
-5014.6071783127654
 30
0.0
 40
6589.6524212205013
 50
89.313370461956467
 51
89.670227850776286
  0
ARC
  8
DETAIL
  6
CONTINUOUS
 62
     5
 10
213.0919912496465
 20
-4240.1182868458664
 30
0.0
 40
5828.8013415019996
 50
89.421154632632039
 51
89.810632499999954
  0
CIRCLE
  8
DETAIL
  6
CONTINUOUS
 62
     5
 10
186.49999999994179
 20
110.99999999993631
 30
0.0
 40
6.0999999999999988
  0
CIRCLE
  8
DETAIL
  6
CONTINUOUS
 62
     5
 10
186.49999999994179
 20
110.99999999993631
 30
0.0
 40
6.0
  0
CIRCLE
  8
DETAIL
  6
CONTINUOUS
 62
     5
 10
250.49999999994179
 20
110.99999999993631
 30
0.0
 40
6.0999999999999988
  0
CIRCLE
  8
DETAIL
  6
CONTINUOUS
 62
     5
 10
250.49999999994179
 20
110.99999999993631
 30
0.0
 40
6.0
  0
ARC
  8
DETAIL
  6
CONTINUOUS
 62
     5
 10
291.49999999994179
 20
94.999999999936335
 30
0.0
 40
5.0
 50
0.0
 51
90.0
  0
ARC
  8
DETAIL
  6
CONTINUOUS
 62
     5
 10
242.49999999994179
 20
102.99999999993631
 30
0.0
 40
3.0
 50
180.0
 51
270.0
  0
CIRCLE
  8
DETAIL
  6
CONTINUOUS
 62
     5
 10
223.99999999994179
 20
304.99999999993628
 30
0.0
 40
6.0999999999999988
  0
CIRCLE
  8
DETAIL
  6
CONTINUOUS
 62
     5
 10
223.99999999994179
 20
304.99999999993628
 30
0.0
 40
6.0
  0
CIRCLE
  8
DETAIL
  6
CONTINUOUS
 62
     5
 10
304.49999999994179
 20
74.499999999936335
 30
0.0
 40
6.0999999999999988
  0
CIRCLE
  8
DETAIL
  6
CONTINUOUS
 62
     5
 10
304.49999999994179
 20
74.499999999936335
 30
0.0
 40
6.0
  0
ARC
  8
DETAIL
  6
CONTINUOUS
 62
     5
 10
300.7999999999447
 20
69.499999999936335
 30
0.0
 40
5.0
 50
180.0
 51
270.0
  0
ARC
  8
DETAIL
  6
CONTINUOUS
 62
     5
 10
301.49999999994179
 20
69.499999999936335
 30
0.0
 40
5.0
 50
180.0
 51
270.0
  0
ARC
  8
DETAIL
  6
CONTINUOUS
 62
     5
 10
318.99999999994179
 20
63.499999999936342
 30
0.0
 40
3.5
 50
180.0
 51
270.0
  0
ARC
  8
DETAIL
  6
CONTINUOUS
 62
     5
 10
316.99999999994179
 20
3.4999999999363349
 30
0.0
 40
3.5
 50
180.0
 51
270.0
  0
ARC
  8
DETAIL
  6
CONTINUOUS
 62
     5
 10
316.99999999994179
 20
56.499999999936328
 30
0.0
 40
3.5
 50
90.0
 51
180.0
  0
ARC
  8
DETAIL
  6
CONTINUOUS
 62
     5
 10
318.99999999994179
 20
63.499999999936342
 30
0.0
 40
1.1999999999999991
 50
180.0
 51
270.0
  0
ARC
  8
DETAIL
  6
CONTINUOUS
 62
     5
 10
316.99999999994179
 20
3.4999999999363349
 30
0.0
 40
1.1999999999999991
 50
180.0
 51
270.0
  0
ARC
  8
DETAIL
  6
CONTINUOUS
 62
     5
 10
316.99999999994179
 20
56.499999999936328
 30
0.0
 40
1.1999999999999991
 50
90.0
 51
180.0
  0
CIRCLE
  8
DETAIL
  6
CONTINUOUS
 62
     5
 10
309.49999999994179
 20
146.49999999993631
 30
0.0
 40
2.2999999999999989
  0
CIRCLE
  8
DETAIL
  6
CONTINUOUS
 62
     5
 10
223.99999999994179
 20
644.99999999993634
 30
0.0
 40
6.0999999999999988
  0
CIRCLE
  8
DETAIL
  6
CONTINUOUS
 62
     5
 10
223.99999999994179
 20
644.99999999993634
 30
0.0
 40
6.0
  0
ARC
  8
DETAIL
  6
CONTINUOUS
 62
     5
 10
227.49999999994179
 20
716.49999999993634
 30
0.0
 40
3.0
 50
180.0
 51
0.0
  0
ARC
  8
DETAIL
  6
CONTINUOUS
 62
     5
 10
221.49999999994179
 20
717.99999999993634
 30
0.0
 40
3.0
 50
0.0
 51
90.0
  0
ARC
  8
DETAIL
  6
CONTINUOUS
 62
     5
 10
218.49999999994179
 20
717.99999999993634
 30
0.0
 40
3.0
 50
90.0
 51
180.0
  0
ARC
  8
DETAIL
  6
CONTINUOUS
 62
     5
 10
227.49999999994179
 20
724.99999999993634
 30
0.0
 40
3.0
 50
0.0
 51
90.0
  0
CIRCLE
  8
DETAIL
  6
CONTINUOUS
 62
     5
 10
246.49999999994179
 20
714.49999999993634
 30
0.0
 40
2.2999999999999989
  0
ARC
  8
DETAIL
  6
CONTINUOUS
 62
     5
 10
210.57681496644361
 20
699.49975468073706
 30
0.0
 40
1.0002286129999991
 50
89.986055337826613
 51
179.98594724624439
  0
ARC
  8
DETAIL
  6
CONTINUOUS
 62
     5
 10
208.99999999994179
 20
702.7593714883368
 30
0.0
 40
0.5
 50
180.0
 51
269.00000000012898
  0
ARC
  8
DETAIL
  6
CONTINUOUS
 62
     5
 10
220.49999999994179
 20
767.09999999993659
 30
0.0
 40
5.0
 50
180.0
 51
270.0
  0
ARC
  8
DETAIL
  6
CONTINUOUS
 62
     5
 10
220.49999999994179
 20
732.99999999993634
 30
0.0
 40
5.0
 50
180.0
 51
270.0
  0
ARC
  8
DETAIL
  6
CONTINUOUS
 62
     5
 10
222.99999999994179
 20
750.19999999993695
 30
0.0
 40
3.25
 50
22.23471803299196
 51
157.76528196700801
  0
ARC
  8
DETAIL
  6
CONTINUOUS
 62
     5
 10
222.99999999994179
 20
750.59999999993659
 30
0.0
 40
3.0
 50
180.0
 51
0.0
  0
ARC
  8
DETAIL
  6
CONTINUOUS
 62
     5
 10
218.49999999994179
 20
752.0999999999367
 30
0.0
 40
3.0
 50
90.0
 51
180.0
  0
ARC
  8
DETAIL
  6
CONTINUOUS
 62
     5
 10
222.99999999994179
 20
759.09999999993659
 30
0.0
 40
3.0
 50
0.0
 51
90.0
  0
CIRCLE
  8
DETAIL
  6
CONTINUOUS
 62
     5
 10
222.99999999994179
 20
750.39999999993768
 30
0.0
 40
2.2999999999999989
  0
ARC
  8
DETAIL
  6
CONTINUOUS
 62
     5
 10
218.99999999994179
 20
754.0999999999367
 30
0.0
 40
1.0
 50
0.0
 51
90.0
  0
CIRCLE
  8
DETAIL
  6
CONTINUOUS
 62
     5
 10
309.49999999994179
 20
821.49999999993634
 30
0.0
 40
2.2999999999999989
  0
ARC
  8
DETAIL
  6
CONTINUOUS
 62
     5
 10
311.09999999994761
 20
818.32499999993695
 30
0.0
 40
2.0
 50
90.0
 51
153.6988687914197
  0
CIRCLE
  8
DETAIL
  6
CONTINUOUS
 62
     5
 10
-0.0000000000582077
 20
1824.7999999999349
 30
0.0
 40
6.0999999999999988
  0
CIRCLE
  8
DETAIL
  6
CONTINUOUS
 62
     5
 10
-0.0000000000582077
 20
1824.7999999999349
 30
0.0
 40
6.0
  0
ARC
  8
DETAIL
  6
CONTINUOUS
 62
     5
 10
167.35142435414309
 20
1857.5999999999369
 30
0.0
 40
0.5
 50
0.0
 51
90.0
  0
ARC
  8
DETAIL
  6
CONTINUOUS
 62
     5
 10
221.7999999999447
 20
1097.1999999999371
 30
0.0
 40
14.199999999999999
 50
52.446160766974671
 51
79.282937195136
  0
ARC
  8
DETAIL
  6
CONTINUOUS
 62
     5
 10
220.49999999994179
 20
1125.4999999999361
 30
0.0
 40
5.0
 50
180.0
 51
270.0
  0
ARC
  8
DETAIL
  6
CONTINUOUS
 62
     5
 10
220.49999999994179
 20
1011.899999999938
 30
0.0
 40
5.0
 50
180.0
 51
270.0
  0
ARC
  8
DETAIL
  6
CONTINUOUS
 62
     5
 10
222.99999999994179
 20
995.19999999993706
 30
0.0
 40
3.25
 50
21.427735194129031
 51
158.5722648058709
  0
ARC
  8
DETAIL
  6
CONTINUOUS
 62
     5
 10
227.49999999994179
 20
1108.9999999999361
 30
0.0
 40
3.0
 50
180.0
 51
0.0
  0
ARC
  8
DETAIL
  6
CONTINUOUS
 62
     5
 10
221.49999999994179
 20
1110.4999999999361
 30
0.0
 40
3.0
 50
0.0
 51
90.0
  0
ARC
  8
DETAIL
  6
CONTINUOUS
 62
     5
 10
218.49999999994179
 20
1110.4999999999361
 30
0.0
 40
3.0
 50
90.0
 51
180.0
  0
ARC
  8
DETAIL
  6
CONTINUOUS
 62
     5
 10
222.99999999994179
 20
995.39999999993779
 30
0.0
 40
3.0
 50
180.0
 51
0.0
  0
ARC
  8
DETAIL
  6
CONTINUOUS
 62
     5
 10
218.49999999994179
 20
996.89999999993768
 30
0.0
 40
3.0
 50
90.0
 51
180.0
  0
ARC
  8
DETAIL
  6
CONTINUOUS
 62
     5
 10
222.99999999994179
 20
1003.899999999938
 30
0.0
 40
3.0
 50
0.0
 51
90.0
  0
ARC
  8
DETAIL
  6
CONTINUOUS
 62
     5
 10
227.49999999994179
 20
1117.4999999999361
 30
0.0
 40
3.0
 50
0.0
 51
90.0
  0
ARC
  8
DETAIL
  6
CONTINUOUS
 62
     5
 10
218.49999999994179
 20
1002.1999999999369
 30
0.0
 40
3.0
 50
90.0
 51
180.0
  0
CIRCLE
  8
DETAIL
  6
CONTINUOUS
 62
     5
 10
222.99999999994179
 20
995.19999999993706
 30
0.0
 40
2.2999999999999989
  0
ARC
  8
DETAIL
  6
CONTINUOUS
 62
     5
 10
218.99999999994179
 20
998.89999999993768
 30
0.0
 40
1.0
 50
0.0
 51
90.0
  0
ARC
  8
DETAIL
  6
CONTINUOUS
 62
     5
 10
220.49999999994179
 20
1256.6999999999371
 30
0.0
 40
5.0
 50
180.0
 51
270.0
  0
ARC
  8
DETAIL
  6
CONTINUOUS
 62
     5
 10
222.99999999994179
 20
1240.1999999999371
 30
0.0
 40
3.0
 50
180.0
 51
0.0
  0
ARC
  8
DETAIL
  6
CONTINUOUS
 62
     5
 10
218.49999999994179
 20
1241.6999999999371
 30
0.0
 40
3.0
 50
90.0
 51
180.0
  0
ARC
  8
DETAIL
  6
CONTINUOUS
 62
     5
 10
222.99999999994179
 20
1248.6999999999371
 30
0.0
 40
3.0
 50
0.0
 51
90.0
  0
CIRCLE
  8
DETAIL
  6
CONTINUOUS
 62
     5
 10
222.99999999994179
 20
1239.9999999999361
 30
0.0
 40
2.2999999999999989
  0
ARC
  8
DETAIL
  6
CONTINUOUS
 62
     5
 10
218.99999999994179
 20
1243.6999999999371
 30
0.0
 40
1.0
 50
0.0
 51
90.0
  0
CIRCLE
  8
DETAIL
  6
CONTINUOUS
 62
     5
 10
246.49999999994179
 20
1098.4999999999361
 30
0.0
 40
2.2999999999999989
  0
ARC
  8
DETAIL
  6
CONTINUOUS
 62
     5
 10
302.94810194414458
 20
1629.7699508187379
 30
0.0
 40
99.013814806300005
 50
199.4249472385556
 51
204.00969587064941
  0
ARC
  8
DETAIL
  6
CONTINUOUS
 62
     5
 10
221.7999999999447
 20
1464.399999999938
 30
0.0
 40
14.199999999999999
 50
52.161848988131403
 51
53.123296252621763
  0
ARC
  8
DETAIL
  6
CONTINUOUS
 62
     5
 10
221.7999999999447
 20
1464.399999999938
 30
0.0
 40
6.2000000000000002
 50
26.25235118009433
 51
63.696671654187789
  0
ARC
  8
DETAIL
  6
CONTINUOUS
 62
     5
 10
261.49999999994179
 20
1516.4999999999361
 30
0.0
 40
6.0999999999999988
 50
96.136919971149894
 51
83.863080028850092
  0
CIRCLE
  8
DETAIL
  6
CONTINUOUS
 62
     5
 10
261.49999999994179
 20
1516.4999999999361
 30
0.0
 40
6.0
  0
ARC
  8
DETAIL
  6
CONTINUOUS
 62
     5
 10
220.49999999994179
 20
1486.5999999999369
 30
0.0
 40
5.0
 50
180.0
 51
270.0
  0
ARC
  8
DETAIL
  6
CONTINUOUS
 62
     5
 10
220.49999999994179
 20
1460.6999999999371
 30
0.0
 40
5.0
 50
180.0
 51
270.0
  0
ARC
  8
DETAIL
  6
CONTINUOUS
 62
     5
 10
227.99999999994179
 20
1469.4999999999361
 30
0.0
 40
5.0
 50
112.0243128370237
 51
138.7555552448631
  0
ARC
  8
DETAIL
  6
CONTINUOUS
 62
     5
 10
222.99999999994179
 20
1443.9999999999361
 30
0.0
 40
3.25
 50
21.427735194129031
 51
158.5722648058709
  0
ARC
  8
DETAIL
  6
CONTINUOUS
 62
     5
 10
227.49999999994179
 20
1470.0999999999369
 30
0.0
 40
3.0
 50
180.0
 51
0.0
  0
ARC
  8
DETAIL
  6
CONTINUOUS
 62
     5
 10
221.49999999994179
 20
1471.599999999936
 30
0.0
 40
3.0
 50
0.0
 51
90.0
  0
ARC
  8
DETAIL
  6
CONTINUOUS
 62
     5
 10
218.49999999994179
 20
1471.599999999936
 30
0.0
 40
3.0
 50
90.0
 51
180.0
  0
ARC
  8
DETAIL
  6
CONTINUOUS
 62
     5
 10
222.99999999994179
 20
1444.1999999999371
 30
0.0
 40
3.0
 50
180.0
 51
0.0
  0
ARC
  8
DETAIL
  6
CONTINUOUS
 62
     5
 10
218.49999999994179
 20
1445.6999999999371
 30
0.0
 40
3.0
 50
90.0
 51
180.0
  0
ARC
  8
DETAIL
  6
CONTINUOUS
 62
     5
 10
222.99999999994179
 20
1452.6999999999371
 30
0.0
 40
3.0
 50
0.0
 51
90.0
  0
ARC
  8
DETAIL
  6
CONTINUOUS
 62
     5
 10
227.49999999994179
 20
1478.5999999999369
 30
0.0
 40
3.0
 50
0.0
 51
90.0
  0
ARC
  8
DETAIL
  6
CONTINUOUS
 62
     5
 10
218.49999999994179
 20
1450.9999999999361
 30
0.0
 40
3.0
 50
90.0
 51
180.0
  0
ARC
  8
DETAIL
  6
CONTINUOUS
 62
     5
 10
224.99999999994179
 20
1476.916198487035
 30
0.0
 40
3.0
 50
292.02431283706278
 51
0.0
  0
CIRCLE
  8
DETAIL
  6
CONTINUOUS
 62
     5
 10
246.49999999994179
 20
1472.4999999999361
 30
0.0
 40
2.2999999999999989
  0
CIRCLE
  8
DETAIL
  6
CONTINUOUS
 62
     5
 10
222.99999999994179
 20
1443.9999999999361
 30
0.0
 40
2.2999999999999989
  0
ARC
  8
DETAIL
  6
CONTINUOUS
 62
     5
 10
218.99999999994179
 20
1447.6999999999371
 30
0.0
 40
1.0
 50
0.0
 51
90.0
  0
ARC
  8
DETAIL
  6
CONTINUOUS
 62
     5
 10
221.69226870004789
 20
1574.4364185450379
 30
0.0
 40
0.3052722584
 50
148.253783371813
 51
165.76686983885509
  0
ARC
  8
DETAIL
  6
CONTINUOUS
 62
     5
 10
372.3865728242381
 20
1559.3992675948371
 30
0.0
 40
5.0001653733999989
 50
181.65348041249271
 51
231.17312119609991
  0
CIRCLE
  8
DETAIL
  6
CONTINUOUS
 62
     5
 10
309.49999999994179
 20
1496.4999999999361
 30
0.0
 40
2.2999999999999989
  0
ARC
  8
DETAIL
  6
CONTINUOUS
 62
     5
 10
367.99768376194697
 20
1553.9458312266379
 30
0.0
 40
2.0
 50
0.4999999999647253
 51
51.173123662975762
  0
ARC
  8
DETAIL
  6
CONTINUOUS
 62
     5
 10
389.99999999994179
 20
1756.856081466836
 30
0.0
 40
30.0
 50
180.0
 51
182.4999999999709
  0
ARC
  8
DETAIL
  6
CONTINUOUS
 62
     5
 10
360.99999996703991
 20
1834.5999999999369
 30
0.0
 40
2.0
 50
0.0
 51
89.999999058264351
  0
ARC
  8
DETAIL
  6
CONTINUOUS
 62
     5
 10
359.99999999994179
 20
1838.5999999999369
 30
0.0
 40
2.0
 50
180.0
 51
270.0
  0
ARC
  8
DETAIL
  6
CONTINUOUS
 62
     5
 10
361.99999999784632
 20
1811.500000002035
 30
0.0
 40
1.9999999978999989
 50
98.18181813346196
 51
180.000000059614
  0
ARC
  8
DETAIL
  6
CONTINUOUS
 62
     5
 10
360.99999999994179
 20
1816.9999999999361
 30
0.0
 40
1.0
 50
180.0
 51
261.03604268228838
  0
ARC
  8
DETAIL
  6
CONTINUOUS
 62
     5
 10
357.50000000224099
 20
1857.5999999999369
 30
0.0
 40
0.5
 50
0.0
 51
90.000000270973047
  0
ARC
  8
DETAIL
  6
CONTINUOUS
 62
     5
 10
362.69999999993888
 20
1813.7999999999349
 30
0.0
 40
0.3
 50
270.0
 51
0.0
  0
ARC
  8
DETAIL
  6
CONTINUOUS
 62
     5
 10
362.69999999993888
 20
1815.6999999999371
 30
0.0
 40
0.3
 50
0.0
 51
90.0
  0
POLYLINE
  8
DETAIL
  6
CONTINUOUS
 62
     5
 66
     1
 10
0.0
 20
0.0
 30
0.0
  0
VERTEX
  8
DETAIL
  6
CONTINUOUS
 62
     5
 10
-188.65329193366051
 20
703.71015063453694
 30
0.0
  0
VERTEX
  8
DETAIL
  6
CONTINUOUS
 62
     5
 10
-188.67244573811067
 20
703.7845028731075
 30
0.0
  0
VERTEX
  8
DETAIL
  6
CONTINUOUS
 62
     5
 10
-188.69757309747916
 20
703.85765322145426
 30
0.0
  0
VERTEX
  8
DETAIL
  6
CONTINUOUS
 62
     5
 10
-188.72835596965908
 20
703.9289973204144
 30
0.0
  0
VERTEX
  8
DETAIL
  6
CONTINUOUS
 62
     5
 10
-188.76447631254359
 20
703.99793081082521
 30
0.0
  0
VERTEX
  8
DETAIL
  6
CONTINUOUS
 62
     5
 10
-188.8056160840257
 20
704.0638493335241
 30
0.0
  0
VERTEX
  8
DETAIL
  6
CONTINUOUS
 62
     5
 10
-188.85145724199862
 20
704.12614852934871
 30
0.0
  0
VERTEX
  8
DETAIL
  6
CONTINUOUS
 62
     5
 10
-188.9016817443553
 20
704.18422403913598
 30
0.0
  0
SEQEND
  8
DETAIL
  6
CONTINUOUS
 62
     5
  0
LINE
  8
DETAIL
  6
CONTINUOUS
 62
     5
 10
-189.01493199056131
 20
710.23772170163636
 30
0.0
 11
-189.03743211715479
 21
711.51754603123663
 31
0.0
  0
POLYLINE
  8
DETAIL
  6
CONTINUOUS
 62
     5
 66
     1
 10
0.0
 20
0.0
 30
0.0
  0
VERTEX
  8
DETAIL
  6
CONTINUOUS
 62
     5
 10
-190.04580811245251
 20
711.99999999993634
 30
0.0
  0
VERTEX
  8
DETAIL
  6
CONTINUOUS
 62
     5
 10
-189.98186081936234
 20
712.04573137634918
 30
0.0
  0
VERTEX
  8
DETAIL
  6
CONTINUOUS
 62
     5
 10
-189.91785491972877
 20
712.09139136812837
 30
0.0
  0
VERTEX
  8
DETAIL
  6
CONTINUOUS
 62
     5
 10
-189.85374321162922
 20
712.13693877697403
 30
0.0
  0
VERTEX
  8
DETAIL
  6
CONTINUOUS
 62
     5
 10
-189.78941219534985
 20
712.18219337273376
 30
0.0
  0
VERTEX
  8
DETAIL
  6
CONTINUOUS
 62
     5
 10
-189.72472788629992
 20
712.22693196680461
 30
0.0
  0
VERTEX
  8
DETAIL
  6
CONTINUOUS
 62
     5
 10
-189.65955629392232
 20
712.27093135807206
 30
0.0
  0
VERTEX
  8
DETAIL
  6
CONTINUOUS
 62
     5
 10
-189.59376342765987
 20
712.31396834542079
 30
0.0
  0
VERTEX
  8
DETAIL
  6
CONTINUOUS
 62
     5
 10
-189.52721529695549
 20
712.35581972773605
 30
0.0
  0
SEQEND
  8
DETAIL
  6
CONTINUOUS
 62
     5
  0
LINE
  8
DETAIL
  6
CONTINUOUS
 62
     5
 10
-189.03743211715479
 20
711.51754603123663
 30
0.0
 11
-189.03810476605571
 21
711.53977988193765
 31
0.0
  0
POLYLINE
  8
DETAIL
  6
CONTINUOUS
 62
     5
 66
     1
 10
0.0
 20
0.0
 30
0.0
  0
VERTEX
  8
DETAIL
  6
CONTINUOUS
 62
     5
 10
-197.820466715355
 20
696.39999999993768
 30
0.0
  0
VERTEX
  8
DETAIL
  6
CONTINUOUS
 62
     5
 10
-198.02536289660856
 20
696.38448741246964
 30
0.0
  0
VERTEX
  8
DETAIL
  6
CONTINUOUS
 62
     5
 10
-198.22696776674547
 20
696.34046768817359
 30
0.0
  0
VERTEX
  8
DETAIL
  6
CONTINUOUS
 62
     5
 10
-198.42127951710259
 20
696.27171936570676
 30
0.0
  0
VERTEX
  8
DETAIL
  6
CONTINUOUS
 62
     5
 10
-198.60627987770724
 20
696.18205419769492
 30
0.0
  0
VERTEX
  8
DETAIL
  6
CONTINUOUS
 62
     5
 10
-198.7819059840686
 20
696.07531667961575
 30
0.0
  0
VERTEX
  8
DETAIL
  6
CONTINUOUS
 62
     5
 10
-198.94842382599745
 20
695.95520215531144
 30
0.0
  0
VERTEX
  8
DETAIL
  6
CONTINUOUS
 62
     5
 10
-199.10706605891565
 20
695.82481443619486
 30
0.0
  0
VERTEX
  8
DETAIL
  6
CONTINUOUS
 62
     5
 10
-199.25931963857357
 20
695.68709906841991
 30
0.0
  0
VERTEX
  8
DETAIL
  6
CONTINUOUS
 62
     5
 10
-199.40705397484038
 20
695.54470755968282
 30
0.0
  0
VERTEX
  8
DETAIL
  6
CONTINUOUS
 62
     5
 10
-199.5525175229559
 20
695.39999999993779
 30
0.0
  0
SEQEND
  8
DETAIL
  6
CONTINUOUS
 62
     5
  0
POLYLINE
  8
DETAIL
  6
CONTINUOUS
 62
     5
 66
     1
 10
0.0
 20
0.0
 30
0.0
  0
VERTEX
  8
DETAIL
  6
CONTINUOUS
 62
     5
 10
-347.15685424955882
 20
1143.9999999999361
 30
0.0
  0
VERTEX
  8
DETAIL
  6
CONTINUOUS
 62
     5
 10
-347.11893662052324
 20
1142.963409835746
 30
0.0
  0
VERTEX
  8
DETAIL
  6
CONTINUOUS
 62
     5
 10
-347.00407343286111
 20
1141.9308478901573
 30
0.0
  0
VERTEX
  8
DETAIL
  6
CONTINUOUS
 62
     5
 10
-346.81059923573963
 20
1140.9089252004674
 30
0.0
  0
VERTEX
  8
DETAIL
  6
CONTINUOUS
 62
     5
 10
-346.5367769735816
 20
1139.9044347489403
 30
0.0
  0
VERTEX
  8
DETAIL
  6
CONTINUOUS
 62
     5
 10
-346.17983555109913
 20
1138.9267969739326
 30
0.0
  0
VERTEX
  8
DETAIL
  6
CONTINUOUS
 62
     5
 10
-345.73622656189542
 20
1137.9874074321544
 30
0.0
  0
VERTEX
  8
DETAIL
  6
CONTINUOUS
 62
     5
 10
-345.20236713125018
 20
1137.097804819165
 30
0.0
  0
VERTEX
  8
DETAIL
  6
CONTINUOUS
 62
     5
 10
-344.57413745175052
 20
1136.2728137144393
 30
0.0
  0
VERTEX
  8
DETAIL
  6
CONTINUOUS
 62
     5
 10
-343.8475960912391
 20
1135.5325558621162
 30
0.0
  0
VERTEX
  8
DETAIL
  6
CONTINUOUS
 62
     5
 10
-343.02301299917337
 20
1134.9035270022764
 30
0.0
  0
VERTEX
  8
DETAIL
  6
CONTINUOUS
 62
     5
 10
-342.10658119969605
 20
1134.4171729640923
 30
0.0
  0
VERTEX
  8
DETAIL
  6
CONTINUOUS
 62
     5
 10
-341.11703443375882
 20
1134.106918864238
 30
0.0
  0
SEQEND
  8
DETAIL
  6
CONTINUOUS
 62
     5
  0
POLYLINE
  8
DETAIL
  6
CONTINUOUS
 62
     5
 66
     1
 10
0.0
 20
0.0
 30
0.0
  0
VERTEX
  8
DETAIL
  6
CONTINUOUS
 62
     5
 10
-347.15685424955882
 20
1343.9999999999361
 30
0.0
  0
VERTEX
  8
DETAIL
  6
CONTINUOUS
 62
     5
 10
-347.11893662052324
 20
1342.963409835746
 30
0.0
  0
VERTEX
  8
DETAIL
  6
CONTINUOUS
 62
     5
 10
-347.00407343286111
 20
1341.9308478901576
 30
0.0
  0
VERTEX
  8
DETAIL
  6
CONTINUOUS
 62
     5
 10
-346.81059923573963
 20
1340.9089252004671
 30
0.0
  0
VERTEX
  8
DETAIL
  6
CONTINUOUS
 62
     5
 10
-346.5367769735816
 20
1339.9044347489403
 30
0.0
  0
VERTEX
  8
DETAIL
  6
CONTINUOUS
 62
     5
 10
-346.17983555109913
 20
1338.9267969739326
 30
0.0
  0
VERTEX
  8
DETAIL
  6
CONTINUOUS
 62
     5
 10
-345.73622656189542
 20
1337.9874074321542
 30
0.0
  0
VERTEX
  8
DETAIL
  6
CONTINUOUS
 62
     5
 10
-345.20236713125018
 20
1337.097804819165
 30
0.0
  0
VERTEX
  8
DETAIL
  6
CONTINUOUS
 62
     5
 10
-344.57413745175052
 20
1336.2728137144393
 30
0.0
  0
VERTEX
  8
DETAIL
  6
CONTINUOUS
 62
     5
 10
-343.8475960912391
 20
1335.5325558621162
 30
0.0
  0
VERTEX
  8
DETAIL
  6
CONTINUOUS
 62
     5
 10
-343.02301299917337
 20
1334.9035270022766
 30
0.0
  0
VERTEX
  8
DETAIL
  6
CONTINUOUS
 62
     5
 10
-342.10658119969605
 20
1334.4171729640925
 30
0.0
  0
VERTEX
  8
DETAIL
  6
CONTINUOUS
 62
     5
 10
-341.11703443375882
 20
1334.106918864238
 30
0.0
  0
SEQEND
  8
DETAIL
  6
CONTINUOUS
 62
     5
  0
POLYLINE
  8
DETAIL
  6
CONTINUOUS
 62
     5
 66
     1
 10
0.0
 20
0.0
 30
0.0
  0
VERTEX
  8
DETAIL
  6
CONTINUOUS
 62
     5
 10
-340.62567943806062
 20
749.03195221973692
 30
0.0
  0
VERTEX
  8
DETAIL
  6
CONTINUOUS
 62
     5
 10
-339.67970270741426
 20
749.2557697613712
 30
0.0
  0
VERTEX
  8
DETAIL
  6
CONTINUOUS
 62
     5
 10
-338.79812989274097
 20
749.66648217150396
 30
0.0
  0
VERTEX
  8
DETAIL
  6
CONTINUOUS
 62
     5
 10
-338.00214353076319
 20
750.22484515888232
 30
0.0
  0
VERTEX
  8
DETAIL
  6
CONTINUOUS
 62
     5
 10
-337.2973721910692
 20
750.89493815116816
 30
0.0
  0
VERTEX
  8
DETAIL
  6
CONTINUOUS
 62
     5
 10
-336.68275538278544
 20
751.6482059217725
 30
0.0
  0
VERTEX
  8
DETAIL
  6
CONTINUOUS
 62
     5
 10
-336.15394996422492
 20
752.464151687911
 30
0.0
  0
VERTEX
  8
DETAIL
  6
CONTINUOUS
 62
     5
 10
-335.70615510119819
 20
753.32704882363214
 30
0.0
  0
VERTEX
  8
DETAIL
  6
CONTINUOUS
 62
     5
 10
-335.3348648501028
 20
754.22507953596562
 30
0.0
  0
VERTEX
  8
DETAIL
  6
CONTINUOUS
 62
     5
 10
-335.03603778143264
 20
755.15022878306308
 30
0.0
  0
VERTEX
  8
DETAIL
  6
CONTINUOUS
 62
     5
 10
-334.80617373077786
 20
756.09650928905478
 30
0.0
  0
VERTEX
  8
DETAIL
  6
CONTINUOUS
 62
     5
 10
-334.64346028407556
 20
757.05773945512044
 30
0.0
  0
VERTEX
  8
DETAIL
  6
CONTINUOUS
 62
     5
 10
-334.54670555441805
 20
758.02765712089013
 30
0.0
  0
VERTEX
  8
DETAIL
  6
CONTINUOUS
 62
     5
 10
-334.51471862585458
 20
758.99999999993634
 30
0.0
  0
SEQEND
  8
DETAIL
  6
CONTINUOUS
 62
     5
  0
POLYLINE
  8
DETAIL
  6
CONTINUOUS
 62
     5
 66
     1
 10
0.0
 20
0.0
 30
0.0
  0
VERTEX
  8
DETAIL
  6
CONTINUOUS
 62
     5
 10
-334.51471862585458
 20
893.99999999993634
 30
0.0
  0
VERTEX
  8
DETAIL
  6
CONTINUOUS
 62
     5
 10
-334.54670267770928
 20
894.97229894263228
 30
0.0
  0
VERTEX
  8
DETAIL
  6
CONTINUOUS
 62
     5
 10
-334.64344861481368
 20
895.94217292840608
 30
0.0
  0
VERTEX
  8
DETAIL
  6
CONTINUOUS
 62
     5
 10
-334.80614710947833
 20
896.9033606110869
 30
0.0
  0
VERTEX
  8
DETAIL
  6
CONTINUOUS
 62
     5
 10
-335.03598980624105
 20
897.84960077087669
 30
0.0
  0
VERTEX
  8
DETAIL
  6
CONTINUOUS
 62
     5
 10
-335.33478885200969
 20
898.77471284221781
 30
0.0
  0
VERTEX
  8
DETAIL
  6
CONTINUOUS
 62
     5
 10
-335.70604375714578
 20
899.67271077766338
 30
0.0
  0
VERTEX
  8
DETAIL
  6
CONTINUOUS
 62
     5
 10
-336.15379519330338
 20
900.53558099593329
 30
0.0
  0
VERTEX
  8
DETAIL
  6
CONTINUOUS
 62
     5
 10
-336.68254829800554
 20
901.35150831019416
 30
0.0
  0
VERTEX
  8
DETAIL
  6
CONTINUOUS
 62
     5
 10
-337.29710332817194
 20
902.10476981663987
 30
0.0
  0
VERTEX
  8
DETAIL
  6
CONTINUOUS
 62
     5
 10
-338.00180332132169
 20
902.77487399626796
 30
0.0
  0
VERTEX
  8
DETAIL
  6
CONTINUOUS
 62
     5
 10
-338.79771075818866
 20
903.33327297079586
 30
0.0
  0
VERTEX
  8
DETAIL
  6
CONTINUOUS
 62
     5
 10
-339.67920300013174
 20
903.744054408902
 30
0.0
  0
VERTEX
  8
DETAIL
  6
CONTINUOUS
 62
     5
 10
-340.62510952875891
 20
903.96797788583535
 30
0.0
  0
SEQEND
  8
DETAIL
  6
CONTINUOUS
 62
     5
  0
POLYLINE
  8
DETAIL
  6
CONTINUOUS
 62
     5
 66
     1
 10
0.0
 20
0.0
 30
0.0
  0
VERTEX
  8
DETAIL
  6
CONTINUOUS
 62
     5
 10
-347.15685424955882
 20
943.99999999993634
 30
0.0
  0
VERTEX
  8
DETAIL
  6
CONTINUOUS
 62
     5
 10
-347.11893662052324
 20
942.96340983574589
 30
0.0
  0
VERTEX
  8
DETAIL
  6
CONTINUOUS
 62
     5
 10
-347.00407343286111
 20
941.93084789015745
 30
0.0
  0
VERTEX
  8
DETAIL
  6
CONTINUOUS
 62
     5
 10
-346.81059923573963
 20
940.90892520046737
 30
0.0
  0
VERTEX
  8
DETAIL
  6
CONTINUOUS
 62
     5
 10
-346.53677697358188
 20
939.9044347489405
 30
0.0
  0
VERTEX
  8
DETAIL
  6
CONTINUOUS
 62
     5
 10
-346.17983555110385
 20
938.9267969739326
 30
0.0
  0
VERTEX
  8
DETAIL
  6
CONTINUOUS
 62
     5
 10
-345.73622656191554
 20
937.98740743215421
 30
0.0
  0
VERTEX
  8
DETAIL
  6
CONTINUOUS
 62
     5
 10
-345.20236713130231
 20
937.09780481916437
 30
0.0
  0
VERTEX
  8
DETAIL
  6
CONTINUOUS
 62
     5
 10
-344.57413745182305
 20
936.27281371443792
 30
0.0
  0
VERTEX
  8
DETAIL
  6
CONTINUOUS
 62
     5
 10
-343.84759609127428
 20
935.53255586211549
 30
0.0
  0
VERTEX
  8
DETAIL
  6
CONTINUOUS
 62
     5
 10
-343.02301299917633
 20
934.90352700227641
 30
0.0
  0
VERTEX
  8
DETAIL
  6
CONTINUOUS
 62
     5
 10
-342.10658119969605
 20
934.41717296409274
 30
0.0
  0
VERTEX
  8
DETAIL
  6
CONTINUOUS
 62
     5
 10
-341.11703443375882
 20
934.10691886423774
 30
0.0
  0
SEQEND
  8
DETAIL
  6
CONTINUOUS
 62
     5
  0
POLYLINE
  8
DETAIL
  6
CONTINUOUS
 62
     5
 66
     1
 10
0.0
 20
0.0
 30
0.0
  0
VERTEX
  8
DETAIL
  6
CONTINUOUS
 62
     5
 10
-341.11703443375882
 20
903.89308113563675
 30
0.0
  0
VERTEX
  8
DETAIL
  6
CONTINUOUS
 62
     5
 10
-342.10658119969605
 20
903.58282703577981
 30
0.0
  0
VERTEX
  8
DETAIL
  6
CONTINUOUS
 62
     5
 10
-343.02301299917639
 20
903.09647299759615
 30
0.0
  0
VERTEX
  8
DETAIL
  6
CONTINUOUS
 62
     5
 10
-343.84759609127428
 20
902.46744413775707
 30
0.0
  0
VERTEX
  8
DETAIL
  6
CONTINUOUS
 62
     5
 10
-344.57413745182305
 20
901.72718628543475
 30
0.0
  0
VERTEX
  8
DETAIL
  6
CONTINUOUS
 62
     5
 10
-345.20236713130225
 20
900.90219518070853
 30
0.0
  0
VERTEX
  8
DETAIL
  6
CONTINUOUS
 62
     5
 10
-345.73622656191549
 20
900.01259256771823
 30
0.0
  0
VERTEX
  8
DETAIL
  6
CONTINUOUS
 62
     5
 10
-346.17983555110391
 20
899.07320302593712
 30
0.0
  0
VERTEX
  8
DETAIL
  6
CONTINUOUS
 62
     5
 10
-346.53677697358177
 20
898.09556525091966
 30
0.0
  0
VERTEX
  8
DETAIL
  6
CONTINUOUS
 62
     5
 10
-346.81059923573963
 20
897.09107479937211
 30
0.0
  0
VERTEX
  8
DETAIL
  6
CONTINUOUS
 62
     5
 10
-347.00407343286116
 20
896.06915210965997
 30
0.0
  0
VERTEX
  8
DETAIL
  6
CONTINUOUS
 62
     5
 10
-347.11893662052324
 20
895.03659016407335
 30
0.0
  0
VERTEX
  8
DETAIL
  6
CONTINUOUS
 62
     5
 10
-347.15685424955882
 20
893.99999999993634
 30
0.0
  0
SEQEND
  8
DETAIL
  6
CONTINUOUS
 62
     5
  0
POLYLINE
  8
DETAIL
  6
CONTINUOUS
 62
     5
 66
     1
 10
0.0
 20
0.0
 30
0.0
  0
VERTEX
  8
DETAIL
  6
CONTINUOUS
 62
     5
 10
-340.62567943806062
 20
934.03195221973681
 30
0.0
  0
VERTEX
  8
DETAIL
  6
CONTINUOUS
 62
     5
 10
-339.67970270741426
 20
934.25576976137131
 30
0.0
  0
VERTEX
  8
DETAIL
  6
CONTINUOUS
 62
     5
 10
-338.79812989274097
 20
934.66648217150396
 30
0.0
  0
VERTEX
  8
DETAIL
  6
CONTINUOUS
 62
     5
 10
-338.00214353076319
 20
935.22484515888243
 30
0.0
  0
VERTEX
  8
DETAIL
  6
CONTINUOUS
 62
     5
 10
-337.2973721910692
 20
935.89493815116816
 30
0.0
  0
VERTEX
  8
DETAIL
  6
CONTINUOUS
 62
     5
 10
-336.68275538278544
 20
936.64820592177261
 30
0.0
  0
VERTEX
  8
DETAIL
  6
CONTINUOUS
 62
     5
 10
-336.15394996422492
 20
937.46415168791123
 30
0.0
  0
VERTEX
  8
DETAIL
  6
CONTINUOUS
 62
     5
 10
-335.70615510119819
 20
938.32704882363225
 30
0.0
  0
VERTEX
  8
DETAIL
  6
CONTINUOUS
 62
     5
 10
-335.3348648501028
 20
939.22507953596551
 30
0.0
  0
VERTEX
  8
DETAIL
  6
CONTINUOUS
 62
     5
 10
-335.03603778143264
 20
940.15022878306297
 30
0.0
  0
VERTEX
  8
DETAIL
  6
CONTINUOUS
 62
     5
 10
-334.80617373077786
 20
941.09650928905467
 30
0.0
  0
VERTEX
  8
DETAIL
  6
CONTINUOUS
 62
     5
 10
-334.64346028407556
 20
942.05773945512055
 30
0.0
  0
VERTEX
  8
DETAIL
  6
CONTINUOUS
 62
     5
 10
-334.54670555441805
 20
943.02765712089013
 30
0.0
  0
VERTEX
  8
DETAIL
  6
CONTINUOUS
 62
     5
 10
-334.51471862585458
 20
943.99999999993634
 30
0.0
  0
SEQEND
  8
DETAIL
  6
CONTINUOUS
 62
     5
  0
POLYLINE
  8
DETAIL
  6
CONTINUOUS
 62
     5
 66
     1
 10
0.0
 20
0.0
 30
0.0
  0
VERTEX
  8
DETAIL
  6
CONTINUOUS
 62
     5
 10
-334.51471862585458
 20
1093.9999999999361
 30
0.0
  0
VERTEX
  8
DETAIL
  6
CONTINUOUS
 62
     5
 10
-334.54670267770928
 20
1094.9722989426323
 30
0.0
  0
VERTEX
  8
DETAIL
  6
CONTINUOUS
 62
     5
 10
-334.64344861481368
 20
1095.9421729284059
 30
0.0
  0
VERTEX
  8
DETAIL
  6
CONTINUOUS
 62
     5
 10
-334.80614710947833
 20
1096.9033606110868
 30
0.0
  0
VERTEX
  8
DETAIL
  6
CONTINUOUS
 62
     5
 10
-335.03598980624105
 20
1097.8496007708766
 30
0.0
  0
VERTEX
  8
DETAIL
  6
CONTINUOUS
 62
     5
 10
-335.33478885200969
 20
1098.7747128422177
 30
0.0
  0
VERTEX
  8
DETAIL
  6
CONTINUOUS
 62
     5
 10
-335.70604375714578
 20
1099.6727107776633
 30
0.0
  0
VERTEX
  8
DETAIL
  6
CONTINUOUS
 62
     5
 10
-336.15379519330338
 20
1100.5355809959331
 30
0.0
  0
VERTEX
  8
DETAIL
  6
CONTINUOUS
 62
     5
 10
-336.68254829800554
 20
1101.3515083101938
 30
0.0
  0
VERTEX
  8
DETAIL
  6
CONTINUOUS
 62
     5
 10
-337.29710332817194
 20
1102.1047698166394
 30
0.0
  0
VERTEX
  8
DETAIL
  6
CONTINUOUS
 62
     5
 10
-338.00180332132169
 20
1102.7748739962676
 30
0.0
  0
VERTEX
  8
DETAIL
  6
CONTINUOUS
 62
     5
 10
-338.79771075818866
 20
1103.3332729707956
 30
0.0
  0
VERTEX
  8
DETAIL
  6
CONTINUOUS
 62
     5
 10
-339.67920300013174
 20
1103.7440544089015
 30
0.0
  0
VERTEX
  8
DETAIL
  6
CONTINUOUS
 62
     5
 10
-340.62510952875891
 20
1103.9679778858349
 30
0.0
  0
SEQEND
  8
DETAIL
  6
CONTINUOUS
 62
     5
  0
POLYLINE
  8
DETAIL
  6
CONTINUOUS
 62
     5
 66
     1
 10
0.0
 20
0.0
 30
0.0
  0
VERTEX
  8
DETAIL
  6
CONTINUOUS
 62
     5
 10
-341.11703443375882
 20
1103.893081135637
 30
0.0
  0
VERTEX
  8
DETAIL
  6
CONTINUOUS
 62
     5
 10
-342.10658119969605
 20
1103.5828270357797
 30
0.0
  0
VERTEX
  8
DETAIL
  6
CONTINUOUS
 62
     5
 10
-343.02301299917639
 20
1103.0964729975963
 30
0.0
  0
VERTEX
  8
DETAIL
  6
CONTINUOUS
 62
     5
 10
-343.84759609127428
 20
1102.4674441377567
 30
0.0
  0
VERTEX
  8
DETAIL
  6
CONTINUOUS
 62
     5
 10
-344.57413745182305
 20
1101.7271862854343
 30
0.0
  0
VERTEX
  8
DETAIL
  6
CONTINUOUS
 62
     5
 10
-345.20236713130225
 20
1100.9021951807083
 30
0.0
  0
VERTEX
  8
DETAIL
  6
CONTINUOUS
 62
     5
 10
-345.73622656191549
 20
1100.012592567718
 30
0.0
  0
VERTEX
  8
DETAIL
  6
CONTINUOUS
 62
     5
 10
-346.17983555110391
 20
1099.0732030259369
 30
0.0
  0
VERTEX
  8
DETAIL
  6
CONTINUOUS
 62
     5
 10
-346.53677697358177
 20
1098.0955652509194
 30
0.0
  0
VERTEX
  8
DETAIL
  6
CONTINUOUS
 62
     5
 10
-346.81059923573963
 20
1097.0910747993721
 30
0.0
  0
VERTEX
  8
DETAIL
  6
CONTINUOUS
 62
     5
 10
-347.00407343286116
 20
1096.0691521096599
 30
0.0
  0
VERTEX
  8
DETAIL
  6
CONTINUOUS
 62
     5
 10
-347.11893662052324
 20
1095.0365901640735
 30
0.0
  0
VERTEX
  8
DETAIL
  6
CONTINUOUS
 62
     5
 10
-347.15685424955882
 20
1093.9999999999361
 30
0.0
  0
SEQEND
  8
DETAIL
  6
CONTINUOUS
 62
     5
  0
POLYLINE
  8
DETAIL
  6
CONTINUOUS
 62
     5
 66
     1
 10
0.0
 20
0.0
 30
0.0
  0
VERTEX
  8
DETAIL
  6
CONTINUOUS
 62
     5
 10
-340.62567943806062
 20
1334.0319522197369
 30
0.0
  0
VERTEX
  8
DETAIL
  6
CONTINUOUS
 62
     5
 10
-339.67970270741426
 20
1334.2557697613711
 30
0.0
  0
VERTEX
  8
DETAIL
  6
CONTINUOUS
 62
     5
 10
-338.79812989274097
 20
1334.666482171504
 30
0.0
  0
VERTEX
  8
DETAIL
  6
CONTINUOUS
 62
     5
 10
-338.00214353076319
 20
1335.2248451588825
 30
0.0
  0
VERTEX
  8
DETAIL
  6
CONTINUOUS
 62
     5
 10
-337.2973721910692
 20
1335.8949381511682
 30
0.0
  0
VERTEX
  8
DETAIL
  6
CONTINUOUS
 62
     5
 10
-336.68275538278544
 20
1336.6482059217728
 30
0.0
  0
VERTEX
  8
DETAIL
  6
CONTINUOUS
 62
     5
 10
-336.15394996422492
 20
1337.4641516879112
 30
0.0
  0
VERTEX
  8
DETAIL
  6
CONTINUOUS
 62
     5
 10
-335.70615510119819
 20
1338.3270488236385
 30
0.0
  0
VERTEX
  8
DETAIL
  6
CONTINUOUS
 62
     5
 10
-335.3348648501028
 20
1339.2250795359942
 30
0.0
  0
VERTEX
  8
DETAIL
  6
CONTINUOUS
 62
     5
 10
-335.03603778143264
 20
1340.1502287831149
 30
0.0
  0
VERTEX
  8
DETAIL
  6
CONTINUOUS
 62
     5
 10
-334.80617373077786
 20
1341.0965092891063
 30
0.0
  0
VERTEX
  8
DETAIL
  6
CONTINUOUS
 62
     5
 10
-334.64346028407556
 20
1342.0577394551533
 30
0.0
  0
VERTEX
  8
DETAIL
  6
CONTINUOUS
 62
     5
 10
-334.54670555441805
 20
1343.0276571209006
 30
0.0
  0
VERTEX
  8
DETAIL
  6
CONTINUOUS
 62
     5
 10
-334.51471862585458
 20
1343.9999999999361
 30
0.0
  0
SEQEND
  8
DETAIL
  6
CONTINUOUS
 62
     5
  0
POLYLINE
  8
DETAIL
  6
CONTINUOUS
 62
     5
 66
     1
 10
0.0
 20
0.0
 30
0.0
  0
VERTEX
  8
DETAIL
  6
CONTINUOUS
 62
     5
 10
-334.51471862585458
 20
1493.9999999999361
 30
0.0
  0
VERTEX
  8
DETAIL
  6
CONTINUOUS
 62
     5
 10
-334.54670267770928
 20
1494.9722989426323
 30
0.0
  0
VERTEX
  8
DETAIL
  6
CONTINUOUS
 62
     5
 10
-334.64344861481368
 20
1495.9421729284059
 30
0.0
  0
VERTEX
  8
DETAIL
  6
CONTINUOUS
 62
     5
 10
-334.80614710947833
 20
1496.9033606110868
 30
0.0
  0
VERTEX
  8
DETAIL
  6
CONTINUOUS
 62
     5
 10
-335.03598980624105
 20
1497.8496007708763
 30
0.0
  0
VERTEX
  8
DETAIL
  6
CONTINUOUS
 62
     5
 10
-335.33478885200969
 20
1498.7747128422177
 30
0.0
  0
VERTEX
  8
DETAIL
  6
CONTINUOUS
 62
     5
 10
-335.70604375714578
 20
1499.672710777663
 30
0.0
  0
VERTEX
  8
DETAIL
  6
CONTINUOUS
 62
     5
 10
-336.15379519330338
 20
1500.5355809959328
 30
0.0
  0
VERTEX
  8
DETAIL
  6
CONTINUOUS
 62
     5
 10
-336.68254829800554
 20
1501.3515083101938
 30
0.0
  0
VERTEX
  8
DETAIL
  6
CONTINUOUS
 62
     5
 10
-337.29710332817194
 20
1502.1047698166394
 30
0.0
  0
VERTEX
  8
DETAIL
  6
CONTINUOUS
 62
     5
 10
-338.00180332132169
 20
1502.7748739962733
 30
0.0
  0
VERTEX
  8
DETAIL
  6
CONTINUOUS
 62
     5
 10
-338.79771075818866
 20
1503.3332729708397
 30
0.0
  0
VERTEX
  8
DETAIL
  6
CONTINUOUS
 62
     5
 10
-339.67920300013174
 20
1503.7440544089527
 30
0.0
  0
VERTEX
  8
DETAIL
  6
CONTINUOUS
 62
     5
 10
-340.62510952875891
 20
1503.9679778858349
 30
0.0
  0
SEQEND
  8
DETAIL
  6
CONTINUOUS
 62
     5
  0
POLYLINE
  8
DETAIL
  6
CONTINUOUS
 62
     5
 66
     1
 10
0.0
 20
0.0
 30
0.0
  0
VERTEX
  8
DETAIL
  6
CONTINUOUS
 62
     5
 10
-341.11703443375882
 20
1503.893081135637
 30
0.0
  0
VERTEX
  8
DETAIL
  6
CONTINUOUS
 62
     5
 10
-342.10658119969605
 20
1503.5828270357797
 30
0.0
  0
VERTEX
  8
DETAIL
  6
CONTINUOUS
 62
     5
 10
-343.02301299917639
 20
1503.096472997596
 30
0.0
  0
VERTEX
  8
DETAIL
  6
CONTINUOUS
 62
     5
 10
-343.84759609127428
 20
1502.4674441377567
 30
0.0
  0
VERTEX
  8
DETAIL
  6
CONTINUOUS
 62
     5
 10
-344.57413745182305
 20
1501.7271862854341
 30
0.0
  0
VERTEX
  8
DETAIL
  6
CONTINUOUS
 62
     5
 10
-345.20236713130225
 20
1500.9021951807083
 30
0.0
  0
VERTEX
  8
DETAIL
  6
CONTINUOUS
 62
     5
 10
-345.73622656191549
 20
1500.012592567718
 30
0.0
  0
VERTEX
  8
DETAIL
  6
CONTINUOUS
 62
     5
 10
-346.17983555110391
 20
1499.0732030259367
 30
0.0
  0
VERTEX
  8
DETAIL
  6
CONTINUOUS
 62
     5
 10
-346.53677697358177
 20
1498.0955652509192
 30
0.0
  0
VERTEX
  8
DETAIL
  6
CONTINUOUS
 62
     5
 10
-346.81059923573963
 20
1497.0910747993714
 30
0.0
  0
VERTEX
  8
DETAIL
  6
CONTINUOUS
 62
     5
 10
-347.00407343286116
 20
1496.0691521096589
 30
0.0
  0
VERTEX
  8
DETAIL
  6
CONTINUOUS
 62
     5
 10
-347.11893662052324
 20
1495.0365901640721
 30
0.0
  0
VERTEX
  8
DETAIL
  6
CONTINUOUS
 62
     5
 10
-347.15685424955882
 20
1493.9999999999361
 30
0.0
  0
SEQEND
  8
DETAIL
  6
CONTINUOUS
 62
     5
  0
POLYLINE
  8
DETAIL
  6
CONTINUOUS
 62
     5
 66
     1
 10
0.0
 20
0.0
 30
0.0
  0
VERTEX
  8
DETAIL
  6
CONTINUOUS
 62
     5
 10
-340.62567943806062
 20
1134.0319522197369
 30
0.0
  0
VERTEX
  8
DETAIL
  6
CONTINUOUS
 62
     5
 10
-339.67970270741426
 20
1134.2557697613713
 30
0.0
  0
VERTEX
  8
DETAIL
  6
CONTINUOUS
 62
     5
 10
-338.79812989274097
 20
1134.6664821715042
 30
0.0
  0
VERTEX
  8
DETAIL
  6
CONTINUOUS
 62
     5
 10
-338.00214353076319
 20
1135.2248451588828
 30
0.0
  0
VERTEX
  8
DETAIL
  6
CONTINUOUS
 62
     5
 10
-337.2973721910692
 20
1135.8949381511682
 30
0.0
  0
VERTEX
  8
DETAIL
  6
CONTINUOUS
 62
     5
 10
-336.68275538278544
 20
1136.6482059217726
 30
0.0
  0
VERTEX
  8
DETAIL
  6
CONTINUOUS
 62
     5
 10
-336.15394996422492
 20
1137.464151687911
 30
0.0
  0
VERTEX
  8
DETAIL
  6
CONTINUOUS
 62
     5
 10
-335.70615510119819
 20
1138.3270488236321
 30
0.0
  0
VERTEX
  8
DETAIL
  6
CONTINUOUS
 62
     5
 10
-335.3348648501028
 20
1139.2250795359655
 30
0.0
  0
VERTEX
  8
DETAIL
  6
CONTINUOUS
 62
     5
 10
-335.03603778143264
 20
1140.1502287830631
 30
0.0
  0
VERTEX
  8
DETAIL
  6
CONTINUOUS
 62
     5
 10
-334.80617373077786
 20
1141.0965092890547
 30
0.0
  0
VERTEX
  8
DETAIL
  6
CONTINUOUS
 62
     5
 10
-334.64346028407556
 20
1142.0577394551203
 30
0.0
  0
VERTEX
  8
DETAIL
  6
CONTINUOUS
 62
     5
 10
-334.54670555441805
 20
1143.0276571208897
 30
0.0
  0
VERTEX
  8
DETAIL
  6
CONTINUOUS
 62
     5
 10
-334.51471862585458
 20
1143.9999999999361
 30
0.0
  0
SEQEND
  8
DETAIL
  6
CONTINUOUS
 62
     5
  0
POLYLINE
  8
DETAIL
  6
CONTINUOUS
 62
     5
 66
     1
 10
0.0
 20
0.0
 30
0.0
  0
VERTEX
  8
DETAIL
  6
CONTINUOUS
 62
     5
 10
-334.51471862585458
 20
1293.9999999999361
 30
0.0
  0
VERTEX
  8
DETAIL
  6
CONTINUOUS
 62
     5
 10
-334.54670267770928
 20
1294.9722989426323
 30
0.0
  0
VERTEX
  8
DETAIL
  6
CONTINUOUS
 62
     5
 10
-334.64344861481368
 20
1295.9421729284056
 30
0.0
  0
VERTEX
  8
DETAIL
  6
CONTINUOUS
 62
     5
 10
-334.80614710947833
 20
1296.9033606110868
 30
0.0
  0
VERTEX
  8
DETAIL
  6
CONTINUOUS
 62
     5
 10
-335.03598980624105
 20
1297.8496007708763
 30
0.0
  0
VERTEX
  8
DETAIL
  6
CONTINUOUS
 62
     5
 10
-335.33478885200969
 20
1298.7747128422177
 30
0.0
  0
VERTEX
  8
DETAIL
  6
CONTINUOUS
 62
     5
 10
-335.70604375714578
 20
1299.672710777663
 30
0.0
  0
VERTEX
  8
DETAIL
  6
CONTINUOUS
 62
     5
 10
-336.15379519330338
 20
1300.5355809959328
 30
0.0
  0
VERTEX
  8
DETAIL
  6
CONTINUOUS
 62
     5
 10
-336.68254829800554
 20
1301.3515083101938
 30
0.0
  0
VERTEX
  8
DETAIL
  6
CONTINUOUS
 62
     5
 10
-337.29710332817194
 20
1302.1047698166396
 30
0.0
  0
VERTEX
  8
DETAIL
  6
CONTINUOUS
 62
     5
 10
-338.00180332132169
 20
1302.7748739962733
 30
0.0
  0
VERTEX
  8
DETAIL
  6
CONTINUOUS
 62
     5
 10
-338.79771075818866
 20
1303.3332729708395
 30
0.0
  0
VERTEX
  8
DETAIL
  6
CONTINUOUS
 62
     5
 10
-339.67920300013174
 20
1303.7440544089529
 30
0.0
  0
VERTEX
  8
DETAIL
  6
CONTINUOUS
 62
     5
 10
-340.62510952875891
 20
1303.9679778858349
 30
0.0
  0
SEQEND
  8
DETAIL
  6
CONTINUOUS
 62
     5
  0
POLYLINE
  8
DETAIL
  6
CONTINUOUS
 62
     5
 66
     1
 10
0.0
 20
0.0
 30
0.0
  0
VERTEX
  8
DETAIL
  6
CONTINUOUS
 62
     5
 10
-341.11703443375882
 20
1303.893081135637
 30
0.0
  0
VERTEX
  8
DETAIL
  6
CONTINUOUS
 62
     5
 10
-342.10658119969605
 20
1303.5828270357797
 30
0.0
  0
VERTEX
  8
DETAIL
  6
CONTINUOUS
 62
     5
 10
-343.02301299917639
 20
1303.096472997596
 30
0.0
  0
VERTEX
  8
DETAIL
  6
CONTINUOUS
 62
     5
 10
-343.84759609127428
 20
1302.4674441377567
 30
0.0
  0
VERTEX
  8
DETAIL
  6
CONTINUOUS
 62
     5
 10
-344.57413745182305
 20
1301.7271862854343
 30
0.0
  0
VERTEX
  8
DETAIL
  6
CONTINUOUS
 62
     5
 10
-345.20236713130225
 20
1300.9021951807081
 30
0.0
  0
VERTEX
  8
DETAIL
  6
CONTINUOUS
 62
     5
 10
-345.73622656191549
 20
1300.012592567718
 30
0.0
  0
VERTEX
  8
DETAIL
  6
CONTINUOUS
 62
     5
 10
-346.17983555110391
 20
1299.0732030259369
 30
0.0
  0
VERTEX
  8
DETAIL
  6
CONTINUOUS
 62
     5
 10
-346.53677697358177
 20
1298.0955652509197
 30
0.0
  0
VERTEX
  8
DETAIL
  6
CONTINUOUS
 62
     5
 10
-346.81059923573963
 20
1297.0910747993721
 30
0.0
  0
VERTEX
  8
DETAIL
  6
CONTINUOUS
 62
     5
 10
-347.00407343286116
 20
1296.0691521096601
 30
0.0
  0
VERTEX
  8
DETAIL
  6
CONTINUOUS
 62
     5
 10
-347.11893662052324
 20
1295.0365901640735
 30
0.0
  0
VERTEX
  8
DETAIL
  6
CONTINUOUS
 62
     5
 10
-347.15685424955882
 20
1293.9999999999361
 30
0.0
  0
SEQEND
  8
DETAIL
  6
CONTINUOUS
 62
     5
  0
POLYLINE
  8
DETAIL
  6
CONTINUOUS
 62
     5
 66
     1
 10
0.0
 20
0.0
 30
0.0
  0
VERTEX
  8
DETAIL
  6
CONTINUOUS
 62
     5
 10
-347.15685424955882
 20
758.99999999993634
 30
0.0
  0
VERTEX
  8
DETAIL
  6
CONTINUOUS
 62
     5
 10
-347.11893662052324
 20
757.96340983574589
 30
0.0
  0
VERTEX
  8
DETAIL
  6
CONTINUOUS
 62
     5
 10
-347.00407343286111
 20
756.93084789015734
 30
0.0
  0
VERTEX
  8
DETAIL
  6
CONTINUOUS
 62
     5
 10
-346.81059923573963
 20
755.90892520046737
 30
0.0
  0
VERTEX
  8
DETAIL
  6
CONTINUOUS
 62
     5
 10
-346.53677697358188
 20
754.90443474894039
 30
0.0
  0
VERTEX
  8
DETAIL
  6
CONTINUOUS
 62
     5
 10
-346.17983555110385
 20
753.9267969739326
 30
0.0
  0
VERTEX
  8
DETAIL
  6
CONTINUOUS
 62
     5
 10
-345.73622656191554
 20
752.9874074321541
 30
0.0
  0
VERTEX
  8
DETAIL
  6
CONTINUOUS
 62
     5
 10
-345.20236713130231
 20
752.09780481916425
 30
0.0
  0
VERTEX
  8
DETAIL
  6
CONTINUOUS
 62
     5
 10
-344.57413745182305
 20
751.2728137144378
 30
0.0
  0
VERTEX
  8
DETAIL
  6
CONTINUOUS
 62
     5
 10
-343.84759609127428
 20
750.5325558621156
 30
0.0
  0
VERTEX
  8
DETAIL
  6
CONTINUOUS
 62
     5
 10
-343.02301299917633
 20
749.90352700227641
 30
0.0
  0
VERTEX
  8
DETAIL
  6
CONTINUOUS
 62
     5
 10
-342.10658119969605
 20
749.41717296409274
 30
0.0
  0
VERTEX
  8
DETAIL
  6
CONTINUOUS
 62
     5
 10
-341.11703443375882
 20
749.10691886423774
 30
0.0
  0
SEQEND
  8
DETAIL
  6
CONTINUOUS
 62
     5
  0
POLYLINE
  8
DETAIL
  6
CONTINUOUS
 62
     5
 66
     1
 10
0.0
 20
0.0
 30
0.0
  0
VERTEX
  8
DETAIL
  6
CONTINUOUS
 62
     5
 10
179.4765118213399
 20
1581.3433552949371
 30
0.0
  0
VERTEX
  8
DETAIL
  6
CONTINUOUS
 62
     5
 10
179.4959134451353
 20
1581.3722713923528
 30
0.0
  0
VERTEX
  8
DETAIL
  6
CONTINUOUS
 62
     5
 10
179.51736996122614
 20
1581.3997514489749
 30
0.0
  0
VERTEX
  8
DETAIL
  6
CONTINUOUS
 62
     5
 10
179.54074809126027
 20
1581.4257135458754
 30
0.0
  0
VERTEX
  8
DETAIL
  6
CONTINUOUS
 62
     5
 10
179.56585433932278
 20
1581.4501210135084
 30
0.0
  0
VERTEX
  8
DETAIL
  6
CONTINUOUS
 62
     5
 10
179.59248336482275
 20
1581.4729460827916
 30
0.0
  0
VERTEX
  8
DETAIL
  6
CONTINUOUS
 62
     5
 10
179.62042982716937
 20
1581.4941609846453
 30
0.0
  0
VERTEX
  8
DETAIL
  6
CONTINUOUS
 62
     5
 10
179.64948838577163
 20
1581.5137379499865
 30
0.0
  0
VERTEX
  8
DETAIL
  6
CONTINUOUS
 62
     5
 10
179.67945370003869
 20
1581.531649209735
 30
0.0
  0
SEQEND
  8
DETAIL
  6
CONTINUOUS
 62
     5
  0
POLYLINE
  8
DETAIL
  6
CONTINUOUS
 62
     5
 66
     1
 10
0.0
 20
0.0
 30
0.0
  0
VERTEX
  8
DETAIL
  6
CONTINUOUS
 62
     5
 10
221.3963672792452
 20
1574.511475196437
 30
0.0
  0
VERTEX
  8
DETAIL
  6
CONTINUOUS
 62
     5
 10
221.38772124185201
 20
1574.4552300067032
 30
0.0
  0
VERTEX
  8
DETAIL
  6
CONTINUOUS
 62
     5
 10
221.38869942848768
 20
1574.3977733971994
 30
0.0
  0
VERTEX
  8
DETAIL
  6
CONTINUOUS
 62
     5
 10
221.39793468831721
 20
1574.3405921947883
 30
0.0
  0
VERTEX
  8
DETAIL
  6
CONTINUOUS
 62
     5
 10
221.4140659724728
 20
1574.285151002395
 30
0.0
  0
VERTEX
  8
DETAIL
  6
CONTINUOUS
 62
     5
 10
221.43592705497883
 20
1574.2322048597516
 30
0.0
  0
VERTEX
  8
DETAIL
  6
CONTINUOUS
 62
     5
 10
221.46258268127391
 20
1574.1816675870973
 30
0.0
  0
VERTEX
  8
DETAIL
  6
CONTINUOUS
 62
     5
 10
221.49311099418566
 20
1574.1334042101266
 30
0.0
  0
VERTEX
  8
DETAIL
  6
CONTINUOUS
 62
     5
 10
221.5265901365419
 20
1574.087279754536
 30
0.0
  0
SEQEND
  8
DETAIL
  6
CONTINUOUS
 62
     5
  0
POLYLINE
  8
DETAIL
  6
CONTINUOUS
 62
     5
 66
     1
 10
0.0
 20
0.0
 30
0.0
  0
VERTEX
  8
DETAIL
  6
CONTINUOUS
 62
     5
 10
273.37975466684293
 20
1587.458601709737
 30
0.0
  0
VERTEX
  8
DETAIL
  6
CONTINUOUS
 62
     5
 10
274.38141950551352
 20
1585.8572364881943
 30
0.0
  0
VERTEX
  8
DETAIL
  6
CONTINUOUS
 62
     5
 10
275.41594023020014
 20
1584.2764652154028
 30
0.0
  0
VERTEX
  8
DETAIL
  6
CONTINUOUS
 62
     5
 10
276.48408921214195
 20
1582.7170826238671
 30
0.0
  0
VERTEX
  8
DETAIL
  6
CONTINUOUS
 62
     5
 10
277.58614339483228
 20
1581.1806717648203
 30
0.0
  0
VERTEX
  8
DETAIL
  6
CONTINUOUS
 62
     5
 10
278.72223342891027
 20
1579.6690484689464
 30
0.0
  0
VERTEX
  8
DETAIL
  6
CONTINUOUS
 62
     5
 10
279.89248994354324
 20
1578.1840286010929
 30
0.0
  0
VERTEX
  8
DETAIL
  6
CONTINUOUS
 62
     5
 10
281.09704356789877
 20
1576.7274280261074
 30
0.0
  0
VERTEX
  8
DETAIL
  6
CONTINUOUS
 62
     5
 10
282.33602493114449
 20
1575.301062608838
 30
0.0
  0
SEQEND
  8
DETAIL
  6
CONTINUOUS
 62
     5
  0
POLYLINE
  8
DETAIL
  6
CONTINUOUS
 62
     5
 66
     1
 10
0.0
 20
0.0
 30
0.0
  0
VERTEX
  8
DETAIL
  6
CONTINUOUS
 62
     5
 10
271.97795613684139
 20
1588.385596813737
 30
0.0
  0
VERTEX
  8
DETAIL
  6
CONTINUOUS
 62
     5
 10
272.15056780676002
 20
1588.367036715309
 30
0.0
  0
VERTEX
  8
DETAIL
  6
CONTINUOUS
 62
     5
 10
272.31910798651825
 20
1588.3209017865836
 30
0.0
  0
VERTEX
  8
DETAIL
  6
CONTINUOUS
 62
     5
 10
272.48065170943977
 20
1588.2553718602549
 30
0.0
  0
VERTEX
  8
DETAIL
  6
CONTINUOUS
 62
     5
 10
272.63448219375113
 20
1588.1745314234543
 30
0.0
  0
VERTEX
  8
DETAIL
  6
CONTINUOUS
 62
     5
 10
272.7807603583741
 20
1588.0808239964269
 30
0.0
  0
VERTEX
  8
DETAIL
  6
CONTINUOUS
 62
     5
 10
272.91937355044286
 20
1587.9760691989557
 30
0.0
  0
VERTEX
  8
DETAIL
  6
CONTINUOUS
 62
     5
 10
273.04972522165269
 20
1587.8609997141527
 30
0.0
  0
VERTEX
  8
DETAIL
  6
CONTINUOUS
 62
     5
 10
273.17111369703463
 20
1587.7362210471495
 30
0.0
  0
VERTEX
  8
DETAIL
  6
CONTINUOUS
 62
     5
 10
273.28191575748315
 20
1587.6020571400131
 30
0.0
  0
VERTEX
  8
DETAIL
  6
CONTINUOUS
 62
     5
 10
273.37975466684293
 20
1587.458601709737
 30
0.0
  0
SEQEND
  8
DETAIL
  6
CONTINUOUS
 62
     5
  0
POLYLINE
  8
DETAIL
  6
CONTINUOUS
 62
     5
 66
     1
 10
0.0
 20
0.0
 30
0.0
  0
VERTEX
  8
DETAIL
  6
CONTINUOUS
 62
     5
 10
282.33602493114449
 20
1575.301062608838
 30
0.0
  0
VERTEX
  8
DETAIL
  6
CONTINUOUS
 62
     5
 10
282.37480102494135
 20
1575.2558512898172
 30
0.0
  0
VERTEX
  8
DETAIL
  6
CONTINUOUS
 62
     5
 10
282.41170052478122
 20
1575.2090502271958
 30
0.0
  0
VERTEX
  8
DETAIL
  6
CONTINUOUS
 62
     5
 10
282.44633502454082
 20
1575.1605578985404
 30
0.0
  0
VERTEX
  8
DETAIL
  6
CONTINUOUS
 62
     5
 10
282.47831004618371
 20
1575.1102720855658
 30
0.0
  0
VERTEX
  8
DETAIL
  6
CONTINUOUS
 62
     5
 10
282.50701506728876
 20
1575.0580658108311
 30
0.0
  0
VERTEX
  8
DETAIL
  6
CONTINUOUS
 62
     5
 10
282.5315696489568
 20
1575.0037813164558
 30
0.0
  0
VERTEX
  8
DETAIL
  6
CONTINUOUS
 62
     5
 10
282.55082557822374
 20
1574.9473500245749
 30
0.0
  0
VERTEX
  8
DETAIL
  6
CONTINUOUS
 62
     5
 10
282.56293314946214
 20
1574.8889592613921
 30
0.0
  0
VERTEX
  8
DETAIL
  6
CONTINUOUS
 62
     5
 10
282.56556271717261
 20
1574.8293230033312
 30
0.0
  0
VERTEX
  8
DETAIL
  6
CONTINUOUS
 62
     5
 10
282.55558095314461
 20
1574.7704017080898
 30
0.0
  0
VERTEX
  8
DETAIL
  6
CONTINUOUS
 62
     5
 10
282.5313646273425
 20
1574.7158760618361
 30
0.0
  0
SEQEND
  8
DETAIL
  6
CONTINUOUS
 62
     5
  0
POLYLINE
  8
DETAIL
  6
CONTINUOUS
 62
     5
 66
     1
 10
0.0
 20
0.0
 30
0.0
  0
VERTEX
  8
DETAIL
  6
CONTINUOUS
 62
     5
 10
212.50129759544501
 20
1589.482097741138
 30
0.0
  0
VERTEX
  8
DETAIL
  6
CONTINUOUS
 62
     5
 10
212.58576815843705
 20
1589.3255037550744
 30
0.0
  0
VERTEX
  8
DETAIL
  6
CONTINUOUS
 62
     5
 10
212.69088022348467
 20
1589.1810299918425
 30
0.0
  0
VERTEX
  8
DETAIL
  6
CONTINUOUS
 62
     5
 10
212.81192821760433
 20
1589.0497136856391
 30
0.0
  0
VERTEX
  8
DETAIL
  6
CONTINUOUS
 62
     5
 10
212.94580963306265
 20
1588.9321306161457
 30
0.0
  0
VERTEX
  8
DETAIL
  6
CONTINUOUS
 62
     5
 10
213.09065406971135
 20
1588.8285018915092
 30
0.0
  0
VERTEX
  8
DETAIL
  6
CONTINUOUS
 62
     5
 10
213.24476615908699
 20
1588.7392529946933
 30
0.0
  0
VERTEX
  8
DETAIL
  6
CONTINUOUS
 62
     5
 10
213.40704855142968
 20
1588.665699317623
 30
0.0
  0
VERTEX
  8
DETAIL
  6
CONTINUOUS
 62
     5
 10
213.57654148976437
 20
1588.6094122122738
 30
0.0
  0
VERTEX
  8
DETAIL
  6
CONTINUOUS
 62
     5
 10
213.75147416349728
 20
1588.5730355358419
 30
0.0
  0
VERTEX
  8
DETAIL
  6
CONTINUOUS
 62
     5
 10
213.92895856963881
 20
1588.5606904750359
 30
0.0
  0
SEQEND
  8
DETAIL
  6
CONTINUOUS
 62
     5
  0
POLYLINE
  8
DETAIL
  6
CONTINUOUS
 62
     5
 66
     1
 10
0.0
 20
0.0
 30
0.0
  0
VERTEX
  8
DETAIL
  6
CONTINUOUS
 62
     5
 10
207.81363931184751
 20
1597.761636635538
 30
0.0
  0
VERTEX
  8
DETAIL
  6
CONTINUOUS
 62
     5
 10
207.99995259304154
 20
1597.8362719414611
 30
0.0
  0
VERTEX
  8
DETAIL
  6
CONTINUOUS
 62
     5
 10
208.20193248641306
 20
1597.8622503607858
 30
0.0
  0
VERTEX
  8
DETAIL
  6
CONTINUOUS
 62
     5
 10
208.40286363173149
 20
1597.8458827934301
 30
0.0
  0
VERTEX
  8
DETAIL
  6
CONTINUOUS
 62
     5
 10
208.59598931284464
 20
1597.7949212577989
 30
0.0
  0
VERTEX
  8
DETAIL
  6
CONTINUOUS
 62
     5
 10
208.78026083069423
 20
1597.716510150349
 30
0.0
  0
VERTEX
  8
DETAIL
  6
CONTINUOUS
 62
     5
 10
208.95312418579132
 20
1597.6148840133847
 30
0.0
  0
VERTEX
  8
DETAIL
  6
CONTINUOUS
 62
     5
 10
209.11253938980019
 20
1597.4926908106791
 30
0.0
  0
VERTEX
  8
DETAIL
  6
CONTINUOUS
 62
     5
 10
209.25673243418865
 20
1597.3520648174249
 30
0.0
  0
VERTEX
  8
DETAIL
  6
CONTINUOUS
 62
     5
 10
209.38366957722948
 20
1597.1951346266419
 30
0.0
  0
VERTEX
  8
DETAIL
  6
CONTINUOUS
 62
     5
 10
209.48965877023659
 20
1597.0239999487246
 30
0.0
  0
VERTEX
  8
DETAIL
  6
CONTINUOUS
 62
     5
 10
209.57035726864709
 20
1596.840749160938
 30
0.0
  0
SEQEND
  8
DETAIL
  6
CONTINUOUS
 62
     5
  0
POLYLINE
  8
DETAIL
  6
CONTINUOUS
 62
     5
 66
     1
 10
0.0
 20
0.0
 30
0.0
  0
VERTEX
  8
DETAIL
  6
CONTINUOUS
 62
     5
 10
179.67945370003869
 20
1581.531649209735
 30
0.0
  0
VERTEX
  8
DETAIL
  6
CONTINUOUS
 62
     5
 10
183.2143417505207
 20
1583.5287403357302
 30
0.0
  0
VERTEX
  8
DETAIL
  6
CONTINUOUS
 62
     5
 10
186.74215023940147
 20
1585.5383466255546
 30
0.0
  0
VERTEX
  8
DETAIL
  6
CONTINUOUS
 62
     5
 10
190.26387922294043
 20
1587.5586257133127
 30
0.0
  0
VERTEX
  8
DETAIL
  6
CONTINUOUS
 62
     5
 10
193.78052875662237
 20
1589.5877352348357
 30
0.0
  0
VERTEX
  8
DETAIL
  6
CONTINUOUS
 62
     5
 10
197.29305425147831
 20
1591.6239323535126
 30
0.0
  0
VERTEX
  8
DETAIL
  6
CONTINUOUS
 62
     5
 10
200.80224621461051
 20
1593.6658418592519
 30
0.0
  0
VERTEX
  8
DETAIL
  6
CONTINUOUS
 62
     5
 10
204.30885708755488
 20
1595.7121734029588
 30
0.0
  0
VERTEX
  8
DETAIL
  6
CONTINUOUS
 62
     5
 10
207.81363931184751
 20
1597.761636635538
 30
0.0
  0
SEQEND
  8
DETAIL
  6
CONTINUOUS
 62
     5
  0
POLYLINE
  8
DETAIL
  6
CONTINUOUS
 62
     5
 66
     1
 10
0.0
 20
0.0
 30
0.0
  0
VERTEX
  8
DETAIL
  6
CONTINUOUS
 62
     5
 10
226.1689038393379
 20
1568.7408770176351
 30
0.0
  0
VERTEX
  8
DETAIL
  6
CONTINUOUS
 62
     5
 10
226.20255692581279
 20
1568.7051124854356
 30
0.0
  0
VERTEX
  8
DETAIL
  6
CONTINUOUS
 62
     5
 10
226.2342611496035
 20
1568.6675692399235
 30
0.0
  0
VERTEX
  8
DETAIL
  6
CONTINUOUS
 62
     5
 10
226.26353863750711
 20
1568.6280801552343
 30
0.0
  0
VERTEX
  8
DETAIL
  6
CONTINUOUS
 62
     5
 10
226.28983315046003
 20
1568.5864805375686
 30
0.0
  0
VERTEX
  8
DETAIL
  6
CONTINUOUS
 62
     5
 10
226.31208527482843
 20
1568.5426213090373
 30
0.0
  0
VERTEX
  8
DETAIL
  6
CONTINUOUS
 62
     5
 10
226.32903473047321
 20
1568.4963621474576
 30
0.0
  0
VERTEX
  8
DETAIL
  6
CONTINUOUS
 62
     5
 10
226.33908578393044
 20
1568.4479980026449
 30
0.0
  0
VERTEX
  8
DETAIL
  6
CONTINUOUS
 62
     5
 10
226.3399339590492
 20
1568.3987447913016
 30
0.0
  0
VERTEX
  8
DETAIL
  6
CONTINUOUS
 62
     5
 10
226.3297698512294
 20
1568.35028355236
 30
0.0
  0
VERTEX
  8
DETAIL
  6
CONTINUOUS
 62
     5
 10
226.30896055993799
 20
1568.305589229037
 30
0.0
  0
SEQEND
  8
DETAIL
  6
CONTINUOUS
 62
     5
  0
POLYLINE
  8
DETAIL
  6
CONTINUOUS
 62
     5
 66
     1
 10
0.0
 20
0.0
 30
0.0
  0
VERTEX
  8
DETAIL
  6
CONTINUOUS
 62
     5
 10
221.5265901365419
 20
1574.087279754536
 30
0.0
  0
VERTEX
  8
DETAIL
  6
CONTINUOUS
 62
     5
 10
222.07093694615858
 20
1573.389020085089
 30
0.0
  0
VERTEX
  8
DETAIL
  6
CONTINUOUS
 62
     5
 10
222.62534460149212
 20
1572.6986177886911
 30
0.0
  0
VERTEX
  8
DETAIL
  6
CONTINUOUS
 62
     5
 10
223.1900088439973
 20
1572.0163133258272
 30
0.0
  0
VERTEX
  8
DETAIL
  6
CONTINUOUS
 62
     5
 10
223.76499957036725
 20
1571.3424994280529
 30
0.0
  0
VERTEX
  8
DETAIL
  6
CONTINUOUS
 62
     5
 10
224.35035060834633
 20
1570.6776124700391
 30
0.0
  0
VERTEX
  8
DETAIL
  6
CONTINUOUS
 62
     5
 10
224.94609578267455
 20
1570.0220888300937
 30
0.0
  0
VERTEX
  8
DETAIL
  6
CONTINUOUS
 62
     5
 10
225.55226891809178
 20
1569.3763648865233
 30
0.0
  0
VERTEX
  8
DETAIL
  6
CONTINUOUS
 62
     5
 10
226.1689038393379
 20
1568.7408770176351
 30
0.0
  0
SEQEND
  8
DETAIL
  6
CONTINUOUS
 62
     5
  0
POLYLINE
  8
DETAIL
  6
CONTINUOUS
 62
     5
 66
     1
 10
0.0
 20
0.0
 30
0.0
  0
VERTEX
  8
DETAIL
  6
CONTINUOUS
 62
     5
 10
221.84937664684551
 20
1574.5996135146361
 30
0.0
  0
VERTEX
  8
DETAIL
  6
CONTINUOUS
 62
     5
 10
224.24126869963615
 20
1574.6164520870514
 30
0.0
  0
VERTEX
  8
DETAIL
  6
CONTINUOUS
 62
     5
 10
226.63316430075989
 20
1574.6327852016091
 30
0.0
  0
VERTEX
  8
DETAIL
  6
CONTINUOUS
 62
     5
 10
229.02506340559458
 20
1574.6486122701051
 30
0.0
  0
VERTEX
  8
DETAIL
  6
CONTINUOUS
 62
     5
 10
231.41696591288101
 20
1574.6639278817779
 30
0.0
  0
VERTEX
  8
DETAIL
  6
CONTINUOUS
 62
     5
 10
233.80887170584418
 20
1574.6787253047539
 30
0.0
  0
VERTEX
  8
DETAIL
  6
CONTINUOUS
 62
     5
 10
236.20078066770901
 20
1574.6929978071273
 30
0.0
  0
VERTEX
  8
DETAIL
  6
CONTINUOUS
 62
     5
 10
238.5926926817001
 20
1574.7067386569906
 30
0.0
  0
VERTEX
  8
DETAIL
  6
CONTINUOUS
 62
     5
 10
240.98460763104231
 20
1574.7199411224369
 30
0.0
  0
SEQEND
  8
DETAIL
  6
CONTINUOUS
 62
     5
  0
POLYLINE
  8
DETAIL
  6
CONTINUOUS
 62
     5
 66
     1
 10
0.0
 20
0.0
 30
0.0
  0
VERTEX
  8
DETAIL
  6
CONTINUOUS
 62
     5
 10
180.35286878494659
 20
1579.8471399576349
 30
0.0
  0
VERTEX
  8
DETAIL
  6
CONTINUOUS
 62
     5
 10
185.92256991673986
 20
1578.2838229562637
 30
0.0
  0
VERTEX
  8
DETAIL
  6
CONTINUOUS
 62
     5
 10
191.49608485338223
 20
1576.7341443934699
 30
0.0
  0
VERTEX
  8
DETAIL
  6
CONTINUOUS
 62
     5
 10
197.07454710766919
 20
1575.202288687218
 30
0.0
  0
VERTEX
  8
DETAIL
  6
CONTINUOUS
 62
     5
 10
202.65909019239507
 20
1573.6924402554791
 30
0.0
  0
VERTEX
  8
DETAIL
  6
CONTINUOUS
 62
     5
 10
208.25082632713588
 20
1572.2089477313293
 30
0.0
  0
VERTEX
  8
DETAIL
  6
CONTINUOUS
 62
     5
 10
213.85078351236064
 20
1570.7568092527349
 30
0.0
  0
VERTEX
  8
DETAIL
  6
CONTINUOUS
 62
     5
 10
219.45996892953872
 20
1569.3411835155523
 30
0.0
  0
VERTEX
  8
DETAIL
  6
CONTINUOUS
 62
     5
 10
225.07938976013969
 20
1567.967229215637
 30
0.0
  0
SEQEND
  8
DETAIL
  6
CONTINUOUS
 62
     5
  0
POLYLINE
  8
DETAIL
  6
CONTINUOUS
 62
     5
 66
     1
 10
0.0
 20
0.0
 30
0.0
  0
VERTEX
  8
DETAIL
  6
CONTINUOUS
 62
     5
 10
225.07938976003791
 20
1567.9672292155351
 30
0.0
  0
VERTEX
  8
DETAIL
  6
CONTINUOUS
 62
     5
 10
225.19134819942735
 20
1567.9426596563851
 30
0.0
  0
VERTEX
  8
DETAIL
  6
CONTINUOUS
 62
     5
 10
225.30429471326286
 20
1567.9228282151346
 30
0.0
  0
VERTEX
  8
DETAIL
  6
CONTINUOUS
 62
     5
 10
225.41807546861958
 20
1567.9082483711813
 30
0.0
  0
VERTEX
  8
DETAIL
  6
CONTINUOUS
 62
     5
 10
225.53251470454475
 20
1567.8994761825466
 30
0.0
  0
VERTEX
  8
DETAIL
  6
CONTINUOUS
 62
     5
 10
225.64724000517526
 20
1567.897449560784
 30
0.0
  0
VERTEX
  8
DETAIL
  6
CONTINUOUS
 62
     5
 10
225.7617751860831
 20
1567.9033079094584
 30
0.0
  0
VERTEX
  8
DETAIL
  6
CONTINUOUS
 62
     5
 10
225.87541313286789
 20
1567.9188392982237
 30
0.0
  0
VERTEX
  8
DETAIL
  6
CONTINUOUS
 62
     5
 10
225.98612723069965
 20
1567.9495428349046
 30
0.0
  0
VERTEX
  8
DETAIL
  6
CONTINUOUS
 62
     5
 10
226.09040606579603
 20
1568.0022140767733
 30
0.0
  0
VERTEX
  8
DETAIL
  6
CONTINUOUS
 62
     5
 10
226.17126562984771
 20
1568.0833244233379
 30
0.0
  0
SEQEND
  8
DETAIL
  6
CONTINUOUS
 62
     5
  0
POLYLINE
  8
DETAIL
  6
CONTINUOUS
 62
     5
 66
     1
 10
0.0
 20
0.0
 30
0.0
  0
VERTEX
  8
DETAIL
  6
CONTINUOUS
 62
     5
 10
282.018933252446
 20
1574.355581373937
 30
0.0
  0
VERTEX
  8
DETAIL
  6
CONTINUOUS
 62
     5
 10
282.07128470052334
 20
1574.3561326436425
 30
0.0
  0
VERTEX
  8
DETAIL
  6
CONTINUOUS
 62
     5
 10
282.12360721260984
 20
1574.3597584675181
 30
0.0
  0
VERTEX
  8
DETAIL
  6
CONTINUOUS
 62
     5
 10
282.17548983941765
 20
1574.3675080576727
 30
0.0
  0
VERTEX
  8
DETAIL
  6
CONTINUOUS
 62
     5
 10
282.2265216316589
 20
1574.3804306262164
 30
0.0
  0
VERTEX
  8
DETAIL
  6
CONTINUOUS
 62
     5
 10
282.27626249465129
 20
1574.3995659486991
 30
0.0
  0
VERTEX
  8
DETAIL
  6
CONTINUOUS
 62
     5
 10
282.32321104947113
 20
1574.4256101830188
 30
0.0
  0
VERTEX
  8
DETAIL
  6
CONTINUOUS
 62
     5
 10
282.36452739690782
 20
1574.4588261072358
 30
0.0
  0
VERTEX
  8
DETAIL
  6
CONTINUOUS
 62
     5
 10
282.39728610723978
 20
1574.4994488067371
 30
0.0
  0
SEQEND
  8
DETAIL
  6
CONTINUOUS
 62
     5
  0
POLYLINE
  8
DETAIL
  6
CONTINUOUS
 62
     5
 66
     1
 10
0.0
 20
0.0
 30
0.0
  0
VERTEX
  8
DETAIL
  6
CONTINUOUS
 62
     5
 10
179.34220034784809
 20
1581.1265520101349
 30
0.0
  0
VERTEX
  8
DETAIL
  6
CONTINUOUS
 62
     5
 10
179.28403101265815
 20
1580.9843805000341
 30
0.0
  0
VERTEX
  8
DETAIL
  6
CONTINUOUS
 62
     5
 10
179.2739513908783
 20
1580.8310780352379
 30
0.0
  0
VERTEX
  8
DETAIL
  6
CONTINUOUS
 62
     5
 10
179.30585386075802
 20
1580.6807983326446
 30
0.0
  0
VERTEX
  8
DETAIL
  6
CONTINUOUS
 62
     5
 10
179.36919982482632
 20
1580.5407822570332
 30
0.0
  0
VERTEX
  8
DETAIL
  6
CONTINUOUS
 62
     5
 10
179.45490634107986
 20
1580.4132924100616
 30
0.0
  0
VERTEX
  8
DETAIL
  6
CONTINUOUS
 62
     5
 10
179.55667029133562
 20
1580.2981632763192
 30
0.0
  0
VERTEX
  8
DETAIL
  6
CONTINUOUS
 62
     5
 10
179.67103658846889
 20
1580.1949751766704
 30
0.0
  0
VERTEX
  8
DETAIL
  6
CONTINUOUS
 62
     5
 10
179.79536873355016
 20
1580.1032799984905
 30
0.0
  0
VERTEX
  8
DETAIL
  6
CONTINUOUS
 62
     5
 10
179.92709198843664
 20
1580.0226513604568
 30
0.0
  0
VERTEX
  8
DETAIL
  6
CONTINUOUS
 62
     5
 10
180.06454894502295
 20
1579.9529867252015
 30
0.0
  0
VERTEX
  8
DETAIL
  6
CONTINUOUS
 62
     5
 10
180.20678631009565
 20
1579.8944321282161
 30
0.0
  0
VERTEX
  8
DETAIL
  6
CONTINUOUS
 62
     5
 10
180.3528687848447
 20
1579.8471399575369
 30
0.0
  0
SEQEND
  8
DETAIL
  6
CONTINUOUS
 62
     5
  0
POLYLINE
  8
DETAIL
  6
CONTINUOUS
 62
     5
 66
     1
 10
0.0
 20
0.0
 30
0.0
  0
VERTEX
  8
DETAIL
  6
CONTINUOUS
 62
     5
 10
226.30896055993799
 20
1568.305589229037
 30
0.0
  0
VERTEX
  8
DETAIL
  6
CONTINUOUS
 62
     5
 10
226.22808376148828
 20
1568.2245292655139
 30
0.0
  0
VERTEX
  8
DETAIL
  6
CONTINUOUS
 62
     5
 10
226.12378656712778
 20
1568.1719342821295
 30
0.0
  0
VERTEX
  8
DETAIL
  6
CONTINUOUS
 62
     5
 10
226.0130788095999
 20
1568.141295037846
 30
0.0
  0
VERTEX
  8
DETAIL
  6
CONTINUOUS
 62
     5
 10
225.89945965775118
 20
1568.1258068689522
 30
0.0
  0
VERTEX
  8
DETAIL
  6
CONTINUOUS
 62
     5
 10
225.78494606562478
 20
1568.1199709860637
 30
0.0
  0
VERTEX
  8
DETAIL
  6
CONTINUOUS
 62
     5
 10
225.67024237889217
 20
1568.1220039197899
 30
0.0
  0
VERTEX
  8
DETAIL
  6
CONTINUOUS
 62
     5
 10
225.55582423126
 20
1568.130768718831
 30
0.0
  0
VERTEX
  8
DETAIL
  6
CONTINUOUS
 62
     5
 10
225.44206316601404
 20
1568.1453297607375
 30
0.0
  0
VERTEX
  8
DETAIL
  6
CONTINUOUS
 62
     5
 10
225.3291339255407
 20
1568.1651320699777
 30
0.0
  0
VERTEX
  8
DETAIL
  6
CONTINUOUS
 62
     5
 10
225.21718937133849
 20
1568.1896629924361
 30
0.0
  0
SEQEND
  8
DETAIL
  6
CONTINUOUS
 62
     5
  0
POLYLINE
  8
DETAIL
  6
CONTINUOUS
 62
     5
 66
     1
 10
0.0
 20
0.0
 30
0.0
  0
VERTEX
  8
DETAIL
  6
CONTINUOUS
 62
     5
 10
221.39032370324281
 20
1574.4780789645349
 30
0.0
  0
VERTEX
  8
DETAIL
  6
CONTINUOUS
 62
     5
 10
221.41026568597857
 20
1574.4919571504408
 30
0.0
  0
VERTEX
  8
DETAIL
  6
CONTINUOUS
 62
     5
 10
221.43093058543531
 20
1574.5047628865968
 30
0.0
  0
VERTEX
  8
DETAIL
  6
CONTINUOUS
 62
     5
 10
221.45221988729691
 20
1574.5165417831288
 30
0.0
  0
VERTEX
  8
DETAIL
  6
CONTINUOUS
 62
     5
 10
221.47405167304561
 20
1574.5273369242454
 30
0.0
  0
VERTEX
  8
DETAIL
  6
CONTINUOUS
 62
     5
 10
221.49634675783793
 20
1574.5371909780863
 30
0.0
  0
VERTEX
  8
DETAIL
  6
CONTINUOUS
 62
     5
 10
221.51902595683063
 20
1574.5461466127895
 30
0.0
  0
VERTEX
  8
DETAIL
  6
CONTINUOUS
 62
     5
 10
221.54201008518032
 20
1574.5542464964935
 30
0.0
  0
VERTEX
  8
DETAIL
  6
CONTINUOUS
 62
     5
 10
221.5652199580436
 20
1574.5615332973371
 30
0.0
  0
SEQEND
  8
DETAIL
  6
CONTINUOUS
 62
     5
  0
POLYLINE
  8
DETAIL
  6
CONTINUOUS
 62
     5
 66
     1
 10
0.0
 20
0.0
 30
0.0
  0
VERTEX
  8
DETAIL
  6
CONTINUOUS
 62
     5
 10
221.5652199580436
 20
1574.5615332973371
 30
0.0
  0
VERTEX
  8
DETAIL
  6
CONTINUOUS
 62
     5
 10
221.59987764367835
 20
1574.5709183269432
 30
0.0
  0
VERTEX
  8
DETAIL
  6
CONTINUOUS
 62
     5
 10
221.63492656784646
 20
1574.5787875264652
 30
0.0
  0
VERTEX
  8
DETAIL
  6
CONTINUOUS
 62
     5
 10
221.67027795173829
 20
1574.5852646934177
 30
0.0
  0
VERTEX
  8
DETAIL
  6
CONTINUOUS
 62
     5
 10
221.70586691434167
 20
1574.5904346024017
 30
0.0
  0
VERTEX
  8
DETAIL
  6
CONTINUOUS
 62
     5
 10
221.74163236040542
 20
1574.5943758462167
 30
0.0
  0
VERTEX
  8
DETAIL
  6
CONTINUOUS
 62
     5
 10
221.77751319467811
 20
1574.5971670176609
 30
0.0
  0
VERTEX
  8
DETAIL
  6
CONTINUOUS
 62
     5
 10
221.8134483219086
 20
1574.5988867095341
 30
0.0
  0
VERTEX
  8
DETAIL
  6
CONTINUOUS
 62
     5
 10
221.84937664684551
 20
1574.5996135146361
 30
0.0
  0
SEQEND
  8
DETAIL
  6
CONTINUOUS
 62
     5
  0
POLYLINE
  8
DETAIL
  6
CONTINUOUS
 62
     5
 66
     1
 10
0.0
 20
0.0
 30
0.0
  0
VERTEX
  8
DETAIL
  6
CONTINUOUS
 62
     5
 10
282.5313646273425
 20
1574.7158760618361
 30
0.0
  0
VERTEX
  8
DETAIL
  6
CONTINUOUS
 62
     5
 10
282.49860786775713
 20
1574.6752614508346
 30
0.0
  0
VERTEX
  8
DETAIL
  6
CONTINUOUS
 62
     5
 10
282.45729161836903
 20
1574.6420564560158
 30
0.0
  0
VERTEX
  8
DETAIL
  6
CONTINUOUS
 62
     5
 10
282.4103437099609
 20
1574.6160237940355
 30
0.0
  0
VERTEX
  8
DETAIL
  6
CONTINUOUS
 62
     5
 10
282.36060610995412
 20
1574.5968984942949
 30
0.0
  0
VERTEX
  8
DETAIL
  6
CONTINUOUS
 62
     5
 10
282.30957983194918
 20
1574.5839831860351
 30
0.0
  0
VERTEX
  8
DETAIL
  6
CONTINUOUS
 62
     5
 10
282.25770410926964
 20
1574.5762381198444
 30
0.0
  0
VERTEX
  8
DETAIL
  6
CONTINUOUS
 62
     5
 10
282.20538910208035
 20
1574.572614171464
 30
0.0
  0
VERTEX
  8
DETAIL
  6
CONTINUOUS
 62
     5
 10
282.15304497054609
 20
1574.572062216635
 30
0.0
  0
SEQEND
  8
DETAIL
  6
CONTINUOUS
 62
     5
  0
POLYLINE
  8
DETAIL
  6
CONTINUOUS
 62
     5
 66
     1
 10
0.0
 20
0.0
 30
0.0
  0
VERTEX
  8
DETAIL
  6
CONTINUOUS
 62
     5
 10
180.48719130814419
 20
1580.063961078436
 30
0.0
  0
VERTEX
  8
DETAIL
  6
CONTINUOUS
 62
     5
 10
180.34111279433878
 20
1580.1112576379744
 30
0.0
  0
VERTEX
  8
DETAIL
  6
CONTINUOUS
 62
     5
 10
180.1988792520645
 20
1580.1698149861306
 30
0.0
  0
VERTEX
  8
DETAIL
  6
CONTINUOUS
 62
     5
 10
180.06142572512402
 20
1580.2394807892397
 30
0.0
  0
VERTEX
  8
DETAIL
  6
CONTINUOUS
 62
     5
 10
179.92970524469806
 20
1580.3201090652799
 30
0.0
  0
VERTEX
  8
DETAIL
  6
CONTINUOUS
 62
     5
 10
179.80537489694706
 20
1580.4118024458455
 30
0.0
  0
VERTEX
  8
DETAIL
  6
CONTINUOUS
 62
     5
 10
179.69100914442819
 20
1580.5149875035115
 30
0.0
  0
VERTEX
  8
DETAIL
  6
CONTINUOUS
 62
     5
 10
179.58924422533704
 20
1580.6301125531402
 30
0.0
  0
VERTEX
  8
DETAIL
  6
CONTINUOUS
 62
     5
 10
179.50353478168054
 20
1580.7575975542072
 30
0.0
  0
VERTEX
  8
DETAIL
  6
CONTINUOUS
 62
     5
 10
179.44018360544723
 20
1580.8976086303032
 30
0.0
  0
VERTEX
  8
DETAIL
  6
CONTINUOUS
 62
     5
 10
179.40827388784351
 20
1581.0478843522237
 30
0.0
  0
VERTEX
  8
DETAIL
  6
CONTINUOUS
 62
     5
 10
179.41834622262368
 20
1581.2011848747227
 30
0.0
  0
VERTEX
  8
DETAIL
  6
CONTINUOUS
 62
     5
 10
179.4765118213399
 20
1581.3433552949371
 30
0.0
  0
SEQEND
  8
DETAIL
  6
CONTINUOUS
 62
     5
  0
POLYLINE
  8
DETAIL
  6
CONTINUOUS
 62
     5
 66
     1
 10
0.0
 20
0.0
 30
0.0
  0
VERTEX
  8
DETAIL
  6
CONTINUOUS
 62
     5
 10
225.21718937133849
 20
1568.1896629924361
 30
0.0
  0
VERTEX
  8
DETAIL
  6
CONTINUOUS
 62
     5
 10
219.59710085070273
 20
1569.5619198691306
 30
0.0
  0
VERTEX
  8
DETAIL
  6
CONTINUOUS
 62
     5
 10
213.98731319064362
 20
1570.9761699854603
 30
0.0
  0
VERTEX
  8
DETAIL
  6
CONTINUOUS
 62
     5
 10
208.38682038776318
 20
1572.4272345811157
 30
0.0
  0
VERTEX
  8
DETAIL
  6
CONTINUOUS
 62
     5
 10
202.79461643866293
 20
1573.9099348957864
 30
0.0
  0
VERTEX
  8
DETAIL
  6
CONTINUOUS
 62
     5
 10
197.20967399489888
 20
1575.4192539519993
 30
0.0
  0
VERTEX
  8
DETAIL
  6
CONTINUOUS
 62
     5
 10
191.63087935201921
 20
1576.9508292998055
 30
0.0
  0
VERTEX
  8
DETAIL
  6
CONTINUOUS
 62
     5
 10
186.05709696983195
 20
1578.5004639912622
 30
0.0
  0
VERTEX
  8
DETAIL
  6
CONTINUOUS
 62
     5
 10
180.48719130814419
 20
1580.063961078436
 30
0.0
  0
SEQEND
  8
DETAIL
  6
CONTINUOUS
 62
     5
  0
POLYLINE
  8
DETAIL
  6
CONTINUOUS
 62
     5
 66
     1
 10
0.0
 20
0.0
 30
0.0
  0
VERTEX
  8
DETAIL
  6
CONTINUOUS
 62
     5
 10
221.9835366695479
 20
1574.8161723298381
 30
0.0
  0
VERTEX
  8
DETAIL
  6
CONTINUOUS
 62
     5
 10
221.90840752139479
 20
1574.8136578504457
 30
0.0
  0
VERTEX
  8
DETAIL
  6
CONTINUOUS
 62
     5
 10
221.83325256806705
 20
1574.8062439143644
 30
0.0
  0
VERTEX
  8
DETAIL
  6
CONTINUOUS
 62
     5
 10
221.7568640756617
 20
1574.7925273629201
 30
0.0
  0
VERTEX
  8
DETAIL
  6
CONTINUOUS
 62
     5
 10
221.68024546481487
 20
1574.7714174368919
 30
0.0
  0
VERTEX
  8
DETAIL
  6
CONTINUOUS
 62
     5
 10
221.60641962915614
 20
1574.7421086950899
 30
0.0
  0
VERTEX
  8
DETAIL
  6
CONTINUOUS
 62
     5
 10
221.53848360626895
 20
1574.7038061716332
 30
0.0
  0
VERTEX
  8
DETAIL
  6
CONTINUOUS
 62
     5
 10
221.47953443373714
 20
1574.6557149006428
 30
0.0
  0
VERTEX
  8
DETAIL
  6
CONTINUOUS
 62
     5
 10
221.4326691491442
 20
1574.5970399162379
 30
0.0
  0
SEQEND
  8
DETAIL
  6
CONTINUOUS
 62
     5
  0
POLYLINE
  8
DETAIL
  6
CONTINUOUS
 62
     5
 66
     1
 10
0.0
 20
0.0
 30
0.0
  0
VERTEX
  8
DETAIL
  6
CONTINUOUS
 62
     5
 10
241.1121537844447
 20
1574.936095356135
 30
0.0
  0
VERTEX
  8
DETAIL
  6
CONTINUOUS
 62
     5
 10
238.72106579017407
 20
1574.9229209846624
 30
0.0
  0
VERTEX
  8
DETAIL
  6
CONTINUOUS
 62
     5
 10
236.32998074818644
 20
1574.9092138240339
 30
0.0
  0
VERTEX
  8
DETAIL
  6
CONTINUOUS
 62
     5
 10
233.93889867025661
 20
1574.894984436155
 30
0.0
  0
VERTEX
  8
DETAIL
  6
CONTINUOUS
 62
     5
 10
231.54781965704433
 20
1574.88023829082
 30
0.0
  0
VERTEX
  8
DETAIL
  6
CONTINUOUS
 62
     5
 10
229.15674382945849
 20
1574.864979697775
 30
0.0
  0
VERTEX
  8
DETAIL
  6
CONTINUOUS
 62
     5
 10
226.76567130840783
 20
1574.849212966765
 30
0.0
  0
VERTEX
  8
DETAIL
  6
CONTINUOUS
 62
     5
 10
224.37460221480134
 20
1574.8329424075373
 30
0.0
  0
VERTEX
  8
DETAIL
  6
CONTINUOUS
 62
     5
 10
221.9835366695479
 20
1574.8161723298381
 30
0.0
  0
SEQEND
  8
DETAIL
  6
CONTINUOUS
 62
     5
  0
POLYLINE
  8
DETAIL
  6
CONTINUOUS
 62
     5
 66
     1
 10
0.0
 20
0.0
 30
0.0
  0
VERTEX
  8
DETAIL
  6
CONTINUOUS
 62
     5
 10
213.27667988904429
 20
698.51646797903766
 30
0.0
  0
VERTEX
  8
DETAIL
  6
CONTINUOUS
 62
     5
 10
213.25073232486253
 20
698.64528949061116
 30
0.0
  0
VERTEX
  8
DETAIL
  6
CONTINUOUS
 62
     5
 10
213.19648402467067
 20
698.76611436329472
 30
0.0
  0
VERTEX
  8
DETAIL
  6
CONTINUOUS
 62
     5
 10
213.11925128523637
 20
698.87291815002823
 30
0.0
  0
VERTEX
  8
DETAIL
  6
CONTINUOUS
 62
     5
 10
213.02422766061861
 20
698.96407702250099
 30
0.0
  0
VERTEX
  8
DETAIL
  6
CONTINUOUS
 62
     5
 10
212.91650979227953
 20
699.03970957945069
 30
0.0
  0
VERTEX
  8
DETAIL
  6
CONTINUOUS
 62
     5
 10
212.79988231724391
 20
699.10020522546222
 30
0.0
  0
VERTEX
  8
DETAIL
  6
CONTINUOUS
 62
     5
 10
212.67669995565694
 20
699.14624398758804
 30
0.0
  0
VERTEX
  8
DETAIL
  6
CONTINUOUS
 62
     5
 10
212.54918237838839
 20
699.17848493025622
 30
0.0
  0
VERTEX
  8
DETAIL
  6
CONTINUOUS
 62
     5
 10
212.41911347717615
 20
699.19733976163252
 30
0.0
  0
VERTEX
  8
DETAIL
  6
CONTINUOUS
 62
     5
 10
212.2880923954435
 20
699.20311532333653
 30
0.0
  0
SEQEND
  8
DETAIL
  6
CONTINUOUS
 62
     5
  0
POLYLINE
  8
DETAIL
  6
CONTINUOUS
 62
     5
 66
     1
 10
0.0
 20
0.0
 30
0.0
  0
VERTEX
  8
DETAIL
  6
CONTINUOUS
 62
     5
 10
213.27852730874289
 20
698.49999999993634
 30
0.0
  0
VERTEX
  8
DETAIL
  6
CONTINUOUS
 62
     5
 10
213.27772562576894
 20
698.50156442296009
 30
0.0
  0
VERTEX
  8
DETAIL
  6
CONTINUOUS
 62
     5
 10
213.27797492972527
 20
698.50436457080161
 30
0.0
  0
VERTEX
  8
DETAIL
  6
CONTINUOUS
 62
     5
 10
213.27802284713778
 20
698.50682051120407
 30
0.0
  0
VERTEX
  8
DETAIL
  6
CONTINUOUS
 62
     5
 10
213.27786559761373
 20
698.50894723482543
 30
0.0
  0
VERTEX
  8
DETAIL
  6
CONTINUOUS
 62
     5
 10
213.27757792909767
 20
698.51086004254262
 30
0.0
  0
VERTEX
  8
DETAIL
  6
CONTINUOUS
 62
     5
 10
213.27723458953429
 20
698.51267423523257
 30
0.0
  0
VERTEX
  8
DETAIL
  6
CONTINUOUS
 62
     5
 10
213.27691032686829
 20
698.51450511377209
 30
0.0
  0
VERTEX
  8
DETAIL
  6
CONTINUOUS
 62
     5
 10
213.27667988904429
 20
698.51646797903766
 30
0.0
  0
SEQEND
  8
DETAIL
  6
CONTINUOUS
 62
     5
  0
POLYLINE
  8
DETAIL
  6
CONTINUOUS
 62
     5
 66
     1
 10
0.0
 20
0.0
 30
0.0
  0
VERTEX
  8
DETAIL
  6
CONTINUOUS
 62
     5
 10
-229.50000000005821
 20
94.507179676935266
 30
0.0
  0
VERTEX
  8
DETAIL
  6
CONTINUOUS
 62
     5
 10
-229.44097312241382
 20
94.211066779138022
 30
0.0
  0
VERTEX
  8
DETAIL
  6
CONTINUOUS
 62
     5
 10
-229.28647341047377
 20
93.951400893932529
 30
0.0
  0
VERTEX
  8
DETAIL
  6
CONTINUOUS
 62
     5
 10
-229.07391899602229
 20
93.736577834736053
 30
0.0
  0
VERTEX
  8
DETAIL
  6
CONTINUOUS
 62
     5
 10
-228.82790740327974
 20
93.561036225936064
 30
0.0
  0
VERTEX
  8
DETAIL
  6
CONTINUOUS
 62
     5
 10
-228.56193152983178
 20
93.417536924735131
 30
0.0
  0
VERTEX
  8
DETAIL
  6
CONTINUOUS
 62
     5
 10
-228.28332701047069
 20
93.30031206165765
 30
0.0
  0
VERTEX
  8
DETAIL
  6
CONTINUOUS
 62
     5
 10
-227.99548410483524
 20
93.206262570215713
 30
0.0
  0
VERTEX
  8
DETAIL
  6
CONTINUOUS
 62
     5
 10
-227.70129965781462
 20
93.132628966667895
 30
0.0
  0
VERTEX
  8
DETAIL
  6
CONTINUOUS
 62
     5
 10
-227.403481480111
 20
93.076851029767838
 30
0.0
  0
VERTEX
  8
DETAIL
  6
CONTINUOUS
 62
     5
 10
-227.10342876052547
 20
93.037747967401941
 30
0.0
  0
VERTEX
  8
DETAIL
  6
CONTINUOUS
 62
     5
 10
-226.80198706986997
 20
93.014722560742783
 30
0.0
  0
VERTEX
  8
DETAIL
  6
CONTINUOUS
 62
     5
 10
-226.50000000005821
 20
93.007179676935266
 30
0.0
  0
SEQEND
  8
DETAIL
  6
CONTINUOUS
 62
     5
  0
POLYLINE
  8
DETAIL
  6
CONTINUOUS
 62
     5
 66
     1
 10
0.0
 20
0.0
 30
0.0
  0
VERTEX
  8
DETAIL
  6
CONTINUOUS
 62
     5
 10
225.49999999994179
 20
93.007179676935266
 30
0.0
  0
VERTEX
  8
DETAIL
  6
CONTINUOUS
 62
     5
 10
225.80198706975312
 20
93.014722560742783
 30
0.0
  0
VERTEX
  8
DETAIL
  6
CONTINUOUS
 62
     5
 10
226.1034287604059
 20
93.037747967401955
 30
0.0
  0
VERTEX
  8
DETAIL
  6
CONTINUOUS
 62
     5
 10
226.40348147998387
 20
93.076851029767823
 30
0.0
  0
VERTEX
  8
DETAIL
  6
CONTINUOUS
 62
     5
 10
226.70129965767282
 20
93.13262896666788
 30
0.0
  0
VERTEX
  8
DETAIL
  6
CONTINUOUS
 62
     5
 10
226.99548410467156
 20
93.206262570215699
 30
0.0
  0
VERTEX
  8
DETAIL
  6
CONTINUOUS
 62
     5
 10
227.28332701028353
 20
93.30031206165765
 30
0.0
  0
VERTEX
  8
DETAIL
  6
CONTINUOUS
 62
     5
 10
227.56193152962555
 20
93.417536924735145
 30
0.0
  0
VERTEX
  8
DETAIL
  6
CONTINUOUS
 62
     5
 10
227.82790740306737
 20
93.561036225936064
 30
0.0
  0
VERTEX
  8
DETAIL
  6
CONTINUOUS
 62
     5
 10
228.07391899584175
 20
93.736577834736039
 30
0.0
  0
VERTEX
  8
DETAIL
  6
CONTINUOUS
 62
     5
 10
228.28647341032357
 20
93.951400893932529
 30
0.0
  0
VERTEX
  8
DETAIL
  6
CONTINUOUS
 62
     5
 10
228.44097312224181
 20
94.211066779138022
 30
0.0
  0
VERTEX
  8
DETAIL
  6
CONTINUOUS
 62
     5
 10
228.49999999994179
 20
94.507179676935266
 30
0.0
  0
SEQEND
  8
DETAIL
  6
CONTINUOUS
 62
     5
  0
POLYLINE
  8
DETAIL
  6
CONTINUOUS
 62
     5
 66
     1
 10
0.0
 20
0.0
 30
0.0
210
0.0
220
0.0
230
1.0
  0
VERTEX
  8
DETAIL
  6
CONTINUOUS
 62
     5
 10
-197.0055545971554
 20
696.39999999993745
 30
0.0
 42
0.1164179597020441
  0
VERTEX
  8
DETAIL
  6
CONTINUOUS
 62
     5
 10
-197.45283631582788
 20
696.29442719097733
 30
0.0
 42
0.0806076878196758
  0
VERTEX
  8
DETAIL
  6
CONTINUOUS
 62
     5
 10
-197.71276909054026
 20
696.10710678116072
 30
0.0
 42
0.0806154534022203
  0
VERTEX
  8
DETAIL
  6
CONTINUOUS
 62
     5
 10
-197.90011803450039
 20
695.84721359545756
 30
0.0
 42
0.1164496846417489
  0
VERTEX
  8
DETAIL
  6
CONTINUOUS
 62
     5
 10
-198.00570692515541
 20
695.39999999993779
 30
0.0
 42
0.1164496846417489
  0
SEQEND
  8
DETAIL
  6
CONTINUOUS
 62
     5
  0
POLYLINE
  8
DETAIL
  6
CONTINUOUS
 62
     5
 66
     1
 10
0.0
 20
0.0
 30
0.0
210
0.0
220
0.0
230
1.0
  0
VERTEX
  8
DETAIL
  6
CONTINUOUS
 62
     5
 10
-198.50000000005821
 20
685.49999999993634
 30
0.0
 42
0.0319522183045663
  0
VERTEX
  8
DETAIL
  6
CONTINUOUS
 62
     5
 10
-198.50780614239218
 20
685.39442719097622
 30
0.0
 42
0.0040634238667855
  0
VERTEX
  8
DETAIL
  6
CONTINUOUS
 62
     5
 10
-198.51234259481569
 20
685.20710678115938
 30
0.0
 42
0.0021305956403807
  0
VERTEX
  8
DETAIL
  6
CONTINUOUS
 62
     5
 10
-198.51479150837065
 20
685.03094713393659
 30
0.0
 42
0.0005513894367159
  0
SEQEND
  8
DETAIL
  6
CONTINUOUS
 62
     5
  0
POLYLINE
  8
DETAIL
  6
CONTINUOUS
 62
     5
 66
     1
 10
0.0
 20
0.0
 30
0.0
210
0.0
220
0.0
230
1.0
  0
VERTEX
  8
DETAIL
  6
CONTINUOUS
 62
     5
 10
-188.57601919024117
 20
701.40362889146888
 30
0.0
 42
0.0153224065091315
  0
VERTEX
  8
DETAIL
  6
CONTINUOUS
 62
     5
 10
-188.577011406493
 20
701.35082746517105
 30
0.0
 42
0.0020317994286954
  0
VERTEX
  8
DETAIL
  6
CONTINUOUS
 62
     5
 10
-188.57651005608687
 20
701.25714747060897
 30
0.0
 42
0.0010650159238323
  0
VERTEX
  8
DETAIL
  6
CONTINUOUS
 62
     5
 10
-188.5750586820478
 20
701.12718661490624
 30
0.0
 42
0.0010715985351637
  0
VERTEX
  8
DETAIL
  6
CONTINUOUS
 62
     5
 10
-188.57306630149594
 20
700.99047201875283
 30
0.0
 42
0.0003841562660127
  0
SEQEND
  8
DETAIL
  6
CONTINUOUS
 62
     5
  0
POLYLINE
  8
DETAIL
  6
CONTINUOUS
 62
     5
 66
     1
 10
0.0
 20
0.0
 30
0.0
210
0.0
220
0.0
230
1.0
  0
VERTEX
  8
DETAIL
  6
CONTINUOUS
 62
     5
 10
-198.02316199016059
 20
685.49999999993634
 30
0.0
 42
0.0319522183045663
  0
VERTEX
  8
DETAIL
  6
CONTINUOUS
 62
     5
 10
-198.01535584782661
 20
685.60557280889645
 30
0.0
 42
0.0040634238667855
  0
VERTEX
  8
DETAIL
  6
CONTINUOUS
 62
     5
 10
-198.0108193954031
 20
685.79289321871329
 30
0.0
 42
0.0021305956403807
  0
VERTEX
  8
DETAIL
  6
CONTINUOUS
 62
     5
 10
-198.00754970549266
 20
686.05278640441645
 30
0.0
 42
0.0021439871142308
  0
VERTEX
  8
DETAIL
  6
CONTINUOUS
 62
     5
 10
-198.0057069252606
 20
686.49999999993634
 30
0.0
 42
0.0021439871142308
  0
VERTEX
  8
DETAIL
  6
CONTINUOUS
 62
     5
 10
-198.0057069252606
 20
686.49999999993634
 30
0.0
 42
0.0021439871142308
  0
SEQEND
  8
DETAIL
  6
CONTINUOUS
 62
     5
  0
POLYLINE
  8
DETAIL
  6
CONTINUOUS
 62
     5
 66
     1
 10
0.0
 20
0.0
 30
0.0
210
0.0
220
0.0
230
1.0
  0
VERTEX
  8
DETAIL
  6
CONTINUOUS
 62
     5
 10
214.49999999996751
 20
698.08458470827725
 30
0.0
 42
0.0060446138694478
  0
VERTEX
  8
DETAIL
  6
CONTINUOUS
 62
     5
 10
214.49782824860952
 20
698.21920186569184
 30
0.0
 42
0.0040484345938579
  0
VERTEX
  8
DETAIL
  6
CONTINUOUS
 62
     5
 10
214.48803929915709
 20
698.49999999990246
 30
0.0
 42
0.0006451523878055
  0
SEQEND
  8
DETAIL
  6
CONTINUOUS
 62
     5
  0
POLYLINE
  8
DETAIL
  6
CONTINUOUS
 62
     5
 66
     1
 10
0.0
 20
0.0
 30
0.0
210
0.0
220
0.0
230
1.0
  0
VERTEX
  8
DETAIL
  6
CONTINUOUS
 62
     5
 10
214.48803929905216
 20
698.4999999998945
 30
0.0
 42
0.0006369033535583
  0
VERTEX
  8
DETAIL
  6
CONTINUOUS
 62
     5
 10
214.48977505955696
 20
698.59289453769077
 30
0.0
 42
0.0021305956403807
  0
VERTEX
  8
DETAIL
  6
CONTINUOUS
 62
     5
 10
214.49631443937784
 20
699.11268090909709
 30
0.0
 42
0.0021439871142308
  0
VERTEX
  8
DETAIL
  6
CONTINUOUS
 62
     5
 10
214.499999999842
 20
700.00710810013697
 30
0.0
 42
0.0021439871142308
  0
VERTEX
  8
DETAIL
  6
CONTINUOUS
 62
     5
 10
214.499999999842
 20
700.00710810013697
 30
0.0
 42
0.0021439871142308
  0
SEQEND
  8
DETAIL
  6
CONTINUOUS
 62
     5
  0
LINE
  8
OUTLINE
  6
CONTINUOUS
 62
     3
 10
-369.50000000005821
 20
-0.0000000000636646
 30
0.0
 11
-317.00000000005821
 21
-0.0000000000636646
 31
0.0
  0
LINE
  8
OUTLINE
  6
CONTINUOUS
 62
     3
 10
316.99999999994179
 20
-0.0000000000636646
 30
0.0
 11
369.49999999994179
 21
-0.0000000000636646
 31
0.0
  0
LINE
  8
OUTLINE
  6
CONTINUOUS
 62
     3
 10
-369.50000000005821
 20
2.2999999999356069
 30
0.0
 11
-317.00000000005821
 21
2.2999999999356069
 31
0.0
  0
LINE
  8
OUTLINE
  6
CONTINUOUS
 62
     3
 10
316.99999999994179
 20
2.2999999999356069
 30
0.0
 11
369.49999999994179
 21
2.2999999999356069
 31
0.0
  0
LINE
  8
OUTLINE
  6
CONTINUOUS
 62
     3
 10
369.49999999994179
 20
2.2999999999356069
 30
0.0
 11
369.49999999994179
 21
-0.0000000000636646
 31
0.0
  0
LINE
  8
OUTLINE
  6
CONTINUOUS
 62
     3
 10
369.49999999994179
 20
57.699999999937063
 30
0.0
 11
369.49999999994179
 21
62.299999999935608
 31
0.0
  0
LINE
  8
OUTLINE
  6
CONTINUOUS
 62
     3
 10
367.49999999994179
 20
57.699999999937063
 30
0.0
 11
367.49999999994179
 21
2.2999999999356069
 31
0.0
  0
LINE
  8
OUTLINE
  6
CONTINUOUS
 62
     3
 10
370.28091039814171
 20
1522.4999999999361
 30
0.0
 11
369.99760774914461
 21
1553.963268127836
 31
0.0
  0
LINE
  8
OUTLINE
  6
CONTINUOUS
 62
     3
 10
365.02656217934418
 20
1641.074277792535
 30
0.0
 11
367.38842298794771
 21
1559.254987546037
 31
0.0
  0
LINE
  8
OUTLINE
  6
CONTINUOUS
 62
     3
 10
365.02656205934181
 20
1641.074280214636
 30
0.0
 11
360.02855335244379
 21
1755.5474998459381
 31
0.0
  0
LINE
  8
OUTLINE
  6
CONTINUOUS
 62
     3
 10
-369.50000000005821
 20
57.699999999937063
 30
0.0
 11
-317.00000000005821
 21
57.699999999937063
 31
0.0
  0
LINE
  8
OUTLINE
  6
CONTINUOUS
 62
     3
 10
316.99999999994179
 20
57.699999999937063
 30
0.0
 11
369.49999999994179
 21
57.699999999937063
 31
0.0
  0
LINE
  8
OUTLINE
  6
CONTINUOUS
 62
     3
 10
-319.00000000005821
 20
59.999999999936328
 30
0.0
 11
-317.00000000005821
 21
59.999999999936328
 31
0.0
  0
LINE
  8
OUTLINE
  6
CONTINUOUS
 62
     3
 10
316.99999999994179
 20
59.999999999936328
 30
0.0
 11
318.99999999994179
 21
59.999999999936328
 31
0.0
  0
LINE
  8
OUTLINE
  6
CONTINUOUS
 62
     3
 10
369.49999999994179
 20
62.299999999935608
 30
0.0
 11
318.99999999994179
 21
62.299999999935608
 31
0.0
  0
LINE
  8
OUTLINE
  6
CONTINUOUS
 62
     3
 10
-319.00000000005821
 20
62.299999999935608
 30
0.0
 11
-369.50000000005821
 21
62.299999999935608
 31
0.0
  0
LINE
  8
OUTLINE
  6
CONTINUOUS
 62
     3
 10
-320.46357325975259
 20
64.499999999936335
 30
0.0
 11
-300.8000000000539
 21
64.499999999936335
 31
0.0
  0
LINE
  8
OUTLINE
  6
CONTINUOUS
 62
     3
 10
-295.80000000005379
 20
87.999999999936335
 30
0.0
 11
295.7999999999447
 21
87.999999999936335
 31
0.0
  0
LINE
  8
OUTLINE
  6
CONTINUOUS
 62
     3
 10
-365.50000000005821
 20
94.999999999936335
 30
0.0
 11
-363.95064030275529
 21
94.999999999936335
 31
0.0
  0
LINE
  8
OUTLINE
  6
CONTINUOUS
 62
     3
 10
365.49999999994179
 20
94.999999999936335
 30
0.0
 11
365.49999999994179
 21
1522.4999999999361
 31
0.0
  0
LINE
  8
OUTLINE
  6
CONTINUOUS
 62
     3
 10
362.99999999994179
 20
1834.5999999999369
 30
0.0
 11
362.99999999994179
 21
1817.0999999999369
 31
0.0
  0
LINE
  8
OUTLINE
  6
CONTINUOUS
 62
     3
 10
362.99999999994179
 20
1813.7999999999349
 30
0.0
 11
362.99999999994179
 21
1815.6999999999371
 31
0.0
  0
LINE
  8
OUTLINE
  6
CONTINUOUS
 62
     3
 10
359.99999999994179
 20
1817.0999999999369
 30
0.0
 11
359.99999999994179
 21
1816.9999999999361
 31
0.0
  0
LINE
  8
OUTLINE
  6
CONTINUOUS
 62
     3
 10
359.99999999994179
 20
1811.4999999999361
 30
0.0
 11
359.99999999994179
 21
1756.237603585037
 31
0.0
  0
LINE
  8
OUTLINE
  6
CONTINUOUS
 62
     3
 10
357.99999999994179
 20
1838.5999999999369
 30
0.0
 11
357.99999999994179
 21
1857.5999999999369
 31
0.0
  0
LINE
  8
OUTLINE
  6
CONTINUOUS
 62
     3
 10
317.7999999999447
 20
63.499999999936342
 30
0.0
 11
317.7999999999447
 21
64.499999999936335
 31
0.0
  0
LINE
  8
OUTLINE
  6
CONTINUOUS
 62
     3
 10
315.7999999999447
 20
3.4999999999363349
 30
0.0
 11
315.7999999999447
 21
56.499999999936328
 31
0.0
  0
LINE
  8
OUTLINE
  6
CONTINUOUS
 62
     3
 10
315.49999999994179
 20
63.499999999936342
 30
0.0
 11
315.49999999994179
 21
64.499999999936335
 31
0.0
  0
LINE
  8
OUTLINE
  6
CONTINUOUS
 62
     3
 10
313.49999999994179
 20
3.4999999999363349
 30
0.0
 11
313.49999999994179
 21
56.499999999936328
 31
0.0
  0
LINE
  8
OUTLINE
  6
CONTINUOUS
 62
     3
 10
295.7999999999447
 20
69.499999999936335
 30
0.0
 11
295.7999999999447
 21
87.999999999936335
 31
0.0
  0
LINE
  8
OUTLINE
  6
CONTINUOUS
 62
     3
 10
-295.80000000005379
 20
87.999999999936335
 30
0.0
 11
-295.80000000005379
 21
69.499999999936335
 31
0.0
  0
LINE
  8
OUTLINE
  6
CONTINUOUS
 62
     3
 10
-313.50000000005821
 20
56.499999999936328
 30
0.0
 11
-313.50000000005821
 21
3.4999999999363349
 31
0.0
  0
LINE
  8
OUTLINE
  6
CONTINUOUS
 62
     3
 10
-315.50000000005821
 20
64.499999999936335
 30
0.0
 11
-315.50000000005821
 21
63.499999999936342
 31
0.0
  0
LINE
  8
OUTLINE
  6
CONTINUOUS
 62
     3
 10
-315.8000000000539
 20
56.499999999936328
 30
0.0
 11
-315.8000000000539
 21
3.4999999999363349
 31
0.0
  0
LINE
  8
OUTLINE
  6
CONTINUOUS
 62
     3
 10
-317.8000000000539
 20
64.499999999936335
 30
0.0
 11
-317.8000000000539
 21
63.499999999936342
 31
0.0
  0
LINE
  8
OUTLINE
  6
CONTINUOUS
 62
     3
 10
-365.02656205955282
 20
1641.074280214636
 30
0.0
 11
-360.02855335265491
 21
1755.5474998459381
 31
0.0
  0
LINE
  8
OUTLINE
  6
CONTINUOUS
 62
     3
 10
-367.38842298815138
 20
1559.254987546037
 30
0.0
 11
-365.02656217955519
 21
1641.074277792535
 31
0.0
  0
LINE
  8
OUTLINE
  6
CONTINUOUS
 62
     3
 10
-370.28091039835272
 20
1522.4999999999361
 30
0.0
 11
-369.99760774935572
 21
1553.963268124937
 31
0.0
  0
LINE
  8
OUTLINE
  6
CONTINUOUS
 62
     3
 10
-358.00000000005821
 20
1838.5999999999369
 30
0.0
 11
-358.00000000005821
 21
1857.5999999999369
 31
0.0
  0
LINE
  8
OUTLINE
  6
CONTINUOUS
 62
     3
 10
-360.00000000005821
 20
1811.4999999999361
 30
0.0
 11
-360.00000000005821
 21
1756.237604085238
 31
0.0
  0
LINE
  8
OUTLINE
  6
CONTINUOUS
 62
     3
 10
-363.00000000005821
 20
1834.5999999999369
 30
0.0
 11
-363.00000000005821
 21
1817.0999999999369
 31
0.0
  0
LINE
  8
OUTLINE
  6
CONTINUOUS
 62
     3
 10
-363.00000000005821
 20
1815.6999999999371
 30
0.0
 11
-363.00000000005821
 21
1813.7999999999349
 31
0.0
  0
LINE
  8
OUTLINE
  6
CONTINUOUS
 62
     3
 10
-365.50000000005821
 20
94.999999999936335
 30
0.0
 11
-365.50000000005821
 21
1522.4999999999361
 31
0.0
  0
LINE
  8
OUTLINE
  6
CONTINUOUS
 62
     3
 10
-367.50000000005821
 20
2.2999999999356069
 30
0.0
 11
-367.50000000005821
 21
57.699999999937063
 31
0.0
  0
LINE
  8
OUTLINE
  6
CONTINUOUS
 62
     3
 10
-369.50000000005821
 20
2.2999999999356069
 30
0.0
 11
-369.50000000005821
 21
-0.0000000000636646
 31
0.0
  0
LINE
  8
OUTLINE
  6
CONTINUOUS
 62
     3
 10
-369.50000000005821
 20
57.699999999937063
 30
0.0
 11
-369.50000000005821
 21
62.299999999935608
 31
0.0
  0
LINE
  8
OUTLINE
  6
CONTINUOUS
 62
     3
 10
-363.95064030275529
 20
94.999999999936335
 30
0.0
 11
-320.46357325975259
 21
64.499999999936335
 31
0.0
  0
LINE
  8
OUTLINE
  6
CONTINUOUS
 62
     3
 10
-362.7000000000553
 20
1813.4999999999361
 30
0.0
 11
-361.62521844805451
 21
1813.4999999999361
 31
0.0
  0
LINE
  8
OUTLINE
  6
CONTINUOUS
 62
     3
 10
361.62521847504831
 20
1813.4999999999361
 30
0.0
 11
362.6999999999461
 21
1813.4999999999361
 31
0.0
  0
LINE
  8
OUTLINE
  6
CONTINUOUS
 62
     3
 10
360.81566985494283
 20
1815.9999999999361
 30
0.0
 11
362.6999999999461
 21
1815.9999999999361
 31
0.0
  0
LINE
  8
OUTLINE
  6
CONTINUOUS
 62
     3
 10
359.99999999994179
 20
1817.0999999999381
 30
0.0
 11
362.99999999994179
 21
1817.0999999999369
 31
0.0
  0
LINE
  8
OUTLINE
  6
CONTINUOUS
 62
     3
 10
359.99999999994179
 20
1836.599999999936
 30
0.0
 11
360.99999999994179
 21
1836.599999999936
 31
0.0
  0
LINE
  8
OUTLINE
  6
CONTINUOUS
 62
     3
 10
357.49999999994179
 20
1858.0999999999369
 30
0.0
 11
-357.50000000005821
 21
1858.0999999999369
 31
0.0
  0
ARC
  8
OUTLINE
  6
CONTINUOUS
 62
     3
 10
300.7999999999447
 20
69.499999999936335
 30
0.0
 40
5.0
 50
180.0
 51
270.0
  0
ARC
  8
OUTLINE
  6
CONTINUOUS
 62
     3
 10
318.99999999994179
 20
63.499999999936342
 30
0.0
 40
3.5
 50
180.0
 51
270.0
  0
ARC
  8
OUTLINE
  6
CONTINUOUS
 62
     3
 10
316.99999999994179
 20
56.499999999936328
 30
0.0
 40
3.5
 50
90.0
 51
180.0
  0
ARC
  8
OUTLINE
  6
CONTINUOUS
 62
     3
 10
316.99999999994179
 20
3.4999999999363349
 30
0.0
 40
3.5
 50
180.0
 51
270.0
  0
ARC
  8
OUTLINE
  6
CONTINUOUS
 62
     3
 10
318.99999999994179
 20
63.499999999936342
 30
0.0
 40
1.1999999999999991
 50
180.0
 51
270.0
  0
ARC
  8
OUTLINE
  6
CONTINUOUS
 62
     3
 10
316.99999999994179
 20
56.499999999936328
 30
0.0
 40
1.1999999999999991
 50
90.0
 51
180.0
  0
ARC
  8
OUTLINE
  6
CONTINUOUS
 62
     3
 10
316.99999999994179
 20
3.4999999999363349
 30
0.0
 40
1.1999999999999991
 50
180.0
 51
270.0
  0
ARC
  8
OUTLINE
  6
CONTINUOUS
 62
     3
 10
372.8905307157475
 20
1559.5252304067931
 30
0.0
 40
5.5086739276738674
 50
182.8119077231583
 51
234.00424298082771
  0
ARC
  8
OUTLINE
  6
CONTINUOUS
 62
     3
 10
367.99768376194697
 20
1553.9458312266379
 30
0.0
 40
2.0
 50
0.4999999999647253
 51
34.143969538904571
  0
ARC
  8
OUTLINE
  6
CONTINUOUS
 62
     3
 10
389.99999999994179
 20
1756.856081466836
 30
0.0
 40
30.0
 50
180.0
 51
182.4999999999709
  0
ARC
  8
OUTLINE
  6
CONTINUOUS
 62
     3
 10
360.99999996704719
 20
1834.5999999999369
 30
0.0
 40
2.0
 50
0.0
 51
89.999999058681183
  0
ARC
  8
OUTLINE
  6
CONTINUOUS
 62
     3
 10
359.99999999994179
 20
1838.5999999999369
 30
0.0
 40
2.0
 50
180.0
 51
270.0
  0
ARC
  8
OUTLINE
  6
CONTINUOUS
 62
     3
 10
361.99999999784632
 20
1811.500000002035
 30
0.0
 40
1.9999999978999989
 50
98.181818133874543
 51
179.99999937738721
  0
ARC
  8
OUTLINE
  6
CONTINUOUS
 62
     3
 10
360.99999943884899
 20
1816.9999994388361
 30
0.0
 40
0.9999994388999999
 50
179.99996785279581
 51
260.48885436302942
  0
ARC
  8
OUTLINE
  6
CONTINUOUS
 62
     3
 10
357.50000000224833
 20
1857.5999999999369
 30
0.0
 40
0.5
 50
0.0
 51
90.000000271806798
  0
ARC
  8
OUTLINE
  6
CONTINUOUS
 62
     3
 10
362.6999999999461
 20
1815.6999999999371
 30
0.0
 40
0.3
 50
0.0
 51
90.0
  0
ARC
  8
OUTLINE
  6
CONTINUOUS
 62
     3
 10
362.6999999999461
 20
1813.7999999999349
 30
0.0
 40
0.3
 50
270.0
 51
0.0
  0
ARC
  8
OUTLINE
  6
CONTINUOUS
 62
     3
 10
-300.8000000000539
 20
69.499999999936335
 30
0.0
 40
5.0
 50
270.0
 51
0.0
  0
ARC
  8
OUTLINE
  6
CONTINUOUS
 62
     3
 10
-319.00000000005821
 20
63.499999999936342
 30
0.0
 40
3.5
 50
270.0
 51
0.0
  0
ARC
  8
OUTLINE
  6
CONTINUOUS
 62
     3
 10
-317.00000000005821
 20
3.4999999999363349
 30
0.0
 40
3.5
 50
270.0
 51
0.0
  0
ARC
  8
OUTLINE
  6
CONTINUOUS
 62
     3
 10
-317.00000000005821
 20
56.499999999936328
 30
0.0
 40
3.5
 50
0.0
 51
90.0
  0
ARC
  8
OUTLINE
  6
CONTINUOUS
 62
     3
 10
-319.00000000005821
 20
63.499999999936342
 30
0.0
 40
1.1999999999999991
 50
270.0
 51
0.0
  0
ARC
  8
OUTLINE
  6
CONTINUOUS
 62
     3
 10
-317.00000000005821
 20
3.4999999999363349
 30
0.0
 40
1.1999999999999991
 50
270.0
 51
0.0
  0
ARC
  8
OUTLINE
  6
CONTINUOUS
 62
     3
 10
-317.00000000005821
 20
56.499999999936328
 30
0.0
 40
1.1999999999999991
 50
0.0
 51
90.0
  0
ARC
  8
OUTLINE
  6
CONTINUOUS
 62
     3
 10
-372.38657282435452
 20
1559.3992675948371
 30
0.0
 40
5.0001653733999989
 50
308.82687880982502
 51
358.3465195875072
  0
ARC
  8
OUTLINE
  6
CONTINUOUS
 62
     3
 10
-367.99768376205611
 20
1553.9458312278359
 30
0.0
 40
2.0
 50
128.82687634301431
 51
179.50000000003519
  0
ARC
  8
OUTLINE
  6
CONTINUOUS
 62
     3
 10
-390.00000000005821
 20
1756.856081466836
 30
0.0
 40
30.0
 50
357.50000000002899
 51
0.0
  0
ARC
  8
OUTLINE
  6
CONTINUOUS
 62
     3
 10
-362.00000003575411
 20
1811.4999999630361
 30
0.0
 40
2.0000000368999991
 50
0.000001057733
 51
81.818180954709916
  0
ARC
  8
OUTLINE
  6
CONTINUOUS
 62
     3
 10
-361.00000000005821
 20
1834.5999999999369
 30
0.0
 40
2.0
 50
90.0
 51
180.0
  0
ARC
  8
OUTLINE
  6
CONTINUOUS
 62
     3
 10
-360.00000000005821
 20
1838.5999999999369
 30
0.0
 40
2.0
 50
270.0
 51
0.0
  0
ARC
  8
OUTLINE
  6
CONTINUOUS
 62
     3
 10
-357.50000000285218
 20
1857.5999999999369
 30
0.0
 40
0.5
 50
89.999999682336181
 51
180.0
  0
ARC
  8
OUTLINE
  6
CONTINUOUS
 62
     3
 10
-362.7000000000553
 20
1813.7999999999349
 30
0.0
 40
0.3
 50
180.0
 51
270.0
  0
LINE
  8
OUTLINE
  6
CONTINUOUS
 62
     3
 10
365.49999999994179
 20
94.999999999936335
 30
0.0
 11
363.95064030264621
 21
94.999999999936335
 31
0.0
  0
LINE
  8
OUTLINE
  6
CONTINUOUS
 62
     3
 10
318.03016192623909
 20
62.793307626414389
 30
0.0
 11
363.9506403025444
 21
94.999999999936335
 31
0.0
  0
LINE
  8
OUTLINE
  6
CONTINUOUS
 62
     3
 10
300.7999999999447
 20
64.499999999936335
 30
0.0
 11
317.7999999999447
 21
64.499999999936335
 31
0.0
  0
LINE
  8
OUTLINE
  6
CONTINUOUS
 62
     3
 10
-361.00000000005821
 20
1836.599999999936
 30
0.0
 11
-360.00000000005821
 21
1836.599999999936
 31
0.0
  0
LINE
  8
OUTLINE
  6
CONTINUOUS
 62
     3
 10
-370.28091039835272
 20
1522.4999999999361
 30
0.0
 11
370.28091039814171
 21
1522.4999999999361
 31
0.0
  0
LINE
  8
OUTLINE
  6
CONTINUOUS
 62
     3
 10
369.65294346004521
 20
1555.068379814373
 30
0.0
 11
-369.6529434609983
 21
1555.0683798143709
 31
0.0
  0
LINE
  8
NOTE
  6
CONTINUOUS
 62
     4
 10
249.56083839463821
 20
1998.3943820263671
 30
0.0
 11
199.56083839463821
 21
1948.498336671672
 31
0.0
  0
LINE
  8
NOTE
  6
CONTINUOUS
 62
     4
 10
299.56083839464549
 20
1948.498336671672
 30
0.0
 11
249.56083839463821
 21
1998.3943820263671
 31
0.0
  0
LINE
  8
NOTE
  6
CONTINUOUS
 62
     4
 10
299.56083839464549
 20
1948.498336671672
 30
0.0
 11
274.56083839463821
 21
1948.498336671672
 31
0.0
  0
LINE
  8
NOTE
  6
CONTINUOUS
 62
     4
 10
224.56083839463821
 20
1948.498336671672
 30
0.0
 11
199.56083839463821
 21
1948.498336671672
 31
0.0
  0
LINE
  8
NOTE
  6
CONTINUOUS
 62
     4
 10
224.56083839463821
 20
1948.498336671672
 30
0.0
 11
224.56083839463821
 21
1907.812249250173
 31
0.0
  0
LINE
  8
NOTE
  6
CONTINUOUS
 62
     4
 10
274.56083839463821
 20
1948.498336671672
 30
0.0
 11
274.56083839463821
 21
1907.812249250173
 31
0.0
  0
LINE
  8
NOTE
  6
CONTINUOUS
 62
     4
 10
224.56083839463821
 20
1907.812249250173
 30
0.0
 11
274.56083839463821
 21
1907.812249250173
 31
0.0
  0
LINE
  8
NOTE
  6
CONTINUOUS
 62
     4
 10
-232.0909506933167
 20
1907.812249250173
 30
0.0
 11
-282.0909506933167
 21
1907.812249250173
 31
0.0
  0
LINE
  8
NOTE
  6
CONTINUOUS
 62
     4
 10
-282.0909506933167
 20
1948.498336671672
 30
0.0
 11
-282.0909506933167
 21
1907.812249250173
 31
0.0
  0
LINE
  8
NOTE
  6
CONTINUOUS
 62
     4
 10
-232.0909506933167
 20
1948.498336671672
 30
0.0
 11
-232.0909506933167
 21
1907.812249250173
 31
0.0
  0
LINE
  8
NOTE
  6
CONTINUOUS
 62
     4
 10
-232.0909506933167
 20
1948.498336671672
 30
0.0
 11
-207.0909506933167
 21
1948.498336671672
 31
0.0
  0
LINE
  8
NOTE
  6
CONTINUOUS
 62
     4
 10
-307.0909506933167
 20
1948.498336671672
 30
0.0
 11
-282.0909506933167
 21
1948.498336671672
 31
0.0
  0
LINE
  8
NOTE
  6
CONTINUOUS
 62
     4
 10
-307.0909506933167
 20
1948.498336671672
 30
0.0
 11
-257.0909506933167
 21
1998.3943820263671
 31
0.0
  0
LINE
  8
NOTE
  6
CONTINUOUS
 62
     4
 10
-257.0909506933167
 20
1998.3943820263671
 30
0.0
 11
-207.0909506933167
 21
1948.498336671672
 31
0.0
  0
LINE
  8
SIZE
  6
CONTINUOUS
 62
    30
 10
-369.50000000005821
 20
-151.85749528979611
 30
0.0
 11
-369.50000000005821
 21
-311.44349863027128
 31
0.0
  0
LINE
  8
SIZE
  6
CONTINUOUS
 62
    30
 10
-313.50000000005821
 20
-15.803839137237439
 30
0.0
 11
-313.50000000005821
 21
-311.44349863027128
 31
0.0
  0
LINE
  8
SIZE
  6
CONTINUOUS
 62
    30
 10
-313.50000000005821
 20
-291.44349863027128
 30
0.0
 11
-369.50000000005821
 21
-291.44349863027128
 31
0.0
  0
LINE
  8
SIZE
  6
CONTINUOUS
 62
    30
 10
-369.50000000005821
 20
-291.44349863027128
 30
0.0
 11
-496.07142857148989
 21
-291.44349863027128
 31
0.0
  0
CIRCLE
  8
SIZE
  6
CONTINUOUS
 62
    30
 10
-313.50000000005821
 20
-291.44349863027128
 30
0.0
 40
7.5
  0
CIRCLE
  8
SIZE
  6
CONTINUOUS
 62
    30
 10
-369.50000000005821
 20
-291.44349863027128
 30
0.0
 40
7.5
  0
TEXT
  8
SIZE
  6
CONTINUOUS
 62
    30
 10
-481.26571428577563
 20
-271.44349863027128
 30
0.0
 40
40.0
  1
56
 50
0.0
 41
0.9
 51
0.0
  7
STANDARD
 71
     0
 72
     1
 11
-447.78571428577561
 21
-271.44349863027128
 31
0.0
210
0.0
220
0.0
230
1.0
  0
POINT
  8
DEFPOINTS
  6
CONTINUOUS
 62
    30
 10
-369.50000000005821
 20
-131.85749528979611
 30
0.0
  0
POINT
  8
DEFPOINTS
  6
CONTINUOUS
 62
    30
 10
-313.50000000005821
 20
4.1961608627625528
 30
0.0
  0
POINT
  8
DEFPOINTS
  6
CONTINUOUS
 62
    30
 10
-313.50000000005821
 20
-291.44349863027128
 30
0.0
  0
LINE
  8
SIZE
  6
CONTINUOUS
 62
    30
 10
369.49999999994179
 20
-151.85749528979611
 30
0.0
 11
369.49999999994179
 21
-311.44349863027128
 31
0.0
  0
LINE
  8
SIZE
  6
CONTINUOUS
 62
    30
 10
313.49999999994179
 20
-16.500000000063661
 30
0.0
 11
313.49999999994179
 21
-311.44349863027128
 31
0.0
  0
LINE
  8
SIZE
  6
CONTINUOUS
 62
    30
 10
313.49999999994179
 20
-291.44349863027128
 30
0.0
 11
369.49999999994179
 21
-291.44349863027128
 31
0.0
  0
LINE
  8
SIZE
  6
CONTINUOUS
 62
    30
 10
369.49999999994179
 20
-291.44349863027128
 30
0.0
 11
496.07142857137347
 21
-291.44349863027128
 31
0.0
  0
CIRCLE
  8
SIZE
  6
CONTINUOUS
 62
    30
 10
313.49999999994179
 20
-291.44349863027128
 30
0.0
 40
7.5
  0
CIRCLE
  8
SIZE
  6
CONTINUOUS
 62
    30
 10
369.49999999994179
 20
-291.44349863027128
 30
0.0
 40
7.5
  0
TEXT
  8
SIZE
  6
CONTINUOUS
 62
    30
 10
414.30571428565906
 20
-271.44349863027128
 30
0.0
 40
40.0
  1
56
 50
0.0
 41
0.9
 51
0.0
  7
STANDARD
 71
     0
 72
     1
 11
447.78571428565908
 21
-271.44349863027128
 31
0.0
210
0.0
220
0.0
230
1.0
  0
POINT
  8
DEFPOINTS
  6
CONTINUOUS
 62
    30
 10
369.49999999994179
 20
-131.85749528979611
 30
0.0
  0
POINT
  8
DEFPOINTS
  6
CONTINUOUS
 62
    30
 10
313.49999999994179
 20
3.4999999999363349
 30
0.0
  0
POINT
  8
DEFPOINTS
  6
CONTINUOUS
 62
    30
 10
313.49999999994179
 20
-291.44349863027128
 30
0.0
  0
LINE
  8
SIZE
  6
CONTINUOUS
 62
    30
 10
-315.50000000005821
 20
43.999999999936328
 30
0.0
 11
-315.50000000005821
 21
-395.37493912572791
 31
0.0
  0
LINE
  8
SIZE
  6
CONTINUOUS
 62
    30
 10
-369.50000000005821
 20
-151.85749528979611
 30
0.0
 11
-369.50000000005821
 21
-395.37493912572791
 31
0.0
  0
LINE
  8
SIZE
  6
CONTINUOUS
 62
    30
 10
-315.50000000005821
 20
-375.37493912572791
 30
0.0
 11
-369.50000000005821
 21
-375.37493912572791
 31
0.0
  0
LINE
  8
SIZE
  6
CONTINUOUS
 62
    30
 10
-369.50000000005821
 20
-375.37493912572791
 30
0.0
 11
-499.50000000005809
 21
-375.37493912572791
 31
0.0
  0
CIRCLE
  8
SIZE
  6
CONTINUOUS
 62
    30
 10
-315.50000000005821
 20
-375.37493912572791
 30
0.0
 40
7.5
  0
CIRCLE
  8
SIZE
  6
CONTINUOUS
 62
    30
 10
-369.50000000005821
 20
-375.37493912572791
 30
0.0
 40
7.5
  0
TEXT
  8
SIZE
  6
CONTINUOUS
 62
    30
 10
-483.34000000005807
 20
-355.37493912572791
 30
0.0
 40
40.0
  1
54
 50
0.0
 41
0.9
 51
0.0
  7
STANDARD
 71
     0
 72
     1
 11
-449.50000000005809
 21
-355.37493912572791
 31
0.0
210
0.0
220
0.0
230
1.0
  0
POINT
  8
DEFPOINTS
  6
CONTINUOUS
 62
    30
 10
-315.50000000005821
 20
63.999999999936328
 30
0.0
  0
POINT
  8
DEFPOINTS
  6
CONTINUOUS
 62
    30
 10
-369.50000000005821
 20
-131.85749528979611
 30
0.0
  0
POINT
  8
DEFPOINTS
  6
CONTINUOUS
 62
    30
 10
-369.50000000005821
 20
-375.37493912572791
 30
0.0
  0
LINE
  8
SIZE
  6
CONTINUOUS
 62
    30
 10
-295.80000000005379
 20
49.499999999936328
 30
0.0
 11
-295.80000000005379
 21
-119.86129591672029
 31
0.0
  0
LINE
  8
SIZE
  6
CONTINUOUS
 62
    30
 10
295.7999999999447
 20
49.499999999936328
 30
0.0
 11
295.7999999999447
 21
-119.86129591672029
 31
0.0
  0
LINE
  8
SIZE
  6
CONTINUOUS
 62
    30
 10
-295.80000000005379
 20
-99.861295916720337
 30
0.0
 11
295.7999999999447
 21
-99.861295916720337
 31
0.0
  0
CIRCLE
  8
SIZE
  6
CONTINUOUS
 62
    30
 10
-295.80000000005379
 20
-99.861295916720337
 30
0.0
 40
7.5
  0
CIRCLE
  8
SIZE
  6
CONTINUOUS
 62
    30
 10
295.7999999999447
 20
-99.861295916720337
 30
0.0
 40
7.5
  0
TEXT
  8
SIZE
  6
CONTINUOUS
 62
    30
 10
-36.442914620841037
 20
-79.861295916720337
 30
0.0
 40
40.0
  1
592
 50
0.0
 41
0.9
 51
0.0
  7
STANDARD
 71
     0
 72
     1
 11
13.777085379158962
 21
-79.861295916720337
 31
0.0
210
0.0
220
0.0
230
1.0
  0
POINT
  8
DEFPOINTS
  6
CONTINUOUS
 62
    30
 10
-295.80000000005379
 20
69.499999999936335
 30
0.0
  0
POINT
  8
DEFPOINTS
  6
CONTINUOUS
 62
    30
 10
295.7999999999447
 20
69.499999999936335
 30
0.0
  0
POINT
  8
DEFPOINTS
  6
CONTINUOUS
 62
    30
 10
295.7999999999447
 20
-99.861295916720337
 30
0.0
  0
LINE
  8
SIZE
  6
CONTINUOUS
 62
    30
 10
389.49999999994179
 20
59.999999999936328
 30
0.0
 11
600.61773395229829
 21
59.999999999936271
 31
0.0
  0
LINE
  8
SIZE
  6
CONTINUOUS
 62
    30
 10
385.49999999994179
 20
94.999999999934516
 30
0.0
 11
600.61773395229829
 21
94.999999999934474
 31
0.0
  0
LINE
  8
SIZE
  6
CONTINUOUS
 62
    30
 10
580.61773395229818
 20
94.999999999934474
 30
0.0
 11
580.61773395229818
 21
124.9999999999344
 31
0.0
  0
LINE
  8
SIZE
  6
CONTINUOUS
 62
    30
 10
580.61773395229818
 20
59.999999999936279
 30
0.0
 11
580.61773395229818
 21
-98.285714285777999
 31
0.0
  0
LINE
  8
SIZE
  6
CONTINUOUS
 62
    30
 10
580.61773395229818
 20
94.999999999934474
 30
0.0
 11
580.61773395229818
 21
59.999999999936279
 31
0.0
  0
CIRCLE
  8
SIZE
  6
CONTINUOUS
 62
    30
 10
580.61773395229818
 20
94.999999999934474
 30
0.0
 40
7.5
  0
CIRCLE
  8
SIZE
  6
CONTINUOUS
 62
    30
 10
580.61773395229818
 20
59.999999999936279
 30
0.0
 40
7.5
  0
TEXT
  8
SIZE
  6
CONTINUOUS
 62
    30
 10
560.61773395229818
 20
-82.622857142920793
 30
0.0
 40
40.0
  1
35
 50
90.0
 41
0.9
 51
0.0
  7
STANDARD
 71
     0
 72
     1
 11
560.61773395229818
 21
-49.142857142920768
 31
0.0
210
0.0
220
0.0
230
1.0
  0
POINT
  8
DEFPOINTS
  6
CONTINUOUS
 62
    30
 10
369.49999999994179
 20
59.999999999936328
 30
0.0
  0
POINT
  8
DEFPOINTS
  6
CONTINUOUS
 62
    30
 10
365.49999999994179
 20
94.999999999934516
 30
0.0
  0
POINT
  8
DEFPOINTS
  6
CONTINUOUS
 62
    30
 10
580.61773395229818
 20
94.999999999934474
 30
0.0
  0
LINE
  8
SIZE
  6
CONTINUOUS
 62
    30
 10
315.49999999994179
 20
43.999999999936328
 30
0.0
 11
315.49999999994179
 21
-395.29102053784482
 31
0.0
  0
LINE
  8
SIZE
  6
CONTINUOUS
 62
    30
 10
369.49999999994179
 20
-20.000000000063661
 30
0.0
 11
369.49999999994179
 21
-395.29102053784482
 31
0.0
  0
LINE
  8
SIZE
  6
CONTINUOUS
 62
    30
 10
315.49999999994179
 20
-375.29102053784482
 30
0.0
 11
369.49999999994179
 21
-375.29102053784482
 31
0.0
  0
LINE
  8
SIZE
  6
CONTINUOUS
 62
    30
 10
369.49999999994179
 20
-375.29102053784482
 30
0.0
 11
499.49999999994179
 21
-375.29102053784482
 31
0.0
  0
CIRCLE
  8
SIZE
  6
CONTINUOUS
 62
    30
 10
315.49999999994179
 20
-375.29102053784482
 30
0.0
 40
7.5
  0
CIRCLE
  8
SIZE
  6
CONTINUOUS
 62
    30
 10
369.49999999994179
 20
-375.29102053784482
 30
0.0
 40
7.5
  0
TEXT
  8
SIZE
  6
CONTINUOUS
 62
    30
 10
415.65999999994182
 20
-355.29102053784482
 30
0.0
 40
40.0
  1
54
 50
0.0
 41
0.9
 51
0.0
  7
STANDARD
 71
     0
 72
     1
 11
449.49999999994179
 21
-355.29102053784482
 31
0.0
210
0.0
220
0.0
230
1.0
  0
POINT
  8
DEFPOINTS
  6
CONTINUOUS
 62
    30
 10
315.49999999994179
 20
63.999999999936328
 30
0.0
  0
POINT
  8
DEFPOINTS
  6
CONTINUOUS
 62
    30
 10
369.49999999994179
 20
-0.0000000000636646
 30
0.0
  0
POINT
  8
DEFPOINTS
  6
CONTINUOUS
 62
    30
 10
369.49999999994179
 20
-375.29102053784482
 30
0.0
  0
LINE
  8
SIZE
  6
CONTINUOUS
 62
    30
 10
-389.50000000005821
 20
59.999999999936328
 30
0.0
 11
-598.54487830118876
 21
59.999999999936399
 31
0.0
  0
LINE
  8
SIZE
  6
CONTINUOUS
 62
    30
 10
-244.00294372525241
 20
176.19999999993701
 30
0.0
 11
-598.54487830118876
 21
176.19999999993721
 31
0.0
  0
LINE
  8
SIZE
  6
CONTINUOUS
 62
    30
 10
-578.54487830118876
 20
59.999999999936392
 30
0.0
 11
-578.54487830118876
 21
176.19999999993721
 31
0.0
  0
CIRCLE
  8
SIZE
  6
CONTINUOUS
 62
    30
 10
-578.54487830118876
 20
59.999999999936392
 30
0.0
 40
7.5
  0
CIRCLE
  8
SIZE
  6
CONTINUOUS
 62
    30
 10
-578.54487830118876
 20
176.19999999993721
 30
0.0
 40
7.5
  0
TEXT
  8
SIZE
  6
CONTINUOUS
 62
    30
 10
-598.54487830118887
 20
75.91918808206222
 30
0.0
 40
40.0
  1
116
 50
90.0
 41
0.9
 51
0.0
  7
STANDARD
 71
     0
 72
     1
 11
-598.54487830118887
 21
118.9391880820622
 31
0.0
210
0.0
220
0.0
230
1.0
  0
POINT
  8
DEFPOINTS
  6
CONTINUOUS
 62
    30
 10
-369.50000000005821
 20
59.999999999936328
 30
0.0
  0
POINT
  8
DEFPOINTS
  6
CONTINUOUS
 62
    30
 10
-224.00294372525241
 20
176.19999999993701
 30
0.0
  0
POINT
  8
DEFPOINTS
  6
CONTINUOUS
 62
    30
 10
-578.54487830118876
 20
176.19999999993721
 30
0.0
  0
LINE
  8
NOTE
  6
CONTINUOUS
 62
     4
 10
-153.00294372525241
 20
176.19999999993701
 30
0.0
 11
-224.00294372525241
 21
176.19999999993701
 31
0.0
  0
LINE
  8
NOTE
  6
CONTINUOUS
 62
     4
 10
-188.50294372525241
 20
140.69999999993709
 30
0.0
 11
-188.50294372525241
 21
211.69999999993709
 31
0.0
  0
LINE
  8
SIZE
  6
CONTINUOUS
 62
    30
 10
-188.50294372525241
 20
231.69999999993709
 30
0.0
 11
-188.50294372525241
 21
458.32844590336202
 31
0.0
  0
LINE
  8
SIZE
  6
CONTINUOUS
 62
    30
 10
-369.50000000005821
 20
22.299999999935611
 30
0.0
 11
-369.50000000005821
 21
458.32844590336202
 31
0.0
  0
LINE
  8
SIZE
  6
CONTINUOUS
 62
    30
 10
-188.50294372525241
 20
438.32844590336202
 30
0.0
 11
-369.50000000005821
 21
438.32844590336202
 31
0.0
  0
LINE
  8
SIZE
  6
CONTINUOUS
 62
    30
 10
-369.50000000005821
 20
438.32844590336202
 30
0.0
 11
-509.78571428577249
 21
438.32844590336202
 31
0.0
  0
CIRCLE
  8
SIZE
  6
CONTINUOUS
 62
    30
 10
-188.50294372525241
 20
438.32844590336202
 30
0.0
 40
7.5
  0
CIRCLE
  8
SIZE
  6
CONTINUOUS
 62
    30
 10
-369.50000000005821
 20
438.32844590336202
 30
0.0
 40
7.5
  0
TEXT
  8
SIZE
  6
CONTINUOUS
 62
    30
 10
-497.6628571429153
 20
458.32844590336202
 30
0.0
 40
40.0
  1
181
 50
0.0
 41
0.9
 51
0.0
  7
STANDARD
 71
     0
 72
     1
 11
-454.64285714291532
 21
458.32844590336202
 31
0.0
210
0.0
220
0.0
230
1.0
  0
POINT
  8
DEFPOINTS
  6
CONTINUOUS
 62
    30
 10
-188.50294372525241
 20
211.69999999993709
 30
0.0
  0
POINT
  8
DEFPOINTS
  6
CONTINUOUS
 62
    30
 10
-369.50000000005821
 20
2.2999999999356069
 30
0.0
  0
POINT
  8
DEFPOINTS
  6
CONTINUOUS
 62
    30
 10
-369.50000000005821
 20
438.32844590336202
 30
0.0
  0
LINE
  8
SIZE
  6
CONTINUOUS
 62
    30
 10
-295.80000000005379
 20
49.499999999936328
 30
0.0
 11
-295.80000000005379
 21
-119.86129591672029
 31
0.0
  0
LINE
  8
SIZE
  6
CONTINUOUS
 62
    30
 10
-315.8000000000539
 20
-16.500000000063661
 30
0.0
 11
-315.8000000000539
 21
-119.86129591672029
 31
0.0
  0
LINE
  8
SIZE
  6
CONTINUOUS
 62
    30
 10
-295.80000000005379
 20
-99.861295916720337
 30
0.0
 11
-265.8000000000539
 21
-99.861295916720337
 31
0.0
  0
LINE
  8
SIZE
  6
CONTINUOUS
 62
    30
 10
-315.8000000000539
 20
-99.861295916720337
 30
0.0
 11
-474.08571428576812
 21
-99.861295916720337
 31
0.0
  0
LINE
  8
SIZE
  6
CONTINUOUS
 62
    30
 10
-295.80000000005379
 20
-99.861295916720337
 30
0.0
 11
-315.8000000000539
 21
-99.861295916720337
 31
0.0
  0
CIRCLE
  8
SIZE
  6
CONTINUOUS
 62
    30
 10
-295.80000000005379
 20
-99.861295916720337
 30
0.0
 40
7.5
  0
CIRCLE
  8
SIZE
  6
CONTINUOUS
 62
    30
 10
-315.8000000000539
 20
-99.861295916720337
 30
0.0
 40
7.5
  0
TEXT
  8
SIZE
  6
CONTINUOUS
 62
    30
 10
-458.78285714291087
 20
-79.861295916720337
 30
0.0
 40
40.0
  1
20
 50
0.0
 41
0.9
 51
0.0
  7
STANDARD
 71
     0
 72
     1
 11
-424.9428571429109
 21
-79.861295916720337
 31
0.0
210
0.0
220
0.0
230
1.0
  0
POINT
  8
DEFPOINTS
  6
CONTINUOUS
 62
    30
 10
-295.80000000005379
 20
69.499999999936335
 30
0.0
  0
POINT
  8
DEFPOINTS
  6
CONTINUOUS
 62
    30
 10
-315.8000000000539
 20
3.4999999999363349
 30
0.0
  0
POINT
  8
DEFPOINTS
  6
CONTINUOUS
 62
    30
 10
-315.8000000000539
 20
-99.861295916720337
 30
0.0
  0
LINE
  8
SIZE
  6
CONTINUOUS
 62
    30
 10
295.7999999999447
 20
49.499999999936328
 30
0.0
 11
295.7999999999447
 21
-119.86129591672029
 31
0.0
  0
LINE
  8
SIZE
  6
CONTINUOUS
 62
    30
 10
315.7999999999447
 20
-16.500000000063661
 30
0.0
 11
315.7999999999447
 21
-119.86129591672029
 31
0.0
  0
LINE
  8
SIZE
  6
CONTINUOUS
 62
    30
 10
295.7999999999447
 20
-99.861295916720337
 30
0.0
 11
265.7999999999447
 21
-99.861295916720337
 31
0.0
  0
LINE
  8
SIZE
  6
CONTINUOUS
 62
    30
 10
315.7999999999447
 20
-99.861295916720337
 30
0.0
 11
474.08571428565892
 21
-99.861295916720337
 31
0.0
  0
LINE
  8
SIZE
  6
CONTINUOUS
 62
    30
 10
295.7999999999447
 20
-99.861295916720337
 30
0.0
 11
315.7999999999447
 21
-99.861295916720337
 31
0.0
  0
CIRCLE
  8
SIZE
  6
CONTINUOUS
 62
    30
 10
295.7999999999447
 20
-99.861295916720337
 30
0.0
 40
7.5
  0
CIRCLE
  8
SIZE
  6
CONTINUOUS
 62
    30
 10
315.7999999999447
 20
-99.861295916720337
 30
0.0
 40
7.5
  0
TEXT
  8
SIZE
  6
CONTINUOUS
 62
    30
 10
391.10285714280172
 20
-79.861295916720337
 30
0.0
 40
40.0
  1
20
 50
0.0
 41
0.9
 51
0.0
  7
STANDARD
 71
     0
 72
     1
 11
424.9428571428017
 21
-79.861295916720337
 31
0.0
210
0.0
220
0.0
230
1.0
  0
POINT
  8
DEFPOINTS
  6
CONTINUOUS
 62
    30
 10
295.7999999999447
 20
69.499999999936335
 30
0.0
  0
POINT
  8
DEFPOINTS
  6
CONTINUOUS
 62
    30
 10
315.7999999999447
 20
3.4999999999363349
 30
0.0
  0
POINT
  8
DEFPOINTS
  6
CONTINUOUS
 62
    30
 10
315.7999999999447
 20
-99.861295916720337
 30
0.0
  0
CIRCLE
  8
FIX
  6
CONTINUOUS
 62
    11
 10
-340.00000000005821
 20
-0.0000000000636646
 30
0.0
 40
11.0
  0
LINE
  8
NOTE
  6
CONTINUOUS
 62
     4
 10
-319.88724409459252
 20
-0.0000000000636646
 30
0.0
 11
-360.1127559055239
 21
-0.0000000000636646
 31
0.0
  0
LINE
  8
NOTE
  6
CONTINUOUS
 62
     4
 10
-340.00000000005821
 20
-20.112755905533049
 30
0.0
 11
-340.00000000005821
 21
20.11275590540572
 31
0.0
  0
CIRCLE
  8
FIX
  6
CONTINUOUS
 62
    11
 10
339.99999999994179
 20
-0.0000000000636646
 30
0.0
 40
11.0
  0
LINE
  8
NOTE
  6
CONTINUOUS
 62
     4
 10
360.11275590540032
 20
-0.0000000000636646
 30
0.0
 11
319.88724409446883
 21
-0.0000000000636646
 31
0.0
  0
LINE
  8
NOTE
  6
CONTINUOUS
 62
     4
 10
339.99999999994179
 20
-20.112755905533049
 30
0.0
 11
339.99999999994179
 21
20.11275590540572
 31
0.0
  0
LINE
  8
SIZE
  6
CONTINUOUS
 62
    30
 10
-340.00000000005821
 20
-40.112755905533049
 30
0.0
 11
-340.00000000005821
 21
-229.97252547161591
 31
0.0
  0
LINE
  8
SIZE
  6
CONTINUOUS
 62
    30
 10
-369.50000000005821
 20
-20.000000000063661
 30
0.0
 11
-369.50000000005821
 21
-229.97252547161591
 31
0.0
  0
LINE
  8
SIZE
  6
CONTINUOUS
 62
    30
 10
-340.00000000005821
 20
-209.97252547161591
 30
0.0
 11
-310.00000000005821
 21
-209.97252547161591
 31
0.0
  0
LINE
  8
SIZE
  6
CONTINUOUS
 62
    30
 10
-369.50000000005821
 20
-209.97252547161591
 30
0.0
 11
-579.21428571434603
 21
-209.97252547161591
 31
0.0
  0
LINE
  8
SIZE
  6
CONTINUOUS
 62
    30
 10
-340.00000000005821
 20
-209.97252547161591
 30
0.0
 11
-369.50000000005821
 21
-209.97252547161591
 31
0.0
  0
CIRCLE
  8
SIZE
  6
CONTINUOUS
 62
    30
 10
-340.00000000005821
 20
-209.97252547161591
 30
0.0
 40
7.5
  0
CIRCLE
  8
SIZE
  6
CONTINUOUS
 62
    30
 10
-369.50000000005821
 20
-209.97252547161591
 30
0.0
 40
7.5
  0
TEXT
  8
SIZE
  6
CONTINUOUS
 62
    30
 10
-563.21714285720304
 20
-189.97252547161591
 30
0.0
 40
40.0
  1
29.5
 50
0.0
 41
0.9
 51
0.0
  7
STANDARD
 71
     0
 72
     1
 11
-504.35714285720303
 21
-189.97252547161591
 31
0.0
210
0.0
220
0.0
230
1.0
  0
POINT
  8
DEFPOINTS
  6
CONTINUOUS
 62
    30
 10
-340.00000000005821
 20
-20.112755905533049
 30
0.0
  0
POINT
  8
DEFPOINTS
  6
CONTINUOUS
 62
    30
 10
-369.50000000005821
 20
-0.0000000000636646
 30
0.0
  0
POINT
  8
DEFPOINTS
  6
CONTINUOUS
 62
    30
 10
-369.50000000005821
 20
-209.97252547161591
 30
0.0
  0
LINE
  8
SIZE
  6
CONTINUOUS
 62
    30
 10
339.99999999994179
 20
-40.112755905533049
 30
0.0
 11
339.99999999994179
 21
-229.97252547161591
 31
0.0
  0
LINE
  8
SIZE
  6
CONTINUOUS
 62
    30
 10
369.49999999994179
 20
-20.000000000063661
 30
0.0
 11
369.49999999994179
 21
-229.97252547161591
 31
0.0
  0
LINE
  8
SIZE
  6
CONTINUOUS
 62
    30
 10
339.99999999994179
 20
-209.97252547161591
 30
0.0
 11
309.99999999994179
 21
-209.97252547161591
 31
0.0
  0
LINE
  8
SIZE
  6
CONTINUOUS
 62
    30
 10
369.49999999994179
 20
-209.97252547161591
 30
0.0
 11
579.2142857142295
 21
-209.97252547161591
 31
0.0
  0
LINE
  8
SIZE
  6
CONTINUOUS
 62
    30
 10
339.99999999994179
 20
-209.97252547161591
 30
0.0
 11
369.49999999994179
 21
-209.97252547161591
 31
0.0
  0
CIRCLE
  8
SIZE
  6
CONTINUOUS
 62
    30
 10
339.99999999994179
 20
-209.97252547161591
 30
0.0
 40
7.5
  0
CIRCLE
  8
SIZE
  6
CONTINUOUS
 62
    30
 10
369.49999999994179
 20
-209.97252547161591
 30
0.0
 40
7.5
  0
TEXT
  8
SIZE
  6
CONTINUOUS
 62
    30
 10
445.49714285708671
 20
-189.97252547161591
 30
0.0
 40
40.0
  1
29.5
 50
0.0
 41
0.9
 51
0.0
  7
STANDARD
 71
     0
 72
     1
 11
504.35714285708673
 21
-189.97252547161591
 31
0.0
210
0.0
220
0.0
230
1.0
  0
POINT
  8
DEFPOINTS
  6
CONTINUOUS
 62
    30
 10
339.99999999994179
 20
-20.112755905533049
 30
0.0
  0
POINT
  8
DEFPOINTS
  6
CONTINUOUS
 62
    30
 10
369.49999999994179
 20
-0.0000000000636646
 30
0.0
  0
POINT
  8
DEFPOINTS
  6
CONTINUOUS
 62
    30
 10
369.49999999994179
 20
-209.97252547161591
 30
0.0
  0
LINE
  8
SIZE
  6
CONTINUOUS
 62
    30
 10
339.99999999994179
 20
-40.112755905533049
 30
0.0
 11
339.99999999994179
 21
-229.97252547161591
 31
0.0
  0
LINE
  8
SIZE
  6
CONTINUOUS
 62
    30
 10
-340.00000000005821
 20
-40.112755905533049
 30
0.0
 11
-340.00000000005821
 21
-229.97252547161591
 31
0.0
  0
LINE
  8
SIZE
  6
CONTINUOUS
 62
    30
 10
339.99999999994179
 20
-209.97252547161591
 30
0.0
 11
-340.00000000005821
 21
-209.97252547161591
 31
0.0
  0
CIRCLE
  8
SIZE
  6
CONTINUOUS
 62
    30
 10
339.99999999994179
 20
-209.97252547161591
 30
0.0
 40
7.5
  0
CIRCLE
  8
SIZE
  6
CONTINUOUS
 62
    30
 10
-340.00000000005821
 20
-209.97252547161591
 30
0.0
 40
7.5
  0
TEXT
  8
SIZE
  6
CONTINUOUS
 62
    30
 10
-193.32000000005817
 20
-179.4963349954254
 30
0.0
 40
40.0
  1
681(678~684)
 50
0.0
 41
0.9
 51
0.0
  7
STANDARD
 71
     0
 72
     1
 11
-0.0000000000582077
 21
-179.4963349954254
 31
0.0
210
0.0
220
0.0
230
1.0
  0
POINT
  8
DEFPOINTS
  6
CONTINUOUS
 62
    30
 10
339.99999999994179
 20
-20.112755905533049
 30
0.0
  0
POINT
  8
DEFPOINTS
  6
CONTINUOUS
 62
    30
 10
-340.00000000005821
 20
-20.112755905533049
 30
0.0
  0
POINT
  8
DEFPOINTS
  6
CONTINUOUS
 62
    30
 10
-340.00000000005821
 20
-209.97252547161591
 30
0.0
  0
TEXT
  8
SIZE
  6
CONTINUOUS
 62
    30
 10
-215.78027594607559
 20
-263.24956696294072
 30
0.0
 40
53.0
  1
(Mounting pitch) 
 50
359.99999749547919
 41
0.51
  7
KAIGAI_STANDARD_1
  0
LINE
  8
SIZE
  6
CONTINUOUS
 62
    30
 10
-369.50000000005821
 20
-20.000000000063661
 30
0.0
 11
-369.50000000005832
 21
-507.90998146672609
 31
0.0
  0
LINE
  8
SIZE
  6
CONTINUOUS
 62
    30
 10
369.49999999994179
 20
-20.000000000063661
 30
0.0
 11
369.49999999994179
 21
-507.90998146672609
 31
0.0
  0
LINE
  8
SIZE
  6
CONTINUOUS
 62
    30
 10
-369.50000000005832
 20
-487.90998146672598
 30
0.0
 11
369.49999999994179
 21
-487.90998146672598
 31
0.0
  0
CIRCLE
  8
SIZE
  6
CONTINUOUS
 62
    30
 10
-369.50000000005832
 20
-487.90998146672598
 30
0.0
 40
7.5
  0
CIRCLE
  8
SIZE
  6
CONTINUOUS
 62
    30
 10
369.49999999994179
 20
-487.90998146672598
 30
0.0
 40
7.5
  0
TEXT
  8
SIZE
  6
CONTINUOUS
 62
    30
 10
-74.700000000058267
 20
-457.43379099053561
 30
0.0
 40
40.0
  1
(740)
 50
0.0
 41
0.9
 51
0.0
  7
STANDARD
 71
     0
 72
     1
 11
-0.0000000000582645
 21
-457.43379099053561
 31
0.0
210
0.0
220
0.0
230
1.0
  0
POINT
  8
DEFPOINTS
  6
CONTINUOUS
 62
    30
 10
-369.50000000005821
 20
-0.0000000000636646
 30
0.0
  0
POINT
  8
DEFPOINTS
  6
CONTINUOUS
 62
    30
 10
369.49999999994179
 20
-0.0000000000636646
 30
0.0
  0
POINT
  8
DEFPOINTS
  6
CONTINUOUS
 62
    30
 10
369.49999999994179
 20
-487.90998146672598
 30
0.0
  0
LINE
  8
BASIS
  6
DASHDOT
 62
     6
 10
-0.0000000000582077
 20
-22.855693145056652
 30
0.0
 11
-0.0000000000582077
 21
1899.574261272415
 31
0.0
  0
CIRCLE
  8
ARRANGE
  6
CONTINUOUS
 62
     1
 10
0.0
 20
0.0
 30
0.0
 40
20.0
  0
LINE
  8
ARRANGE
  6
CONTINUOUS
 62
     1
 10
28.28427124746668
 20
28.284271247463039
 30
0.0
 11
-28.284271247452129
 21
-28.28427124746668
 31
0.0
  0
LINE
  8
ARRANGE
  6
CONTINUOUS
 62
     1
 10
-28.28427124746668
 20
28.284271247463039
 30
0.0
 11
28.28427124746668
 21
-28.28427124746122
 31
0.0
  0
TEXT
  8
NOTE
  6
CONTINUOUS
 62
     4
 10
-172.03883884234531
 20
1933.3738123713929
 30
0.0
 40
53.0
  1
Discharge air
 50
359.99999749547919
 41
0.51
  7
KAIGAI_STANDARD_1
  0
LINE
  8
NOTE
  6
CONTINUOUS
 62
     4
 10
-597.92816912614205
 20
1045.829108336193
 30
0.0
 11
-597.92816912614205
 21
1095.829108336193
 31
0.0
  0
LINE
  8
NOTE
  6
CONTINUOUS
 62
     4
 10
-557.24208212614747
 20
1095.829108336193
 30
0.0
 11
-597.92816912614205
 21
1095.829108336193
 31
0.0
  0
LINE
  8
NOTE
  6
CONTINUOUS
 62
     4
 10
-557.24208212614747
 20
1045.829108336193
 30
0.0
 11
-597.92816912614205
 21
1045.829108336193
 31
0.0
  0
LINE
  8
NOTE
  6
CONTINUOUS
 62
     4
 10
-557.24208212614747
 20
1045.829108336193
 30
0.0
 11
-557.24208212614747
 21
1020.829108336193
 31
0.0
  0
LINE
  8
NOTE
  6
CONTINUOUS
 62
     4
 10
-557.24208212614747
 20
1120.8291083361919
 30
0.0
 11
-557.24208212614747
 21
1095.829108336193
 31
0.0
  0
LINE
  8
NOTE
  6
CONTINUOUS
 62
     4
 10
-557.24208212614747
 20
1120.8291083361919
 30
0.0
 11
-507.3460371261462
 21
1070.829108336193
 31
0.0
  0
LINE
  8
NOTE
  6
CONTINUOUS
 62
     4
 10
-507.3460371261462
 20
1070.829108336193
 30
0.0
 11
-557.24208212614747
 21
1020.829108336193
 31
0.0
  0
LINE
  8
NOTE
  6
CONTINUOUS
 62
     4
 10
-597.92816912614205
 20
1316.1644273361919
 30
0.0
 11
-597.92816912614205
 21
1366.1644273361919
 31
0.0
  0
LINE
  8
NOTE
  6
CONTINUOUS
 62
     4
 10
-557.24208212614747
 20
1366.1644273361919
 30
0.0
 11
-597.92816912614205
 21
1366.1644273361919
 31
0.0
  0
LINE
  8
NOTE
  6
CONTINUOUS
 62
     4
 10
-557.24208212614747
 20
1316.1644273361919
 30
0.0
 11
-597.92816912614205
 21
1316.1644273361919
 31
0.0
  0
LINE
  8
NOTE
  6
CONTINUOUS
 62
     4
 10
-557.24208212614747
 20
1316.1644273361919
 30
0.0
 11
-557.24208212614747
 21
1291.1644273361919
 31
0.0
  0
LINE
  8
NOTE
  6
CONTINUOUS
 62
     4
 10
-557.24208212614747
 20
1391.1644273361919
 30
0.0
 11
-557.24208212614747
 21
1366.1644273361919
 31
0.0
  0
LINE
  8
NOTE
  6
CONTINUOUS
 62
     4
 10
-557.24208212614747
 20
1391.1644273361919
 30
0.0
 11
-507.34603612613859
 21
1341.1644273361919
 31
0.0
  0
LINE
  8
NOTE
  6
CONTINUOUS
 62
     4
 10
-507.34603612613859
 20
1341.1644273361919
 30
0.0
 11
-557.24208212614747
 21
1291.1644273361919
 31
0.0
  0
TEXT
  8
NOTE
  6
CONTINUOUS
 62
     4
 10
-652.88567361985758
 20
1211.1907365887289
 30
0.0
 40
53.0
  1
Intake
 50
359.99999749547919
 41
0.51
  7
KAIGAI_STANDARD_1
  0
TEXT
  8
NOTE
  6
CONTINUOUS
 62
     4
 10
-648.79544097455789
 20
1144.5837738151599
 30
0.0
 40
53.0
  1
air
 50
359.99999749547919
 41
0.51
  7
KAIGAI_STANDARD_1
  0
LINE
  8
NOTE
  6
CONTINUOUS
 62
     4
 10
587.11902513411758
 20
1045.829108336193
 30
0.0
 11
587.11902513411758
 21
1095.829108336193
 31
0.0
  0
LINE
  8
NOTE
  6
CONTINUOUS
 62
     4
 10
546.43293813411572
 20
1095.829108336193
 30
0.0
 11
587.11902513411758
 21
1095.829108336193
 31
0.0
  0
LINE
  8
NOTE
  6
CONTINUOUS
 62
     4
 10
546.43293813411572
 20
1045.829108336193
 30
0.0
 11
587.11902513411758
 21
1045.829108336193
 31
0.0
  0
LINE
  8
NOTE
  6
CONTINUOUS
 62
     4
 10
546.43293813411572
 20
1045.829108336193
 30
0.0
 11
546.43293813411572
 21
1020.829108336193
 31
0.0
  0
LINE
  8
NOTE
  6
CONTINUOUS
 62
     4
 10
546.43293813411572
 20
1120.8291083361919
 30
0.0
 11
546.43293813411572
 21
1095.829108336193
 31
0.0
  0
LINE
  8
NOTE
  6
CONTINUOUS
 62
     4
 10
546.43293813411572
 20
1120.8291083361919
 30
0.0
 11
496.53689313411451
 21
1070.829108336193
 31
0.0
  0
LINE
  8
NOTE
  6
CONTINUOUS
 62
     4
 10
496.53689313411451
 20
1070.829108336193
 30
0.0
 11
546.43293813411572
 21
1020.829108336193
 31
0.0
  0
LINE
  8
NOTE
  6
CONTINUOUS
 62
     4
 10
587.1190251341103
 20
1316.1644273361919
 30
0.0
 11
587.1190251341103
 21
1366.1644273361919
 31
0.0
  0
LINE
  8
NOTE
  6
CONTINUOUS
 62
     4
 10
546.43293813410855
 20
1366.1644273361919
 30
0.0
 11
587.1190251341103
 21
1366.1644273361919
 31
0.0
  0
LINE
  8
NOTE
  6
CONTINUOUS
 62
     4
 10
546.43293813410855
 20
1316.1644273361919
 30
0.0
 11
587.1190251341103
 21
1316.1644273361919
 31
0.0
  0
LINE
  8
NOTE
  6
CONTINUOUS
 62
     4
 10
546.43293813410855
 20
1316.1644273361919
 30
0.0
 11
546.43293813410855
 21
1291.1644273361919
 31
0.0
  0
LINE
  8
NOTE
  6
CONTINUOUS
 62
     4
 10
546.43293813410855
 20
1391.1644273361919
 30
0.0
 11
546.43293813410855
 21
1366.1644273361919
 31
0.0
  0
LINE
  8
NOTE
  6
CONTINUOUS
 62
     4
 10
546.43293813410855
 20
1391.1644273361919
 30
0.0
 11
496.53689213411411
 21
1341.1644273361919
 31
0.0
  0
LINE
  8
NOTE
  6
CONTINUOUS
 62
     4
 10
496.53689213411411
 20
1341.1644273361919
 30
0.0
 11
546.43293813410855
 21
1291.1644273361919
 31
0.0
  0
TEXT
  8
NOTE
  6
CONTINUOUS
 62
     4
 10
500.36819152966922
 20
1216.9810318316979
 30
0.0
 40
53.0
  1
Intake
 50
359.99999749547919
 41
0.51
  7
KAIGAI_STANDARD_1
  0
LINE
  8
NOTE
  6
CONTINUOUS
 62
     4
 10
546.43293813410855
 20
1391.1644273361919
 30
0.0
 11
546.43293813410855
 21
1366.1644273361919
 31
0.0
  0
TEXT
  8
NOTE
  6
CONTINUOUS
 62
     4
 10
500.36819152967649
 20
1150.374073104558
 30
0.0
 40
53.0
  1
air
 50
359.99999749547919
 41
0.51
  7
KAIGAI_STANDARD_1
  0
LINE
  8
SIZE
  6
CONTINUOUS
 62
    30
 10
-377.50000000005821
 20
1858.0999999999369
 30
0.0
 11
-688.41663939618581
 21
1858.0999999999369
 31
0.0
  0
LINE
  8
SIZE
  6
CONTINUOUS
 62
    30
 10
-389.65294346098381
 20
1555.0683798143641
 30
0.0
 11
-688.41663939618593
 21
1555.0683798143641
 31
0.0
  0
LINE
  8
SIZE
  6
CONTINUOUS
 62
    30
 10
-668.41663939618581
 20
1858.0999999999369
 30
0.0
 11
-668.41663939618593
 21
1555.0683798143641
 31
0.0
  0
CIRCLE
  8
SIZE
  6
CONTINUOUS
 62
    30
 10
-668.41663939618581
 20
1858.0999999999369
 30
0.0
 40
7.5
  0
CIRCLE
  8
SIZE
  6
CONTINUOUS
 62
    30
 10
-668.41663939618593
 20
1555.0683798143641
 30
0.0
 40
7.5
  0
TEXT
  8
SIZE
  6
CONTINUOUS
 62
    30
 10
-688.41663939618616
 20
1656.0041899071498
 30
0.0
 40
40.0
  1
303
 50
90.0
 41
0.9
 51
0.0
  7
STANDARD
 71
     0
 72
     1
 11
-688.41663939618616
 21
1706.5841899071499
 31
0.0
210
0.0
220
0.0
230
1.0
  0
POINT
  8
DEFPOINTS
  6
CONTINUOUS
 62
    30
 10
-357.50000000005821
 20
1858.0999999999369
 30
0.0
  0
POINT
  8
DEFPOINTS
  6
CONTINUOUS
 62
    30
 10
-369.65294346098381
 20
1555.0683798143641
 30
0.0
  0
POINT
  8
DEFPOINTS
  6
CONTINUOUS
 62
    30
 10
-668.41663939618593
 20
1555.0683798143641
 30
0.0
  0
LINE
  8
SIZE
  6
CONTINUOUS
 62
    30
 10
-389.65294346098381
 20
1555.068379814365
 30
0.0
 11
-688.41663939618547
 21
1555.068379814365
 31
0.0
  0
LINE
  8
SIZE
  6
CONTINUOUS
 62
    30
 10
-389.50000000005821
 20
59.999999999936328
 30
0.0
 11
-688.41663939618593
 21
59.999999999936428
 31
0.0
  0
LINE
  8
SIZE
  6
CONTINUOUS
 62
    30
 10
-668.41663939618559
 20
1555.068379814365
 30
0.0
 11
-668.41663939618593
 21
59.999999999936421
 31
0.0
  0
CIRCLE
  8
SIZE
  6
CONTINUOUS
 62
    30
 10
-668.41663939618559
 20
1555.068379814365
 30
0.0
 40
7.5
  0
CIRCLE
  8
SIZE
  6
CONTINUOUS
 62
    30
 10
-668.41663939618593
 20
59.999999999936421
 30
0.0
 40
7.5
  0
TEXT
  8
SIZE
  6
CONTINUOUS
 62
    30
 10
-688.41663939618593
 20
744.31418990715724
 30
0.0
 40
40.0
  1
1495
 50
90.0
 41
0.9
 51
0.0
  7
STANDARD
 71
     0
 72
     1
 11
-688.41663939618593
 21
808.03418990715727
 31
0.0
210
0.0
220
0.0
230
1.0
  0
POINT
  8
DEFPOINTS
  6
CONTINUOUS
 62
    30
 10
-369.65294346098381
 20
1555.068379814365
 30
0.0
  0
POINT
  8
DEFPOINTS
  6
CONTINUOUS
 62
    30
 10
-369.50000000005821
 20
59.999999999936328
 30
0.0
  0
POINT
  8
DEFPOINTS
  6
CONTINUOUS
 62
    30
 10
-668.41663939618593
 20
59.999999999936421
 30
0.0
  0
LINE
  8
SIZE
  6
CONTINUOUS
 62
    30
 10
-389.50000000005821
 20
59.999999999936328
 30
0.0
 11
-774.61361305585172
 21
59.999999999936442
 31
0.0
  0
LINE
  8
SIZE
  6
CONTINUOUS
 62
    30
 10
-377.50000000005821
 20
1858.0999999999369
 30
0.0
 11
-774.61361305585115
 21
1858.0999999999369
 31
0.0
  0
LINE
  8
SIZE
  6
CONTINUOUS
 62
    30
 10
-754.61361305585172
 20
59.999999999936442
 30
0.0
 11
-754.61361305585126
 21
1858.0999999999369
 31
0.0
  0
CIRCLE
  8
SIZE
  6
CONTINUOUS
 62
    30
 10
-754.61361305585172
 20
59.999999999936442
 30
0.0
 40
7.5
  0
CIRCLE
  8
SIZE
  6
CONTINUOUS
 62
    30
 10
-754.61361305585126
 20
1858.0999999999369
 30
0.0
 40
7.5
  0
TEXT
  8
SIZE
  6
CONTINUOUS
 62
    30
 10
-774.6136130558516
 20
896.18999999994287
 30
0.0
 40
40.0
  1
1798
 50
90.0
 41
0.9
 51
0.0
  7
STANDARD
 71
     0
 72
     1
 11
-774.6136130558516
 21
959.54999999994288
 31
0.0
210
0.0
220
0.0
230
1.0
  0
POINT
  8
DEFPOINTS
  6
CONTINUOUS
 62
    30
 10
-369.50000000005821
 20
59.999999999936328
 30
0.0
  0
POINT
  8
DEFPOINTS
  6
CONTINUOUS
 62
    30
 10
-357.50000000005821
 20
1858.0999999999369
 30
0.0
  0
POINT
  8
DEFPOINTS
  6
CONTINUOUS
 62
    30
 10
-754.61361305585126
 20
1858.0999999999369
 30
0.0
  0
LINE
  8
SIZE
  6
CONTINUOUS
 62
    30
 10
-389.50000000005821
 20
-0.000000000063659
 30
0.0
 11
-865.84987321540405
 21
-0.000000000063524
 31
0.0
  0
LINE
  8
SIZE
  6
CONTINUOUS
 62
    30
 10
-377.50000000005821
 20
1858.0999999999369
 30
0.0
 11
-865.84987321540359
 21
1858.0999999999369
 31
0.0
  0
LINE
  8
SIZE
  6
CONTINUOUS
 62
    30
 10
-845.84987321540405
 20
-0.0000000000635297
 30
0.0
 11
-845.84987321540348
 21
1858.0999999999369
 31
0.0
  0
CIRCLE
  8
SIZE
  6
CONTINUOUS
 62
    30
 10
-845.84987321540405
 20
-0.0000000000635297
 30
0.0
 40
7.5
  0
CIRCLE
  8
SIZE
  6
CONTINUOUS
 62
    30
 10
-845.84987321540348
 20
1858.0999999999369
 30
0.0
 40
7.5
  0
TEXT
  8
SIZE
  6
CONTINUOUS
 62
    30
 10
-865.84987321540393
 20
866.18999999994276
 30
0.0
 40
40.0
  1
1858
 50
90.0
 41
0.9
 51
0.0
  7
STANDARD
 71
     0
 72
     1
 11
-865.84987321540393
 21
929.54999999994277
 31
0.0
210
0.0
220
0.0
230
1.0
  0
POINT
  8
DEFPOINTS
  6
CONTINUOUS
 62
    30
 10
-369.50000000005821
 20
-0.0000000000636646
 30
0.0
  0
POINT
  8
DEFPOINTS
  6
CONTINUOUS
 62
    30
 10
-357.50000000005821
 20
1858.0999999999369
 30
0.0
  0
POINT
  8
DEFPOINTS
  6
CONTINUOUS
 62
    30
 10
-845.84987321540348
 20
1858.0999999999369
 30
0.0
  0
LINE
  8
NOTE
  6
CONTINUOUS
 62
     4
 10
356.63429547150008
 20
26.228177705304919
 30
0.0
 11
339.99999999994179
 21
-0.0000000000636646
 31
0.0
  0
LINE
  8
NOTE
  6
CONTINUOUS
 62
     4
 10
339.99999999994179
 20
-0.0000000000636646
 30
0.0
 11
341.29163374046038
 21
31.031415917677801
 31
0.0
  0
LINE
  8
NOTE
  6
CONTINUOUS
 62
     4
 10
339.99999999994179
 20
-0.0000000000636646
 30
0.0
 11
348.96296460597659
 21
28.629796811490451
 31
0.0
  0
LINE
  8
NOTE
  6
CONTINUOUS
 62
     4
 10
348.96296460597659
 20
28.629796811490451
 30
0.0
 11
400.2378205286513
 21
192.41363074731089
 31
0.0
  0
LINE
  8
NOTE
  6
CONTINUOUS
 62
     4
 10
400.2378205286513
 20
192.41363074731089
 30
0.0
 11
1519.3460179368481
 21
192.41363074731089
 31
0.0
  0
TEXT
  8
NOTE
  6
CONTINUOUS
 62
     4
 10
411.02818716307218
 20
214.68530398089021
 30
0.0
 40
53.0
  1
2X2-14X20 Oval hole(without detachable leg)
 50
359.99999749547919
 41
0.51
  7
KAIGAI_STANDARD_1
  0
TEXT
  8
NOTE
  6
CONTINUOUS
 62
     4
 10
411.0281871630649
 20
290.06101669295458
 30
0.0
 40
53.0
  1
2x2-14x31 Oval hole
 50
359.99999749547919
 41
0.51
  7
KAIGAI_STANDARD_1
  0
TEXT
  8
ETC
  6
CONTINUOUS
 62
    61
 10
-1294.381677605495
 20
2072.2094003413458
 30
0.0
 40
70.0
  1
PUHY-EM200,250YNW-A1_4
 41
0.9
  0
LINE
  8
NOTE
  6
CONTINUOUS
 62
     4
 10
-142.79563774403499
 20
188.0535933319297
 30
0.0
 11
-171.50294372525241
 21
176.19999999993701
 31
0.0
  0
LINE
  8
NOTE
  6
CONTINUOUS
 62
     4
 10
-171.50294372525241
 20
176.19999999993701
 30
0.0
 11
-152.5684840256144
 21
200.8191658562846
 31
0.0
  0
LINE
  8
NOTE
  6
CONTINUOUS
 62
     4
 10
-171.50294372525241
 20
176.19999999993701
 30
0.0
 11
-147.6820608848283
 21
194.4363795941081
 31
0.0
  0
LINE
  8
NOTE
  6
CONTINUOUS
 62
     4
 10
-147.6820608848283
 20
194.4363795941081
 30
0.0
 11
397.94336735467368
 21
612.14686044668815
 31
0.0
  0
LINE
  8
NOTE
  6
CONTINUOUS
 62
     4
 10
397.94336735467368
 20
612.14686044668815
 30
0.0
 11
1120.7346113396341
 21
612.14686044668815
 31
0.0
  0
LINE
  8
NOTE
  6
CONTINUOUS
 62
     4
 10
-157.65534568254949
 20
179.8114798317383
 30
0.0
 11
-188.50294372525241
 21
176.19999999993701
 31
0.0
  0
LINE
  8
NOTE
  6
CONTINUOUS
 62
     4
 10
-188.50294372525241
 20
176.19999999993701
 30
0.0
 11
-163.59388000628681
 21
194.7514321878825
 31
0.0
  0
LINE
  8
NOTE
  6
CONTINUOUS
 62
     4
 10
-188.50294372525241
 20
176.19999999993701
 30
0.0
 11
-160.6246128444181
 21
187.2814560098104
 31
0.0
  0
LINE
  8
NOTE
  6
CONTINUOUS
 62
     4
 10
-160.6246128444181
 20
187.2814560098104
 30
0.0
 11
397.94336735467368
 21
409.30861134985929
 31
0.0
  0
LINE
  8
NOTE
  6
CONTINUOUS
 62
     4
 10
397.94336735467368
 20
409.30861134985929
 30
0.0
 11
1050.953933285869
 21
409.30861134985929
 31
0.0
  0
TEXT
  8
NOTE
  6
CONTINUOUS
 62
     4
 10
408.2180897418948
 20
633.99030123085674
 30
0.0
 40
53.0
  1
Service valve %%C9.52<Liquid> 
 50
0.0000025045208307
 41
0.51
  7
KAIGAI_STANDARD_1
  0
TEXT
  8
NOTE
  6
CONTINUOUS
 62
     4
 10
407.57166497821157
 20
712.24269953676412
 30
0.0
 40
53.0
  1
For Refrigerant pipe %%C9.52
 50
0.0000025045208307
 41
0.51
  7
KAIGAI_STANDARD_1
  0
TEXT
  8
NOTE
  6
CONTINUOUS
 62
     4
 10
410.0754835806656
 20
431.69761175357598
 30
0.0
 40
53.0
  1
Service valve %%C22.2<Gas> 
 50
0.0000025045208307
 41
0.51
  7
KAIGAI_STANDARD_1
  0
TEXT
  8
NOTE
  6
CONTINUOUS
 62
     4
 10
411.04603202240099
 20
509.95001005948137
 30
0.0
 40
53.0
  1
For Refrigerant pipe %%C22.2 
 50
0.0000025045208307
 41
0.51
  7
KAIGAI_STANDARD_1
  0
LINE
  8
SIZE
  6
CONTINUOUS
 62
    30
 10
-389.50000000005821
 20
-0.000000000063659
 30
0.0
 11
-774.61361305585149
 21
-0.0000000000635499
 31
0.0
  0
LINE
  8
SIZE
  6
CONTINUOUS
 62
    30
 10
-389.50000000005821
 20
59.999999999936328
 30
0.0
 11
-774.61361305585149
 21
59.999999999936442
 31
0.0
  0
LINE
  8
SIZE
  6
CONTINUOUS
 62
    30
 10
-754.61361305585149
 20
59.999999999936442
 30
0.0
 11
-754.61361305585149
 21
-0.0000000000635555
 31
0.0
  0
LINE
  8
SIZE
  6
CONTINUOUS
 62
    30
 10
-754.61361305585149
 20
-0.0000000000635555
 30
0.0
 11
-754.61361305585149
 21
-174.57142857149211
 31
0.0
  0
CIRCLE
  8
SIZE
  6
CONTINUOUS
 62
    30
 10
-754.61361305585149
 20
59.999999999936442
 30
0.0
 40
7.5
  0
CIRCLE
  8
SIZE
  6
CONTINUOUS
 62
    30
 10
-754.61361305585149
 20
-0.0000000000635555
 30
0.0
 40
7.5
  0
TEXT
  8
SIZE
  6
CONTINUOUS
 62
    30
 10
-785.08980353204197
 20
-159.88571428577791
 30
0.0
 40
40.0
  1
(60)
 50
90.0
 41
0.9
 51
0.0
  7
STANDARD
 71
     0
 72
     1
 11
-785.08980353204197
 21
-102.2857142857779
 31
0.0
210
0.0
220
0.0
230
1.0
  0
POINT
  8
DEFPOINTS
  6
CONTINUOUS
 62
    30
 10
-369.50000000005821
 20
-0.0000000000636646
 30
0.0
  0
POINT
  8
DEFPOINTS
  6
CONTINUOUS
 62
    30
 10
-369.50000000005821
 20
59.999999999936328
 30
0.0
  0
POINT
  8
DEFPOINTS
  6
CONTINUOUS
 62
    30
 10
-754.61361305585149
 20
59.999999999936442
 30
0.0
  0
LINE
  8
OUTLINE
  6
CONTINUOUS
 62
     3
 10
-360.00000000005821
 20
1817.099999999936
 30
0.0
 11
-360.00000000005821
 21
1816.999999999935
 31
0.0
  0
LINE
  8
OUTLINE
  6
CONTINUOUS
 62
     3
 10
-360.81566985746031
 20
1815.999999999935
 30
0.0
 11
-362.7000000000553
 21
1815.999999999935
 31
0.0
  0
ARC
  8
OUTLINE
  6
CONTINUOUS
 62
     3
 10
-361.00000000005821
 20
1816.999999999935
 30
0.0
 40
1.0
 50
279.51118453733858
 51
359.99999316230708
  0
ARC
  8
OUTLINE
  6
CONTINUOUS
 62
     3
 10
-362.7000000000553
 20
1815.6999999999359
 30
0.0
 40
0.3
 50
90.0
 51
180.0
  0
LINE
  8
OUTLINE
  6
CONTINUOUS
 62
     3
 10
-363.00000000005821
 20
1817.0999999999369
 30
0.0
 11
-360.00000000005821
 21
1817.0999999999369
 31
0.0
  0
LINE
  8
DETAIL
  6
CONTINUOUS
 62
     5
 10
318.29289321874239
 20
1522.4999999999361
 30
0.0
 11
318.29289321874239
 21
64.499999999936335
 31
0.0
  0
LINE
  8
DETAIL
  6
CONTINUOUS
 62
     5
 10
319.35355339054507
 20
1522.4999999999361
 30
0.0
 11
319.35355339054507
 21
64.499999999936335
 31
0.0
  0
LINE
  8
NOTE
  6
CONTINUOUS
 62
     4
 10
-136.00294372525241
 20
176.19999999993701
 30
0.0
 11
-207.00294372525241
 21
176.19999999993701
 31
0.0
  0
LINE
  8
NOTE
  6
CONTINUOUS
 62
     4
 10
-171.50294372525241
 20
140.69999999993709
 30
0.0
 11
-171.50294372525241
 21
211.69999999993709
 31
0.0
  0
LINE
  8
SIZE
  6
CONTINUOUS
 62
    30
 10
-171.50294372525241
 20
231.69999999993709
 30
0.0
 11
-171.50294372525241
 21
552.16293964691067
 31
0.0
  0
LINE
  8
SIZE
  6
CONTINUOUS
 62
    30
 10
-369.50000000005821
 20
196.19999999993701
 30
0.0
 11
-369.50000000005821
 21
552.16293964691067
 31
0.0
  0
LINE
  8
SIZE
  6
CONTINUOUS
 62
    30
 10
-171.50294372525241
 20
532.16293964691067
 30
0.0
 11
-369.50000000005821
 21
532.16293964691067
 31
0.0
  0
LINE
  8
SIZE
  6
CONTINUOUS
 62
    30
 10
-369.50000000005821
 20
532.16293964691067
 30
0.0
 11
-525.21428571434603
 21
532.16293964691067
 31
0.0
  0
CIRCLE
  8
SIZE
  6
CONTINUOUS
 62
    30
 10
-171.50294372525241
 20
532.16293964691067
 30
0.0
 40
7.5
  0
CIRCLE
  8
SIZE
  6
CONTINUOUS
 62
    30
 10
-369.50000000005821
 20
532.16293964691067
 30
0.0
 40
7.5
  0
TEXT
  8
SIZE
  6
CONTINUOUS
 62
    30
 10
-508.97714285720309
 20
552.16293964691056
 30
0.0
 40
40.0
  1
198
 50
0.0
 41
0.9
 51
0.0
  7
STANDARD
 71
     0
 72
     1
 11
-462.35714285720309
 21
552.16293964691056
 31
0.0
210
0.0
220
0.0
230
1.0
  0
POINT
  8
DEFPOINTS
  6
CONTINUOUS
 62
    30
 10
-171.50294372525241
 20
211.69999999993709
 30
0.0
  0
POINT
  8
DEFPOINTS
  6
CONTINUOUS
 62
    30
 10
-369.50000000005821
 20
176.19999999993701
 30
0.0
  0
POINT
  8
DEFPOINTS
  6
CONTINUOUS
 62
    30
 10
-369.50000000005821
 20
532.16293964691067
 30
0.0
  0
ENDSEC
  0
EOF

