  0
SECTION
  2
HEADER
  9
$ACADVER
  1
AC1006
  9
$INSBASE
 10
0.0
 20
0.0
 30
0.0
  9
$EXTMIN
 10
-1636.261956981921
 20
-547.94603571870903
  9
$EXTMAX
 10
1365.6243518602059
 20
2161.8901718374868
  9
$LIMMIN
 10
-4267.1522210604817
 20
-2696.0832101984129
  9
$LIMMAX
 10
7190.7174225864646
 20
5141.155363923066
  9
$ORTHOMODE
 70
     0
  9
$REGENMODE
 70
     1
  9
$FILLMODE
 70
     1
  9
$QTEXTMODE
 70
     0
  9
$MIRRTEXT
 70
     0
  9
$LTSCALE
 40
20.0
  9
$ATTMODE
 70
     1
  9
$TEXTSIZE
 40
53.0
  9
$TRACEWID
 40
0.05
  9
$TEXTSTYLE
  7
KAIGAI_STANDARD_1
  9
$CLAYER
  8
NOTE
  9
$CELTYPE
  6
CONTINUOUS
  9
$CECOLOR
 62
     7
  9
$DIMSCALE
 40
1.0
  9
$DIMASZ
 40
30.0
  9
$DIMEXO
 40
20.0
  9
$DIMDLI
 40
80.0
  9
$DIMRND
 40
0.0
  9
$DIMDLE
 40
0.0
  9
$DIMEXE
 40
20.0
  9
$DIMTP
 40
0.0
  9
$DIMTM
 40
0.0
  9
$DIMTXT
 40
40.0
  9
$DIMCEN
 40
0.09
  9
$DIMTSZ
 40
0.0
  9
$DIMTOL
 70
     0
  9
$DIMLIM
 70
     0
  9
$DIMTIH
 70
     0
  9
$DIMTOH
 70
     0
  9
$DIMSE1
 70
     0
  9
$DIMSE2
 70
     0
  9
$DIMTAD
 70
     1
  9
$DIMZIN
 70
     8
  9
$DIMBLK
  1

  9
$DIMASO
 70
     1
  9
$DIMSHO
 70
     0
  9
$DIMPOST
  1

  9
$DIMAPOST
  1

  9
$DIMALT
 70
     0
  9
$DIMALTD
 70
     2
  9
$DIMALTF
 40
25.399999999999999
  9
$DIMLFAC
 40
1.0
  9
$DIMTOFL
 70
     1
  9
$DIMTVP
 40
0.0
  9
$DIMTIX
 70
     0
  9
$DIMSOXD
 70
     0
  9
$DIMSAH
 70
     0
  9
$DIMBLK1
  1

  9
$DIMBLK2
  1

  9
$LUNITS
 70
     2
  9
$LUPREC
 70
     4
  9
$SKETCHINC
 40
0.1
  9
$FILLETRAD
 40
0.0
  9
$AUNITS
 70
     1
  9
$AUPREC
 70
     3
  9
$MENU
  1
ACAD
  9
$ELEVATION
 40
0.0
  9
$THICKNESS
 40
0.0
  9
$LIMCHECK
 70
     0
  9
$CHAMFERA
 40
0.0
  9
$CHAMFERB
 40
0.0
  9
$SKPOLY
 70
     0
  9
$TDCREATE
 40
2455902.607169062
  9
$TDUPDATE
 40
2457837.412226331
  9
$TDINDWG
 40
1.6379968056
  9
$TDUSRTIMER
 40
1.6379931944
  9
$USRTIMER
 70
     1
  9
$ANGBASE
 50
0.0
  9
$ANGDIR
 70
     0
  9
$PDMODE
 70
     3
  9
$PDSIZE
 40
-2.0
  9
$PLINEWID
 40
0.0
  9
$SPLFRAME
 70
     0
  9
$SPLINETYPE
 70
     6
  9
$SPLINESEGS
 70
     8
  9
$SURFTAB1
 70
     6
  9
$SURFTAB2
 70
     6
  9
$SURFTYPE
 70
     6
  9
$SURFU
 70
     6
  9
$SURFV
 70
     6
  9
$UCSNAME
  2

  9
$UCSORG
 10
0.0
 20
0.0
 30
0.0
  9
$UCSXDIR
 10
1.0
 20
0.0
 30
0.0
  9
$UCSYDIR
 10
0.0
 20
1.0
 30
0.0
  9
$USERI1
 70
     0
  9
$USERI2
 70
     0
  9
$USERI3
 70
     0
  9
$USERI4
 70
     0
  9
$USERI5
 70
     0
  9
$USERR1
 40
20.0
  9
$USERR2
 40
0.0
  9
$USERR3
 40
0.0
  9
$USERR4
 40
0.0
  9
$USERR5
 40
0.0
  9
$WORLDVIEW
 70
     1
  9
$ATTDIA
 70
     0
  9
$ATTREQ
 70
     1
  9
$BLIPMODE
 70
     1
  9
$COORDS
 70
     1
  9
$DRAGMODE
 70
     2
  9
$OSMODE
 70
     0
  9
$HANDLING
 70
     0
  9
$HANDSEED
  5
99D67
  0
ENDSEC
  0
SECTION
  2
TABLES
  0
TABLE
  2
LTYPE
 70
     2
  0
LTYPE
  2
CONTINUOUS
 70
     0
  3
実線
 72
    65
 73
     0
 40
0.0
  0
LTYPE
  2
DASHDOT
 70
     0
  3
____ _ ____ _ ____ _ ____ _ ____ _ ____ _ ____
 72
    65
 73
     4
 40
5.5
 49
4.0
 49
-0.6
 49
0.3
 49
-0.6
  0
ENDTAB
  0
TABLE
  2
LAYER
 70
    12
  0
LAYER
  2
0
 70
     0
 62
     7
  6
CONTINUOUS
  0
LAYER
  2
OUTLINE
 70
     0
 62
     3
  6
CONTINUOUS
  0
LAYER
  2
DETAIL
 70
     0
 62
     5
  6
CONTINUOUS
  0
LAYER
  2
BASIS
 70
     0
 62
     6
  6
DASHDOT
  0
LAYER
  2
SIZE
 70
     0
 62
    30
  6
CONTINUOUS
  0
LAYER
  2
NOTE
 70
     0
 62
     4
  6
CONTINUOUS
  0
LAYER
  2
ARRANGE
 70
     0
 62
     1
  6
CONTINUOUS
  0
LAYER
  2
FIX
 70
     0
 62
    11
  6
CONTINUOUS
  0
LAYER
  2
SERVICESPACE
 70
     0
 62
     2
  6
DASHDOT
  0
LAYER
  2
ETC
 70
     0
 62
    61
  6
CONTINUOUS
  0
LAYER
  2
SYMBOLLINE
 70
     0
 62
    15
  6
CONTINUOUS
  0
LAYER
  2
DEFPOINTS
 70
     0
 62
     7
  6
CONTINUOUS
  0
ENDTAB
  0
TABLE
  2
STYLE
 70
     2
  0
STYLE
  2
STANDARD
 70
     0
 40
0.0
 41
0.9
 50
0.0
 71
     0
 42
64.0
  3
SIMPLEX
  4
BIGFONT
  0
STYLE
  2
KAIGAI_STANDARD_1
 70
     0
 40
53.0
 41
0.51
 50
0.0
 71
     0
 42
53.0
  3
MONOTXT.shx
  4
BIGFONT.shx
  0
ENDTAB
  0
TABLE
  2
VIEW
 70
     1
  0
VIEW
  2
ALL
 70
     0
 40
9000.0
 10
241.50664699999999
 20
0.0
 41
12483.01
 11
0.0
 21
0.0
 31
1.0
 12
0.0
 22
0.0
 32
0.0
 42
50.0
 43
0.0
 44
0.0
 50
0.0
 71
     0
  0
ENDTAB
  0
TABLE
  2
UCS
 70
     0
  0
ENDTAB
  0
TABLE
  2
VPORT
 70
     1
  0
VPORT
  2
*ACTIVE
 70
     0
 10
0.0
 20
0.0
 11
1.0
 21
1.0
 12
-135.31880256085759
 22
806.97206805938924
 13
0.0
 23
0.0
 14
50.0
 24
50.0
 15
100.0
 25
100.0
 16
0.0
 26
0.0
 36
1.0
 17
0.0
 27
0.0
 37
0.0
 40
2730.548331435607
 41
2.3073979591836729
 42
50.0
 43
0.0
 44
0.0
 50
0.0
 51
0.0
 71
     0
 72
  1000
 73
     1
 74
     0
 75
     0
 76
     0
 77
     0
 78
     0
  0
ENDTAB
  0
TABLE
  2
DWGMGR
 70
     0
  0
ENDTAB
  0
ENDSEC
  0
SECTION
  2
BLOCKS
  0
ENDSEC
  0
SECTION
  2
ENTITIES
  0
LINE
  8
DETAIL
  6
CONTINUOUS
 62
     5
 10
450.50000000000722
 20
-0.000000000007276
 30
0.0
 11
282.50000000000728
 21
-0.000000000007276
 31
0.0
  0
LINE
  8
DETAIL
  6
CONTINUOUS
 62
     5
 10
-282.49999999999272
 20
-0.000000000007276
 30
0.0
 11
-450.49999999999272
 21
-0.000000000007276
 31
0.0
  0
LINE
  8
DETAIL
  6
CONTINUOUS
 62
     5
 10
450.50000000000722
 20
2.299999999991996
 30
0.0
 11
282.50000000000728
 21
2.299999999991996
 31
0.0
  0
LINE
  8
DETAIL
  6
CONTINUOUS
 62
     5
 10
-282.49999999999272
 20
2.299999999991996
 30
0.0
 11
-450.49999999999272
 21
2.299999999991996
 31
0.0
  0
LINE
  8
DETAIL
  6
CONTINUOUS
 62
     5
 10
321.50000000000728
 20
44.999999999992717
 30
0.0
 11
348.50000000000728
 21
44.999999999992717
 31
0.0
  0
LINE
  8
DETAIL
  6
CONTINUOUS
 62
     5
 10
-321.49999999999272
 20
44.999999999992717
 30
0.0
 11
-348.49999999999272
 21
44.999999999992717
 31
0.0
  0
LINE
  8
DETAIL
  6
CONTINUOUS
 62
     5
 10
413.50000000000722
 20
51.299999999991989
 30
0.0
 11
409.50000000000722
 21
51.299999999991989
 31
0.0
  0
LINE
  8
DETAIL
  6
CONTINUOUS
 62
     5
 10
363.50000000000728
 20
51.299999999991989
 30
0.0
 11
359.50000000000728
 21
51.299999999991989
 31
0.0
  0
LINE
  8
DETAIL
  6
CONTINUOUS
 62
     5
 10
296.50000000000728
 20
51.299999999991989
 30
0.0
 11
292.50000000000728
 21
51.299999999991989
 31
0.0
  0
LINE
  8
DETAIL
  6
CONTINUOUS
 62
     5
 10
-292.49999999999272
 20
51.299999999991989
 30
0.0
 11
-296.49999999999272
 21
51.299999999991989
 31
0.0
  0
LINE
  8
DETAIL
  6
CONTINUOUS
 62
     5
 10
-359.49999999999272
 20
51.299999999991989
 30
0.0
 11
-363.49999999999272
 21
51.299999999991989
 31
0.0
  0
LINE
  8
DETAIL
  6
CONTINUOUS
 62
     5
 10
-409.49999999999261
 20
51.299999999991989
 30
0.0
 11
-413.49999999999261
 21
51.299999999991989
 31
0.0
  0
LINE
  8
DETAIL
  6
CONTINUOUS
 62
     5
 10
414.00000000000722
 20
51.799999999992004
 30
0.0
 11
409.00000000000722
 21
51.799999999992004
 31
0.0
  0
LINE
  8
DETAIL
  6
CONTINUOUS
 62
     5
 10
364.00000000000728
 20
51.799999999992004
 30
0.0
 11
359.00000000000728
 21
51.799999999992004
 31
0.0
  0
LINE
  8
DETAIL
  6
CONTINUOUS
 62
     5
 10
297.00000000000728
 20
51.799999999992004
 30
0.0
 11
292.00000000000728
 21
51.799999999992004
 31
0.0
  0
LINE
  8
DETAIL
  6
CONTINUOUS
 62
     5
 10
-291.99999999999272
 20
51.799999999992004
 30
0.0
 11
-296.99999999999272
 21
51.799999999992004
 31
0.0
  0
LINE
  8
DETAIL
  6
CONTINUOUS
 62
     5
 10
-358.99999999999272
 20
51.799999999992004
 30
0.0
 11
-363.99999999999272
 21
51.799999999992004
 31
0.0
  0
LINE
  8
DETAIL
  6
CONTINUOUS
 62
     5
 10
-408.99999999999272
 20
51.799999999992004
 30
0.0
 11
-413.99999999999272
 21
51.799999999992004
 31
0.0
  0
LINE
  8
DETAIL
  6
CONTINUOUS
 62
     5
 10
287.80000000000291
 20
55.999999999992731
 30
0.0
 11
289.50000000000728
 21
55.999999999992731
 31
0.0
  0
LINE
  8
DETAIL
  6
CONTINUOUS
 62
     5
 10
-287.79999999999569
 20
55.999999999992731
 30
0.0
 11
-289.49999999999272
 21
55.999999999992731
 31
0.0
  0
LINE
  8
DETAIL
  6
CONTINUOUS
 62
     5
 10
450.50000000000722
 20
57.699999999993452
 30
0.0
 11
282.50000000000728
 21
57.699999999993452
 31
0.0
  0
LINE
  8
DETAIL
  6
CONTINUOUS
 62
     5
 10
-282.49999999999272
 20
57.699999999993452
 30
0.0
 11
-450.49999999999272
 21
57.699999999993452
 31
0.0
  0
LINE
  8
DETAIL
  6
CONTINUOUS
 62
     5
 10
450.50000000000722
 20
59.999999999992717
 30
0.0
 11
-450.49999999999272
 21
59.999999999992717
 31
0.0
  0
LINE
  8
DETAIL
  6
CONTINUOUS
 62
     5
 10
-450.49999999999272
 20
62.299999999992004
 30
0.0
 11
450.50000000000722
 21
62.299999999992004
 31
0.0
  0
LINE
  8
DETAIL
  6
CONTINUOUS
 62
     5
 10
417.60000000000571
 20
63.299999999991989
 30
0.0
 11
405.40000000000867
 21
63.299999999991989
 31
0.0
  0
LINE
  8
DETAIL
  6
CONTINUOUS
 62
     5
 10
367.60000000000582
 20
63.299999999991989
 30
0.0
 11
355.40000000000867
 21
63.299999999991989
 31
0.0
  0
LINE
  8
DETAIL
  6
CONTINUOUS
 62
     5
 10
300.60000000000582
 20
63.299999999991989
 30
0.0
 11
288.40000000000867
 21
63.299999999991989
 31
0.0
  0
LINE
  8
DETAIL
  6
CONTINUOUS
 62
     5
 10
-288.39999999999418
 20
63.299999999991989
 30
0.0
 11
-300.59999999999133
 21
63.299999999991989
 31
0.0
  0
LINE
  8
DETAIL
  6
CONTINUOUS
 62
     5
 10
-355.39999999999418
 20
63.299999999991989
 30
0.0
 11
-367.59999999999133
 21
63.299999999991989
 31
0.0
  0
LINE
  8
DETAIL
  6
CONTINUOUS
 62
     5
 10
-405.39999999999412
 20
63.299999999991989
 30
0.0
 11
-417.59999999999133
 21
63.299999999991989
 31
0.0
  0
LINE
  8
DETAIL
  6
CONTINUOUS
 62
     5
 10
417.50000000000722
 20
64.299999999991996
 30
0.0
 11
405.50000000000722
 21
64.299999999991996
 31
0.0
  0
LINE
  8
DETAIL
  6
CONTINUOUS
 62
     5
 10
367.50000000000728
 20
64.299999999991996
 30
0.0
 11
355.50000000000728
 21
64.299999999991996
 31
0.0
  0
LINE
  8
DETAIL
  6
CONTINUOUS
 62
     5
 10
300.50000000000728
 20
64.299999999991996
 30
0.0
 11
288.50000000000722
 21
64.299999999991996
 31
0.0
  0
LINE
  8
DETAIL
  6
CONTINUOUS
 62
     5
 10
-288.49999999999272
 20
64.299999999991996
 30
0.0
 11
-300.49999999999272
 21
64.299999999991996
 31
0.0
  0
LINE
  8
DETAIL
  6
CONTINUOUS
 62
     5
 10
-355.49999999999272
 20
64.299999999991996
 30
0.0
 11
-367.49999999999272
 21
64.299999999991996
 31
0.0
  0
LINE
  8
DETAIL
  6
CONTINUOUS
 62
     5
 10
-405.49999999999261
 20
64.299999999991996
 30
0.0
 11
-417.49999999999261
 21
64.299999999991996
 31
0.0
  0
LINE
  8
DETAIL
  6
CONTINUOUS
 62
     5
 10
455.00000000000722
 20
64.499999999992724
 30
0.0
 11
450.50000000000722
 21
64.499999999992724
 31
0.0
  0
LINE
  8
DETAIL
  6
CONTINUOUS
 62
     5
 10
-450.49999999999272
 20
64.499999999992724
 30
0.0
 11
-454.99999999999261
 21
64.499999999992724
 31
0.0
  0
LINE
  8
DETAIL
  6
CONTINUOUS
 62
     5
 10
-415.49999999999272
 20
67.799999999991996
 30
0.0
 11
-407.49999999999272
 21
67.799999999991996
 31
0.0
  0
LINE
  8
DETAIL
  6
CONTINUOUS
 62
     5
 10
-365.49999999999272
 20
67.799999999991996
 30
0.0
 11
-357.49999999999272
 21
67.799999999991996
 31
0.0
  0
LINE
  8
DETAIL
  6
CONTINUOUS
 62
     5
 10
-298.49999999999278
 20
67.799999999991996
 30
0.0
 11
-290.49999999999272
 21
67.799999999991996
 31
0.0
  0
LINE
  8
DETAIL
  6
CONTINUOUS
 62
     5
 10
290.50000000000728
 20
67.799999999991996
 30
0.0
 11
298.50000000000728
 21
67.799999999991996
 31
0.0
  0
LINE
  8
DETAIL
  6
CONTINUOUS
 62
     5
 10
357.50000000000728
 20
67.799999999991996
 30
0.0
 11
365.50000000000728
 21
67.799999999991996
 31
0.0
  0
LINE
  8
DETAIL
  6
CONTINUOUS
 62
     5
 10
407.50000000000728
 20
67.799999999991996
 30
0.0
 11
415.50000000000728
 21
67.799999999991996
 31
0.0
  0
LINE
  8
DETAIL
  6
CONTINUOUS
 62
     5
 10
-364.99999999999272
 20
69.499999999992724
 30
0.0
 11
-357.99999999999272
 21
69.499999999992724
 31
0.0
  0
LINE
  8
DETAIL
  6
CONTINUOUS
 62
     5
 10
-311.99999999999272
 20
69.499999999992724
 30
0.0
 11
-304.99999999999272
 21
69.499999999992724
 31
0.0
  0
LINE
  8
DETAIL
  6
CONTINUOUS
 62
     5
 10
305.00000000000728
 20
69.499999999992724
 30
0.0
 11
312.00000000000728
 21
69.499999999992724
 31
0.0
  0
LINE
  8
DETAIL
  6
CONTINUOUS
 62
     5
 10
358.00000000000728
 20
69.499999999992724
 30
0.0
 11
365.00000000000728
 21
69.499999999992724
 31
0.0
  0
LINE
  8
DETAIL
  6
CONTINUOUS
 62
     5
 10
365.00000000000728
 20
85.499999999992724
 30
0.0
 11
305.00000000000728
 21
85.499999999992724
 31
0.0
  0
LINE
  8
DETAIL
  6
CONTINUOUS
 62
     5
 10
-304.99999999999272
 20
85.499999999992724
 30
0.0
 11
-364.99999999999272
 21
85.499999999992724
 31
0.0
  0
LINE
  8
DETAIL
  6
CONTINUOUS
 62
     5
 10
-411.12743929059059
 20
86.999999999992724
 30
0.0
 11
-408.87256070939469
 21
86.999999999992724
 31
0.0
  0
LINE
  8
DETAIL
  6
CONTINUOUS
 62
     5
 10
408.8725607094093
 20
86.999999999992724
 30
0.0
 11
411.1274392906052
 21
86.999999999992724
 31
0.0
  0
LINE
  8
DETAIL
  6
CONTINUOUS
 62
     5
 10
-339.99999999999272
 20
106.3811978464928
 30
0.0
 11
-343.99999999999272
 21
108.6905989231927
 31
0.0
  0
LINE
  8
DETAIL
  6
CONTINUOUS
 62
     5
 10
-335.99999999999272
 20
113.30940107669259
 30
0.0
 11
-339.99999999999272
 21
115.6188021534926
 31
0.0
  0
LINE
  8
DETAIL
  6
CONTINUOUS
 62
     5
 10
-413.49999999999261
 20
51.299999999991989
 30
0.0
 11
-413.99999999999272
 21
51.799999999992004
 31
0.0
  0
LINE
  8
DETAIL
  6
CONTINUOUS
 62
     5
 10
162.00000000000719
 20
90.199999999993452
 30
0.0
 11
158.0000000000073
 21
90.199999999993452
 31
0.0
  0
LINE
  8
DETAIL
  6
CONTINUOUS
 62
     5
 10
-157.9999999999927
 20
90.199999999993452
 30
0.0
 11
-161.9999999999927
 21
90.199999999993452
 31
0.0
  0
LINE
  8
DETAIL
  6
CONTINUOUS
 62
     5
 10
162.5000000000073
 20
90.699999999993437
 30
0.0
 11
157.5000000000073
 21
90.699999999993437
 31
0.0
  0
LINE
  8
DETAIL
  6
CONTINUOUS
 62
     5
 10
-157.4999999999927
 20
90.699999999993437
 30
0.0
 11
-162.4999999999927
 21
90.699999999993437
 31
0.0
  0
LINE
  8
DETAIL
  6
CONTINUOUS
 62
     5
 10
300.00000000000728
 20
91.999999999992724
 30
0.0
 11
-299.99999999999272
 21
91.999999999992724
 31
0.0
  0
LINE
  8
DETAIL
  6
CONTINUOUS
 62
     5
 10
412.53581907520851
 20
92.699999999993452
 30
0.0
 11
300.00000000000728
 21
92.699999999993452
 31
0.0
  0
LINE
  8
DETAIL
  6
CONTINUOUS
 62
     5
 10
-299.99999999999272
 20
92.699999999993452
 30
0.0
 11
-412.5358190751939
 21
92.699999999993452
 31
0.0
  0
LINE
  8
DETAIL
  6
CONTINUOUS
 62
     5
 10
390.00000000000728
 20
94.999999999992724
 30
0.0
 11
409.96357325970888
 21
94.999999999992724
 31
0.0
  0
LINE
  8
DETAIL
  6
CONTINUOUS
 62
     5
 10
390.00000000000728
 20
94.999999999992724
 30
0.0
 11
364.61880215350538
 21
94.999999999992724
 31
0.0
  0
LINE
  8
DETAIL
  6
CONTINUOUS
 62
     5
 10
305.38119784650922
 20
94.999999999992724
 30
0.0
 11
300.00000000000728
 21
94.999999999992724
 31
0.0
  0
LINE
  8
DETAIL
  6
CONTINUOUS
 62
     5
 10
-299.99999999999272
 20
94.999999999992724
 30
0.0
 11
-305.38119784649462
 21
94.999999999992724
 31
0.0
  0
LINE
  8
DETAIL
  6
CONTINUOUS
 62
     5
 10
-364.61880215349078
 20
94.999999999992724
 30
0.0
 11
-383.99999999999272
 21
94.999999999992724
 31
0.0
  0
LINE
  8
DETAIL
  6
CONTINUOUS
 62
     5
 10
-383.99999999999272
 20
94.999999999992724
 30
0.0
 11
-409.96357325969439
 21
94.999999999992724
 31
0.0
  0
LINE
  8
DETAIL
  6
CONTINUOUS
 62
     5
 10
-357.69059892329102
 20
97.699999999993452
 30
0.0
 11
-312.30940107679629
 21
97.699999999993452
 31
0.0
  0
LINE
  8
DETAIL
  6
CONTINUOUS
 62
     5
 10
312.30940107670898
 20
97.699999999993452
 30
0.0
 11
357.69059892320371
 21
97.699999999993452
 31
0.0
  0
LINE
  8
DETAIL
  6
CONTINUOUS
 62
     5
 10
373.69282032300538
 20
99.999999999992724
 30
0.0
 11
310.30717967700912
 21
99.999999999992724
 31
0.0
  0
LINE
  8
DETAIL
  6
CONTINUOUS
 62
     5
 10
-310.30717967699462
 20
99.999999999992724
 30
0.0
 11
-373.69282032299088
 21
99.999999999992724
 31
0.0
  0
LINE
  8
DETAIL
  6
CONTINUOUS
 62
     5
 10
383.59996405420679
 20
100.9999999999927
 30
0.0
 11
303.00000000000728
 21
100.9999999999927
 31
0.0
  0
LINE
  8
DETAIL
  6
CONTINUOUS
 62
     5
 10
-302.99999999999272
 20
100.9999999999927
 30
0.0
 11
-325.5999640541923
 21
100.9999999999927
 31
0.0
  0
LINE
  8
DETAIL
  6
CONTINUOUS
 62
     5
 10
-331.99999999999272
 20
100.9999999999927
 30
0.0
 11
-377.99999999999272
 21
100.9999999999927
 31
0.0
  0
LINE
  8
DETAIL
  6
CONTINUOUS
 62
     5
 10
-340.29999999999558
 20
108.9999999999927
 30
0.0
 11
-339.69999999999709
 21
108.9999999999927
 31
0.0
  0
LINE
  8
DETAIL
  6
CONTINUOUS
 62
     5
 10
-268.29999999999558
 20
108.9999999999927
 30
0.0
 11
-267.69999999999709
 21
108.9999999999927
 31
0.0
  0
LINE
  8
DETAIL
  6
CONTINUOUS
 62
     5
 10
28.700000000004369
 20
108.9999999999927
 30
0.0
 11
29.30000000000291
 21
108.9999999999927
 31
0.0
  0
LINE
  8
DETAIL
  6
CONTINUOUS
 62
     5
 10
325.70000000000442
 20
108.9999999999927
 30
0.0
 11
326.30000000000291
 21
108.9999999999927
 31
0.0
  0
LINE
  8
DETAIL
  6
CONTINUOUS
 62
     5
 10
393.20000000000442
 20
108.9999999999927
 30
0.0
 11
393.80000000000291
 21
108.9999999999927
 31
0.0
  0
LINE
  8
DETAIL
  6
CONTINUOUS
 62
     5
 10
-341.99999999999272
 20
110.69999999999339
 30
0.0
 11
-340.29999999999558
 21
110.69999999999339
 31
0.0
  0
LINE
  8
DETAIL
  6
CONTINUOUS
 62
     5
 10
-339.69999999999709
 20
110.69999999999339
 30
0.0
 11
-337.99999999999272
 21
110.69999999999339
 31
0.0
  0
LINE
  8
DETAIL
  6
CONTINUOUS
 62
     5
 10
-269.99999999999272
 20
110.69999999999339
 30
0.0
 11
-268.29999999999558
 21
110.69999999999339
 31
0.0
  0
LINE
  8
DETAIL
  6
CONTINUOUS
 62
     5
 10
-267.69999999999709
 20
110.69999999999339
 30
0.0
 11
-265.99999999999272
 21
110.69999999999339
 31
0.0
  0
LINE
  8
DETAIL
  6
CONTINUOUS
 62
     5
 10
27.00000000000728
 20
110.69999999999339
 30
0.0
 11
28.700000000004369
 21
110.69999999999339
 31
0.0
  0
LINE
  8
DETAIL
  6
CONTINUOUS
 62
     5
 10
29.30000000000291
 20
110.69999999999339
 30
0.0
 11
31.00000000000728
 21
110.69999999999339
 31
0.0
  0
LINE
  8
DETAIL
  6
CONTINUOUS
 62
     5
 10
324.00000000000728
 20
110.69999999999339
 30
0.0
 11
325.70000000000442
 21
110.69999999999339
 31
0.0
  0
LINE
  8
DETAIL
  6
CONTINUOUS
 62
     5
 10
326.30000000000291
 20
110.69999999999339
 30
0.0
 11
328.00000000000728
 21
110.69999999999339
 31
0.0
  0
LINE
  8
DETAIL
  6
CONTINUOUS
 62
     5
 10
391.50000000000728
 20
110.69999999999339
 30
0.0
 11
393.20000000000442
 21
110.69999999999339
 31
0.0
  0
LINE
  8
DETAIL
  6
CONTINUOUS
 62
     5
 10
393.80000000000291
 20
110.69999999999339
 30
0.0
 11
395.50000000000728
 21
110.69999999999339
 31
0.0
  0
LINE
  8
DETAIL
  6
CONTINUOUS
 62
     5
 10
395.50000000000728
 20
111.299999999992
 30
0.0
 11
393.80000000000291
 21
111.299999999992
 31
0.0
  0
LINE
  8
DETAIL
  6
CONTINUOUS
 62
     5
 10
393.20000000000442
 20
111.299999999992
 30
0.0
 11
391.50000000000728
 21
111.299999999992
 31
0.0
  0
LINE
  8
DETAIL
  6
CONTINUOUS
 62
     5
 10
328.00000000000728
 20
111.299999999992
 30
0.0
 11
326.30000000000291
 21
111.299999999992
 31
0.0
  0
LINE
  8
DETAIL
  6
CONTINUOUS
 62
     5
 10
325.70000000000442
 20
111.299999999992
 30
0.0
 11
324.00000000000728
 21
111.299999999992
 31
0.0
  0
LINE
  8
DETAIL
  6
CONTINUOUS
 62
     5
 10
31.00000000000728
 20
111.299999999992
 30
0.0
 11
29.30000000000291
 21
111.299999999992
 31
0.0
  0
LINE
  8
DETAIL
  6
CONTINUOUS
 62
     5
 10
28.700000000004369
 20
111.299999999992
 30
0.0
 11
27.00000000000728
 21
111.299999999992
 31
0.0
  0
LINE
  8
DETAIL
  6
CONTINUOUS
 62
     5
 10
-265.99999999999272
 20
111.299999999992
 30
0.0
 11
-267.69999999999709
 21
111.299999999992
 31
0.0
  0
LINE
  8
DETAIL
  6
CONTINUOUS
 62
     5
 10
-268.29999999999558
 20
111.299999999992
 30
0.0
 11
-269.99999999999272
 21
111.299999999992
 31
0.0
  0
LINE
  8
DETAIL
  6
CONTINUOUS
 62
     5
 10
-337.99999999999272
 20
111.299999999992
 30
0.0
 11
-339.69999999999709
 21
111.299999999992
 31
0.0
  0
LINE
  8
DETAIL
  6
CONTINUOUS
 62
     5
 10
-340.29999999999558
 20
111.299999999992
 30
0.0
 11
-341.99999999999272
 21
111.299999999992
 31
0.0
  0
LINE
  8
DETAIL
  6
CONTINUOUS
 62
     5
 10
393.80000000000291
 20
112.9999999999927
 30
0.0
 11
393.20000000000442
 21
112.9999999999927
 31
0.0
  0
LINE
  8
DETAIL
  6
CONTINUOUS
 62
     5
 10
326.30000000000291
 20
112.9999999999927
 30
0.0
 11
325.70000000000442
 21
112.9999999999927
 31
0.0
  0
LINE
  8
DETAIL
  6
CONTINUOUS
 62
     5
 10
29.30000000000291
 20
112.9999999999927
 30
0.0
 11
28.700000000004369
 21
112.9999999999927
 31
0.0
  0
LINE
  8
DETAIL
  6
CONTINUOUS
 62
     5
 10
-267.69999999999709
 20
112.9999999999927
 30
0.0
 11
-268.29999999999558
 21
112.9999999999927
 31
0.0
  0
LINE
  8
DETAIL
  6
CONTINUOUS
 62
     5
 10
-339.69999999999709
 20
112.9999999999927
 30
0.0
 11
-340.29999999999558
 21
112.9999999999927
 31
0.0
  0
LINE
  8
DETAIL
  6
CONTINUOUS
 62
     5
 10
382.80000000000291
 20
113.9999999999927
 30
0.0
 11
383.59996405420679
 21
113.9999999999927
 31
0.0
  0
LINE
  8
DETAIL
  6
CONTINUOUS
 62
     5
 10
-324.79999999999558
 20
113.9999999999927
 30
0.0
 11
-325.5999640541923
 21
113.9999999999927
 31
0.0
  0
LINE
  8
DETAIL
  6
CONTINUOUS
 62
     5
 10
382.80000000000291
 20
116.9999999999927
 30
0.0
 11
385.08962968140992
 21
116.9999999999927
 31
0.0
  0
LINE
  8
DETAIL
  6
CONTINUOUS
 62
     5
 10
387.00000000000728
 20
116.9999999999927
 30
0.0
 11
385.08962968140992
 21
116.9999999999927
 31
0.0
  0
LINE
  8
DETAIL
  6
CONTINUOUS
 62
     5
 10
-324.79999999999558
 20
116.9999999999927
 30
0.0
 11
-327.0896296814899
 21
116.9999999999927
 31
0.0
  0
LINE
  8
DETAIL
  6
CONTINUOUS
 62
     5
 10
-327.0896296814899
 20
116.9999999999927
 30
0.0
 11
-328.99999999999272
 21
116.9999999999927
 31
0.0
  0
LINE
  8
DETAIL
  6
CONTINUOUS
 62
     5
 10
455.20000000000442
 20
134.4999999999927
 30
0.0
 11
455.50000000000722
 21
134.4999999999927
 31
0.0
  0
LINE
  8
DETAIL
  6
CONTINUOUS
 62
     5
 10
-455.49999999999272
 20
134.9999999999927
 30
0.0
 11
-455.19999999999709
 21
134.9999999999927
 31
0.0
  0
LINE
  8
DETAIL
  6
CONTINUOUS
 62
     5
 10
385.00000000000728
 20
155.9999999999927
 30
0.0
 11
384.00000000000728
 21
155.9999999999927
 31
0.0
  0
LINE
  8
DETAIL
  6
CONTINUOUS
 62
     5
 10
-267.99999999999272
 20
106.3811978464928
 30
0.0
 11
-271.99999999999272
 21
108.6905989231927
 31
0.0
  0
LINE
  8
DETAIL
  6
CONTINUOUS
 62
     5
 10
-263.99999999999272
 20
113.30940107669259
 30
0.0
 11
-267.99999999999272
 21
115.6188021534926
 31
0.0
  0
LINE
  8
DETAIL
  6
CONTINUOUS
 62
     5
 10
-363.49999999999272
 20
51.299999999991989
 30
0.0
 11
-363.99999999999272
 21
51.799999999992004
 31
0.0
  0
LINE
  8
DETAIL
  6
CONTINUOUS
 62
     5
 10
-296.49999999999272
 20
51.299999999991989
 30
0.0
 11
-296.99999999999272
 21
51.799999999992004
 31
0.0
  0
LINE
  8
DETAIL
  6
CONTINUOUS
 62
     5
 10
455.20000000000442
 20
184.4999999999927
 30
0.0
 11
455.50000000000722
 21
184.4999999999927
 31
0.0
  0
LINE
  8
DETAIL
  6
CONTINUOUS
 62
     5
 10
-455.49999999999272
 20
184.9999999999927
 30
0.0
 11
-455.19999999999709
 21
184.9999999999927
 31
0.0
  0
LINE
  8
DETAIL
  6
CONTINUOUS
 62
     5
 10
385.00000000000728
 20
207.9999999999927
 30
0.0
 11
384.00000000000728
 21
207.9999999999927
 31
0.0
  0
LINE
  8
DETAIL
  6
CONTINUOUS
 62
     5
 10
385.00000000000728
 20
217.9999999999927
 30
0.0
 11
384.00000000000728
 21
217.9999999999927
 31
0.0
  0
LINE
  8
DETAIL
  6
CONTINUOUS
 62
     5
 10
-325.99999999999272
 20
217.9999999999927
 30
0.0
 11
-326.99999999999272
 21
217.9999999999927
 31
0.0
  0
LINE
  8
DETAIL
  6
CONTINUOUS
 62
     5
 10
385.00000000000728
 20
261.99999999999272
 30
0.0
 11
384.00000000000728
 21
261.99999999999272
 31
0.0
  0
LINE
  8
DETAIL
  6
CONTINUOUS
 62
     5
 10
-325.99999999999272
 20
261.99999999999272
 30
0.0
 11
-326.99999999999272
 21
261.99999999999272
 31
0.0
  0
LINE
  8
DETAIL
  6
CONTINUOUS
 62
     5
 10
385.00000000000728
 20
278.99999999999272
 30
0.0
 11
384.00000000000728
 21
278.99999999999272
 31
0.0
  0
LINE
  8
DETAIL
  6
CONTINUOUS
 62
     5
 10
-325.99999999999272
 20
278.99999999999272
 30
0.0
 11
-326.99999999999272
 21
278.99999999999272
 31
0.0
  0
LINE
  8
DETAIL
  6
CONTINUOUS
 62
     5
 10
-313.79999999999558
 20
302.99999999999272
 30
0.0
 11
-313.19999999999709
 21
302.99999999999272
 31
0.0
  0
LINE
  8
DETAIL
  6
CONTINUOUS
 62
     5
 10
371.20000000000442
 20
302.99999999999272
 30
0.0
 11
371.80000000000291
 21
302.99999999999272
 31
0.0
  0
LINE
  8
DETAIL
  6
CONTINUOUS
 62
     5
 10
-315.49999999999272
 20
304.69999999999339
 30
0.0
 11
-313.79999999999558
 21
304.69999999999339
 31
0.0
  0
LINE
  8
DETAIL
  6
CONTINUOUS
 62
     5
 10
-313.19999999999709
 20
304.69999999999339
 30
0.0
 11
-311.49999999999272
 21
304.69999999999339
 31
0.0
  0
LINE
  8
DETAIL
  6
CONTINUOUS
 62
     5
 10
369.50000000000728
 20
304.69999999999339
 30
0.0
 11
371.20000000000442
 21
304.69999999999339
 31
0.0
  0
LINE
  8
DETAIL
  6
CONTINUOUS
 62
     5
 10
371.80000000000291
 20
304.69999999999339
 30
0.0
 11
373.50000000000728
 21
304.69999999999339
 31
0.0
  0
LINE
  8
DETAIL
  6
CONTINUOUS
 62
     5
 10
373.50000000000728
 20
305.299999999992
 30
0.0
 11
371.80000000000291
 21
305.299999999992
 31
0.0
  0
LINE
  8
DETAIL
  6
CONTINUOUS
 62
     5
 10
371.20000000000442
 20
305.299999999992
 30
0.0
 11
369.50000000000728
 21
305.299999999992
 31
0.0
  0
LINE
  8
DETAIL
  6
CONTINUOUS
 62
     5
 10
-311.49999999999272
 20
305.299999999992
 30
0.0
 11
-313.19999999999709
 21
305.299999999992
 31
0.0
  0
LINE
  8
DETAIL
  6
CONTINUOUS
 62
     5
 10
-313.79999999999558
 20
305.299999999992
 30
0.0
 11
-315.49999999999272
 21
305.299999999992
 31
0.0
  0
LINE
  8
DETAIL
  6
CONTINUOUS
 62
     5
 10
371.80000000000291
 20
306.99999999999272
 30
0.0
 11
371.20000000000442
 21
306.99999999999272
 31
0.0
  0
LINE
  8
DETAIL
  6
CONTINUOUS
 62
     5
 10
-313.19999999999709
 20
306.99999999999272
 30
0.0
 11
-313.79999999999558
 21
306.99999999999272
 31
0.0
  0
LINE
  8
DETAIL
  6
CONTINUOUS
 62
     5
 10
385.00000000000728
 20
330.99999999999272
 30
0.0
 11
384.00000000000728
 21
330.99999999999272
 31
0.0
  0
LINE
  8
DETAIL
  6
CONTINUOUS
 62
     5
 10
-325.99999999999272
 20
330.99999999999272
 30
0.0
 11
-326.99999999999272
 21
330.99999999999272
 31
0.0
  0
LINE
  8
DETAIL
  6
CONTINUOUS
 62
     5
 10
-313.49999999999272
 20
300.3811978464928
 30
0.0
 11
-317.49999999999272
 21
302.69059892319279
 31
0.0
  0
LINE
  8
DETAIL
  6
CONTINUOUS
 62
     5
 10
29.00000000000728
 20
106.3811978464928
 30
0.0
 11
25.00000000000728
 21
108.6905989231927
 31
0.0
  0
LINE
  8
DETAIL
  6
CONTINUOUS
 62
     5
 10
-309.49999999999272
 20
307.30940107669272
 30
0.0
 11
-313.49999999999272
 21
309.6188021534926
 31
0.0
  0
LINE
  8
DETAIL
  6
CONTINUOUS
 62
     5
 10
33.000000000007283
 20
113.30940107669259
 30
0.0
 11
29.00000000000728
 21
115.6188021534926
 31
0.0
  0
LINE
  8
DETAIL
  6
CONTINUOUS
 62
     5
 10
-161.9999999999927
 20
90.199999999993452
 30
0.0
 11
-162.4999999999927
 21
90.699999999993437
 31
0.0
  0
LINE
  8
DETAIL
  6
CONTINUOUS
 62
     5
 10
326.00000000000728
 20
106.3811978464928
 30
0.0
 11
322.00000000000728
 21
108.6905989231927
 31
0.0
  0
LINE
  8
DETAIL
  6
CONTINUOUS
 62
     5
 10
330.00000000000728
 20
113.30940107669259
 30
0.0
 11
326.00000000000728
 21
115.6188021534926
 31
0.0
  0
LINE
  8
DETAIL
  6
CONTINUOUS
 62
     5
 10
-310.8371578902952
 20
96.849999999993088
 30
0.0
 11
-309.97113248659298
 21
95.349999999993088
 31
0.0
  0
LINE
  8
DETAIL
  6
CONTINUOUS
 62
     5
 10
-308.84529946159449
 20
97.999999999992724
 30
0.0
 11
-307.97927405789233
 21
96.499999999992724
 31
0.0
  0
LINE
  8
DETAIL
  6
CONTINUOUS
 62
     5
 10
-306.66987298109598
 20
97.499999999992724
 30
0.0
 11
-307.01628314259142
 21
98.099999999993088
 31
0.0
  0
LINE
  8
DETAIL
  6
CONTINUOUS
 62
     5
 10
393.50000000000728
 20
106.3811978464928
 30
0.0
 11
389.50000000000728
 21
108.6905989231927
 31
0.0
  0
LINE
  8
DETAIL
  6
CONTINUOUS
 62
     5
 10
397.50000000000728
 20
113.30940107669259
 30
0.0
 11
393.50000000000728
 21
115.6188021534926
 31
0.0
  0
LINE
  8
DETAIL
  6
CONTINUOUS
 62
     5
 10
0.000000000007276
 20
1829.4188021534931
 30
0.0
 11
-3.999999999992724
 21
1827.1094010766931
 31
0.0
  0
LINE
  8
DETAIL
  6
CONTINUOUS
 62
     5
 10
4.0000000000072751
 20
1822.4905989231929
 30
0.0
 11
0.000000000007276
 21
1820.181197846493
 31
0.0
  0
LINE
  8
DETAIL
  6
CONTINUOUS
 62
     5
 10
385.00000000000728
 20
507.99999999999272
 30
0.0
 11
384.00000000000728
 21
507.99999999999272
 31
0.0
  0
LINE
  8
DETAIL
  6
CONTINUOUS
 62
     5
 10
-325.99999999999272
 20
507.99999999999272
 30
0.0
 11
-326.99999999999272
 21
507.99999999999272
 31
0.0
  0
LINE
  8
DETAIL
  6
CONTINUOUS
 62
     5
 10
385.00000000000728
 20
551.99999999999272
 30
0.0
 11
384.00000000000728
 21
551.99999999999272
 31
0.0
  0
LINE
  8
DETAIL
  6
CONTINUOUS
 62
     5
 10
-325.99999999999272
 20
551.99999999999272
 30
0.0
 11
-326.99999999999272
 21
551.99999999999272
 31
0.0
  0
LINE
  8
DETAIL
  6
CONTINUOUS
 62
     5
 10
-313.49999999999272
 20
640.38119784649268
 30
0.0
 11
-317.49999999999272
 21
642.69059892319274
 31
0.0
  0
LINE
  8
DETAIL
  6
CONTINUOUS
 62
     5
 10
-309.49999999999272
 20
647.30940107669255
 30
0.0
 11
-313.49999999999272
 21
649.61880215349265
 31
0.0
  0
LINE
  8
DETAIL
  6
CONTINUOUS
 62
     5
 10
409.25646647850948
 20
94.999999999992724
 30
0.0
 11
452.74353352150501
 21
64.499999999992724
 31
0.0
  0
LINE
  8
DETAIL
  6
CONTINUOUS
 62
     5
 10
453.45064030270441
 20
64.499999999992724
 30
0.0
 11
409.96357325970888
 21
94.999999999992724
 31
0.0
  0
LINE
  8
DETAIL
  6
CONTINUOUS
 62
     5
 10
158.0000000000073
 20
90.199999999993452
 30
0.0
 11
157.5000000000073
 21
90.699999999993437
 31
0.0
  0
LINE
  8
DETAIL
  6
CONTINUOUS
 62
     5
 10
292.50000000000728
 20
51.299999999991989
 30
0.0
 11
292.00000000000728
 21
51.799999999992004
 31
0.0
  0
LINE
  8
DETAIL
  6
CONTINUOUS
 62
     5
 10
-359.99999999999272
 20
1543.6188021534931
 30
0.0
 11
-363.99999999999272
 21
1541.3094010766929
 31
0.0
  0
LINE
  8
DETAIL
  6
CONTINUOUS
 62
     5
 10
-398.99999999999272
 20
1521.1188021534931
 30
0.0
 11
-402.99999999999272
 21
1518.8094010766929
 31
0.0
  0
LINE
  8
DETAIL
  6
CONTINUOUS
 62
     5
 10
-355.99999999999272
 20
1536.690598923193
 30
0.0
 11
-359.99999999999272
 21
1534.3811978464919
 31
0.0
  0
LINE
  8
DETAIL
  6
CONTINUOUS
 62
     5
 10
-394.99999999999272
 20
1514.1905989231941
 30
0.0
 11
-398.99999999999272
 21
1511.8811978464919
 31
0.0
  0
LINE
  8
DETAIL
  6
CONTINUOUS
 62
     5
 10
385.00000000000728
 20
636.27680228569261
 30
0.0
 11
384.00000000000728
 21
636.2593472206936
 31
0.0
  0
LINE
  8
DETAIL
  6
CONTINUOUS
 62
     5
 10
385.00000000000728
 20
618.99999999999272
 30
0.0
 11
384.00000000000728
 21
618.99999999999272
 31
0.0
  0
LINE
  8
DETAIL
  6
CONTINUOUS
 62
     5
 10
-325.99999999999272
 20
618.99999999999272
 30
0.0
 11
-326.99999999999272
 21
618.99999999999272
 31
0.0
  0
LINE
  8
DETAIL
  6
CONTINUOUS
 62
     5
 10
-325.99999999999272
 20
634.99999999999272
 30
0.0
 11
-326.99999999999272
 21
634.99999999999272
 31
0.0
  0
LINE
  8
DETAIL
  6
CONTINUOUS
 62
     5
 10
-313.79999999999558
 20
642.99999999999272
 30
0.0
 11
-313.19999999999709
 21
642.99999999999272
 31
0.0
  0
LINE
  8
DETAIL
  6
CONTINUOUS
 62
     5
 10
371.20000000000442
 20
642.99999999999272
 30
0.0
 11
371.80000000000291
 21
642.99999999999272
 31
0.0
  0
LINE
  8
DETAIL
  6
CONTINUOUS
 62
     5
 10
-315.49999999999272
 20
644.69999999999345
 30
0.0
 11
-313.79999999999558
 21
644.69999999999345
 31
0.0
  0
LINE
  8
DETAIL
  6
CONTINUOUS
 62
     5
 10
-313.19999999999709
 20
644.69999999999345
 30
0.0
 11
-311.49999999999272
 21
644.69999999999345
 31
0.0
  0
LINE
  8
DETAIL
  6
CONTINUOUS
 62
     5
 10
369.50000000000728
 20
644.69999999999345
 30
0.0
 11
371.20000000000442
 21
644.69999999999345
 31
0.0
  0
LINE
  8
DETAIL
  6
CONTINUOUS
 62
     5
 10
371.80000000000291
 20
644.69999999999345
 30
0.0
 11
373.50000000000728
 21
644.69999999999345
 31
0.0
  0
LINE
  8
DETAIL
  6
CONTINUOUS
 62
     5
 10
373.50000000000728
 20
645.299999999992
 30
0.0
 11
371.80000000000291
 21
645.299999999992
 31
0.0
  0
LINE
  8
DETAIL
  6
CONTINUOUS
 62
     5
 10
371.20000000000442
 20
645.299999999992
 30
0.0
 11
369.50000000000728
 21
645.299999999992
 31
0.0
  0
LINE
  8
DETAIL
  6
CONTINUOUS
 62
     5
 10
-311.49999999999272
 20
645.299999999992
 30
0.0
 11
-313.19999999999709
 21
645.299999999992
 31
0.0
  0
LINE
  8
DETAIL
  6
CONTINUOUS
 62
     5
 10
-313.79999999999558
 20
645.299999999992
 30
0.0
 11
-315.49999999999272
 21
645.299999999992
 31
0.0
  0
LINE
  8
DETAIL
  6
CONTINUOUS
 62
     5
 10
371.80000000000291
 20
646.99999999999272
 30
0.0
 11
371.20000000000442
 21
646.99999999999272
 31
0.0
  0
LINE
  8
DETAIL
  6
CONTINUOUS
 62
     5
 10
-313.19999999999709
 20
646.99999999999272
 30
0.0
 11
-313.79999999999558
 21
646.99999999999272
 31
0.0
  0
LINE
  8
DETAIL
  6
CONTINUOUS
 62
     5
 10
371.50000000000728
 20
300.3811978464928
 30
0.0
 11
367.50000000000728
 21
302.69059892319279
 31
0.0
  0
LINE
  8
DETAIL
  6
CONTINUOUS
 62
     5
 10
375.50000000000728
 20
307.30940107669272
 30
0.0
 11
371.50000000000728
 21
309.6188021534926
 31
0.0
  0
LINE
  8
DETAIL
  6
CONTINUOUS
 62
     5
 10
359.50000000000728
 20
51.299999999991989
 30
0.0
 11
359.00000000000728
 21
51.799999999992004
 31
0.0
  0
LINE
  8
DETAIL
  6
CONTINUOUS
 62
     5
 10
409.50000000000722
 20
51.299999999991989
 30
0.0
 11
409.00000000000722
 21
51.799999999992004
 31
0.0
  0
LINE
  8
DETAIL
  6
CONTINUOUS
 62
     5
 10
-455.49999999999272
 20
184.9999999999927
 30
0.0
 11
-455.49999999999272
 21
134.9999999999927
 31
0.0
  0
LINE
  8
DETAIL
  6
CONTINUOUS
 62
     5
 10
-455.19999999999709
 20
117.0999999999931
 30
0.0
 11
-455.19999999999709
 21
678.49999999999272
 31
0.0
  0
LINE
  8
DETAIL
  6
CONTINUOUS
 62
     5
 10
-454.99999999999261
 20
64.499999999992724
 30
0.0
 11
-454.99999999999261
 21
1522.499999999993
 31
0.0
  0
LINE
  8
DETAIL
  6
CONTINUOUS
 62
     5
 10
-450.49999999999272
 20
-0.000000000007276
 30
0.0
 11
-450.49999999999272
 21
64.499999999992724
 31
0.0
  0
LINE
  8
DETAIL
  6
CONTINUOUS
 62
     5
 10
-417.59999999999133
 20
63.299999999991989
 30
0.0
 11
-417.59999999999133
 21
62.299999999992004
 31
0.0
  0
LINE
  8
DETAIL
  6
CONTINUOUS
 62
     5
 10
-417.49999999999261
 20
64.299999999991996
 30
0.0
 11
-417.49999999999261
 21
63.299999999991989
 31
0.0
  0
LINE
  8
DETAIL
  6
CONTINUOUS
 62
     5
 10
-415.49999999999272
 20
64.299999999991996
 30
0.0
 11
-415.49999999999272
 21
67.799999999991996
 31
0.0
  0
LINE
  8
DETAIL
  6
CONTINUOUS
 62
     5
 10
-414.75813151869079
 20
1834.5999999999931
 30
0.0
 11
-414.75813151869079
 21
1817.0999999999931
 31
0.0
  0
LINE
  8
DETAIL
  6
CONTINUOUS
 62
     5
 10
-413.99999999999272
 20
57.699999999993452
 30
0.0
 11
-413.99999999999272
 21
51.799999999992004
 31
0.0
  0
LINE
  8
DETAIL
  6
CONTINUOUS
 62
     5
 10
-413.99999999999272
 20
1555.9248279460919
 30
0.0
 11
-413.99999999999272
 21
1565.479448065993
 31
0.0
  0
LINE
  8
DETAIL
  6
CONTINUOUS
 62
     5
 10
-411.49999999999272
 20
67.299999939492409
 30
0.0
 11
-411.49999999999272
 21
64.799998546193819
 31
0.0
  0
LINE
  8
DETAIL
  6
CONTINUOUS
 62
     5
 10
-411.18510216229328
 20
1816.4499999999921
 30
0.0
 11
-411.18510216229328
 21
1817.0999999999931
 31
0.0
  0
LINE
  8
DETAIL
  6
CONTINUOUS
 62
     5
 10
-409.25813151869067
 20
1838.5999999999931
 30
0.0
 11
-409.25813151869067
 21
1857.5999999999931
 31
0.0
  0
LINE
  8
DETAIL
  6
CONTINUOUS
 62
     5
 10
-408.99999999999272
 20
57.699999999993452
 30
0.0
 11
-408.99999999999272
 21
51.799999999992004
 31
0.0
  0
LINE
  8
DETAIL
  6
CONTINUOUS
 62
     5
 10
-407.49999999999272
 20
67.799999999991996
 30
0.0
 11
-407.49999999999272
 21
64.299999999991996
 31
0.0
  0
LINE
  8
DETAIL
  6
CONTINUOUS
 62
     5
 10
-405.49999999999261
 20
64.299999999991996
 30
0.0
 11
-405.49999999999261
 21
63.299999999991989
 31
0.0
  0
LINE
  8
DETAIL
  6
CONTINUOUS
 62
     5
 10
-405.39999999999412
 20
63.299999999991989
 30
0.0
 11
-405.39999999999412
 21
62.299999999992004
 31
0.0
  0
LINE
  8
DETAIL
  6
CONTINUOUS
 62
     5
 10
-402.99999999999272
 20
1514.1905989231941
 30
0.0
 11
-402.99999999999272
 21
1518.8094010766929
 31
0.0
  0
LINE
  8
DETAIL
  6
CONTINUOUS
 62
     5
 10
-460.0125611189942
 20
1551.1038951757939
 30
0.0
 11
-460.27091039829241
 21
1522.499999999993
 31
0.0
  0
LINE
  8
DETAIL
  6
CONTINUOUS
 62
     5
 10
385.00000000000728
 20
670.99999999999272
 30
0.0
 11
384.00000000000728
 21
670.99999999999272
 31
0.0
  0
LINE
  8
DETAIL
  6
CONTINUOUS
 62
     5
 10
-325.99999999999272
 20
670.99999999999272
 30
0.0
 11
-326.99999999999272
 21
670.99999999999272
 31
0.0
  0
LINE
  8
DETAIL
  6
CONTINUOUS
 62
     5
 10
-325.99999999999272
 20
678.49999999999272
 30
0.0
 11
-324.79999999999558
 21
678.49999999999272
 31
0.0
  0
LINE
  8
DETAIL
  6
CONTINUOUS
 62
     5
 10
382.80000000000291
 20
678.49999999999272
 30
0.0
 11
384.00000000000728
 21
678.49999999999272
 31
0.0
  0
LINE
  8
DETAIL
  6
CONTINUOUS
 62
     5
 10
-324.79999999999558
 20
684.86396103069274
 30
0.0
 11
382.80000000000291
 21
684.86396103069274
 31
0.0
  0
LINE
  8
DETAIL
  6
CONTINUOUS
 62
     5
 10
-304.97385747359658
 20
701.37381939659269
 30
0.0
 11
-298.50000000289589
 21
701.37381939659269
 31
0.0
  0
LINE
  8
DETAIL
  6
CONTINUOUS
 62
     5
 10
312.00000000000728
 20
701.59999999999297
 30
0.0
 11
365.00000000000728
 21
701.59999999999297
 31
0.0
  0
LINE
  8
DETAIL
  6
CONTINUOUS
 62
     5
 10
-304.99999999999272
 20
704.49999999999272
 30
0.0
 11
302.00000000000728
 21
704.49999999999272
 31
0.0
  0
LINE
  8
DETAIL
  6
CONTINUOUS
 62
     5
 10
365.00000000000728
 20
709.49999999999272
 30
0.0
 11
303.00000000000728
 21
709.49999999999272
 31
0.0
  0
LINE
  8
DETAIL
  6
CONTINUOUS
 62
     5
 10
362.12233778250811
 20
712.49999999999272
 30
0.0
 11
365.00000000000728
 21
712.49999999999272
 31
0.0
  0
LINE
  8
DETAIL
  6
CONTINUOUS
 62
     5
 10
-303.99999999999272
 20
736.39999999999418
 30
0.0
 11
-304.99999999999272
 21
736.39999999999418
 31
0.0
  0
LINE
  8
DETAIL
  6
CONTINUOUS
 62
     5
 10
-303.99999999999272
 20
744.39999999999418
 30
0.0
 11
-304.99999999999272
 21
744.39999999999418
 31
0.0
  0
LINE
  8
DETAIL
  6
CONTINUOUS
 62
     5
 10
-307.99999999999272
 20
744.49999999999272
 30
0.0
 11
-310.99999999999272
 21
744.49999999999272
 31
0.0
  0
LINE
  8
DETAIL
  6
CONTINUOUS
 62
     5
 10
311.50872620320303
 20
696.60857521599246
 30
0.0
 11
302.49127379680431
 21
696.76597543319258
 31
0.0
  0
LINE
  8
DETAIL
  6
CONTINUOUS
 62
     5
 10
312.00000000000728
 20
701.49999999999272
 30
0.0
 11
302.49127379680431
 21
701.66597543319222
 31
0.0
  0
LINE
  8
DETAIL
  6
CONTINUOUS
 62
     5
 10
-400.99999999999261
 20
1516.7999999999929
 30
0.0
 11
-400.99999999999261
 21
1516.1999999999921
 31
0.0
  0
LINE
  8
DETAIL
  6
CONTINUOUS
 62
     5
 10
-399.29999999999558
 20
1518.4999999999941
 30
0.0
 11
-399.29999999999558
 21
1516.7999999999929
 31
0.0
  0
LINE
  8
DETAIL
  6
CONTINUOUS
 62
     5
 10
-399.29999999999558
 20
1516.1999999999921
 30
0.0
 11
-399.29999999999558
 21
1514.499999999993
 31
0.0
  0
LINE
  8
DETAIL
  6
CONTINUOUS
 62
     5
 10
-398.69999999999709
 20
1514.499999999993
 30
0.0
 11
-398.69999999999709
 21
1516.1999999999921
 31
0.0
  0
LINE
  8
DETAIL
  6
CONTINUOUS
 62
     5
 10
-398.69999999999709
 20
1516.7999999999929
 30
0.0
 11
-398.69999999999709
 21
1518.4999999999941
 31
0.0
  0
LINE
  8
DETAIL
  6
CONTINUOUS
 62
     5
 10
-396.99999999999272
 20
1516.1999999999921
 30
0.0
 11
-396.99999999999272
 21
1516.7999999999929
 31
0.0
  0
LINE
  8
DETAIL
  6
CONTINUOUS
 62
     5
 10
-394.99999999999272
 20
1514.1905989231941
 30
0.0
 11
-394.99999999999272
 21
1518.8094010766929
 31
0.0
  0
LINE
  8
DETAIL
  6
CONTINUOUS
 62
     5
 10
-391.14199793479202
 20
1857.5999999999931
 30
0.0
 11
-391.14199793479202
 21
1836.5999999999931
 31
0.0
  0
LINE
  8
DETAIL
  6
CONTINUOUS
 62
     5
 10
-367.59999999999133
 20
63.299999999991989
 30
0.0
 11
-367.59999999999133
 21
62.299999999992004
 31
0.0
  0
LINE
  8
DETAIL
  6
CONTINUOUS
 62
     5
 10
-367.49999999999272
 20
64.299999999991996
 30
0.0
 11
-367.49999999999272
 21
63.299999999991989
 31
0.0
  0
LINE
  8
DETAIL
  6
CONTINUOUS
 62
     5
 10
-365.49999999999272
 20
64.299999999991996
 30
0.0
 11
-365.49999999999272
 21
67.799999999991996
 31
0.0
  0
LINE
  8
DETAIL
  6
CONTINUOUS
 62
     5
 10
-363.99999999999272
 20
57.699999999993452
 30
0.0
 11
-363.99999999999272
 21
51.799999999992004
 31
0.0
  0
LINE
  8
DETAIL
  6
CONTINUOUS
 62
     5
 10
-363.99999999999272
 20
1536.690598923193
 30
0.0
 11
-363.99999999999272
 21
1541.3094010766929
 31
0.0
  0
LINE
  8
DETAIL
  6
CONTINUOUS
 62
     5
 10
-361.99999999999272
 20
1539.2999999999929
 30
0.0
 11
-361.99999999999272
 21
1538.6999999999921
 31
0.0
  0
LINE
  8
DETAIL
  6
CONTINUOUS
 62
     5
 10
-361.49999999999272
 20
67.299999939492409
 30
0.0
 11
-361.49999999999272
 21
64.799998546193819
 31
0.0
  0
LINE
  8
DETAIL
  6
CONTINUOUS
 62
     5
 10
-360.29999999999558
 20
1540.999999999993
 30
0.0
 11
-360.29999999999558
 21
1539.2999999999929
 31
0.0
  0
LINE
  8
DETAIL
  6
CONTINUOUS
 62
     5
 10
-360.29999999999558
 20
1538.6999999999921
 30
0.0
 11
-360.29999999999558
 21
1536.999999999993
 31
0.0
  0
LINE
  8
DETAIL
  6
CONTINUOUS
 62
     5
 10
-359.69999999999709
 20
1536.999999999993
 30
0.0
 11
-359.69999999999709
 21
1538.6999999999921
 31
0.0
  0
LINE
  8
DETAIL
  6
CONTINUOUS
 62
     5
 10
-359.69999999999709
 20
1539.2999999999929
 30
0.0
 11
-359.69999999999709
 21
1540.999999999993
 31
0.0
  0
LINE
  8
DETAIL
  6
CONTINUOUS
 62
     5
 10
-358.99999999999272
 20
57.699999999993452
 30
0.0
 11
-358.99999999999272
 21
51.799999999992004
 31
0.0
  0
LINE
  8
DETAIL
  6
CONTINUOUS
 62
     5
 10
-358.49999999999272
 20
54.999999999992717
 30
0.0
 11
-358.49999999999272
 21
57.699999999993452
 31
0.0
  0
LINE
  8
DETAIL
  6
CONTINUOUS
 62
     5
 10
-357.99999999999272
 20
67.799999999991996
 30
0.0
 11
-357.99999999999272
 21
69.499999999992724
 31
0.0
  0
LINE
  8
DETAIL
  6
CONTINUOUS
 62
     5
 10
-357.99999999999272
 20
1538.6999999999921
 30
0.0
 11
-357.99999999999272
 21
1539.2999999999929
 31
0.0
  0
LINE
  8
DETAIL
  6
CONTINUOUS
 62
     5
 10
-357.49999999999272
 20
67.799999999991996
 30
0.0
 11
-357.49999999999272
 21
64.299999999991996
 31
0.0
  0
LINE
  8
DETAIL
  6
CONTINUOUS
 62
     5
 10
-355.99999999999272
 20
1536.690598923193
 30
0.0
 11
-355.99999999999272
 21
1541.3094010766929
 31
0.0
  0
LINE
  8
DETAIL
  6
CONTINUOUS
 62
     5
 10
-355.49999999999272
 20
64.299999999991996
 30
0.0
 11
-355.49999999999272
 21
63.299999999991989
 31
0.0
  0
LINE
  8
DETAIL
  6
CONTINUOUS
 62
     5
 10
-355.39999999999418
 20
63.299999999991989
 30
0.0
 11
-355.39999999999418
 21
62.299999999992004
 31
0.0
  0
LINE
  8
DETAIL
  6
CONTINUOUS
 62
     5
 10
-343.99999999999272
 20
108.6905989231927
 30
0.0
 11
-343.99999999999272
 21
113.30940107669259
 31
0.0
  0
LINE
  8
DETAIL
  6
CONTINUOUS
 62
     5
 10
-341.99999999999272
 20
111.299999999992
 30
0.0
 11
-341.99999999999272
 21
110.69999999999339
 31
0.0
  0
LINE
  8
DETAIL
  6
CONTINUOUS
 62
     5
 10
-340.29999999999558
 20
112.9999999999927
 30
0.0
 11
-340.29999999999558
 21
111.299999999992
 31
0.0
  0
LINE
  8
DETAIL
  6
CONTINUOUS
 62
     5
 10
-340.29999999999558
 20
110.69999999999339
 30
0.0
 11
-340.29999999999558
 21
108.9999999999927
 31
0.0
  0
LINE
  8
DETAIL
  6
CONTINUOUS
 62
     5
 10
-339.69999999999709
 20
108.9999999999927
 30
0.0
 11
-339.69999999999709
 21
110.69999999999339
 31
0.0
  0
LINE
  8
DETAIL
  6
CONTINUOUS
 62
     5
 10
-339.69999999999709
 20
111.299999999992
 30
0.0
 11
-339.69999999999709
 21
112.9999999999927
 31
0.0
  0
LINE
  8
DETAIL
  6
CONTINUOUS
 62
     5
 10
-337.99999999999272
 20
110.69999999999339
 30
0.0
 11
-337.99999999999272
 21
111.299999999992
 31
0.0
  0
LINE
  8
DETAIL
  6
CONTINUOUS
 62
     5
 10
-335.99999999999272
 20
108.6905989231927
 30
0.0
 11
-335.99999999999272
 21
113.30940107669259
 31
0.0
  0
LINE
  8
DETAIL
  6
CONTINUOUS
 62
     5
 10
-328.99999999999272
 20
1522.499999999993
 30
0.0
 11
-328.99999999999272
 21
1521.499999999993
 31
0.0
  0
LINE
  8
DETAIL
  6
CONTINUOUS
 62
     5
 10
-328.99999999999272
 20
103.9999999999927
 30
0.0
 11
-328.99999999999272
 21
116.9999999999927
 31
0.0
  0
LINE
  8
DETAIL
  6
CONTINUOUS
 62
     5
 10
-326.99999999999272
 20
116.9999999999927
 30
0.0
 11
-326.99999999999272
 21
1521.499999999993
 31
0.0
  0
LINE
  8
DETAIL
  6
CONTINUOUS
 62
     5
 10
-325.99999999999272
 20
678.49999999999272
 30
0.0
 11
-325.99999999999272
 21
116.9999999999927
 31
0.0
  0
LINE
  8
DETAIL
  6
CONTINUOUS
 62
     5
 10
-325.59999999999133
 20
113.9999999999927
 30
0.0
 11
-325.59999999999133
 21
100.9999999999927
 31
0.0
  0
LINE
  8
DETAIL
  6
CONTINUOUS
 62
     5
 10
-324.79999999999558
 20
684.86393499909173
 30
0.0
 11
-324.79999999999558
 21
678.49999999999272
 31
0.0
  0
LINE
  8
DETAIL
  6
CONTINUOUS
 62
     5
 10
-324.79999999999558
 20
113.9999999999927
 30
0.0
 11
-324.79999999999558
 21
116.9999999999927
 31
0.0
  0
LINE
  8
DETAIL
  6
CONTINUOUS
 62
     5
 10
-319.99999999999272
 20
1454.999999999993
 30
0.0
 11
-319.99999999999272
 21
1446.499999999993
 31
0.0
  0
LINE
  8
DETAIL
  6
CONTINUOUS
 62
     5
 10
-319.99999999999272
 20
1125.299999999992
 30
0.0
 11
-319.99999999999272
 21
1116.799999999992
 31
0.0
  0
LINE
  8
DETAIL
  6
CONTINUOUS
 62
     5
 10
-319.99999999999272
 20
748.49999999999272
 30
0.0
 11
-319.99999999999272
 21
739.99999999999272
 31
0.0
  0
LINE
  8
DETAIL
  6
CONTINUOUS
 62
     5
 10
-360.49577722669352
 20
1744.846313774993
 30
0.0
 11
-365.02571006179642
 21
1641.0937941690929
 31
0.0
  0
LINE
  8
DETAIL
  6
CONTINUOUS
 62
     5
 10
0.000000000007276
 20
1543.6188021534931
 30
0.0
 11
-3.999999999992724
 21
1541.3094010766929
 31
0.0
  0
LINE
  8
DETAIL
  6
CONTINUOUS
 62
     5
 10
4.0000000000072751
 20
1536.690598923193
 30
0.0
 11
0.000000000007276
 21
1534.3811978464919
 31
0.0
  0
LINE
  8
DETAIL
  6
CONTINUOUS
 62
     5
 10
-309.99999999999272
 20
751.49999999999272
 30
0.0
 11
-316.99999999999272
 21
751.49999999999272
 31
0.0
  0
LINE
  8
DETAIL
  6
CONTINUOUS
 62
     5
 10
-307.99999999999272
 20
785.69999999999345
 30
0.0
 11
-308.49999999999272
 21
785.69999999999345
 31
0.0
  0
LINE
  8
DETAIL
  6
CONTINUOUS
 62
     5
 10
-307.99999999999272
 20
788.89999999999407
 30
0.0
 11
-315.49999999999272
 21
788.89999999999407
 31
0.0
  0
LINE
  8
DETAIL
  6
CONTINUOUS
 62
     5
 10
-309.99999999999272
 20
792.69999999999345
 30
0.0
 11
-312.49999999999272
 21
792.69999999999345
 31
0.0
  0
LINE
  8
DETAIL
  6
CONTINUOUS
 62
     5
 10
-317.49999999999272
 20
302.69059892319279
 30
0.0
 11
-317.49999999999272
 21
307.30940107669272
 31
0.0
  0
LINE
  8
DETAIL
  6
CONTINUOUS
 62
     5
 10
-317.49999999999272
 20
642.69059892319274
 30
0.0
 11
-317.49999999999272
 21
647.30940107669255
 31
0.0
  0
LINE
  8
DETAIL
  6
CONTINUOUS
 62
     5
 10
-315.49999999999272
 20
1483.299999999992
 30
0.0
 11
-315.49999999999272
 21
1474.799999999992
 31
0.0
  0
LINE
  8
DETAIL
  6
CONTINUOUS
 62
     5
 10
-315.49999999999272
 20
1238.499999999993
 30
0.0
 11
-315.49999999999272
 21
1229.999999999993
 31
0.0
  0
LINE
  8
DETAIL
  6
CONTINUOUS
 62
     5
 10
-315.49999999999272
 20
993.69999999999345
 30
0.0
 11
-315.49999999999272
 21
985.19999999999345
 31
0.0
  0
LINE
  8
DETAIL
  6
CONTINUOUS
 62
     5
 10
-315.49999999999272
 20
789.69999999999345
 30
0.0
 11
-315.49999999999272
 21
781.19999999999345
 31
0.0
  0
LINE
  8
DETAIL
  6
CONTINUOUS
 62
     5
 10
-315.49999999999272
 20
645.299999999992
 30
0.0
 11
-315.49999999999272
 21
644.69999999999345
 31
0.0
  0
LINE
  8
DETAIL
  6
CONTINUOUS
 62
     5
 10
-315.49999999999272
 20
305.299999999992
 30
0.0
 11
-315.49999999999272
 21
304.69999999999339
 31
0.0
  0
LINE
  8
DETAIL
  6
CONTINUOUS
 62
     5
 10
-313.99999999999272
 20
739.99999999999272
 30
0.0
 11
-313.99999999999272
 21
741.49999999999272
 31
0.0
  0
LINE
  8
DETAIL
  6
CONTINUOUS
 62
     5
 10
-313.99999999999272
 20
1116.799999999992
 30
0.0
 11
-313.99999999999272
 21
1118.299999999992
 31
0.0
  0
LINE
  8
DETAIL
  6
CONTINUOUS
 62
     5
 10
-313.99999999999272
 20
1446.499999999993
 30
0.0
 11
-313.99999999999272
 21
1447.999999999993
 31
0.0
  0
LINE
  8
DETAIL
  6
CONTINUOUS
 62
     5
 10
-313.79999999999558
 20
646.99999999999272
 30
0.0
 11
-313.79999999999558
 21
645.299999999992
 31
0.0
  0
LINE
  8
DETAIL
  6
CONTINUOUS
 62
     5
 10
-313.79999999999558
 20
644.69999999999345
 30
0.0
 11
-313.79999999999558
 21
642.99999999999272
 31
0.0
  0
LINE
  8
DETAIL
  6
CONTINUOUS
 62
     5
 10
-313.79999999999558
 20
306.99999999999272
 30
0.0
 11
-313.79999999999558
 21
305.299999999992
 31
0.0
  0
LINE
  8
DETAIL
  6
CONTINUOUS
 62
     5
 10
-313.79999999999558
 20
304.69999999999339
 30
0.0
 11
-313.79999999999558
 21
302.99999999999272
 31
0.0
  0
LINE
  8
DETAIL
  6
CONTINUOUS
 62
     5
 10
-313.19999999999709
 20
302.99999999999272
 30
0.0
 11
-313.19999999999709
 21
304.69999999999339
 31
0.0
  0
LINE
  8
DETAIL
  6
CONTINUOUS
 62
     5
 10
-313.19999999999709
 20
305.299999999992
 30
0.0
 11
-313.19999999999709
 21
306.99999999999272
 31
0.0
  0
LINE
  8
DETAIL
  6
CONTINUOUS
 62
     5
 10
-313.19999999999709
 20
642.99999999999272
 30
0.0
 11
-313.19999999999709
 21
644.69999999999345
 31
0.0
  0
LINE
  8
DETAIL
  6
CONTINUOUS
 62
     5
 10
-313.19999999999709
 20
645.299999999992
 30
0.0
 11
-313.19999999999709
 21
646.99999999999272
 31
0.0
  0
LINE
  8
DETAIL
  6
CONTINUOUS
 62
     5
 10
-312.49999999999272
 20
1457.999999999993
 30
0.0
 11
-312.49999999999272
 21
1450.5923913190929
 31
0.0
  0
LINE
  8
DETAIL
  6
CONTINUOUS
 62
     5
 10
-311.99999999999272
 20
62.299999999992004
 30
0.0
 11
-311.99999999999272
 21
69.499999999992724
 31
0.0
  0
LINE
  8
DETAIL
  6
CONTINUOUS
 62
     5
 10
-311.49999999999272
 20
57.699999999993452
 30
0.0
 11
-311.49999999999272
 21
54.999999999992717
 31
0.0
  0
LINE
  8
DETAIL
  6
CONTINUOUS
 62
     5
 10
-311.49999999999272
 20
304.69999999999339
 30
0.0
 11
-311.49999999999272
 21
305.299999999992
 31
0.0
  0
LINE
  8
DETAIL
  6
CONTINUOUS
 62
     5
 10
-311.49999999999272
 20
644.69999999999345
 30
0.0
 11
-311.49999999999272
 21
645.299999999992
 31
0.0
  0
LINE
  8
DETAIL
  6
CONTINUOUS
 62
     5
 10
-309.49999999999272
 20
302.69059892319279
 30
0.0
 11
-309.49999999999272
 21
307.30940107669272
 31
0.0
  0
LINE
  8
DETAIL
  6
CONTINUOUS
 62
     5
 10
-309.49999999999272
 20
642.69059892319274
 30
0.0
 11
-309.49999999999272
 21
647.30940107669255
 31
0.0
  0
LINE
  8
DETAIL
  6
CONTINUOUS
 62
     5
 10
-309.49999999999272
 20
781.19999999999345
 30
0.0
 11
-309.49999999999272
 21
784.69999999999345
 31
0.0
  0
LINE
  8
DETAIL
  6
CONTINUOUS
 62
     5
 10
-309.49999999999272
 20
985.19999999999345
 30
0.0
 11
-309.49999999999272
 21
988.69999999999345
 31
0.0
  0
LINE
  8
DETAIL
  6
CONTINUOUS
 62
     5
 10
-309.49999999999272
 20
1229.999999999993
 30
0.0
 11
-309.49999999999272
 21
1233.499999999993
 31
0.0
  0
LINE
  8
DETAIL
  6
CONTINUOUS
 62
     5
 10
-309.49999999999272
 20
1474.799999999992
 30
0.0
 11
-309.49999999999272
 21
1478.299999999992
 31
0.0
  0
LINE
  8
DETAIL
  6
CONTINUOUS
 62
     5
 10
-305.99999999999272
 20
1120.534900219194
 30
0.0
 11
-305.99999999999272
 21
1130.310581636393
 31
0.0
  0
LINE
  8
DETAIL
  6
CONTINUOUS
 62
     5
 10
-305.49999999999272
 20
787.52457522719305
 30
0.0
 11
-305.49999999999272
 21
795.52181613209166
 31
0.0
  0
LINE
  8
DETAIL
  6
CONTINUOUS
 62
     5
 10
-305.49999999999272
 20
993.62781540709329
 30
0.0
 11
-305.49999999999272
 21
999.52181613209177
 31
0.0
  0
LINE
  8
DETAIL
  6
CONTINUOUS
 62
     5
 10
-305.49999999999272
 20
1119.952833909392
 30
0.0
 11
-305.49999999999272
 21
1131.121816132094
 31
0.0
  0
LINE
  8
DETAIL
  6
CONTINUOUS
 62
     5
 10
-305.49999999999272
 20
1233.1528339093929
 30
0.0
 11
-305.49999999999272
 21
1244.3218161320931
 31
0.0
  0
LINE
  8
DETAIL
  6
CONTINUOUS
 62
     5
 10
-305.49999999999272
 20
1449.6528339093929
 30
0.0
 11
-305.49999999999272
 21
1460.8218161320931
 31
0.0
  0
LINE
  8
DETAIL
  6
CONTINUOUS
 62
     5
 10
-305.49999999999272
 20
1483.2278154070921
 30
0.0
 11
-305.49999999999272
 21
1489.121816132094
 31
0.0
  0
LINE
  8
DETAIL
  6
CONTINUOUS
 62
     5
 10
-304.99999999999272
 20
684.86396103069274
 30
0.0
 11
-304.99999999999272
 21
741.49999999999272
 31
0.0
  0
LINE
  8
DETAIL
  6
CONTINUOUS
 62
     5
 10
-304.99999999999272
 20
744.39999999999418
 30
0.0
 11
-304.99999999999272
 21
785.89999999999418
 31
0.0
  0
LINE
  8
DETAIL
  6
CONTINUOUS
 62
     5
 10
-304.99999999999272
 20
797.69999999999345
 30
0.0
 11
-304.99999999999272
 21
986.69999999999345
 31
0.0
  0
LINE
  8
DETAIL
  6
CONTINUOUS
 62
     5
 10
-304.99999999999272
 20
988.99999999999272
 30
0.0
 11
-304.99999999999272
 21
991.99999999999272
 31
0.0
  0
LINE
  8
DETAIL
  6
CONTINUOUS
 62
     5
 10
-304.99999999999272
 20
1001.699999999993
 30
0.0
 11
-304.99999999999272
 21
1118.299999999992
 31
0.0
  0
LINE
  8
DETAIL
  6
CONTINUOUS
 62
     5
 10
-304.99999999999272
 20
1133.299999999992
 30
0.0
 11
-304.99999999999272
 21
1231.499999999992
 31
0.0
  0
LINE
  8
DETAIL
  6
CONTINUOUS
 62
     5
 10
-304.99999999999272
 20
1246.499999999993
 30
0.0
 11
-304.99999999999272
 21
1447.999999999993
 31
0.0
  0
LINE
  8
DETAIL
  6
CONTINUOUS
 62
     5
 10
-304.99999999999272
 20
1462.999999999993
 30
0.0
 11
-304.99999999999272
 21
1476.299999999992
 31
0.0
  0
LINE
  8
DETAIL
  6
CONTINUOUS
 62
     5
 10
-304.99999999999272
 20
1478.5999999999931
 30
0.0
 11
-304.99999999999272
 21
1481.5999999999931
 31
0.0
  0
LINE
  8
DETAIL
  6
CONTINUOUS
 62
     5
 10
-304.99999999999272
 20
1491.2999999999929
 30
0.0
 11
-304.99999999999272
 21
1521.499999999993
 31
0.0
  0
LINE
  8
DETAIL
  6
CONTINUOUS
 62
     5
 10
-303.99999999999272
 20
1478.5999999999931
 30
0.0
 11
-303.99999999999272
 21
1470.5999999999931
 31
0.0
  0
LINE
  8
DETAIL
  6
CONTINUOUS
 62
     5
 10
-303.99999999999272
 20
988.99999999999272
 30
0.0
 11
-303.99999999999272
 21
980.99999999999272
 31
0.0
  0
LINE
  8
DETAIL
  6
CONTINUOUS
 62
     5
 10
-303.99999999999272
 20
744.39999999999418
 30
0.0
 11
-303.99999999999272
 21
736.39999999999418
 31
0.0
  0
LINE
  8
DETAIL
  6
CONTINUOUS
 62
     5
 10
-303.99999999999272
 20
684.86396103069274
 30
0.0
 11
-303.99999999999272
 21
697.20210174249223
 31
0.0
  0
LINE
  8
DETAIL
  6
CONTINUOUS
 62
     5
 10
-303.99999999999272
 20
698.65099048199397
 30
0.0
 11
-303.99999999999272
 21
701.37381939659269
 31
0.0
  0
LINE
  8
DETAIL
  6
CONTINUOUS
 62
     5
 10
-300.59999999999133
 20
63.299999999991989
 30
0.0
 11
-300.59999999999133
 21
62.299999999992004
 31
0.0
  0
LINE
  8
DETAIL
  6
CONTINUOUS
 62
     5
 10
-300.49999999999272
 20
64.299999999991996
 30
0.0
 11
-300.49999999999272
 21
63.299999999991989
 31
0.0
  0
LINE
  8
DETAIL
  6
CONTINUOUS
 62
     5
 10
-299.99999999999272
 20
91.999999999992724
 30
0.0
 11
-299.99999999999272
 21
97.999999999992724
 31
0.0
  0
LINE
  8
DETAIL
  6
CONTINUOUS
 62
     5
 10
-298.49999999999278
 20
64.299999999991996
 30
0.0
 11
-298.49999999999278
 21
67.799999999991996
 31
0.0
  0
LINE
  8
DETAIL
  6
CONTINUOUS
 62
     5
 10
-297.99999999999272
 20
704.49999999999272
 30
0.0
 11
-297.99999999999272
 21
701.87376228339406
 31
0.0
  0
LINE
  8
DETAIL
  6
CONTINUOUS
 62
     5
 10
-296.99999999999272
 20
57.699999999993452
 30
0.0
 11
-296.99999999999272
 21
51.799999999992004
 31
0.0
  0
LINE
  8
DETAIL
  6
CONTINUOUS
 62
     5
 10
-294.49999999999272
 20
67.299999939492409
 30
0.0
 11
-294.49999999999272
 21
64.799998546193819
 31
0.0
  0
LINE
  8
DETAIL
  6
CONTINUOUS
 62
     5
 10
-291.99999999999272
 20
57.699999999993452
 30
0.0
 11
-291.99999999999272
 21
51.799999999992004
 31
0.0
  0
LINE
  8
DETAIL
  6
CONTINUOUS
 62
     5
 10
-290.49999999999272
 20
67.799999999991996
 30
0.0
 11
-290.49999999999272
 21
64.299999999991996
 31
0.0
  0
LINE
  8
DETAIL
  6
CONTINUOUS
 62
     5
 10
-289.49999999999272
 20
55.999999999992731
 30
0.0
 11
-289.49999999999272
 21
57.699999999993452
 31
0.0
  0
LINE
  8
DETAIL
  6
CONTINUOUS
 62
     5
 10
-288.49999999999272
 20
64.299999999991996
 30
0.0
 11
-288.49999999999272
 21
63.299999999991989
 31
0.0
  0
LINE
  8
DETAIL
  6
CONTINUOUS
 62
     5
 10
-288.39999999999418
 20
63.299999999991989
 30
0.0
 11
-288.39999999999418
 21
62.299999999992004
 31
0.0
  0
LINE
  8
DETAIL
  6
CONTINUOUS
 62
     5
 10
-287.79999999999569
 20
2.299999999991996
 30
0.0
 11
-287.79999999999569
 21
57.699999999993452
 31
0.0
  0
LINE
  8
DETAIL
  6
CONTINUOUS
 62
     5
 10
-285.49999999999272
 20
57.699999999993452
 30
0.0
 11
-285.49999999999272
 21
2.299999999991996
 31
0.0
  0
LINE
  8
DETAIL
  6
CONTINUOUS
 62
     5
 10
-282.49999999999272
 20
2.299999999991996
 30
0.0
 11
-282.49999999999272
 21
-0.000000000007276
 31
0.0
  0
LINE
  8
DETAIL
  6
CONTINUOUS
 62
     5
 10
-282.49999999999272
 20
57.699999999993452
 30
0.0
 11
-282.49999999999272
 21
59.999999999992717
 31
0.0
  0
LINE
  8
DETAIL
  6
CONTINUOUS
 62
     5
 10
-271.99999999999272
 20
108.6905989231927
 30
0.0
 11
-271.99999999999272
 21
113.30940107669259
 31
0.0
  0
LINE
  8
DETAIL
  6
CONTINUOUS
 62
     5
 10
-269.99999999999272
 20
111.299999999992
 30
0.0
 11
-269.99999999999272
 21
110.69999999999339
 31
0.0
  0
LINE
  8
DETAIL
  6
CONTINUOUS
 62
     5
 10
-268.29999999999558
 20
112.9999999999927
 30
0.0
 11
-268.29999999999558
 21
111.299999999992
 31
0.0
  0
LINE
  8
DETAIL
  6
CONTINUOUS
 62
     5
 10
-268.29999999999558
 20
110.69999999999339
 30
0.0
 11
-268.29999999999558
 21
108.9999999999927
 31
0.0
  0
LINE
  8
DETAIL
  6
CONTINUOUS
 62
     5
 10
-267.69999999999709
 20
108.9999999999927
 30
0.0
 11
-267.69999999999709
 21
110.69999999999339
 31
0.0
  0
LINE
  8
DETAIL
  6
CONTINUOUS
 62
     5
 10
-267.69999999999709
 20
111.299999999992
 30
0.0
 11
-267.69999999999709
 21
112.9999999999927
 31
0.0
  0
LINE
  8
DETAIL
  6
CONTINUOUS
 62
     5
 10
-265.99999999999272
 20
110.69999999999339
 30
0.0
 11
-265.99999999999272
 21
111.299999999992
 31
0.0
  0
LINE
  8
DETAIL
  6
CONTINUOUS
 62
     5
 10
-263.99999999999272
 20
108.6905989231927
 30
0.0
 11
-263.99999999999272
 21
113.30940107669259
 31
0.0
  0
LINE
  8
DETAIL
  6
CONTINUOUS
 62
     5
 10
371.50000000000728
 20
640.38119784649268
 30
0.0
 11
367.50000000000728
 21
642.69059892319274
 31
0.0
  0
LINE
  8
DETAIL
  6
CONTINUOUS
 62
     5
 10
375.50000000000728
 20
647.30940107669255
 30
0.0
 11
371.50000000000728
 21
649.61880215349265
 31
0.0
  0
LINE
  8
DETAIL
  6
CONTINUOUS
 62
     5
 10
-162.4999999999927
 20
91.999999999992724
 30
0.0
 11
-162.4999999999927
 21
90.699999999993437
 31
0.0
  0
LINE
  8
DETAIL
  6
CONTINUOUS
 62
     5
 10
-157.4999999999927
 20
91.999999999992724
 30
0.0
 11
-157.4999999999927
 21
90.699999999993437
 31
0.0
  0
LINE
  8
DETAIL
  6
CONTINUOUS
 62
     5
 10
360.00000000000728
 20
1543.6188021534931
 30
0.0
 11
356.00000000000728
 21
1541.3094010766929
 31
0.0
  0
LINE
  8
DETAIL
  6
CONTINUOUS
 62
     5
 10
-303.99999999999272
 20
980.99999999999272
 30
0.0
 11
-304.99999999999272
 21
980.99999999999272
 31
0.0
  0
LINE
  8
DETAIL
  6
CONTINUOUS
 62
     5
 10
-303.99999999999272
 20
988.99999999999272
 30
0.0
 11
-304.99999999999272
 21
988.99999999999272
 31
0.0
  0
LINE
  8
DETAIL
  6
CONTINUOUS
 62
     5
 10
-307.99999999999272
 20
989.69999999999345
 30
0.0
 11
-308.49999999999272
 21
989.69999999999345
 31
0.0
  0
LINE
  8
DETAIL
  6
CONTINUOUS
 62
     5
 10
-307.99999999999272
 20
994.99999999999284
 30
0.0
 11
-315.19875033579592
 21
994.99999999999284
 31
0.0
  0
LINE
  8
DETAIL
  6
CONTINUOUS
 62
     5
 10
-309.99999999999272
 20
996.69999999999345
 30
0.0
 11
-312.49999999999272
 21
996.69999999999345
 31
0.0
  0
LINE
  8
DETAIL
  6
CONTINUOUS
 62
     5
 10
359.1628421097048
 20
96.849999999993088
 30
0.0
 11
360.02886751340702
 21
95.349999999993088
 31
0.0
  0
LINE
  8
DETAIL
  6
CONTINUOUS
 62
     5
 10
361.15470053840539
 20
97.999999999992724
 30
0.0
 11
362.02072594210767
 21
96.499999999992724
 31
0.0
  0
LINE
  8
DETAIL
  6
CONTINUOUS
 62
     5
 10
377.33012701890402
 20
97.499999999992724
 30
0.0
 11
376.98371685740858
 21
98.099999999993088
 31
0.0
  0
LINE
  8
DETAIL
  6
CONTINUOUS
 62
     5
 10
367.15284503040311
 20
1765.0345071273921
 30
0.0
 11
405.7990864616076
 21
1812.758640781693
 31
0.0
  0
LINE
  8
DETAIL
  6
CONTINUOUS
 62
     5
 10
410.3347486244092
 20
1813.5926699021929
 30
0.0
 11
411.95431669070967
 21
1815.5926699021929
 31
0.0
  0
LINE
  8
DETAIL
  6
CONTINUOUS
 62
     5
 10
364.00000000000728
 20
1536.690598923193
 30
0.0
 11
360.00000000000728
 21
1534.3811978464919
 31
0.0
  0
LINE
  8
DETAIL
  6
CONTINUOUS
 62
     5
 10
399.00000000000728
 20
1521.1188021534931
 30
0.0
 11
395.00000000000728
 21
1518.8094010766929
 31
0.0
  0
LINE
  8
DETAIL
  6
CONTINUOUS
 62
     5
 10
403.00000000000728
 20
1514.1905989231941
 30
0.0
 11
399.00000000000728
 21
1511.8811978464919
 31
0.0
  0
LINE
  8
DETAIL
  6
CONTINUOUS
 62
     5
 10
-3.999999999992724
 20
1536.690598923193
 30
0.0
 11
-3.999999999992724
 21
1541.3094010766929
 31
0.0
  0
LINE
  8
DETAIL
  6
CONTINUOUS
 62
     5
 10
-3.999999999992724
 20
1822.4905989231929
 30
0.0
 11
-3.999999999992724
 21
1827.1094010766931
 31
0.0
  0
LINE
  8
DETAIL
  6
CONTINUOUS
 62
     5
 10
-1.999999999992724
 20
1825.0999999999931
 30
0.0
 11
-1.999999999992724
 21
1824.4999999999941
 31
0.0
  0
LINE
  8
DETAIL
  6
CONTINUOUS
 62
     5
 10
-1.999999999992724
 20
1539.2999999999929
 30
0.0
 11
-1.999999999992724
 21
1538.6999999999921
 31
0.0
  0
LINE
  8
DETAIL
  6
CONTINUOUS
 62
     5
 10
-0.2999999999956344
 20
1826.7999999999929
 30
0.0
 11
-0.2999999999956344
 21
1825.0999999999931
 31
0.0
  0
LINE
  8
DETAIL
  6
CONTINUOUS
 62
     5
 10
-0.2999999999956344
 20
1824.4999999999941
 30
0.0
 11
-0.2999999999956344
 21
1822.7999999999929
 31
0.0
  0
LINE
  8
DETAIL
  6
CONTINUOUS
 62
     5
 10
-0.2999999999956344
 20
1540.999999999993
 30
0.0
 11
-0.2999999999956344
 21
1539.2999999999929
 31
0.0
  0
LINE
  8
DETAIL
  6
CONTINUOUS
 62
     5
 10
-0.2999999999956344
 20
1538.6999999999921
 30
0.0
 11
-0.2999999999956344
 21
1536.999999999993
 31
0.0
  0
LINE
  8
DETAIL
  6
CONTINUOUS
 62
     5
 10
0.3000000000029104
 20
1536.999999999993
 30
0.0
 11
0.3000000000029104
 21
1538.6999999999921
 31
0.0
  0
LINE
  8
DETAIL
  6
CONTINUOUS
 62
     5
 10
0.3000000000029104
 20
1539.2999999999929
 30
0.0
 11
0.3000000000029104
 21
1540.999999999993
 31
0.0
  0
LINE
  8
DETAIL
  6
CONTINUOUS
 62
     5
 10
0.3000000000029104
 20
1822.7999999999929
 30
0.0
 11
0.3000000000029104
 21
1824.4999999999941
 31
0.0
  0
LINE
  8
DETAIL
  6
CONTINUOUS
 62
     5
 10
0.3000000000029104
 20
1825.0999999999931
 30
0.0
 11
0.3000000000029104
 21
1826.7999999999929
 31
0.0
  0
LINE
  8
DETAIL
  6
CONTINUOUS
 62
     5
 10
2.0000000000072751
 20
1538.6999999999921
 30
0.0
 11
2.0000000000072751
 21
1539.2999999999929
 31
0.0
  0
LINE
  8
DETAIL
  6
CONTINUOUS
 62
     5
 10
2.0000000000072751
 20
1824.4999999999941
 30
0.0
 11
2.0000000000072751
 21
1825.0999999999931
 31
0.0
  0
LINE
  8
DETAIL
  6
CONTINUOUS
 62
     5
 10
4.0000000000072751
 20
1536.690598923193
 30
0.0
 11
4.0000000000072751
 21
1541.3094010766929
 31
0.0
  0
LINE
  8
DETAIL
  6
CONTINUOUS
 62
     5
 10
4.0000000000072751
 20
1822.4905989231929
 30
0.0
 11
4.0000000000072751
 21
1827.1094010766931
 31
0.0
  0
LINE
  8
DETAIL
  6
CONTINUOUS
 62
     5
 10
-307.99999999999272
 20
1121.299999999992
 30
0.0
 11
-310.99999999999272
 21
1121.299999999992
 31
0.0
  0
LINE
  8
DETAIL
  6
CONTINUOUS
 62
     5
 10
-309.99999999999272
 20
1128.299999999992
 30
0.0
 11
-316.99999999999272
 21
1128.299999999992
 31
0.0
  0
LINE
  8
DETAIL
  6
CONTINUOUS
 62
     5
 10
-343.83945764398959
 20
1568.1779488419929
 30
0.0
 11
-343.6704174190964
 21
1567.955499712293
 31
0.0
  0
LINE
  8
DETAIL
  6
CONTINUOUS
 62
     5
 10
-343.83948012079048
 20
1568.177978420593
 30
0.0
 11
-343.84695682029269
 21
1568.1896629924929
 31
0.0
  0
LINE
  8
DETAIL
  6
CONTINUOUS
 62
     5
 10
25.00000000000728
 20
108.6905989231927
 30
0.0
 11
25.00000000000728
 21
113.30940107669259
 31
0.0
  0
LINE
  8
DETAIL
  6
CONTINUOUS
 62
     5
 10
27.00000000000728
 20
111.299999999992
 30
0.0
 11
27.00000000000728
 21
110.69999999999339
 31
0.0
  0
LINE
  8
DETAIL
  6
CONTINUOUS
 62
     5
 10
28.700000000004369
 20
112.9999999999927
 30
0.0
 11
28.700000000004369
 21
111.299999999992
 31
0.0
  0
LINE
  8
DETAIL
  6
CONTINUOUS
 62
     5
 10
28.700000000004369
 20
110.69999999999339
 30
0.0
 11
28.700000000004369
 21
108.9999999999927
 31
0.0
  0
LINE
  8
DETAIL
  6
CONTINUOUS
 62
     5
 10
29.30000000000291
 20
108.9999999999927
 30
0.0
 11
29.30000000000291
 21
110.69999999999339
 31
0.0
  0
LINE
  8
DETAIL
  6
CONTINUOUS
 62
     5
 10
29.30000000000291
 20
111.299999999992
 30
0.0
 11
29.30000000000291
 21
112.9999999999927
 31
0.0
  0
LINE
  8
DETAIL
  6
CONTINUOUS
 62
     5
 10
31.00000000000728
 20
110.69999999999339
 30
0.0
 11
31.00000000000728
 21
111.299999999992
 31
0.0
  0
LINE
  8
DETAIL
  6
CONTINUOUS
 62
     5
 10
33.000000000007283
 20
108.6905989231927
 30
0.0
 11
33.000000000007283
 21
113.30940107669259
 31
0.0
  0
LINE
  8
DETAIL
  6
CONTINUOUS
 62
     5
 10
-307.99999999999272
 20
1234.499999999993
 30
0.0
 11
-308.49999999999272
 21
1234.499999999993
 31
0.0
  0
LINE
  8
DETAIL
  6
CONTINUOUS
 62
     5
 10
-309.99999999999272
 20
1241.499999999993
 30
0.0
 11
-312.49999999999272
 21
1241.499999999993
 31
0.0
  0
LINE
  8
DETAIL
  6
CONTINUOUS
 62
     5
 10
-317.0606017481914
 20
1597.7596019757941
 30
0.0
 11
-316.89318760829337
 21
1597.539292698893
 31
0.0
  0
LINE
  8
DETAIL
  6
CONTINUOUS
 62
     5
 10
-273.85224704129359
 20
1588.221572637693
 30
0.0
 11
-273.68818105079117
 21
1588.0056693706931
 31
0.0
  0
LINE
  8
DETAIL
  6
CONTINUOUS
 62
     5
 10
157.5000000000073
 20
91.999999999992724
 30
0.0
 11
157.5000000000073
 21
90.699999999993437
 31
0.0
  0
LINE
  8
DETAIL
  6
CONTINUOUS
 62
     5
 10
162.5000000000073
 20
91.999999999992724
 30
0.0
 11
162.5000000000073
 21
90.699999999993437
 31
0.0
  0
LINE
  8
DETAIL
  6
CONTINUOUS
 62
     5
 10
-398.99999999999272
 20
1511.8811978464919
 30
0.0
 11
-402.99999999999272
 21
1514.1905989231941
 31
0.0
  0
LINE
  8
DETAIL
  6
CONTINUOUS
 62
     5
 10
-394.99999999999272
 20
1518.8094010766929
 30
0.0
 11
-398.99999999999272
 21
1521.1188021534931
 31
0.0
  0
LINE
  8
DETAIL
  6
CONTINUOUS
 62
     5
 10
-359.99999999999272
 20
1534.3811978464919
 30
0.0
 11
-363.99999999999272
 21
1536.690598923193
 31
0.0
  0
LINE
  8
DETAIL
  6
CONTINUOUS
 62
     5
 10
-355.99999999999272
 20
1541.3094010766929
 30
0.0
 11
-359.99999999999272
 21
1543.6188021534931
 31
0.0
  0
LINE
  8
DETAIL
  6
CONTINUOUS
 62
     5
 10
-411.95431669078971
 20
1815.5926699021929
 30
0.0
 11
-410.33474862439459
 21
1813.5926699021929
 31
0.0
  0
LINE
  8
DETAIL
  6
CONTINUOUS
 62
     5
 10
-367.15284503039578
 20
1765.0345071273921
 30
0.0
 11
-405.79908646169491
 21
1812.758640781693
 31
0.0
  0
LINE
  8
DETAIL
  6
CONTINUOUS
 62
     5
 10
-376.98371685739397
 20
98.099999999993088
 30
0.0
 11
-377.3301270188968
 21
97.499999999992724
 31
0.0
  0
LINE
  8
DETAIL
  6
CONTINUOUS
 62
     5
 10
-361.1547005383909
 20
97.999999999992724
 30
0.0
 11
-362.02072594219499
 21
96.499999999992724
 31
0.0
  0
LINE
  8
DETAIL
  6
CONTINUOUS
 62
     5
 10
-359.1628421096903
 20
96.849999999993088
 30
0.0
 11
-360.02886751349428
 21
95.349999999993088
 31
0.0
  0
LINE
  8
DETAIL
  6
CONTINUOUS
 62
     5
 10
282.50000000000728
 20
2.299999999991996
 30
0.0
 11
282.50000000000728
 21
-0.000000000007276
 31
0.0
  0
LINE
  8
DETAIL
  6
CONTINUOUS
 62
     5
 10
282.50000000000728
 20
57.699999999993452
 30
0.0
 11
282.50000000000728
 21
59.999999999992717
 31
0.0
  0
LINE
  8
DETAIL
  6
CONTINUOUS
 62
     5
 10
285.50000000000728
 20
2.299999999991996
 30
0.0
 11
285.50000000000728
 21
57.699999999993452
 31
0.0
  0
LINE
  8
DETAIL
  6
CONTINUOUS
 62
     5
 10
287.80000000000291
 20
57.699999999993452
 30
0.0
 11
287.80000000000291
 21
2.299999999991996
 31
0.0
  0
LINE
  8
DETAIL
  6
CONTINUOUS
 62
     5
 10
288.40000000000867
 20
63.299999999991989
 30
0.0
 11
288.40000000000867
 21
62.299999999992004
 31
0.0
  0
LINE
  8
DETAIL
  6
CONTINUOUS
 62
     5
 10
288.50000000000722
 20
64.299999999991996
 30
0.0
 11
288.50000000000722
 21
63.299999999991989
 31
0.0
  0
LINE
  8
DETAIL
  6
CONTINUOUS
 62
     5
 10
289.50000000000728
 20
55.999999999992731
 30
0.0
 11
289.50000000000728
 21
57.699999999993452
 31
0.0
  0
LINE
  8
DETAIL
  6
CONTINUOUS
 62
     5
 10
290.50000000000728
 20
64.299999999991996
 30
0.0
 11
290.50000000000728
 21
67.799999999991996
 31
0.0
  0
LINE
  8
DETAIL
  6
CONTINUOUS
 62
     5
 10
292.00000000000728
 20
57.699999999993452
 30
0.0
 11
292.00000000000728
 21
51.799999999992004
 31
0.0
  0
LINE
  8
DETAIL
  6
CONTINUOUS
 62
     5
 10
294.50000000000728
 20
67.299999939492409
 30
0.0
 11
294.50000000000728
 21
64.799998546193819
 31
0.0
  0
LINE
  8
DETAIL
  6
CONTINUOUS
 62
     5
 10
297.00000000000728
 20
57.699999999993452
 30
0.0
 11
297.00000000000728
 21
51.799999999992004
 31
0.0
  0
LINE
  8
DETAIL
  6
CONTINUOUS
 62
     5
 10
298.50000000000728
 20
67.799999999991996
 30
0.0
 11
298.50000000000728
 21
64.299999999991996
 31
0.0
  0
LINE
  8
DETAIL
  6
CONTINUOUS
 62
     5
 10
300.00000000000728
 20
91.999999999992724
 30
0.0
 11
300.00000000000728
 21
97.999999999992724
 31
0.0
  0
LINE
  8
DETAIL
  6
CONTINUOUS
 62
     5
 10
300.50000000000728
 20
64.299999999991996
 30
0.0
 11
300.50000000000728
 21
63.299999999991989
 31
0.0
  0
LINE
  8
DETAIL
  6
CONTINUOUS
 62
     5
 10
300.60000000000582
 20
63.299999999991989
 30
0.0
 11
300.60000000000582
 21
62.299999999992004
 31
0.0
  0
LINE
  8
DETAIL
  6
CONTINUOUS
 62
     5
 10
302.00000000000728
 20
708.49999999999272
 30
0.0
 11
302.00000000000728
 21
697.26589928079193
 31
0.0
  0
LINE
  8
DETAIL
  6
CONTINUOUS
 62
     5
 10
310.00000000000728
 20
684.86396103069274
 30
0.0
 11
310.00000000000728
 21
696.63491012979284
 31
0.0
  0
LINE
  8
DETAIL
  6
CONTINUOUS
 62
     5
 10
311.50000000000728
 20
54.999999999992717
 30
0.0
 11
311.50000000000728
 21
57.699999999993452
 31
0.0
  0
LINE
  8
DETAIL
  6
CONTINUOUS
 62
     5
 10
312.00000000000728
 20
62.299999999992004
 30
0.0
 11
312.00000000000728
 21
69.499999999992724
 31
0.0
  0
LINE
  8
DETAIL
  6
CONTINUOUS
 62
     5
 10
312.00000000000728
 20
684.86396103069274
 30
0.0
 11
312.00000000000728
 21
701.00865136839275
 31
0.0
  0
LINE
  8
DETAIL
  6
CONTINUOUS
 62
     5
 10
312.00000000000728
 20
701.49999999999272
 30
0.0
 11
312.00000000000728
 21
701.75709558429298
 31
0.0
  0
LINE
  8
DETAIL
  6
CONTINUOUS
 62
     5
 10
322.00000000000728
 20
108.6905989231927
 30
0.0
 11
322.00000000000728
 21
113.30940107669259
 31
0.0
  0
LINE
  8
DETAIL
  6
CONTINUOUS
 62
     5
 10
324.00000000000728
 20
111.299999999992
 30
0.0
 11
324.00000000000728
 21
110.69999999999339
 31
0.0
  0
LINE
  8
DETAIL
  6
CONTINUOUS
 62
     5
 10
325.70000000000442
 20
112.9999999999927
 30
0.0
 11
325.70000000000442
 21
111.299999999992
 31
0.0
  0
LINE
  8
DETAIL
  6
CONTINUOUS
 62
     5
 10
325.70000000000442
 20
110.69999999999339
 30
0.0
 11
325.70000000000442
 21
108.9999999999927
 31
0.0
  0
LINE
  8
DETAIL
  6
CONTINUOUS
 62
     5
 10
326.30000000000291
 20
108.9999999999927
 30
0.0
 11
326.30000000000291
 21
110.69999999999339
 31
0.0
  0
LINE
  8
DETAIL
  6
CONTINUOUS
 62
     5
 10
326.30000000000291
 20
111.299999999992
 30
0.0
 11
326.30000000000291
 21
112.9999999999927
 31
0.0
  0
LINE
  8
DETAIL
  6
CONTINUOUS
 62
     5
 10
328.00000000000728
 20
110.69999999999339
 30
0.0
 11
328.00000000000728
 21
111.299999999992
 31
0.0
  0
LINE
  8
DETAIL
  6
CONTINUOUS
 62
     5
 10
330.00000000000728
 20
108.6905989231927
 30
0.0
 11
330.00000000000728
 21
113.30940107669259
 31
0.0
  0
LINE
  8
DETAIL
  6
CONTINUOUS
 62
     5
 10
-313.49999999999272
 20
649.61880215349265
 30
0.0
 11
-317.49999999999272
 21
647.30940107669255
 31
0.0
  0
LINE
  8
DETAIL
  6
CONTINUOUS
 62
     5
 10
-309.49999999999272
 20
642.69059892319274
 30
0.0
 11
-313.49999999999272
 21
640.38119784649268
 31
0.0
  0
LINE
  8
DETAIL
  6
CONTINUOUS
 62
     5
 10
-307.99999999999272
 20
1450.999999999992
 30
0.0
 11
-310.99999999999272
 21
1450.999999999992
 31
0.0
  0
LINE
  8
DETAIL
  6
CONTINUOUS
 62
     5
 10
-309.99999999999272
 20
1457.999999999993
 30
0.0
 11
-316.99999999999272
 21
1457.999999999993
 31
0.0
  0
LINE
  8
DETAIL
  6
CONTINUOUS
 62
     5
 10
-303.99999999999272
 20
1470.5999999999931
 30
0.0
 11
-304.99999999999272
 21
1470.5999999999931
 31
0.0
  0
LINE
  8
DETAIL
  6
CONTINUOUS
 62
     5
 10
-303.99999999999272
 20
1478.5999999999931
 30
0.0
 11
-304.99999999999272
 21
1478.5999999999931
 31
0.0
  0
LINE
  8
DETAIL
  6
CONTINUOUS
 62
     5
 10
-307.99999999999272
 20
1479.299999999992
 30
0.0
 11
-308.49999999999272
 21
1479.299999999992
 31
0.0
  0
LINE
  8
DETAIL
  6
CONTINUOUS
 62
     5
 10
-307.99999999999272
 20
1484.5999999999931
 30
0.0
 11
-315.19875033579592
 21
1484.5999999999931
 31
0.0
  0
LINE
  8
DETAIL
  6
CONTINUOUS
 62
     5
 10
-309.99999999999272
 20
1486.299999999992
 30
0.0
 11
-312.49999999999272
 21
1486.299999999992
 31
0.0
  0
LINE
  8
DETAIL
  6
CONTINUOUS
 62
     5
 10
0.000000000007276
 20
1534.3811978464919
 30
0.0
 11
-3.999999999992724
 21
1536.690598923193
 31
0.0
  0
LINE
  8
DETAIL
  6
CONTINUOUS
 62
     5
 10
4.0000000000072751
 20
1541.3094010766929
 30
0.0
 11
0.000000000007276
 21
1543.6188021534931
 31
0.0
  0
LINE
  8
DETAIL
  6
CONTINUOUS
 62
     5
 10
360.49577722660609
 20
1744.846313774993
 30
0.0
 11
365.02571006170911
 21
1641.0937941690929
 31
0.0
  0
LINE
  8
DETAIL
  6
CONTINUOUS
 62
     5
 10
355.40000000000867
 20
63.299999999991989
 30
0.0
 11
355.40000000000867
 21
62.299999999992004
 31
0.0
  0
LINE
  8
DETAIL
  6
CONTINUOUS
 62
     5
 10
355.50000000000728
 20
64.299999999991996
 30
0.0
 11
355.50000000000728
 21
63.299999999991989
 31
0.0
  0
LINE
  8
DETAIL
  6
CONTINUOUS
 62
     5
 10
356.00000000000728
 20
1536.690598923193
 30
0.0
 11
356.00000000000728
 21
1541.3094010766929
 31
0.0
  0
LINE
  8
DETAIL
  6
CONTINUOUS
 62
     5
 10
357.50000000000728
 20
64.299999999991996
 30
0.0
 11
357.50000000000728
 21
67.799999999991996
 31
0.0
  0
LINE
  8
DETAIL
  6
CONTINUOUS
 62
     5
 10
358.00000000000728
 20
1539.2999999999929
 30
0.0
 11
358.00000000000728
 21
1538.6999999999921
 31
0.0
  0
LINE
  8
DETAIL
  6
CONTINUOUS
 62
     5
 10
358.00000000000728
 20
67.799999999991996
 30
0.0
 11
358.00000000000728
 21
69.499999999992724
 31
0.0
  0
LINE
  8
DETAIL
  6
CONTINUOUS
 62
     5
 10
358.50000000000728
 20
57.699999999993452
 30
0.0
 11
358.50000000000728
 21
54.999999999992717
 31
0.0
  0
LINE
  8
DETAIL
  6
CONTINUOUS
 62
     5
 10
359.00000000000728
 20
57.699999999993452
 30
0.0
 11
359.00000000000728
 21
51.799999999992004
 31
0.0
  0
LINE
  8
DETAIL
  6
CONTINUOUS
 62
     5
 10
359.70000000000442
 20
1540.999999999993
 30
0.0
 11
359.70000000000442
 21
1539.2999999999929
 31
0.0
  0
LINE
  8
DETAIL
  6
CONTINUOUS
 62
     5
 10
359.70000000000442
 20
1538.6999999999921
 30
0.0
 11
359.70000000000442
 21
1536.999999999993
 31
0.0
  0
LINE
  8
DETAIL
  6
CONTINUOUS
 62
     5
 10
360.30000000000291
 20
1536.999999999993
 30
0.0
 11
360.30000000000291
 21
1538.6999999999921
 31
0.0
  0
LINE
  8
DETAIL
  6
CONTINUOUS
 62
     5
 10
360.30000000000291
 20
1539.2999999999929
 30
0.0
 11
360.30000000000291
 21
1540.999999999993
 31
0.0
  0
LINE
  8
DETAIL
  6
CONTINUOUS
 62
     5
 10
361.50000000000728
 20
67.299999939492409
 30
0.0
 11
361.50000000000728
 21
64.799998546193819
 31
0.0
  0
LINE
  8
DETAIL
  6
CONTINUOUS
 62
     5
 10
362.00000000000728
 20
1538.6999999999921
 30
0.0
 11
362.00000000000728
 21
1539.2999999999929
 31
0.0
  0
LINE
  8
DETAIL
  6
CONTINUOUS
 62
     5
 10
364.00000000000728
 20
57.699999999993452
 30
0.0
 11
364.00000000000728
 21
51.799999999992004
 31
0.0
  0
LINE
  8
DETAIL
  6
CONTINUOUS
 62
     5
 10
364.00000000000728
 20
1536.690598923193
 30
0.0
 11
364.00000000000728
 21
1541.3094010766929
 31
0.0
  0
LINE
  8
DETAIL
  6
CONTINUOUS
 62
     5
 10
365.00000000000728
 20
1521.499999999993
 30
0.0
 11
365.00000000000728
 21
684.86396103069274
 31
0.0
  0
LINE
  8
DETAIL
  6
CONTINUOUS
 62
     5
 10
365.50000000000728
 20
67.799999999991996
 30
0.0
 11
365.50000000000728
 21
64.299999999991996
 31
0.0
  0
LINE
  8
DETAIL
  6
CONTINUOUS
 62
     5
 10
367.50000000000728
 20
64.299999999991996
 30
0.0
 11
367.50000000000728
 21
63.299999999991989
 31
0.0
  0
LINE
  8
DETAIL
  6
CONTINUOUS
 62
     5
 10
367.50000000000728
 20
302.69059892319279
 30
0.0
 11
367.50000000000728
 21
307.30940107669272
 31
0.0
  0
LINE
  8
DETAIL
  6
CONTINUOUS
 62
     5
 10
367.50000000000728
 20
642.69059892319274
 30
0.0
 11
367.50000000000728
 21
647.30940107669255
 31
0.0
  0
LINE
  8
DETAIL
  6
CONTINUOUS
 62
     5
 10
367.60000000000582
 20
63.299999999991989
 30
0.0
 11
367.60000000000582
 21
62.299999999992004
 31
0.0
  0
LINE
  8
DETAIL
  6
CONTINUOUS
 62
     5
 10
369.50000000000728
 20
645.299999999992
 30
0.0
 11
369.50000000000728
 21
644.69999999999345
 31
0.0
  0
LINE
  8
DETAIL
  6
CONTINUOUS
 62
     5
 10
369.50000000000728
 20
305.299999999992
 30
0.0
 11
369.50000000000728
 21
304.69999999999339
 31
0.0
  0
LINE
  8
DETAIL
  6
CONTINUOUS
 62
     5
 10
371.20000000000442
 20
646.99999999999272
 30
0.0
 11
371.20000000000442
 21
645.299999999992
 31
0.0
  0
LINE
  8
DETAIL
  6
CONTINUOUS
 62
     5
 10
371.20000000000442
 20
644.69999999999345
 30
0.0
 11
371.20000000000442
 21
642.99999999999272
 31
0.0
  0
LINE
  8
DETAIL
  6
CONTINUOUS
 62
     5
 10
371.20000000000442
 20
306.99999999999272
 30
0.0
 11
371.20000000000442
 21
305.299999999992
 31
0.0
  0
LINE
  8
DETAIL
  6
CONTINUOUS
 62
     5
 10
371.20000000000442
 20
304.69999999999339
 30
0.0
 11
371.20000000000442
 21
302.99999999999272
 31
0.0
  0
LINE
  8
DETAIL
  6
CONTINUOUS
 62
     5
 10
371.80000000000291
 20
302.99999999999272
 30
0.0
 11
371.80000000000291
 21
304.69999999999339
 31
0.0
  0
LINE
  8
DETAIL
  6
CONTINUOUS
 62
     5
 10
371.80000000000291
 20
305.299999999992
 30
0.0
 11
371.80000000000291
 21
306.99999999999272
 31
0.0
  0
LINE
  8
DETAIL
  6
CONTINUOUS
 62
     5
 10
371.80000000000291
 20
642.99999999999272
 30
0.0
 11
371.80000000000291
 21
644.69999999999345
 31
0.0
  0
LINE
  8
DETAIL
  6
CONTINUOUS
 62
     5
 10
371.80000000000291
 20
645.299999999992
 30
0.0
 11
371.80000000000291
 21
646.99999999999272
 31
0.0
  0
LINE
  8
DETAIL
  6
CONTINUOUS
 62
     5
 10
373.50000000000728
 20
304.69999999999339
 30
0.0
 11
373.50000000000728
 21
305.299999999992
 31
0.0
  0
LINE
  8
DETAIL
  6
CONTINUOUS
 62
     5
 10
373.50000000000728
 20
644.69999999999345
 30
0.0
 11
373.50000000000728
 21
645.299999999992
 31
0.0
  0
LINE
  8
DETAIL
  6
CONTINUOUS
 62
     5
 10
375.50000000000728
 20
302.69059892319279
 30
0.0
 11
375.50000000000728
 21
307.30940107669272
 31
0.0
  0
LINE
  8
DETAIL
  6
CONTINUOUS
 62
     5
 10
375.50000000000728
 20
642.69059892319274
 30
0.0
 11
375.50000000000728
 21
647.30940107669255
 31
0.0
  0
LINE
  8
DETAIL
  6
CONTINUOUS
 62
     5
 10
378.00000000000728
 20
1450.499999999992
 30
0.0
 11
378.00000000000728
 21
1409.499999999993
 31
0.0
  0
LINE
  8
DETAIL
  6
CONTINUOUS
 62
     5
 10
378.00000000000728
 20
1148.499999999992
 30
0.0
 11
378.00000000000728
 21
1107.499999999993
 31
0.0
  0
LINE
  8
DETAIL
  6
CONTINUOUS
 62
     5
 10
378.00000000000728
 20
826.49999999999272
 30
0.0
 11
378.00000000000728
 21
785.49999999999272
 31
0.0
  0
LINE
  8
DETAIL
  6
CONTINUOUS
 62
     5
 10
381.00000000000728
 20
1450.499999999992
 30
0.0
 11
381.00000000000728
 21
1409.499999999993
 31
0.0
  0
LINE
  8
DETAIL
  6
CONTINUOUS
 62
     5
 10
381.00000000000728
 20
1148.499999999992
 30
0.0
 11
381.00000000000728
 21
1107.499999999993
 31
0.0
  0
LINE
  8
DETAIL
  6
CONTINUOUS
 62
     5
 10
381.00000000000728
 20
826.49999999999272
 30
0.0
 11
381.00000000000728
 21
785.49999999999272
 31
0.0
  0
LINE
  8
DETAIL
  6
CONTINUOUS
 62
     5
 10
382.80000000000291
 20
113.9999999999927
 30
0.0
 11
382.80000000000291
 21
116.9999999999927
 31
0.0
  0
LINE
  8
DETAIL
  6
CONTINUOUS
 62
     5
 10
382.80000000000291
 20
678.49999999999272
 30
0.0
 11
382.80000000000291
 21
684.86393499909173
 31
0.0
  0
LINE
  8
DETAIL
  6
CONTINUOUS
 62
     5
 10
383.60000000000582
 20
100.9999999999927
 30
0.0
 11
383.60000000000582
 21
113.9999999999927
 31
0.0
  0
LINE
  8
DETAIL
  6
CONTINUOUS
 62
     5
 10
384.00000000000728
 20
116.9999999999927
 30
0.0
 11
384.00000000000728
 21
678.49999999999272
 31
0.0
  0
LINE
  8
DETAIL
  6
CONTINUOUS
 62
     5
 10
385.00000000000728
 20
1521.499999999993
 30
0.0
 11
385.00000000000728
 21
116.9999999999927
 31
0.0
  0
LINE
  8
DETAIL
  6
CONTINUOUS
 62
     5
 10
387.00000000000728
 20
1522.499999999993
 30
0.0
 11
387.00000000000728
 21
1521.499999999993
 31
0.0
  0
LINE
  8
DETAIL
  6
CONTINUOUS
 62
     5
 10
387.00000000000728
 20
116.9999999999927
 30
0.0
 11
387.00000000000728
 21
97.999999999992724
 31
0.0
  0
LINE
  8
DETAIL
  6
CONTINUOUS
 62
     5
 10
389.50000000000728
 20
108.6905989231927
 30
0.0
 11
389.50000000000728
 21
113.30940107669259
 31
0.0
  0
LINE
  8
DETAIL
  6
CONTINUOUS
 62
     5
 10
391.14199793480662
 20
1836.5999999999931
 30
0.0
 11
391.14199793480662
 21
1857.5999999999931
 31
0.0
  0
LINE
  8
DETAIL
  6
CONTINUOUS
 62
     5
 10
391.50000000000728
 20
111.299999999992
 30
0.0
 11
391.50000000000728
 21
110.69999999999339
 31
0.0
  0
LINE
  8
DETAIL
  6
CONTINUOUS
 62
     5
 10
393.20000000000442
 20
112.9999999999927
 30
0.0
 11
393.20000000000442
 21
111.299999999992
 31
0.0
  0
LINE
  8
DETAIL
  6
CONTINUOUS
 62
     5
 10
393.20000000000442
 20
110.69999999999339
 30
0.0
 11
393.20000000000442
 21
108.9999999999927
 31
0.0
  0
LINE
  8
DETAIL
  6
CONTINUOUS
 62
     5
 10
393.80000000000291
 20
108.9999999999927
 30
0.0
 11
393.80000000000291
 21
110.69999999999339
 31
0.0
  0
LINE
  8
DETAIL
  6
CONTINUOUS
 62
     5
 10
393.80000000000291
 20
111.299999999992
 30
0.0
 11
393.80000000000291
 21
112.9999999999927
 31
0.0
  0
LINE
  8
DETAIL
  6
CONTINUOUS
 62
     5
 10
395.00000000000728
 20
1514.1905989231941
 30
0.0
 11
395.00000000000728
 21
1518.8094010766929
 31
0.0
  0
LINE
  8
DETAIL
  6
CONTINUOUS
 62
     5
 10
395.50000000000728
 20
110.69999999999339
 30
0.0
 11
395.50000000000728
 21
111.299999999992
 31
0.0
  0
LINE
  8
DETAIL
  6
CONTINUOUS
 62
     5
 10
397.00000000000728
 20
1516.7999999999929
 30
0.0
 11
397.00000000000728
 21
1516.1999999999921
 31
0.0
  0
LINE
  8
DETAIL
  6
CONTINUOUS
 62
     5
 10
397.50000000000728
 20
108.6905989231927
 30
0.0
 11
397.50000000000728
 21
113.30940107669259
 31
0.0
  0
LINE
  8
DETAIL
  6
CONTINUOUS
 62
     5
 10
398.70000000000442
 20
1518.4999999999941
 30
0.0
 11
398.70000000000442
 21
1516.7999999999929
 31
0.0
  0
LINE
  8
DETAIL
  6
CONTINUOUS
 62
     5
 10
398.70000000000442
 20
1516.1999999999921
 30
0.0
 11
398.70000000000442
 21
1514.499999999993
 31
0.0
  0
LINE
  8
DETAIL
  6
CONTINUOUS
 62
     5
 10
399.30000000000291
 20
1514.499999999993
 30
0.0
 11
399.30000000000291
 21
1516.1999999999921
 31
0.0
  0
LINE
  8
DETAIL
  6
CONTINUOUS
 62
     5
 10
399.30000000000291
 20
1516.7999999999929
 30
0.0
 11
399.30000000000291
 21
1518.4999999999941
 31
0.0
  0
LINE
  8
DETAIL
  6
CONTINUOUS
 62
     5
 10
401.00000000000722
 20
1516.1999999999921
 30
0.0
 11
401.00000000000722
 21
1516.7999999999929
 31
0.0
  0
LINE
  8
DETAIL
  6
CONTINUOUS
 62
     5
 10
403.00000000000728
 20
1514.1905989231941
 30
0.0
 11
403.00000000000728
 21
1518.8094010766929
 31
0.0
  0
LINE
  8
DETAIL
  6
CONTINUOUS
 62
     5
 10
405.40000000000867
 20
63.299999999991989
 30
0.0
 11
405.40000000000867
 21
62.299999999992004
 31
0.0
  0
LINE
  8
DETAIL
  6
CONTINUOUS
 62
     5
 10
405.50000000000722
 20
64.299999999991996
 30
0.0
 11
405.50000000000722
 21
63.299999999991989
 31
0.0
  0
LINE
  8
DETAIL
  6
CONTINUOUS
 62
     5
 10
407.50000000000728
 20
64.299999999991996
 30
0.0
 11
407.50000000000728
 21
67.799999999991996
 31
0.0
  0
LINE
  8
DETAIL
  6
CONTINUOUS
 62
     5
 10
409.00000000000722
 20
57.699999999993452
 30
0.0
 11
409.00000000000722
 21
51.799999999992004
 31
0.0
  0
LINE
  8
DETAIL
  6
CONTINUOUS
 62
     5
 10
409.25813151870528
 20
1838.5999999999931
 30
0.0
 11
409.25813151870528
 21
1857.5999999999931
 31
0.0
  0
LINE
  8
DETAIL
  6
CONTINUOUS
 62
     5
 10
411.18510216230789
 20
1816.4499999999921
 30
0.0
 11
411.18510216230789
 21
1817.0999999999931
 31
0.0
  0
LINE
  8
DETAIL
  6
CONTINUOUS
 62
     5
 10
411.50000000000728
 20
67.299999939492409
 30
0.0
 11
411.50000000000728
 21
64.799998546193819
 31
0.0
  0
LINE
  8
DETAIL
  6
CONTINUOUS
 62
     5
 10
414.00000000000722
 20
1565.479448065993
 30
0.0
 11
414.00000000000722
 21
1555.9248285850931
 31
0.0
  0
LINE
  8
DETAIL
  6
CONTINUOUS
 62
     5
 10
414.00000000000722
 20
57.699999999993452
 30
0.0
 11
414.00000000000722
 21
51.799999999992004
 31
0.0
  0
LINE
  8
DETAIL
  6
CONTINUOUS
 62
     5
 10
414.7581315186107
 20
1834.5999999999931
 30
0.0
 11
414.7581315186107
 21
1817.0999999999931
 31
0.0
  0
LINE
  8
DETAIL
  6
CONTINUOUS
 62
     5
 10
415.50000000000728
 20
67.799999999991996
 30
0.0
 11
415.50000000000728
 21
64.299999999991996
 31
0.0
  0
LINE
  8
DETAIL
  6
CONTINUOUS
 62
     5
 10
417.50000000000722
 20
64.299999999991996
 30
0.0
 11
417.50000000000722
 21
63.299999999991989
 31
0.0
  0
LINE
  8
DETAIL
  6
CONTINUOUS
 62
     5
 10
417.60000000000571
 20
63.299999999991989
 30
0.0
 11
417.60000000000571
 21
62.299999999992004
 31
0.0
  0
LINE
  8
DETAIL
  6
CONTINUOUS
 62
     5
 10
424.01471862570901
 20
758.99999999999272
 30
0.0
 11
424.01471862570901
 21
893.99999999999261
 31
0.0
  0
LINE
  8
DETAIL
  6
CONTINUOUS
 62
     5
 10
424.01471862570901
 20
943.99999999999261
 30
0.0
 11
424.01471862570901
 21
1093.999999999992
 31
0.0
  0
LINE
  8
DETAIL
  6
CONTINUOUS
 62
     5
 10
424.01471862570901
 20
1143.999999999993
 30
0.0
 11
424.01471862570901
 21
1293.999999999992
 31
0.0
  0
LINE
  8
DETAIL
  6
CONTINUOUS
 62
     5
 10
424.01471862570901
 20
1343.999999999992
 30
0.0
 11
424.01471862570901
 21
1493.999999999993
 31
0.0
  0
LINE
  8
DETAIL
  6
CONTINUOUS
 62
     5
 10
361.08727532460762
 20
709.49999999999272
 30
0.0
 11
361.1224900874077
 21
711.5174524063932
 31
0.0
  0
LINE
  8
DETAIL
  6
CONTINUOUS
 62
     5
 10
-399.29999999999558
 20
1514.499999999993
 30
0.0
 11
-398.69999999999709
 21
1514.499999999993
 31
0.0
  0
LINE
  8
DETAIL
  6
CONTINUOUS
 62
     5
 10
398.70000000000442
 20
1514.499999999993
 30
0.0
 11
399.30000000000291
 21
1514.499999999993
 31
0.0
  0
LINE
  8
DETAIL
  6
CONTINUOUS
 62
     5
 10
-400.99999999999261
 20
1516.1999999999921
 30
0.0
 11
-399.29999999999558
 21
1516.1999999999921
 31
0.0
  0
LINE
  8
DETAIL
  6
CONTINUOUS
 62
     5
 10
-398.69999999999709
 20
1516.1999999999921
 30
0.0
 11
-396.99999999999272
 21
1516.1999999999921
 31
0.0
  0
LINE
  8
DETAIL
  6
CONTINUOUS
 62
     5
 10
397.00000000000728
 20
1516.1999999999921
 30
0.0
 11
398.70000000000442
 21
1516.1999999999921
 31
0.0
  0
LINE
  8
DETAIL
  6
CONTINUOUS
 62
     5
 10
399.30000000000291
 20
1516.1999999999921
 30
0.0
 11
401.00000000000722
 21
1516.1999999999921
 31
0.0
  0
LINE
  8
DETAIL
  6
CONTINUOUS
 62
     5
 10
401.00000000000722
 20
1516.7999999999929
 30
0.0
 11
399.30000000000291
 21
1516.7999999999929
 31
0.0
  0
LINE
  8
DETAIL
  6
CONTINUOUS
 62
     5
 10
398.70000000000442
 20
1516.7999999999929
 30
0.0
 11
397.00000000000728
 21
1516.7999999999929
 31
0.0
  0
LINE
  8
DETAIL
  6
CONTINUOUS
 62
     5
 10
-396.99999999999272
 20
1516.7999999999929
 30
0.0
 11
-398.69999999999709
 21
1516.7999999999929
 31
0.0
  0
LINE
  8
DETAIL
  6
CONTINUOUS
 62
     5
 10
-399.29999999999558
 20
1516.7999999999929
 30
0.0
 11
-400.99999999999261
 21
1516.7999999999929
 31
0.0
  0
LINE
  8
DETAIL
  6
CONTINUOUS
 62
     5
 10
399.30000000000291
 20
1518.4999999999941
 30
0.0
 11
398.70000000000442
 21
1518.4999999999941
 31
0.0
  0
LINE
  8
DETAIL
  6
CONTINUOUS
 62
     5
 10
-398.69999999999709
 20
1518.4999999999941
 30
0.0
 11
-399.29999999999558
 21
1518.4999999999941
 31
0.0
  0
LINE
  8
DETAIL
  6
CONTINUOUS
 62
     5
 10
-304.99999999999272
 20
1520.499999999993
 30
0.0
 11
365.00000000000728
 21
1520.499999999993
 31
0.0
  0
LINE
  8
DETAIL
  6
CONTINUOUS
 62
     5
 10
-326.99999999999272
 20
1521.499999999993
 30
0.0
 11
385.00000000000728
 21
1521.499999999993
 31
0.0
  0
LINE
  8
DETAIL
  6
CONTINUOUS
 62
     5
 10
387.00000000000728
 20
1521.499999999993
 30
0.0
 11
385.00000000000728
 21
1521.499999999993
 31
0.0
  0
LINE
  8
DETAIL
  6
CONTINUOUS
 62
     5
 10
-326.99999999999272
 20
1521.499999999993
 30
0.0
 11
-328.99999999999272
 21
1521.499999999993
 31
0.0
  0
LINE
  8
DETAIL
  6
CONTINUOUS
 62
     5
 10
460.2709103982051
 20
1522.499999999993
 30
0.0
 11
-460.27091039829241
 21
1522.499999999993
 31
0.0
  0
LINE
  8
DETAIL
  6
CONTINUOUS
 62
     5
 10
-360.29999999999558
 20
1536.999999999993
 30
0.0
 11
-359.69999999999709
 21
1536.999999999993
 31
0.0
  0
LINE
  8
DETAIL
  6
CONTINUOUS
 62
     5
 10
-0.2999999999956344
 20
1536.999999999993
 30
0.0
 11
0.3000000000029104
 21
1536.999999999993
 31
0.0
  0
LINE
  8
DETAIL
  6
CONTINUOUS
 62
     5
 10
359.70000000000442
 20
1536.999999999993
 30
0.0
 11
360.30000000000291
 21
1536.999999999993
 31
0.0
  0
LINE
  8
DETAIL
  6
CONTINUOUS
 62
     5
 10
-361.99999999999272
 20
1538.6999999999921
 30
0.0
 11
-360.29999999999558
 21
1538.6999999999921
 31
0.0
  0
LINE
  8
DETAIL
  6
CONTINUOUS
 62
     5
 10
-359.69999999999709
 20
1538.6999999999921
 30
0.0
 11
-357.99999999999272
 21
1538.6999999999921
 31
0.0
  0
LINE
  8
DETAIL
  6
CONTINUOUS
 62
     5
 10
-1.999999999992724
 20
1538.6999999999921
 30
0.0
 11
-0.2999999999956344
 21
1538.6999999999921
 31
0.0
  0
LINE
  8
DETAIL
  6
CONTINUOUS
 62
     5
 10
0.3000000000029104
 20
1538.6999999999921
 30
0.0
 11
2.0000000000072751
 21
1538.6999999999921
 31
0.0
  0
LINE
  8
DETAIL
  6
CONTINUOUS
 62
     5
 10
358.00000000000728
 20
1538.6999999999921
 30
0.0
 11
359.70000000000442
 21
1538.6999999999921
 31
0.0
  0
LINE
  8
DETAIL
  6
CONTINUOUS
 62
     5
 10
360.30000000000291
 20
1538.6999999999921
 30
0.0
 11
362.00000000000728
 21
1538.6999999999921
 31
0.0
  0
LINE
  8
DETAIL
  6
CONTINUOUS
 62
     5
 10
362.00000000000728
 20
1539.2999999999929
 30
0.0
 11
360.30000000000291
 21
1539.2999999999929
 31
0.0
  0
LINE
  8
DETAIL
  6
CONTINUOUS
 62
     5
 10
359.70000000000442
 20
1539.2999999999929
 30
0.0
 11
358.00000000000728
 21
1539.2999999999929
 31
0.0
  0
LINE
  8
DETAIL
  6
CONTINUOUS
 62
     5
 10
2.0000000000072751
 20
1539.2999999999929
 30
0.0
 11
0.3000000000029104
 21
1539.2999999999929
 31
0.0
  0
LINE
  8
DETAIL
  6
CONTINUOUS
 62
     5
 10
-0.2999999999956344
 20
1539.2999999999929
 30
0.0
 11
-1.999999999992724
 21
1539.2999999999929
 31
0.0
  0
LINE
  8
DETAIL
  6
CONTINUOUS
 62
     5
 10
-357.99999999999272
 20
1539.2999999999929
 30
0.0
 11
-359.69999999999709
 21
1539.2999999999929
 31
0.0
  0
LINE
  8
DETAIL
  6
CONTINUOUS
 62
     5
 10
-360.29999999999558
 20
1539.2999999999929
 30
0.0
 11
-361.99999999999272
 21
1539.2999999999929
 31
0.0
  0
LINE
  8
DETAIL
  6
CONTINUOUS
 62
     5
 10
360.30000000000291
 20
1540.999999999993
 30
0.0
 11
359.70000000000442
 21
1540.999999999993
 31
0.0
  0
LINE
  8
DETAIL
  6
CONTINUOUS
 62
     5
 10
0.3000000000029104
 20
1540.999999999993
 30
0.0
 11
-0.2999999999956344
 21
1540.999999999993
 31
0.0
  0
LINE
  8
DETAIL
  6
CONTINUOUS
 62
     5
 10
-359.69999999999709
 20
1540.999999999993
 30
0.0
 11
-360.29999999999558
 21
1540.999999999993
 31
0.0
  0
LINE
  8
DETAIL
  6
CONTINUOUS
 62
     5
 10
460.2709103982051
 20
1522.499999999993
 30
0.0
 11
460.01256111890689
 21
1551.1038951757939
 31
0.0
  0
LINE
  8
DETAIL
  6
CONTINUOUS
 62
     5
 10
436.65685424950789
 20
758.99999999999272
 30
0.0
 11
436.65685424950789
 21
893.99999999999261
 31
0.0
  0
LINE
  8
DETAIL
  6
CONTINUOUS
 62
     5
 10
436.65685424950789
 20
943.99999999999261
 30
0.0
 11
436.65685424950789
 21
1093.999999999992
 31
0.0
  0
LINE
  8
DETAIL
  6
CONTINUOUS
 62
     5
 10
436.65685424950789
 20
1143.999999999993
 30
0.0
 11
436.65685424950789
 21
1293.999999999992
 31
0.0
  0
LINE
  8
DETAIL
  6
CONTINUOUS
 62
     5
 10
436.65685424950789
 20
1343.999999999992
 30
0.0
 11
436.65685424950789
 21
1493.999999999993
 31
0.0
  0
LINE
  8
DETAIL
  6
CONTINUOUS
 62
     5
 10
450.50000000000722
 20
-0.000000000007276
 30
0.0
 11
450.50000000000722
 21
64.499999999992724
 31
0.0
  0
LINE
  8
DETAIL
  6
CONTINUOUS
 62
     5
 10
455.00000000000722
 20
1522.499999999993
 30
0.0
 11
455.00000000000722
 21
64.499999999992724
 31
0.0
  0
LINE
  8
DETAIL
  6
CONTINUOUS
 62
     5
 10
455.20000000000442
 20
678.49999999999272
 30
0.0
 11
455.20000000000442
 21
117.0999999999931
 31
0.0
  0
LINE
  8
DETAIL
  6
CONTINUOUS
 62
     5
 10
455.50000000000722
 20
184.4999999999927
 30
0.0
 11
455.50000000000722
 21
134.4999999999927
 31
0.0
  0
LINE
  8
DETAIL
  6
CONTINUOUS
 62
     5
 10
-409.49999999999261
 20
51.299999999991989
 30
0.0
 11
-408.99999999999272
 21
51.799999999992004
 31
0.0
  0
LINE
  8
DETAIL
  6
CONTINUOUS
 62
     5
 10
-359.49999999999272
 20
51.299999999991989
 30
0.0
 11
-358.99999999999272
 21
51.799999999992004
 31
0.0
  0
LINE
  8
DETAIL
  6
CONTINUOUS
 62
     5
 10
-292.49999999999272
 20
51.299999999991989
 30
0.0
 11
-291.99999999999272
 21
51.799999999992004
 31
0.0
  0
LINE
  8
DETAIL
  6
CONTINUOUS
 62
     5
 10
-313.49999999999272
 20
309.6188021534926
 30
0.0
 11
-317.49999999999272
 21
307.30940107669272
 31
0.0
  0
LINE
  8
DETAIL
  6
CONTINUOUS
 62
     5
 10
-309.49999999999272
 20
302.69059892319279
 30
0.0
 11
-313.49999999999272
 21
300.3811978464928
 31
0.0
  0
LINE
  8
DETAIL
  6
CONTINUOUS
 62
     5
 10
399.00000000000728
 20
1511.8811978464919
 30
0.0
 11
395.00000000000728
 21
1514.1905989231941
 31
0.0
  0
LINE
  8
DETAIL
  6
CONTINUOUS
 62
     5
 10
360.00000000000728
 20
1534.3811978464919
 30
0.0
 11
356.00000000000728
 21
1536.690598923193
 31
0.0
  0
LINE
  8
DETAIL
  6
CONTINUOUS
 62
     5
 10
403.00000000000728
 20
1518.8094010766929
 30
0.0
 11
399.00000000000728
 21
1521.1188021534931
 31
0.0
  0
LINE
  8
DETAIL
  6
CONTINUOUS
 62
     5
 10
364.00000000000728
 20
1541.3094010766929
 30
0.0
 11
360.00000000000728
 21
1543.6188021534931
 31
0.0
  0
LINE
  8
DETAIL
  6
CONTINUOUS
 62
     5
 10
0.000000000007276
 20
1820.181197846493
 30
0.0
 11
-3.999999999992724
 21
1822.4905989231929
 31
0.0
  0
LINE
  8
DETAIL
  6
CONTINUOUS
 62
     5
 10
4.0000000000072751
 20
1827.1094010766931
 30
0.0
 11
0.000000000007276
 21
1829.4188021534931
 31
0.0
  0
LINE
  8
DETAIL
  6
CONTINUOUS
 62
     5
 10
-157.9999999999927
 20
90.199999999993452
 30
0.0
 11
-157.4999999999927
 21
90.699999999993437
 31
0.0
  0
LINE
  8
DETAIL
  6
CONTINUOUS
 62
     5
 10
-409.96357325969439
 20
94.999999999992724
 30
0.0
 11
-453.45064030268981
 21
64.499999999992724
 31
0.0
  0
LINE
  8
DETAIL
  6
CONTINUOUS
 62
     5
 10
-452.74353352149041
 20
64.499999999992724
 30
0.0
 11
-409.25646647849499
 21
94.999999999992724
 31
0.0
  0
LINE
  8
DETAIL
  6
CONTINUOUS
 62
     5
 10
371.50000000000728
 20
649.61880215349265
 30
0.0
 11
367.50000000000728
 21
647.30940107669255
 31
0.0
  0
LINE
  8
DETAIL
  6
CONTINUOUS
 62
     5
 10
375.50000000000728
 20
642.69059892319274
 30
0.0
 11
371.50000000000728
 21
640.38119784649268
 31
0.0
  0
LINE
  8
DETAIL
  6
CONTINUOUS
 62
     5
 10
410.14046213400428
 20
1813.4999999999941
 30
0.0
 11
406.92162928700412
 21
1813.4999999999941
 31
0.0
  0
LINE
  8
DETAIL
  6
CONTINUOUS
 62
     5
 10
-406.9216292869969
 20
1813.4999999999941
 30
0.0
 11
-410.14042876789608
 21
1813.4999999999941
 31
0.0
  0
LINE
  8
DETAIL
  6
CONTINUOUS
 62
     5
 10
411.75999744160788
 20
1815.999999999993
 30
0.0
 11
411.63518190390459
 21
1815.999999999993
 31
0.0
  0
LINE
  8
DETAIL
  6
CONTINUOUS
 62
     5
 10
-411.63518174635101
 20
1815.999999999993
 30
0.0
 11
-411.75999744159338
 21
1815.999999999993
 31
0.0
  0
LINE
  8
DETAIL
  6
CONTINUOUS
 62
     5
 10
414.7581315186107
 20
1817.0999999999931
 30
0.0
 11
-414.75813151869079
 21
1817.0999999999931
 31
0.0
  0
LINE
  8
DETAIL
  6
CONTINUOUS
 62
     5
 10
-339.99999999999272
 20
115.6188021534926
 30
0.0
 11
-343.99999999999272
 21
113.30940107669259
 31
0.0
  0
LINE
  8
DETAIL
  6
CONTINUOUS
 62
     5
 10
-335.99999999999272
 20
108.6905989231927
 30
0.0
 11
-339.99999999999272
 21
106.3811978464928
 31
0.0
  0
LINE
  8
DETAIL
  6
CONTINUOUS
 62
     5
 10
-0.2999999999956344
 20
1822.7999999999929
 30
0.0
 11
0.3000000000029104
 21
1822.7999999999929
 31
0.0
  0
LINE
  8
DETAIL
  6
CONTINUOUS
 62
     5
 10
-1.999999999992724
 20
1824.4999999999941
 30
0.0
 11
-0.2999999999956344
 21
1824.4999999999941
 31
0.0
  0
LINE
  8
DETAIL
  6
CONTINUOUS
 62
     5
 10
0.3000000000029104
 20
1824.4999999999941
 30
0.0
 11
2.0000000000072751
 21
1824.4999999999941
 31
0.0
  0
LINE
  8
DETAIL
  6
CONTINUOUS
 62
     5
 10
2.0000000000072751
 20
1825.0999999999931
 30
0.0
 11
0.3000000000029104
 21
1825.0999999999931
 31
0.0
  0
LINE
  8
DETAIL
  6
CONTINUOUS
 62
     5
 10
-0.2999999999956344
 20
1825.0999999999931
 30
0.0
 11
-1.999999999992724
 21
1825.0999999999931
 31
0.0
  0
LINE
  8
DETAIL
  6
CONTINUOUS
 62
     5
 10
0.3000000000029104
 20
1826.7999999999929
 30
0.0
 11
-0.2999999999956344
 21
1826.7999999999929
 31
0.0
  0
LINE
  8
DETAIL
  6
CONTINUOUS
 62
     5
 10
412.75813489130809
 20
1836.5999999999931
 30
0.0
 11
391.14199793480662
 21
1836.5999999999931
 31
0.0
  0
LINE
  8
DETAIL
  6
CONTINUOUS
 62
     5
 10
391.14199793480662
 20
1836.5999999999931
 30
0.0
 11
-391.14199793479202
 21
1836.5999999999931
 31
0.0
  0
LINE
  8
DETAIL
  6
CONTINUOUS
 62
     5
 10
-391.14199793479202
 20
1836.5999999999931
 30
0.0
 11
-412.75811622499162
 21
1836.5999999999931
 31
0.0
  0
LINE
  8
DETAIL
  6
CONTINUOUS
 62
     5
 10
-408.75810734379041
 20
1858.0999999999931
 30
0.0
 11
408.75813151870528
 21
1858.0999999999931
 31
0.0
  0
LINE
  8
DETAIL
  6
CONTINUOUS
 62
     5
 10
307.01628314260603
 20
98.099999999993088
 30
0.0
 11
306.66987298110331
 21
97.499999999992724
 31
0.0
  0
LINE
  8
DETAIL
  6
CONTINUOUS
 62
     5
 10
308.8452994616091
 20
97.999999999992724
 30
0.0
 11
307.97927405780501
 21
96.499999999992724
 31
0.0
  0
LINE
  8
DETAIL
  6
CONTINUOUS
 62
     5
 10
310.8371578903097
 20
96.849999999993088
 30
0.0
 11
309.97113248650572
 21
95.349999999993088
 31
0.0
  0
LINE
  8
DETAIL
  6
CONTINUOUS
 62
     5
 10
-267.99999999999272
 20
115.6188021534926
 30
0.0
 11
-271.99999999999272
 21
113.30940107669259
 31
0.0
  0
LINE
  8
DETAIL
  6
CONTINUOUS
 62
     5
 10
-263.99999999999272
 20
108.6905989231927
 30
0.0
 11
-267.99999999999272
 21
106.3811978464928
 31
0.0
  0
LINE
  8
DETAIL
  6
CONTINUOUS
 62
     5
 10
371.22649730810372
 20
94.999999999992724
 30
0.0
 11
373.01628314260603
 21
98.099999999993088
 31
0.0
  0
LINE
  8
DETAIL
  6
CONTINUOUS
 62
     5
 10
162.00000000000719
 20
90.199999999993452
 30
0.0
 11
162.5000000000073
 21
90.699999999993437
 31
0.0
  0
LINE
  8
DETAIL
  6
CONTINUOUS
 62
     5
 10
29.00000000000728
 20
115.6188021534926
 30
0.0
 11
25.00000000000728
 21
113.30940107669259
 31
0.0
  0
LINE
  8
DETAIL
  6
CONTINUOUS
 62
     5
 10
371.50000000000728
 20
309.6188021534926
 30
0.0
 11
367.50000000000728
 21
307.30940107669272
 31
0.0
  0
LINE
  8
DETAIL
  6
CONTINUOUS
 62
     5
 10
33.000000000007283
 20
108.6905989231927
 30
0.0
 11
29.00000000000728
 21
106.3811978464928
 31
0.0
  0
LINE
  8
DETAIL
  6
CONTINUOUS
 62
     5
 10
296.50000000000728
 20
51.299999999991989
 30
0.0
 11
297.00000000000728
 21
51.799999999992004
 31
0.0
  0
LINE
  8
DETAIL
  6
CONTINUOUS
 62
     5
 10
375.50000000000728
 20
302.69059892319279
 30
0.0
 11
371.50000000000728
 21
300.3811978464928
 31
0.0
  0
LINE
  8
DETAIL
  6
CONTINUOUS
 62
     5
 10
363.50000000000728
 20
51.299999999991989
 30
0.0
 11
364.00000000000728
 21
51.799999999992004
 31
0.0
  0
LINE
  8
DETAIL
  6
CONTINUOUS
 62
     5
 10
413.50000000000722
 20
51.299999999991989
 30
0.0
 11
414.00000000000722
 21
51.799999999992004
 31
0.0
  0
LINE
  8
DETAIL
  6
CONTINUOUS
 62
     5
 10
326.00000000000728
 20
115.6188021534926
 30
0.0
 11
322.00000000000728
 21
113.30940107669259
 31
0.0
  0
LINE
  8
DETAIL
  6
CONTINUOUS
 62
     5
 10
330.00000000000728
 20
108.6905989231927
 30
0.0
 11
326.00000000000728
 21
106.3811978464928
 31
0.0
  0
LINE
  8
DETAIL
  6
CONTINUOUS
 62
     5
 10
393.50000000000728
 20
115.6188021534926
 30
0.0
 11
389.50000000000728
 21
113.30940107669259
 31
0.0
  0
LINE
  8
DETAIL
  6
CONTINUOUS
 62
     5
 10
397.50000000000728
 20
108.6905989231927
 30
0.0
 11
393.50000000000728
 21
106.3811978464928
 31
0.0
  0
ARC
  8
DETAIL
  6
CONTINUOUS
 62
     5
 10
-394.38429773519601
 20
-7493.5923516127077
 30
0.0
 40
9068.8299510318993
 50
89.305853999310386
 51
89.532792518347975
  0
ARC
  8
DETAIL
  6
CONTINUOUS
 62
     5
 10
-389.29049296289298
 20
-6998.8932835350051
 30
0.0
 40
8573.8910713559999
 50
89.298724460755267
 51
89.538732939369964
  0
ARC
  8
DETAIL
  6
CONTINUOUS
 62
     5
 10
-334.78312909269152
 20
-4041.3275734874069
 30
0.0
 40
5630.0387533381991
 50
89.383809617077745
 51
89.735566545796459
  0
ARC
  8
DETAIL
  6
CONTINUOUS
 62
     5
 10
-292.58901453369617
 20
-2299.9943605354069
 30
0.0
 40
3875.0305084206002
 50
90.411732393560115
 51
90.610505151153347
  0
ARC
  8
DETAIL
  6
CONTINUOUS
 62
     5
 10
-294.13283042299008
 20
-2097.2990123314071
 30
0.0
 40
3672.1119452268999
 50
90.407758342471013
 51
90.617585276445254
  0
ARC
  8
DETAIL
  6
CONTINUOUS
 62
     5
 10
-294.33242835049168
 20
-1417.0214453423071
 30
0.0
 40
3005.7074798552012
 50
90.275772784806449
 51
90.523260104394225
  0
CIRCLE
  8
DETAIL
  6
CONTINUOUS
 62
     5
 10
-429.99999999999261
 20
69.999999999992724
 30
0.0
 40
2.2999999999999989
  0
CIRCLE
  8
DETAIL
  6
CONTINUOUS
 62
     5
 10
-409.99999999999272
 20
84.999999999992724
 30
0.0
 40
2.2999999999999989
  0
CIRCLE
  8
DETAIL
  6
CONTINUOUS
 62
     5
 10
-398.99999999999272
 20
146.4999999999927
 30
0.0
 40
2.2999999999999989
  0
CIRCLE
  8
DETAIL
  6
CONTINUOUS
 62
     5
 10
-398.99999999999272
 20
821.49999999999272
 30
0.0
 40
2.2999999999999989
  0
ARC
  8
DETAIL
  6
CONTINUOUS
 62
     5
 10
-523.63601768779336
 20
1697.953873038593
 30
0.0
 40
168.5
 50
312.08480265582199
 51
340.27840313866142
  0
ARC
  8
DETAIL
  6
CONTINUOUS
 62
     5
 10
-400.0586292244916
 20
1643.4421938914929
 30
0.0
 40
95.060965764900004
 50
325.41440809045901
 51
330.64450235445378
  0
ARC
  8
DETAIL
  6
CONTINUOUS
 62
     5
 10
-399.41214077129553
 20
1642.9779681556929
 30
0.0
 40
94.523120919799993
 50
325.37228887603538
 51
330.63119752199782
  0
ARC
  8
DETAIL
  6
CONTINUOUS
 62
     5
 10
-403.99999999999272
 20
1565.479448065993
 30
0.0
 40
10.0
 50
132.0848026558219
 51
180.0
  0
ARC
  8
DETAIL
  6
CONTINUOUS
 62
     5
 10
-398.99999999999272
 20
1516.499999999993
 30
0.0
 40
6.0999999999999988
 50
100.38885781508171
 51
79.611142184918236
  0
CIRCLE
  8
DETAIL
  6
CONTINUOUS
 62
     5
 10
-398.99999999999272
 20
1516.499999999993
 30
0.0
 40
6.0
  0
ARC
  8
DETAIL
  6
CONTINUOUS
 62
     5
 10
-456.01271342669497
 20
1551.0689890337931
 30
0.0
 40
4.0
 50
90.999999999871036
 51
179.50000000003519
  0
CIRCLE
  8
DETAIL
  6
CONTINUOUS
 62
     5
 10
-398.99999999999272
 20
1496.499999999993
 30
0.0
 40
2.2999999999999989
  0
ARC
  8
DETAIL
  6
CONTINUOUS
 62
     5
 10
-411.25813151869079
 20
1838.5999999999931
 30
0.0
 40
2.0
 50
270.0
 51
0.0
  0
ARC
  8
DETAIL
  6
CONTINUOUS
 62
     5
 10
-412.75813151869067
 20
1834.5999999999931
 30
0.0
 40
2.0
 50
89.999561869044655
 51
180.0
  0
ARC
  8
DETAIL
  6
CONTINUOUS
 62
     5
 10
-407.35337838409032
 20
1811.4999999999941
 30
0.0
 40
2.0
 50
38.999999999911502
 51
82.054427812890481
  0
ARC
  8
DETAIL
  6
CONTINUOUS
 62
     5
 10
-408.75813151869067
 20
1857.5999999999931
 30
0.0
 40
0.5
 50
90.0
 51
180.0
  0
ARC
  8
DETAIL
  6
CONTINUOUS
 62
     5
 10
-411.63522823669331
 20
1816.450283410293
 30
0.0
 40
0.4502834127000001
 50
270.00588358015659
 51
275.46601460046668
  0
ARC
  8
DETAIL
  6
CONTINUOUS
 62
     5
 10
-411.63509897049511
 20
1816.4500219855929
 30
0.0
 40
0.4499968087
 50
292.3243867666672
 51
359.9972006830904
  0
ARC
  8
DETAIL
  6
CONTINUOUS
 62
     5
 10
-411.76003020039201
 20
1815.7499999999941
 30
0.0
 40
0.25
 50
90.0
 51
218.99999999974949
  0
ARC
  8
DETAIL
  6
CONTINUOUS
 62
     5
 10
-410.14046213398979
 20
1813.749999999993
 30
0.0
 40
0.25
 50
218.99999999974949
 51
270.0
  0
ARC
  8
DETAIL
  6
CONTINUOUS
 62
     5
 10
-348.49999999999272
 20
54.999999999992717
 30
0.0
 40
10.0
 50
180.0
 51
270.0
  0
ARC
  8
DETAIL
  6
CONTINUOUS
 62
     5
 10
-364.99999999999272
 20
77.499999999992724
 30
0.0
 40
8.0
 50
90.0
 51
270.0
  0
CIRCLE
  8
DETAIL
  6
CONTINUOUS
 62
     5
 10
-339.99999999999272
 20
110.9999999999927
 30
0.0
 40
6.0999999999999988
  0
CIRCLE
  8
DETAIL
  6
CONTINUOUS
 62
     5
 10
-339.99999999999272
 20
110.9999999999927
 30
0.0
 40
6.0
  0
ARC
  8
DETAIL
  6
CONTINUOUS
 62
     5
 10
-364.61880215349078
 20
97.999999999992724
 30
0.0
 40
5.2999999999999989
 50
270.0
 51
329.99999999975711
  0
ARC
  8
DETAIL
  6
CONTINUOUS
 62
     5
 10
-381.6602540378953
 20
99.999999999992724
 30
0.0
 40
5.0
 50
270.0
 51
329.99999999975711
  0
ARC
  8
DETAIL
  6
CONTINUOUS
 62
     5
 10
-357.69059892329102
 20
95.999999999992724
 30
0.0
 40
4.0
 50
90.0
 51
149.99999999975699
  0
ARC
  8
DETAIL
  6
CONTINUOUS
 62
     5
 10
-373.69282032299088
 20
96.199999999993452
 30
0.0
 40
3.7999999999999989
 50
90.0
 51
149.99999999975699
  0
ARC
  8
DETAIL
  6
CONTINUOUS
 62
     5
 10
-383.99999999999272
 20
97.999999999992724
 30
0.0
 40
3.0
 50
270.0
 51
0.0
  0
ARC
  8
DETAIL
  6
CONTINUOUS
 62
     5
 10
-331.99999999999272
 20
103.9999999999927
 30
0.0
 40
3.0
 50
270.0
 51
0.0
  0
ARC
  8
DETAIL
  6
CONTINUOUS
 62
     5
 10
-377.99999999999272
 20
97.999999999992724
 30
0.0
 40
3.0
 50
90.0
 51
180.0
  0
ARC
  8
DETAIL
  6
CONTINUOUS
 62
     5
 10
-364.61880215349078
 20
97.999999999992724
 30
0.0
 40
3.0
 50
270.0
 51
329.99999999975711
  0
CIRCLE
  8
DETAIL
  6
CONTINUOUS
 62
     5
 10
-389.99999999999272
 20
69.999999999992724
 30
0.0
 40
2.2999999999999989
  0
ARC
  8
DETAIL
  6
CONTINUOUS
 62
     5
 10
-357.69059892329102
 20
95.999999999992724
 30
0.0
 40
1.7
 50
90.0
 51
149.99999999975699
  0
CIRCLE
  8
DETAIL
  6
CONTINUOUS
 62
     5
 10
-335.99999999999272
 20
714.49999999999272
 30
0.0
 40
2.2999999999999989
  0
ARC
  8
DETAIL
  6
CONTINUOUS
 62
     5
 10
-321.49999999999272
 20
54.999999999992717
 30
0.0
 40
10.0
 50
270.0
 51
0.0
  0
ARC
  8
DETAIL
  6
CONTINUOUS
 62
     5
 10
-304.99999999999272
 20
77.499999999992724
 30
0.0
 40
8.0
 50
270.0
 51
90.0
  0
CIRCLE
  8
DETAIL
  6
CONTINUOUS
 62
     5
 10
-313.49999999999272
 20
304.99999999999272
 30
0.0
 40
6.0999999999999988
  0
CIRCLE
  8
DETAIL
  6
CONTINUOUS
 62
     5
 10
-267.99999999999272
 20
110.9999999999927
 30
0.0
 40
6.0999999999999988
  0
CIRCLE
  8
DETAIL
  6
CONTINUOUS
 62
     5
 10
-313.49999999999272
 20
304.99999999999272
 30
0.0
 40
6.0
  0
CIRCLE
  8
DETAIL
  6
CONTINUOUS
 62
     5
 10
-267.99999999999272
 20
110.9999999999927
 30
0.0
 40
6.0
  0
ARC
  8
DETAIL
  6
CONTINUOUS
 62
     5
 10
-305.38119784649462
 20
97.999999999992724
 30
0.0
 40
5.2999999999999989
 50
210.00000000024289
 51
270.0
  0
ARC
  8
DETAIL
  6
CONTINUOUS
 62
     5
 10
-302.33974596219201
 20
99.999999999992724
 30
0.0
 40
5.0
 50
210.00000000024289
 51
270.0
  0
ARC
  8
DETAIL
  6
CONTINUOUS
 62
     5
 10
-312.30940107679629
 20
95.999999999992724
 30
0.0
 40
4.0
 50
30.000000000242942
 51
90.0
  0
ARC
  8
DETAIL
  6
CONTINUOUS
 62
     5
 10
-310.30717967699462
 20
96.199999999993452
 30
0.0
 40
3.7999999999999989
 50
30.000000000242942
 51
90.0
  0
ARC
  8
DETAIL
  6
CONTINUOUS
 62
     5
 10
-305.38119784649462
 20
97.999999999992724
 30
0.0
 40
3.0
 50
210.00000000024289
 51
270.0
  0
ARC
  8
DETAIL
  6
CONTINUOUS
 62
     5
 10
-302.99999999999272
 20
97.999999999992724
 30
0.0
 40
3.0
 50
0.0
 51
90.0
  0
ARC
  8
DETAIL
  6
CONTINUOUS
 62
     5
 10
-312.30940107679629
 20
95.999999999992724
 30
0.0
 40
1.7
 50
30.000000000242942
 51
90.0
  0
CIRCLE
  8
DETAIL
  6
CONTINUOUS
 62
     5
 10
-313.49999999999272
 20
644.99999999999272
 30
0.0
 40
6.0999999999999988
  0
CIRCLE
  8
DETAIL
  6
CONTINUOUS
 62
     5
 10
-313.49999999999272
 20
644.99999999999272
 30
0.0
 40
6.0
  0
ARC
  8
DETAIL
  6
CONTINUOUS
 62
     5
 10
-309.99999999999272
 20
756.49999999999272
 30
0.0
 40
5.0
 50
270.0
 51
0.0
  0
ARC
  8
DETAIL
  6
CONTINUOUS
 62
     5
 10
-309.99999999999272
 20
797.69999999999345
 30
0.0
 40
5.0
 50
270.0
 51
0.0
  0
ARC
  8
DETAIL
  6
CONTINUOUS
 62
     5
 10
-307.99999999999272
 20
785.89999999999418
 30
0.0
 40
3.0
 50
0.0
 51
90.0
  0
ARC
  8
DETAIL
  6
CONTINUOUS
 62
     5
 10
-307.99999999999272
 20
741.49999999999272
 30
0.0
 40
3.0
 50
0.0
 51
90.0
  0
ARC
  8
DETAIL
  6
CONTINUOUS
 62
     5
 10
-310.99999999999272
 20
741.49999999999272
 30
0.0
 40
3.0
 50
90.0
 51
180.0
  0
ARC
  8
DETAIL
  6
CONTINUOUS
 62
     5
 10
-316.99999999999272
 20
739.99999999999272
 30
0.0
 40
3.0
 50
180.0
 51
0.0
  0
ARC
  8
DETAIL
  6
CONTINUOUS
 62
     5
 10
-307.99999999999272
 20
782.69999999999345
 30
0.0
 40
3.0
 50
0.0
 51
90.0
  0
ARC
  8
DETAIL
  6
CONTINUOUS
 62
     5
 10
-312.49999999999272
 20
781.19999999999345
 30
0.0
 40
3.0
 50
180.0
 51
0.0
  0
ARC
  8
DETAIL
  6
CONTINUOUS
 62
     5
 10
-312.49999999999272
 20
789.69999999999345
 30
0.0
 40
3.0
 50
90.0
 51
180.0
  0
ARC
  8
DETAIL
  6
CONTINUOUS
 62
     5
 10
-316.99999999999272
 20
748.49999999999272
 30
0.0
 40
3.0
 50
90.0
 51
180.0
  0
ARC
  8
DETAIL
  6
CONTINUOUS
 62
     5
 10
-325.40099077359628
 20
617.79769580779237
 30
0.0
 40
1.9999276576999989
 50
107.5144620388776
 51
143.0710351423092
  0
ARC
  8
DETAIL
  6
CONTINUOUS
 62
     5
 10
-308.49999999999272
 20
784.69999999999345
 30
0.0
 40
1.0
 50
90.0
 51
180.0
  0
ARC
  8
DETAIL
  6
CONTINUOUS
 62
     5
 10
-386.02841904269008
 20
1631.1815946997931
 30
0.0
 40
76.348084774399993
 50
305.13058877766548
 51
311.5984594100276
  0
ARC
  8
DETAIL
  6
CONTINUOUS
 62
     5
 10
-385.4931621217911
 20
1630.412865234292
 30
0.0
 40
75.689636836099993
 50
305.14180005096392
 51
311.66608775974942
  0
ARC
  8
DETAIL
  6
CONTINUOUS
 62
     5
 10
-390.4672238740896
 20
1746.1548953958929
 30
0.0
 40
30.0
 50
357.50000000002899
 51
38.999999999749519
  0
CIRCLE
  8
DETAIL
  6
CONTINUOUS
 62
     5
 10
-359.99999999999272
 20
1538.999999999993
 30
0.0
 40
6.0999999999999988
  0
CIRCLE
  8
DETAIL
  6
CONTINUOUS
 62
     5
 10
-359.99999999999272
 20
1538.999999999993
 30
0.0
 40
6.0
  0
ARC
  8
DETAIL
  6
CONTINUOUS
 62
     5
 10
-390.64199793479202
 20
1857.5999999999931
 30
0.0
 40
0.5
 50
90.0
 51
180.0
  0
CIRCLE
  8
DETAIL
  6
CONTINUOUS
 62
     5
 10
-335.99999999999272
 20
1098.499999999992
 30
0.0
 40
2.2999999999999989
  0
ARC
  8
DETAIL
  6
CONTINUOUS
 62
     5
 10
-309.99999999999272
 20
1001.699999999993
 30
0.0
 40
5.0
 50
270.0
 51
0.0
  0
ARC
  8
DETAIL
  6
CONTINUOUS
 62
     5
 10
-307.99999999999272
 20
986.69999999999345
 30
0.0
 40
3.0
 50
0.0
 51
90.0
  0
ARC
  8
DETAIL
  6
CONTINUOUS
 62
     5
 10
-312.49999999999272
 20
985.19999999999345
 30
0.0
 40
3.0
 50
180.0
 51
0.0
  0
ARC
  8
DETAIL
  6
CONTINUOUS
 62
     5
 10
-312.49999999999272
 20
993.69999999999345
 30
0.0
 40
3.0
 50
90.0
 51
180.0
  0
ARC
  8
DETAIL
  6
CONTINUOUS
 62
     5
 10
-307.99999999999272
 20
991.99999999999272
 30
0.0
 40
3.0
 50
0.0
 51
90.0
  0
ARC
  8
DETAIL
  6
CONTINUOUS
 62
     5
 10
-308.49999999999272
 20
988.69999999999345
 30
0.0
 40
1.0
 50
90.0
 51
180.0
  0
ARC
  8
DETAIL
  6
CONTINUOUS
 62
     5
 10
-309.99999999999272
 20
1133.299999999992
 30
0.0
 40
5.0
 50
270.0
 51
0.0
  0
ARC
  8
DETAIL
  6
CONTINUOUS
 62
     5
 10
-309.99999999999272
 20
1246.499999999993
 30
0.0
 40
5.0
 50
270.0
 51
0.0
  0
ARC
  8
DETAIL
  6
CONTINUOUS
 62
     5
 10
-307.99999999999272
 20
1118.299999999992
 30
0.0
 40
3.0
 50
0.0
 51
90.0
  0
ARC
  8
DETAIL
  6
CONTINUOUS
 62
     5
 10
-310.99999999999272
 20
1118.299999999992
 30
0.0
 40
3.0
 50
90.0
 51
180.0
  0
ARC
  8
DETAIL
  6
CONTINUOUS
 62
     5
 10
-316.99999999999272
 20
1116.799999999992
 30
0.0
 40
3.0
 50
180.0
 51
0.0
  0
ARC
  8
DETAIL
  6
CONTINUOUS
 62
     5
 10
-307.99999999999272
 20
1231.499999999992
 30
0.0
 40
3.0
 50
0.0
 51
90.0
  0
ARC
  8
DETAIL
  6
CONTINUOUS
 62
     5
 10
-312.49999999999272
 20
1229.999999999993
 30
0.0
 40
3.0
 50
180.0
 51
0.0
  0
ARC
  8
DETAIL
  6
CONTINUOUS
 62
     5
 10
-312.49999999999272
 20
1238.499999999993
 30
0.0
 40
3.0
 50
90.0
 51
180.0
  0
ARC
  8
DETAIL
  6
CONTINUOUS
 62
     5
 10
-316.99999999999272
 20
1125.299999999992
 30
0.0
 40
3.0
 50
90.0
 51
180.0
  0
ARC
  8
DETAIL
  6
CONTINUOUS
 62
     5
 10
-308.49999999999272
 20
1233.499999999993
 30
0.0
 40
1.0
 50
90.0
 51
180.0
  0
ARC
  8
DETAIL
  6
CONTINUOUS
 62
     5
 10
-309.99999999999272
 20
1462.999999999993
 30
0.0
 40
5.0
 50
270.0
 51
0.0
  0
ARC
  8
DETAIL
  6
CONTINUOUS
 62
     5
 10
-309.99999999999272
 20
1491.2999999999929
 30
0.0
 40
5.0
 50
270.0
 51
0.0
  0
ARC
  8
DETAIL
  6
CONTINUOUS
 62
     5
 10
-307.99999999999272
 20
1447.999999999993
 30
0.0
 40
3.0
 50
0.0
 51
90.0
  0
ARC
  8
DETAIL
  6
CONTINUOUS
 62
     5
 10
-310.99999999999272
 20
1447.999999999993
 30
0.0
 40
3.0
 50
90.0
 51
180.0
  0
ARC
  8
DETAIL
  6
CONTINUOUS
 62
     5
 10
-316.99999999999272
 20
1446.499999999993
 30
0.0
 40
3.0
 50
180.0
 51
0.0
  0
ARC
  8
DETAIL
  6
CONTINUOUS
 62
     5
 10
-307.99999999999272
 20
1476.299999999992
 30
0.0
 40
3.0
 50
0.0
 51
90.0
  0
ARC
  8
DETAIL
  6
CONTINUOUS
 62
     5
 10
-312.49999999999272
 20
1474.799999999992
 30
0.0
 40
3.0
 50
180.0
 51
0.0
  0
ARC
  8
DETAIL
  6
CONTINUOUS
 62
     5
 10
-312.49999999999272
 20
1483.299999999992
 30
0.0
 40
3.0
 50
90.0
 51
180.0
  0
ARC
  8
DETAIL
  6
CONTINUOUS
 62
     5
 10
-316.99999999999272
 20
1454.999999999993
 30
0.0
 40
3.0
 50
90.0
 51
180.0
  0
ARC
  8
DETAIL
  6
CONTINUOUS
 62
     5
 10
-307.99999999999272
 20
1481.5999999999931
 30
0.0
 40
3.0
 50
0.0
 51
90.0
  0
CIRCLE
  8
DETAIL
  6
CONTINUOUS
 62
     5
 10
-335.99999999999272
 20
1482.499999999993
 30
0.0
 40
2.2999999999999989
  0
ARC
  8
DETAIL
  6
CONTINUOUS
 62
     5
 10
-308.49999999999272
 20
1478.299999999992
 30
0.0
 40
1.0
 50
90.0
 51
180.0
  0
CIRCLE
  8
DETAIL
  6
CONTINUOUS
 62
     5
 10
29.00000000000728
 20
110.9999999999927
 30
0.0
 40
6.0999999999999988
  0
CIRCLE
  8
DETAIL
  6
CONTINUOUS
 62
     5
 10
29.00000000000728
 20
110.9999999999927
 30
0.0
 40
6.0
  0
CIRCLE
  8
DETAIL
  6
CONTINUOUS
 62
     5
 10
0.000000000007276
 20
1824.7999999999929
 30
0.0
 40
6.0999999999999988
  0
CIRCLE
  8
DETAIL
  6
CONTINUOUS
 62
     5
 10
0.000000000007276
 20
1538.999999999993
 30
0.0
 40
6.0999999999999988
  0
CIRCLE
  8
DETAIL
  6
CONTINUOUS
 62
     5
 10
0.000000000007276
 20
1824.7999999999929
 30
0.0
 40
6.0
  0
CIRCLE
  8
DETAIL
  6
CONTINUOUS
 62
     5
 10
0.000000000007276
 20
1538.999999999993
 30
0.0
 40
6.0
  0
ARC
  8
DETAIL
  6
CONTINUOUS
 62
     5
 10
321.50000000000728
 20
54.999999999992717
 30
0.0
 40
10.0
 50
180.0
 51
270.0
  0
ARC
  8
DETAIL
  6
CONTINUOUS
 62
     5
 10
305.00000000000728
 20
77.499999999992724
 30
0.0
 40
8.0
 50
90.0
 51
270.0
  0
CIRCLE
  8
DETAIL
  6
CONTINUOUS
 62
     5
 10
326.00000000000728
 20
110.9999999999927
 30
0.0
 40
6.0999999999999988
  0
CIRCLE
  8
DETAIL
  6
CONTINUOUS
 62
     5
 10
326.00000000000728
 20
110.9999999999927
 30
0.0
 40
6.0
  0
ARC
  8
DETAIL
  6
CONTINUOUS
 62
     5
 10
305.38119784650922
 20
97.999999999992724
 30
0.0
 40
5.2999999999999989
 50
270.0
 51
329.99999999975711
  0
ARC
  8
DETAIL
  6
CONTINUOUS
 62
     5
 10
302.3397459621047
 20
99.999999999992724
 30
0.0
 40
5.0
 50
270.0
 51
329.99999999975711
  0
ARC
  8
DETAIL
  6
CONTINUOUS
 62
     5
 10
312.30940107670898
 20
95.999999999992724
 30
0.0
 40
4.0
 50
90.0
 51
149.99999999975699
  0
ARC
  8
DETAIL
  6
CONTINUOUS
 62
     5
 10
310.30717967700912
 20
96.199999999993452
 30
0.0
 40
3.7999999999999989
 50
90.0
 51
149.99999999975699
  0
ARC
  8
DETAIL
  6
CONTINUOUS
 62
     5
 10
305.38119784650922
 20
97.999999999992724
 30
0.0
 40
3.0
 50
270.0
 51
329.99999999975711
  0
ARC
  8
DETAIL
  6
CONTINUOUS
 62
     5
 10
303.00000000000728
 20
97.999999999992724
 30
0.0
 40
3.0
 50
90.0
 51
180.0
  0
ARC
  8
DETAIL
  6
CONTINUOUS
 62
     5
 10
312.30940107670898
 20
95.999999999992724
 30
0.0
 40
1.7
 50
90.0
 51
149.99999999975699
  0
ARC
  8
DETAIL
  6
CONTINUOUS
 62
     5
 10
348.50000000000728
 20
54.999999999992717
 30
0.0
 40
10.0
 50
270.0
 51
0.0
  0
ARC
  8
DETAIL
  6
CONTINUOUS
 62
     5
 10
365.00000000000728
 20
77.499999999992724
 30
0.0
 40
8.0
 50
270.0
 51
90.0
  0
ARC
  8
DETAIL
  6
CONTINUOUS
 62
     5
 10
364.61880215350538
 20
97.999999999992724
 30
0.0
 40
5.2999999999999989
 50
210.00000000024289
 51
270.0
  0
ARC
  8
DETAIL
  6
CONTINUOUS
 62
     5
 10
357.69059892320371
 20
95.999999999992724
 30
0.0
 40
4.0
 50
30.000000000242942
 51
90.0
  0
ARC
  8
DETAIL
  6
CONTINUOUS
 62
     5
 10
373.69282032300538
 20
96.199999999993452
 30
0.0
 40
3.7999999999999989
 50
30.000000000242942
 51
90.0
  0
ARC
  8
DETAIL
  6
CONTINUOUS
 62
     5
 10
376.30717967700912
 20
96.199999999993452
 30
0.0
 40
3.7999999999999989
 50
110.1476329676388
 51
149.99999999975699
  0
ARC
  8
DETAIL
  6
CONTINUOUS
 62
     5
 10
364.61880215350538
 20
97.999999999992724
 30
0.0
 40
3.0
 50
210.00000000024289
 51
270.0
  0
ARC
  8
DETAIL
  6
CONTINUOUS
 62
     5
 10
357.69059892320371
 20
95.999999999992724
 30
0.0
 40
1.7
 50
30.000000000242942
 51
90.0
  0
CIRCLE
  8
DETAIL
  6
CONTINUOUS
 62
     5
 10
371.50000000000728
 20
304.99999999999272
 30
0.0
 40
6.0999999999999988
  0
CIRCLE
  8
DETAIL
  6
CONTINUOUS
 62
     5
 10
371.50000000000728
 20
304.99999999999272
 30
0.0
 40
6.0
  0
CIRCLE
  8
DETAIL
  6
CONTINUOUS
 62
     5
 10
371.50000000000728
 20
644.99999999999272
 30
0.0
 40
6.0999999999999988
  0
CIRCLE
  8
DETAIL
  6
CONTINUOUS
 62
     5
 10
371.50000000000728
 20
644.99999999999272
 30
0.0
 40
6.0
  0
CIRCLE
  8
DETAIL
  6
CONTINUOUS
 62
     5
 10
371.50000000000728
 20
805.99999999999272
 30
0.0
 40
2.2999999999999989
  0
ARC
  8
DETAIL
  6
CONTINUOUS
 62
     5
 10
379.50000000000728
 20
826.49999999999272
 30
0.0
 40
1.5
 50
0.0
 51
180.0
  0
ARC
  8
DETAIL
  6
CONTINUOUS
 62
     5
 10
379.50000000000728
 20
785.49999999999272
 30
0.0
 40
1.5
 50
180.0
 51
0.0
  0
ARC
  8
DETAIL
  6
CONTINUOUS
 62
     5
 10
303.00000000000728
 20
708.49999999999272
 30
0.0
 40
1.0
 50
90.0
 51
180.0
  0
ARC
  8
DETAIL
  6
CONTINUOUS
 62
     5
 10
362.12233778250811
 20
711.49999999999272
 30
0.0
 40
1.0
 50
90.0
 51
179.0000000000266
  0
ARC
  8
DETAIL
  6
CONTINUOUS
 62
     5
 10
302.50000000000728
 20
702.16589928079338
 30
0.0
 40
0.5
 50
180.0
 51
269.00000000012898
  0
ARC
  8
DETAIL
  6
CONTINUOUS
 62
     5
 10
302.50000000000728
 20
697.26589928079193
 30
0.0
 40
0.5
 50
180.0
 51
269.00000000012898
  0
ARC
  8
DETAIL
  6
CONTINUOUS
 62
     5
 10
311.50000000000728
 20
701.00865136839275
 30
0.0
 40
0.5
 50
0.0
 51
89.000000000128935
  0
ARC
  8
DETAIL
  6
CONTINUOUS
 62
     5
 10
311.50000000000728
 20
696.108651368393
 30
0.0
 40
0.5
 50
0.0
 51
89.000000000128935
  0
CIRCLE
  8
DETAIL
  6
CONTINUOUS
 62
     5
 10
393.50000000000728
 20
110.9999999999927
 30
0.0
 40
6.0999999999999988
  0
CIRCLE
  8
DETAIL
  6
CONTINUOUS
 62
     5
 10
393.50000000000728
 20
110.9999999999927
 30
0.0
 40
6.0
  0
ARC
  8
DETAIL
  6
CONTINUOUS
 62
     5
 10
381.6602540378081
 20
99.999999999992724
 30
0.0
 40
5.0
 50
210.00000000024289
 51
270.0
  0
ARC
  8
DETAIL
  6
CONTINUOUS
 62
     5
 10
390.00000000000728
 20
97.999999999992724
 30
0.0
 40
3.0
 50
180.0
 51
270.0
  0
CIRCLE
  8
DETAIL
  6
CONTINUOUS
 62
     5
 10
390.00000000000728
 20
69.999999999992724
 30
0.0
 40
2.2999999999999989
  0
CIRCLE
  8
DETAIL
  6
CONTINUOUS
 62
     5
 10
410.00000000000722
 20
84.999999999992724
 30
0.0
 40
2.2999999999999989
  0
CIRCLE
  8
DETAIL
  6
CONTINUOUS
 62
     5
 10
430.00000000000722
 20
69.999999999992724
 30
0.0
 40
2.2999999999999989
  0
CIRCLE
  8
DETAIL
  6
CONTINUOUS
 62
     5
 10
399.00000000000728
 20
146.4999999999927
 30
0.0
 40
2.2999999999999989
  0
ARC
  8
DETAIL
  6
CONTINUOUS
 62
     5
 10
429.56532332640933
 20
898.84848171399256
 30
0.0
 40
5.1530650663999991
 50
78.223515763639284
 51
78.504258697027154
  0
ARC
  8
DETAIL
  6
CONTINUOUS
 62
     5
 10
429.56532333530771
 20
754.15151824299392
 30
0.0
 40
5.153065022499999
 50
281.49574130125569
 51
281.77648423719819
  0
ARC
  8
DETAIL
  6
CONTINUOUS
 62
     5
 10
429.57605393941037
 20
898.90461955049238
 30
0.0
 40
5.0959148676999986
 50
78.496695844364908
 51
83.802126540030073
  0
ARC
  8
DETAIL
  6
CONTINUOUS
 62
     5
 10
429.57606315340672
 20
754.09532862539345
 30
0.0
 40
5.0958622469999986
 50
276.19137515099902
 51
281.50331884054219
  0
ARC
  8
DETAIL
  6
CONTINUOUS
 62
     5
 10
430.64752645250701
 20
753.27741421339306
 30
0.0
 40
4.277414349699999
 50
262.98473296899323
 51
269.98553554765817
  0
ARC
  8
DETAIL
  6
CONTINUOUS
 62
     5
 10
430.64752343610598
 20
899.72266113509238
 30
0.0
 40
4.2773390004999996
 50
90.014424301633738
 51
97.007658959104361
  0
CIRCLE
  8
DETAIL
  6
CONTINUOUS
 62
     5
 10
394.00000000000728
 20
714.49999999999272
 30
0.0
 40
2.2999999999999989
  0
CIRCLE
  8
DETAIL
  6
CONTINUOUS
 62
     5
 10
399.00000000000728
 20
821.49999999999272
 30
0.0
 40
2.2999999999999989
  0
ARC
  8
DETAIL
  6
CONTINUOUS
 62
     5
 10
429.5653233012053
 20
1339.151518408195
 30
0.0
 40
5.1530651911999987
 50
281.49574130552782
 51
281.77648423208819
  0
ARC
  8
DETAIL
  6
CONTINUOUS
 62
     5
 10
429.56532332640933
 20
1298.8484817136921
 30
0.0
 40
5.1530650666999991
 50
78.223515764498032
 51
78.504258697885746
  0
ARC
  8
DETAIL
  6
CONTINUOUS
 62
     5
 10
429.56532332640933
 20
1098.848481713994
 30
0.0
 40
5.1530650663999991
 50
78.223515763639284
 51
78.504258697027154
  0
ARC
  8
DETAIL
  6
CONTINUOUS
 62
     5
 10
429.56532332900667
 20
1139.1515182734929
 30
0.0
 40
5.1530650536999989
 50
281.49574130211431
 51
281.77648423636072
  0
ARC
  8
DETAIL
  6
CONTINUOUS
 62
     5
 10
429.5653233316043
 20
939.15151826109286
 30
0.0
 40
5.1530650409999996
 50
281.49574130125569
 51
281.77648423636072
  0
ARC
  8
DETAIL
  6
CONTINUOUS
 62
     5
 10
429.57605393941037
 20
1298.9046195505939
 30
0.0
 40
5.0959148675000003
 50
78.496695844364908
 51
83.802126540030073
  0
ARC
  8
DETAIL
  6
CONTINUOUS
 62
     5
 10
429.57605393930862
 20
1098.9046195499941
 30
0.0
 40
5.0959148681000004
 50
78.496695844364908
 51
83.802126539189914
  0
ARC
  8
DETAIL
  6
CONTINUOUS
 62
     5
 10
429.57606315340672
 20
939.09532862539334
 30
0.0
 40
5.0958622469999986
 50
276.19137515099902
 51
281.50331884054219
  0
ARC
  8
DETAIL
  6
CONTINUOUS
 62
     5
 10
429.57606315340672
 20
1339.0953286251929
 30
0.0
 40
5.0958622469000003
 50
276.19137515099902
 51
281.50331884054219
  0
ARC
  8
DETAIL
  6
CONTINUOUS
 62
     5
 10
429.57606315340672
 20
1139.0953286255931
 30
0.0
 40
5.0958622472000004
 50
276.19137515099902
 51
281.50331884054219
  0
ARC
  8
DETAIL
  6
CONTINUOUS
 62
     5
 10
430.64752645250701
 20
938.27741421339294
 30
0.0
 40
4.277414349699999
 50
262.98473296899323
 51
269.98553554765817
  0
ARC
  8
DETAIL
  6
CONTINUOUS
 62
     5
 10
430.64752645250701
 20
1338.2774142133931
 30
0.0
 40
4.277414349699999
 50
262.98473296899323
 51
269.98553554765817
  0
ARC
  8
DETAIL
  6
CONTINUOUS
 62
     5
 10
430.64752645250701
 20
1138.277414213293
 30
0.0
 40
4.277414349599999
 50
262.98473296899323
 51
269.98553554765817
  0
ARC
  8
DETAIL
  6
CONTINUOUS
 62
     5
 10
430.64752343610598
 20
1099.7226611351939
 30
0.0
 40
4.2773390003999996
 50
90.014424300799988
 51
97.007658959104361
  0
ARC
  8
DETAIL
  6
CONTINUOUS
 62
     5
 10
430.64752343610598
 20
1299.7226611351939
 30
0.0
 40
4.2773390002999987
 50
90.014424300799988
 51
97.007658959104361
  0
CIRCLE
  8
DETAIL
  6
CONTINUOUS
 62
     5
 10
394.00000000000728
 20
1098.499999999992
 30
0.0
 40
2.2999999999999989
  0
CIRCLE
  8
DETAIL
  6
CONTINUOUS
 62
     5
 10
371.50000000000728
 20
1127.999999999993
 30
0.0
 40
2.2999999999999989
  0
ARC
  8
DETAIL
  6
CONTINUOUS
 62
     5
 10
379.50000000000728
 20
1148.499999999992
 30
0.0
 40
1.5
 50
0.0
 51
180.0
  0
ARC
  8
DETAIL
  6
CONTINUOUS
 62
     5
 10
379.50000000000728
 20
1107.499999999993
 30
0.0
 40
1.5
 50
180.0
 51
0.0
  0
CIRCLE
  8
DETAIL
  6
CONTINUOUS
 62
     5
 10
360.00000000000728
 20
1538.999999999993
 30
0.0
 40
6.0999999999999988
  0
CIRCLE
  8
DETAIL
  6
CONTINUOUS
 62
     5
 10
360.00000000000728
 20
1538.999999999993
 30
0.0
 40
6.0
  0
CIRCLE
  8
DETAIL
  6
CONTINUOUS
 62
     5
 10
394.00000000000728
 20
1472.499999999993
 30
0.0
 40
2.2999999999999989
  0
CIRCLE
  8
DETAIL
  6
CONTINUOUS
 62
     5
 10
371.50000000000728
 20
1429.999999999993
 30
0.0
 40
2.2999999999999989
  0
ARC
  8
DETAIL
  6
CONTINUOUS
 62
     5
 10
379.50000000000728
 20
1450.499999999992
 30
0.0
 40
1.5
 50
0.0
 51
180.0
  0
ARC
  8
DETAIL
  6
CONTINUOUS
 62
     5
 10
379.50000000000728
 20
1409.499999999993
 30
0.0
 40
1.5
 50
180.0
 51
0.0
  0
ARC
  8
DETAIL
  6
CONTINUOUS
 62
     5
 10
390.46722387410409
 20
1746.1548953958929
 30
0.0
 40
30.0
 50
141.0000000002504
 51
182.4999999999709
  0
ARC
  8
DETAIL
  6
CONTINUOUS
 62
     5
 10
390.64199793480662
 20
1857.5999999999931
 30
0.0
 40
0.5
 50
0.0
 51
90.0
  0
ARC
  8
DETAIL
  6
CONTINUOUS
 62
     5
 10
404.00000000000722
 20
1565.479448065993
 30
0.0
 40
10.0
 50
0.0
 51
47.915197344178019
  0
ARC
  8
DETAIL
  6
CONTINUOUS
 62
     5
 10
399.00000000000728
 20
1516.499999999993
 30
0.0
 40
6.0999999999999988
 50
100.38885781508171
 51
79.611142184918236
  0
CIRCLE
  8
DETAIL
  6
CONTINUOUS
 62
     5
 10
399.00000000000728
 20
1516.499999999993
 30
0.0
 40
6.0
  0
ARC
  8
DETAIL
  6
CONTINUOUS
 62
     5
 10
429.56532332900667
 20
1498.8484817263929
 30
0.0
 40
5.1530650536999989
 50
78.223515763639284
 51
78.504258697885746
  0
ARC
  8
DETAIL
  6
CONTINUOUS
 62
     5
 10
429.57605393930862
 20
1498.904619549993
 30
0.0
 40
5.0959148681000004
 50
78.496695844364908
 51
83.802126539189914
  0
ARC
  8
DETAIL
  6
CONTINUOUS
 62
     5
 10
430.64752343610598
 20
1499.7226611350929
 30
0.0
 40
4.2773390003999996
 50
90.014424300799988
 51
97.007658959104361
  0
CIRCLE
  8
DETAIL
  6
CONTINUOUS
 62
     5
 10
399.00000000000728
 20
1496.499999999993
 30
0.0
 40
2.2999999999999989
  0
ARC
  8
DETAIL
  6
CONTINUOUS
 62
     5
 10
411.25813151870528
 20
1838.5999999999931
 30
0.0
 40
2.0
 50
180.0
 51
270.0
  0
ARC
  8
DETAIL
  6
CONTINUOUS
 62
     5
 10
412.7581315186107
 20
1834.5999999999931
 30
0.0
 40
2.0
 50
0.0
 51
89.999903380170679
  0
ARC
  8
DETAIL
  6
CONTINUOUS
 62
     5
 10
407.35337838401028
 20
1811.4999999999941
 30
0.0
 40
2.0
 50
97.945401978674511
 51
141.00000000008839
  0
ARC
  8
DETAIL
  6
CONTINUOUS
 62
     5
 10
408.75813151870528
 20
1857.5999999999931
 30
0.0
 40
0.5
 50
0.0
 51
90.0
  0
ARC
  8
DETAIL
  6
CONTINUOUS
 62
     5
 10
411.63530469560641
 20
1816.451412965893
 30
0.0
 40
0.4514129826
 50
258.84720105081448
 51
269.984426568191
  0
ARC
  8
DETAIL
  6
CONTINUOUS
 62
     5
 10
411.6350989704078
 20
1816.4500219855929
 30
0.0
 40
0.4499968087
 50
180.0027993172223
 51
247.6756132333328
  0
ARC
  8
DETAIL
  6
CONTINUOUS
 62
     5
 10
411.76003020040662
 20
1815.7499999999941
 30
0.0
 40
0.25
 50
321.00000000025051
 51
90.0
  0
ARC
  8
DETAIL
  6
CONTINUOUS
 62
     5
 10
410.14046213400428
 20
1813.749999999993
 30
0.0
 40
0.25
 50
270.0
 51
321.00000000025051
  0
ARC
  8
DETAIL
  6
CONTINUOUS
 62
     5
 10
523.63601768770604
 20
1697.953873038593
 30
0.0
 40
168.5
 50
199.72159686133861
 51
227.91519734417801
  0
ARC
  8
DETAIL
  6
CONTINUOUS
 62
     5
 10
456.01271342670952
 20
1551.0689890337931
 30
0.0
 40
4.0
 50
0.4999999999647253
 51
89.000000000128935
  0
POLYLINE
  8
DETAIL
  6
CONTINUOUS
 62
     5
 66
     1
 10
0.0
 20
0.0
 30
0.0
  0
VERTEX
  8
DETAIL
  6
CONTINUOUS
 62
     5
 10
-415.49999999999272
 20
64.799999842392936
 30
0.0
  0
VERTEX
  8
DETAIL
  6
CONTINUOUS
 62
     5
 10
-415.47723082570155
 20
64.688175202590173
 30
0.0
  0
VERTEX
  8
DETAIL
  6
CONTINUOUS
 62
     5
 10
-415.41830818099277
 20
64.589274408513432
 30
0.0
  0
VERTEX
  8
DETAIL
  6
CONTINUOUS
 62
     5
 10
-415.33580480939327
 20
64.510707250194187
 30
0.0
  0
VERTEX
  8
DETAIL
  6
CONTINUOUS
 62
     5
 10
-415.23955380877834
 20
64.450029526188885
 30
0.0
  0
VERTEX
  8
DETAIL
  6
CONTINUOUS
 62
     5
 10
-415.13563208238736
 20
64.403681442566281
 30
0.0
  0
VERTEX
  8
DETAIL
  6
CONTINUOUS
 62
     5
 10
-415.02749259190313
 20
64.368583223936639
 30
0.0
  0
VERTEX
  8
DETAIL
  6
CONTINUOUS
 62
     5
 10
-414.91679468826447
 20
64.342769782513628
 30
0.0
  0
VERTEX
  8
DETAIL
  6
CONTINUOUS
 62
     5
 10
-414.80448045072842
 20
64.324592424433405
 30
0.0
  0
VERTEX
  8
DETAIL
  6
CONTINUOUS
 62
     5
 10
-414.69126022124226
 20
64.312490639639762
 30
0.0
  0
VERTEX
  8
DETAIL
  6
CONTINUOUS
 62
     5
 10
-414.57776072125489
 20
64.304994083077489
 30
0.0
  0
VERTEX
  8
DETAIL
  6
CONTINUOUS
 62
     5
 10
-414.46416934034113
 20
64.301109203735507
 30
0.0
  0
VERTEX
  8
DETAIL
  6
CONTINUOUS
 62
     5
 10
-414.35052829749469
 20
64.299999999991996
 30
0.0
  0
SEQEND
  8
DETAIL
  6
CONTINUOUS
 62
     5
  0
POLYLINE
  8
DETAIL
  6
CONTINUOUS
 62
     5
 66
     1
 10
0.0
 20
0.0
 30
0.0
  0
VERTEX
  8
DETAIL
  6
CONTINUOUS
 62
     5
 10
-408.6494717024907
 20
64.299999999991996
 30
0.0
  0
VERTEX
  8
DETAIL
  6
CONTINUOUS
 62
     5
 10
-408.52910876792811
 20
64.301163194111922
 30
0.0
  0
VERTEX
  8
DETAIL
  6
CONTINUOUS
 62
     5
 10
-408.40889293665396
 20
64.305482074455725
 30
0.0
  0
VERTEX
  8
DETAIL
  6
CONTINUOUS
 62
     5
 10
-408.28869609005625
 20
64.314200587999565
 30
0.0
  0
VERTEX
  8
DETAIL
  6
CONTINUOUS
 62
     5
 10
-408.16839011123642
 20
64.328562682460642
 30
0.0
  0
VERTEX
  8
DETAIL
  6
CONTINUOUS
 62
     5
 10
-408.04828468551494
 20
64.350001578359965
 30
0.0
  0
VERTEX
  8
DETAIL
  6
CONTINUOUS
 62
     5
 10
-407.93035858648943
 20
64.380672084654549
 30
0.0
  0
VERTEX
  8
DETAIL
  6
CONTINUOUS
 62
     5
 10
-407.81698828375124
 20
64.422900944185201
 30
0.0
  0
VERTEX
  8
DETAIL
  6
CONTINUOUS
 62
     5
 10
-407.71055024689122
 20
64.479014899792674
 30
0.0
  0
SEQEND
  8
DETAIL
  6
CONTINUOUS
 62
     5
  0
POLYLINE
  8
DETAIL
  6
CONTINUOUS
 62
     5
 66
     1
 10
0.0
 20
0.0
 30
0.0
  0
VERTEX
  8
DETAIL
  6
CONTINUOUS
 62
     5
 10
-407.71055024689122
 20
64.479014899792674
 30
0.0
  0
VERTEX
  8
DETAIL
  6
CONTINUOUS
 62
     5
 10
-407.66944962945718
 20
64.506852584431144
 30
0.0
  0
VERTEX
  8
DETAIL
  6
CONTINUOUS
 62
     5
 10
-407.63074732224868
 20
64.538109143138698
 30
0.0
  0
VERTEX
  8
DETAIL
  6
CONTINUOUS
 62
     5
 10
-407.59530033990751
 20
64.573138948688822
 30
0.0
  0
VERTEX
  8
DETAIL
  6
CONTINUOUS
 62
     5
 10
-407.56396579098845
 20
64.612295851600379
 30
0.0
  0
VERTEX
  8
DETAIL
  6
CONTINUOUS
 62
     5
 10
-407.5376639178499
 20
64.655582612909953
 30
0.0
  0
VERTEX
  8
DETAIL
  6
CONTINUOUS
 62
     5
 10
-407.5174875903391
 20
64.702042005626254
 30
0.0
  0
VERTEX
  8
DETAIL
  6
CONTINUOUS
 62
     5
 10
-407.50455891540395
 20
64.750554214127988
 30
0.0
  0
VERTEX
  8
DETAIL
  6
CONTINUOUS
 62
     5
 10
-407.49999999999272
 20
64.799999422793917
 30
0.0
  0
SEQEND
  8
DETAIL
  6
CONTINUOUS
 62
     5
  0
POLYLINE
  8
DETAIL
  6
CONTINUOUS
 62
     5
 66
     1
 10
0.0
 20
0.0
 30
0.0
  0
VERTEX
  8
DETAIL
  6
CONTINUOUS
 62
     5
 10
-414.35052829749469
 20
67.799999999991996
 30
0.0
  0
VERTEX
  8
DETAIL
  6
CONTINUOUS
 62
     5
 10
-414.46417526763946
 20
67.798896189796977
 30
0.0
  0
VERTEX
  8
DETAIL
  6
CONTINUOUS
 62
     5
 10
-414.57777234356303
 20
67.795016588651123
 30
0.0
  0
VERTEX
  8
DETAIL
  6
CONTINUOUS
 62
     5
 10
-414.69126973484805
 20
67.787508852671166
 30
0.0
  0
VERTEX
  8
DETAIL
  6
CONTINUOUS
 62
     5
 10
-414.80447925032223
 20
67.775376647161025
 30
0.0
  0
VERTEX
  8
DETAIL
  6
CONTINUOUS
 62
     5
 10
-414.91679252429435
 20
67.757186491902601
 30
0.0
  0
VERTEX
  8
DETAIL
  6
CONTINUOUS
 62
     5
 10
-415.02752075929192
 20
67.731421627290615
 30
0.0
  0
VERTEX
  8
DETAIL
  6
CONTINUOUS
 62
     5
 10
-415.13569008229871
 20
67.696383990150039
 30
0.0
  0
VERTEX
  8
DETAIL
  6
CONTINUOUS
 62
     5
 10
-415.23951539436752
 20
67.649888071769709
 30
0.0
  0
VERTEX
  8
DETAIL
  6
CONTINUOUS
 62
     5
 10
-415.33574834651023
 20
67.589111590830854
 30
0.0
  0
VERTEX
  8
DETAIL
  6
CONTINUOUS
 62
     5
 10
-415.41844632341559
 20
67.510730190286552
 30
0.0
  0
VERTEX
  8
DETAIL
  6
CONTINUOUS
 62
     5
 10
-415.47735130611386
 20
67.411888178285125
 30
0.0
  0
VERTEX
  8
DETAIL
  6
CONTINUOUS
 62
     5
 10
-415.49999999999272
 20
67.299999898492388
 30
0.0
  0
SEQEND
  8
DETAIL
  6
CONTINUOUS
 62
     5
  0
POLYLINE
  8
DETAIL
  6
CONTINUOUS
 62
     5
 66
     1
 10
0.0
 20
0.0
 30
0.0
  0
VERTEX
  8
DETAIL
  6
CONTINUOUS
 62
     5
 10
-411.49999999999272
 20
67.299999939492409
 30
0.0
  0
VERTEX
  8
DETAIL
  6
CONTINUOUS
 62
     5
 10
-411.52268376946932
 20
67.411868280056552
 30
0.0
  0
VERTEX
  8
DETAIL
  6
CONTINUOUS
 62
     5
 10
-411.58158185031073
 20
67.510739953147862
 30
0.0
  0
VERTEX
  8
DETAIL
  6
CONTINUOUS
 62
     5
 10
-411.66420548114479
 20
67.589195849969954
 30
0.0
  0
VERTEX
  8
DETAIL
  6
CONTINUOUS
 62
     5
 10
-411.76045373402468
 20
67.649924107448598
 30
0.0
  0
VERTEX
  8
DETAIL
  6
CONTINUOUS
 62
     5
 10
-411.86432331310732
 20
67.696351878600709
 30
0.0
  0
VERTEX
  8
DETAIL
  6
CONTINUOUS
 62
     5
 10
-411.97248278976014
 20
67.731411762788312
 30
0.0
  0
VERTEX
  8
DETAIL
  6
CONTINUOUS
 62
     5
 10
-412.08319995768079
 20
67.757198092122422
 30
0.0
  0
VERTEX
  8
DETAIL
  6
CONTINUOUS
 62
     5
 10
-412.19551460820645
 20
67.775386650659684
 30
0.0
  0
VERTEX
  8
DETAIL
  6
CONTINUOUS
 62
     5
 10
-412.30872952930594
 20
67.787509621973271
 30
0.0
  0
VERTEX
  8
DETAIL
  6
CONTINUOUS
 62
     5
 10
-412.42222916193811
 20
67.795013611188566
 30
0.0
  0
VERTEX
  8
DETAIL
  6
CONTINUOUS
 62
     5
 10
-412.53582553213801
 20
67.798894615130592
 30
0.0
  0
VERTEX
  8
DETAIL
  6
CONTINUOUS
 62
     5
 10
-412.6494717024907
 20
67.799999999991996
 30
0.0
  0
SEQEND
  8
DETAIL
  6
CONTINUOUS
 62
     5
  0
POLYLINE
  8
DETAIL
  6
CONTINUOUS
 62
     5
 66
     1
 10
0.0
 20
0.0
 30
0.0
  0
VERTEX
  8
DETAIL
  6
CONTINUOUS
 62
     5
 10
-412.6494717024907
 20
64.299999999991996
 30
0.0
  0
VERTEX
  8
DETAIL
  6
CONTINUOUS
 62
     5
 10
-412.53582750473061
 20
64.301106189127779
 30
0.0
  0
VERTEX
  8
DETAIL
  6
CONTINUOUS
 62
     5
 10
-412.42223310011337
 20
64.304987928054459
 30
0.0
  0
VERTEX
  8
DETAIL
  6
CONTINUOUS
 62
     5
 10
-412.30873516054186
 20
64.312490067006408
 30
0.0
  0
VERTEX
  8
DETAIL
  6
CONTINUOUS
 62
     5
 10
-412.19552149105243
 20
64.324607440674455
 30
0.0
  0
VERTEX
  8
DETAIL
  6
CONTINUOUS
 62
     5
 10
-412.08320779287038
 20
64.342789615928126
 30
0.0
  0
VERTEX
  8
DETAIL
  6
CONTINUOUS
 62
     5
 10
-411.97249148806804
 20
64.368572524145861
 30
0.0
  0
VERTEX
  8
DETAIL
  6
CONTINUOUS
 62
     5
 10
-411.8643351429547
 20
64.403637059504817
 30
0.0
  0
VERTEX
  8
DETAIL
  6
CONTINUOUS
 62
     5
 10
-411.76047689421085
 20
64.45008340036847
 30
0.0
  0
VERTEX
  8
DETAIL
  6
CONTINUOUS
 62
     5
 10
-411.6642390457381
 20
64.510825060754996
 30
0.0
  0
VERTEX
  8
DETAIL
  6
CONTINUOUS
 62
     5
 10
-411.58161238999418
 20
64.589273165397714
 30
0.0
  0
VERTEX
  8
DETAIL
  6
CONTINUOUS
 62
     5
 10
-411.52269671423187
 20
64.68813505456076
 30
0.0
  0
VERTEX
  8
DETAIL
  6
CONTINUOUS
 62
     5
 10
-411.49999999999272
 20
64.799998546193819
 30
0.0
  0
SEQEND
  8
DETAIL
  6
CONTINUOUS
 62
     5
  0
POLYLINE
  8
DETAIL
  6
CONTINUOUS
 62
     5
 66
     1
 10
0.0
 20
0.0
 30
0.0
  0
VERTEX
  8
DETAIL
  6
CONTINUOUS
 62
     5
 10
-411.49999999999272
 20
64.799999835591734
 30
0.0
  0
VERTEX
  8
DETAIL
  6
CONTINUOUS
 62
     5
 10
-411.47722836228252
 20
64.688176885375569
 30
0.0
  0
VERTEX
  8
DETAIL
  6
CONTINUOUS
 62
     5
 10
-411.4183091914644
 20
64.589271188297047
 30
0.0
  0
VERTEX
  8
DETAIL
  6
CONTINUOUS
 62
     5
 10
-411.3358150176212
 20
64.510694084772553
 30
0.0
  0
VERTEX
  8
DETAIL
  6
CONTINUOUS
 62
     5
 10
-411.23956056293883
 20
64.450024399181288
 30
0.0
  0
VERTEX
  8
DETAIL
  6
CONTINUOUS
 62
     5
 10
-411.13563203985694
 20
64.403686762965521
 30
0.0
  0
VERTEX
  8
DETAIL
  6
CONTINUOUS
 62
     5
 10
-411.02749371707267
 20
64.368585157421222
 30
0.0
  0
VERTEX
  8
DETAIL
  6
CONTINUOUS
 62
     5
 10
-410.9167971755972
 20
64.342768362862842
 30
0.0
  0
VERTEX
  8
DETAIL
  6
CONTINUOUS
 62
     5
 10
-410.80448246104248
 20
64.324591139447151
 30
0.0
  0
VERTEX
  8
DETAIL
  6
CONTINUOUS
 62
     5
 10
-410.6912611605959
 20
64.312490654466131
 30
0.0
  0
VERTEX
  8
DETAIL
  6
CONTINUOUS
 62
     5
 10
-410.57776105629944
 20
64.304994590518703
 30
0.0
  0
VERTEX
  8
DETAIL
  6
CONTINUOUS
 62
     5
 10
-410.46416950145567
 20
64.301109455871654
 30
0.0
  0
VERTEX
  8
DETAIL
  6
CONTINUOUS
 62
     5
 10
-410.35052829749469
 20
64.299999999991996
 30
0.0
  0
SEQEND
  8
DETAIL
  6
CONTINUOUS
 62
     5
  0
POLYLINE
  8
DETAIL
  6
CONTINUOUS
 62
     5
 66
     1
 10
0.0
 20
0.0
 30
0.0
  0
VERTEX
  8
DETAIL
  6
CONTINUOUS
 62
     5
 10
-410.35052829749469
 20
67.799999999991996
 30
0.0
  0
VERTEX
  8
DETAIL
  6
CONTINUOUS
 62
     5
 10
-410.46417500009636
 20
67.798896024802886
 30
0.0
  0
VERTEX
  8
DETAIL
  6
CONTINUOUS
 62
     5
 10
-410.57777181405379
 20
67.795016250340225
 30
0.0
  0
VERTEX
  8
DETAIL
  6
CONTINUOUS
 62
     5
 10
-410.69126915085042
 20
67.787508814940367
 30
0.0
  0
VERTEX
  8
DETAIL
  6
CONTINUOUS
 62
     5
 10
-410.80447884690346
 20
67.775377497738432
 30
0.0
  0
VERTEX
  8
DETAIL
  6
CONTINUOUS
 62
     5
 10
-410.91679206002937
 20
67.757187840106923
 30
0.0
  0
VERTEX
  8
DETAIL
  6
CONTINUOUS
 62
     5
 10
-411.02751942994274
 20
67.731421910293804
 30
0.0
  0
VERTEX
  8
DETAIL
  6
CONTINUOUS
 62
     5
 10
-411.13568788344071
 20
67.69638279168349
 30
0.0
  0
VERTEX
  8
DETAIL
  6
CONTINUOUS
 62
     5
 10
-411.23951550399306
 20
67.649890412490464
 30
0.0
  0
VERTEX
  8
DETAIL
  6
CONTINUOUS
 62
     5
 10
-411.33574836699444
 20
67.589115983844408
 30
0.0
  0
VERTEX
  8
DETAIL
  6
CONTINUOUS
 62
     5
 10
-411.41844060126431
 20
67.510729378456659
 30
0.0
  0
VERTEX
  8
DETAIL
  6
CONTINUOUS
 62
     5
 10
-411.47734695272226
 20
67.411886027754633
 30
0.0
  0
VERTEX
  8
DETAIL
  6
CONTINUOUS
 62
     5
 10
-411.49999999999272
 20
67.29999989429416
 30
0.0
  0
SEQEND
  8
DETAIL
  6
CONTINUOUS
 62
     5
  0
POLYLINE
  8
DETAIL
  6
CONTINUOUS
 62
     5
 66
     1
 10
0.0
 20
0.0
 30
0.0
  0
VERTEX
  8
DETAIL
  6
CONTINUOUS
 62
     5
 10
-407.49999999999272
 20
67.299999938091787
 30
0.0
  0
VERTEX
  8
DETAIL
  6
CONTINUOUS
 62
     5
 10
-407.50459062125719
 20
67.349624220634979
 30
0.0
  0
VERTEX
  8
DETAIL
  6
CONTINUOUS
 62
     5
 10
-407.5176071500016
 20
67.398306332905605
 30
0.0
  0
VERTEX
  8
DETAIL
  6
CONTINUOUS
 62
     5
 10
-407.53791658365282
 20
67.444915997745255
 30
0.0
  0
VERTEX
  8
DETAIL
  6
CONTINUOUS
 62
     5
 10
-407.56438591963735
 20
67.488322937995548
 30
0.0
  0
VERTEX
  8
DETAIL
  6
CONTINUOUS
 62
     5
 10
-407.5959117212351
 20
67.527561813636552
 30
0.0
  0
VERTEX
  8
DETAIL
  6
CONTINUOUS
 62
     5
 10
-407.63156497147662
 20
67.562640308988151
 30
0.0
  0
VERTEX
  8
DETAIL
  6
CONTINUOUS
 62
     5
 10
-407.67048039169481
 20
67.593921681171039
 30
0.0
  0
VERTEX
  8
DETAIL
  6
CONTINUOUS
 62
     5
 10
-407.71179279749049
 20
67.621769713194226
 30
0.0
  0
SEQEND
  8
DETAIL
  6
CONTINUOUS
 62
     5
  0
POLYLINE
  8
DETAIL
  6
CONTINUOUS
 62
     5
 66
     1
 10
0.0
 20
0.0
 30
0.0
  0
VERTEX
  8
DETAIL
  6
CONTINUOUS
 62
     5
 10
-407.71179279749049
 20
67.621769713194226
 30
0.0
  0
VERTEX
  8
DETAIL
  6
CONTINUOUS
 62
     5
 10
-407.81817268214007
 20
67.677615731491088
 30
0.0
  0
VERTEX
  8
DETAIL
  6
CONTINUOUS
 62
     5
 10
-407.93141913450984
 20
67.719652122957996
 30
0.0
  0
VERTEX
  8
DETAIL
  6
CONTINUOUS
 62
     5
 10
-408.04917962363976
 20
67.75019052446595
 30
0.0
  0
VERTEX
  8
DETAIL
  6
CONTINUOUS
 62
     5
 10
-408.16910161857004
 20
67.771542572886005
 30
0.0
  0
VERTEX
  8
DETAIL
  6
CONTINUOUS
 62
     5
 10
-408.28922628465028
 20
67.785849268412008
 30
0.0
  0
VERTEX
  8
DETAIL
  6
CONTINUOUS
 62
     5
 10
-408.40924602451963
 20
67.794535928520901
 30
0.0
  0
VERTEX
  8
DETAIL
  6
CONTINUOUS
 62
     5
 10
-408.52928608198721
 20
67.798840267765357
 30
0.0
  0
VERTEX
  8
DETAIL
  6
CONTINUOUS
 62
     5
 10
-408.6494717024907
 20
67.799999999991996
 30
0.0
  0
SEQEND
  8
DETAIL
  6
CONTINUOUS
 62
     5
  0
POLYLINE
  8
DETAIL
  6
CONTINUOUS
 62
     5
 66
     1
 10
0.0
 20
0.0
 30
0.0
  0
VERTEX
  8
DETAIL
  6
CONTINUOUS
 62
     5
 10
-298.49999999999278
 20
64.799999842392936
 30
0.0
  0
VERTEX
  8
DETAIL
  6
CONTINUOUS
 62
     5
 10
-298.47723082570161
 20
64.688175202590173
 30
0.0
  0
VERTEX
  8
DETAIL
  6
CONTINUOUS
 62
     5
 10
-298.41830818099277
 20
64.589274408513432
 30
0.0
  0
VERTEX
  8
DETAIL
  6
CONTINUOUS
 62
     5
 10
-298.33580480939338
 20
64.510707250194187
 30
0.0
  0
VERTEX
  8
DETAIL
  6
CONTINUOUS
 62
     5
 10
-298.23955380877834
 20
64.450029526188885
 30
0.0
  0
VERTEX
  8
DETAIL
  6
CONTINUOUS
 62
     5
 10
-298.13563208238736
 20
64.403681442566281
 30
0.0
  0
VERTEX
  8
DETAIL
  6
CONTINUOUS
 62
     5
 10
-298.02749259190313
 20
64.368583223936639
 30
0.0
  0
VERTEX
  8
DETAIL
  6
CONTINUOUS
 62
     5
 10
-297.91679468826447
 20
64.342769782513628
 30
0.0
  0
VERTEX
  8
DETAIL
  6
CONTINUOUS
 62
     5
 10
-297.80448045072848
 20
64.324592424433405
 30
0.0
  0
VERTEX
  8
DETAIL
  6
CONTINUOUS
 62
     5
 10
-297.69126022124226
 20
64.312490639639762
 30
0.0
  0
VERTEX
  8
DETAIL
  6
CONTINUOUS
 62
     5
 10
-297.57776072125495
 20
64.304994083077489
 30
0.0
  0
VERTEX
  8
DETAIL
  6
CONTINUOUS
 62
     5
 10
-297.46416934034119
 20
64.301109203735507
 30
0.0
  0
VERTEX
  8
DETAIL
  6
CONTINUOUS
 62
     5
 10
-297.35052829749469
 20
64.299999999991996
 30
0.0
  0
SEQEND
  8
DETAIL
  6
CONTINUOUS
 62
     5
  0
POLYLINE
  8
DETAIL
  6
CONTINUOUS
 62
     5
 66
     1
 10
0.0
 20
0.0
 30
0.0
  0
VERTEX
  8
DETAIL
  6
CONTINUOUS
 62
     5
 10
-291.6494717024907
 20
64.299999999991996
 30
0.0
  0
VERTEX
  8
DETAIL
  6
CONTINUOUS
 62
     5
 10
-291.52910876792811
 20
64.301163194111922
 30
0.0
  0
VERTEX
  8
DETAIL
  6
CONTINUOUS
 62
     5
 10
-291.40889293665407
 20
64.305482074455725
 30
0.0
  0
VERTEX
  8
DETAIL
  6
CONTINUOUS
 62
     5
 10
-291.28869609005631
 20
64.314200587999565
 30
0.0
  0
VERTEX
  8
DETAIL
  6
CONTINUOUS
 62
     5
 10
-291.16839011123648
 20
64.328562682460642
 30
0.0
  0
VERTEX
  8
DETAIL
  6
CONTINUOUS
 62
     5
 10
-291.048284685515
 20
64.350001578359965
 30
0.0
  0
VERTEX
  8
DETAIL
  6
CONTINUOUS
 62
     5
 10
-290.93035858648949
 20
64.380672084654549
 30
0.0
  0
VERTEX
  8
DETAIL
  6
CONTINUOUS
 62
     5
 10
-290.81698828375124
 20
64.422900944185201
 30
0.0
  0
VERTEX
  8
DETAIL
  6
CONTINUOUS
 62
     5
 10
-290.71055024689122
 20
64.479014899792674
 30
0.0
  0
SEQEND
  8
DETAIL
  6
CONTINUOUS
 62
     5
  0
POLYLINE
  8
DETAIL
  6
CONTINUOUS
 62
     5
 66
     1
 10
0.0
 20
0.0
 30
0.0
  0
VERTEX
  8
DETAIL
  6
CONTINUOUS
 62
     5
 10
-290.71055024689122
 20
64.479014899792674
 30
0.0
  0
VERTEX
  8
DETAIL
  6
CONTINUOUS
 62
     5
 10
-290.66944962945718
 20
64.506852584431144
 30
0.0
  0
VERTEX
  8
DETAIL
  6
CONTINUOUS
 62
     5
 10
-290.63074732224868
 20
64.538109143138698
 30
0.0
  0
VERTEX
  8
DETAIL
  6
CONTINUOUS
 62
     5
 10
-290.59530033990751
 20
64.573138948688822
 30
0.0
  0
VERTEX
  8
DETAIL
  6
CONTINUOUS
 62
     5
 10
-290.56396579098839
 20
64.612295851600379
 30
0.0
  0
VERTEX
  8
DETAIL
  6
CONTINUOUS
 62
     5
 10
-290.53766391784995
 20
64.655582612909953
 30
0.0
  0
VERTEX
  8
DETAIL
  6
CONTINUOUS
 62
     5
 10
-290.5174875903391
 20
64.702042005626254
 30
0.0
  0
VERTEX
  8
DETAIL
  6
CONTINUOUS
 62
     5
 10
-290.50455891540395
 20
64.750554214127988
 30
0.0
  0
VERTEX
  8
DETAIL
  6
CONTINUOUS
 62
     5
 10
-290.49999999999272
 20
64.799999422793917
 30
0.0
  0
SEQEND
  8
DETAIL
  6
CONTINUOUS
 62
     5
  0
POLYLINE
  8
DETAIL
  6
CONTINUOUS
 62
     5
 66
     1
 10
0.0
 20
0.0
 30
0.0
  0
VERTEX
  8
DETAIL
  6
CONTINUOUS
 62
     5
 10
-297.35052829749469
 20
67.799999999991996
 30
0.0
  0
VERTEX
  8
DETAIL
  6
CONTINUOUS
 62
     5
 10
-297.46417526764031
 20
67.798896189782852
 30
0.0
  0
VERTEX
  8
DETAIL
  6
CONTINUOUS
 62
     5
 10
-297.57777234356962
 20
67.795016588610338
 30
0.0
  0
VERTEX
  8
DETAIL
  6
CONTINUOUS
 62
     5
 10
-297.69126973487033
 20
67.787508852614749
 30
0.0
  0
VERTEX
  8
DETAIL
  6
CONTINUOUS
 62
     5
 10
-297.8044792503697
 20
67.775376647114612
 30
0.0
  0
VERTEX
  8
DETAIL
  6
CONTINUOUS
 62
     5
 10
-297.91679252435995
 20
67.757186491879324
 30
0.0
  0
VERTEX
  8
DETAIL
  6
CONTINUOUS
 62
     5
 10
-298.02752075934899
 20
67.731421627285926
 30
0.0
  0
VERTEX
  8
DETAIL
  6
CONTINUOUS
 62
     5
 10
-298.13569008232076
 20
67.696383990149982
 30
0.0
  0
VERTEX
  8
DETAIL
  6
CONTINUOUS
 62
     5
 10
-298.2395153943695
 20
67.649888071769709
 30
0.0
  0
VERTEX
  8
DETAIL
  6
CONTINUOUS
 62
     5
 10
-298.33574834651023
 20
67.589111590830854
 30
0.0
  0
VERTEX
  8
DETAIL
  6
CONTINUOUS
 62
     5
 10
-298.41844632341565
 20
67.510730190286552
 30
0.0
  0
VERTEX
  8
DETAIL
  6
CONTINUOUS
 62
     5
 10
-298.47735130611397
 20
67.411888178285125
 30
0.0
  0
VERTEX
  8
DETAIL
  6
CONTINUOUS
 62
     5
 10
-298.49999999999278
 20
67.299999898492388
 30
0.0
  0
SEQEND
  8
DETAIL
  6
CONTINUOUS
 62
     5
  0
POLYLINE
  8
DETAIL
  6
CONTINUOUS
 62
     5
 66
     1
 10
0.0
 20
0.0
 30
0.0
  0
VERTEX
  8
DETAIL
  6
CONTINUOUS
 62
     5
 10
-294.49999999999272
 20
67.299999939492409
 30
0.0
  0
VERTEX
  8
DETAIL
  6
CONTINUOUS
 62
     5
 10
-294.52268376946932
 20
67.411868280056552
 30
0.0
  0
VERTEX
  8
DETAIL
  6
CONTINUOUS
 62
     5
 10
-294.58158185031078
 20
67.510739953147862
 30
0.0
  0
VERTEX
  8
DETAIL
  6
CONTINUOUS
 62
     5
 10
-294.66420548114485
 20
67.589195849969954
 30
0.0
  0
VERTEX
  8
DETAIL
  6
CONTINUOUS
 62
     5
 10
-294.76045373402468
 20
67.649924107448598
 30
0.0
  0
VERTEX
  8
DETAIL
  6
CONTINUOUS
 62
     5
 10
-294.86432331310732
 20
67.696351878600709
 30
0.0
  0
VERTEX
  8
DETAIL
  6
CONTINUOUS
 62
     5
 10
-294.97248278976025
 20
67.731411762788312
 30
0.0
  0
VERTEX
  8
DETAIL
  6
CONTINUOUS
 62
     5
 10
-295.08319995768079
 20
67.757198092122422
 30
0.0
  0
VERTEX
  8
DETAIL
  6
CONTINUOUS
 62
     5
 10
-295.19551460820645
 20
67.775386650659684
 30
0.0
  0
VERTEX
  8
DETAIL
  6
CONTINUOUS
 62
     5
 10
-295.30872952930594
 20
67.787509621973271
 30
0.0
  0
VERTEX
  8
DETAIL
  6
CONTINUOUS
 62
     5
 10
-295.42222916193816
 20
67.795013611188566
 30
0.0
  0
VERTEX
  8
DETAIL
  6
CONTINUOUS
 62
     5
 10
-295.53582553213806
 20
67.798894615130592
 30
0.0
  0
VERTEX
  8
DETAIL
  6
CONTINUOUS
 62
     5
 10
-295.6494717024907
 20
67.799999999991996
 30
0.0
  0
SEQEND
  8
DETAIL
  6
CONTINUOUS
 62
     5
  0
POLYLINE
  8
DETAIL
  6
CONTINUOUS
 62
     5
 66
     1
 10
0.0
 20
0.0
 30
0.0
  0
VERTEX
  8
DETAIL
  6
CONTINUOUS
 62
     5
 10
-295.6494717024907
 20
64.299999999991996
 30
0.0
  0
VERTEX
  8
DETAIL
  6
CONTINUOUS
 62
     5
 10
-295.53582750473066
 20
64.301106189127779
 30
0.0
  0
VERTEX
  8
DETAIL
  6
CONTINUOUS
 62
     5
 10
-295.42223310011343
 20
64.304987928054459
 30
0.0
  0
VERTEX
  8
DETAIL
  6
CONTINUOUS
 62
     5
 10
-295.30873516054186
 20
64.312490067006408
 30
0.0
  0
VERTEX
  8
DETAIL
  6
CONTINUOUS
 62
     5
 10
-295.19552149105243
 20
64.324607440674455
 30
0.0
  0
VERTEX
  8
DETAIL
  6
CONTINUOUS
 62
     5
 10
-295.08320779287044
 20
64.342789615928126
 30
0.0
  0
VERTEX
  8
DETAIL
  6
CONTINUOUS
 62
     5
 10
-294.97249148806804
 20
64.368572524145861
 30
0.0
  0
VERTEX
  8
DETAIL
  6
CONTINUOUS
 62
     5
 10
-294.8643351429547
 20
64.403637059504817
 30
0.0
  0
VERTEX
  8
DETAIL
  6
CONTINUOUS
 62
     5
 10
-294.76047689421085
 20
64.45008340036847
 30
0.0
  0
VERTEX
  8
DETAIL
  6
CONTINUOUS
 62
     5
 10
-294.6642390457381
 20
64.510825060754996
 30
0.0
  0
VERTEX
  8
DETAIL
  6
CONTINUOUS
 62
     5
 10
-294.58161238999429
 20
64.589273165397714
 30
0.0
  0
VERTEX
  8
DETAIL
  6
CONTINUOUS
 62
     5
 10
-294.52269671423204
 20
64.68813505456076
 30
0.0
  0
VERTEX
  8
DETAIL
  6
CONTINUOUS
 62
     5
 10
-294.49999999999272
 20
64.799998546193819
 30
0.0
  0
SEQEND
  8
DETAIL
  6
CONTINUOUS
 62
     5
  0
POLYLINE
  8
DETAIL
  6
CONTINUOUS
 62
     5
 66
     1
 10
0.0
 20
0.0
 30
0.0
  0
VERTEX
  8
DETAIL
  6
CONTINUOUS
 62
     5
 10
-294.49999999999272
 20
64.799999835591734
 30
0.0
  0
VERTEX
  8
DETAIL
  6
CONTINUOUS
 62
     5
 10
-294.47722836228257
 20
64.688176885375569
 30
0.0
  0
VERTEX
  8
DETAIL
  6
CONTINUOUS
 62
     5
 10
-294.4183091914644
 20
64.589271188297047
 30
0.0
  0
VERTEX
  8
DETAIL
  6
CONTINUOUS
 62
     5
 10
-294.3358150176212
 20
64.510694084772553
 30
0.0
  0
VERTEX
  8
DETAIL
  6
CONTINUOUS
 62
     5
 10
-294.23956056293878
 20
64.450024399181288
 30
0.0
  0
VERTEX
  8
DETAIL
  6
CONTINUOUS
 62
     5
 10
-294.13563203985694
 20
64.403686762965521
 30
0.0
  0
VERTEX
  8
DETAIL
  6
CONTINUOUS
 62
     5
 10
-294.02749371707267
 20
64.368585157421222
 30
0.0
  0
VERTEX
  8
DETAIL
  6
CONTINUOUS
 62
     5
 10
-293.91679717559714
 20
64.342768362862842
 30
0.0
  0
VERTEX
  8
DETAIL
  6
CONTINUOUS
 62
     5
 10
-293.80448246104254
 20
64.324591139447151
 30
0.0
  0
VERTEX
  8
DETAIL
  6
CONTINUOUS
 62
     5
 10
-293.69126116059607
 20
64.312490654466131
 30
0.0
  0
VERTEX
  8
DETAIL
  6
CONTINUOUS
 62
     5
 10
-293.57776105629949
 20
64.304994590518703
 30
0.0
  0
VERTEX
  8
DETAIL
  6
CONTINUOUS
 62
     5
 10
-293.46416950145579
 20
64.301109455871654
 30
0.0
  0
VERTEX
  8
DETAIL
  6
CONTINUOUS
 62
     5
 10
-293.3505282974948
 20
64.299999999991996
 30
0.0
  0
SEQEND
  8
DETAIL
  6
CONTINUOUS
 62
     5
  0
POLYLINE
  8
DETAIL
  6
CONTINUOUS
 62
     5
 66
     1
 10
0.0
 20
0.0
 30
0.0
  0
VERTEX
  8
DETAIL
  6
CONTINUOUS
 62
     5
 10
-293.3505282974948
 20
67.799999999991996
 30
0.0
  0
VERTEX
  8
DETAIL
  6
CONTINUOUS
 62
     5
 10
-293.46417500009642
 20
67.798896024802886
 30
0.0
  0
VERTEX
  8
DETAIL
  6
CONTINUOUS
 62
     5
 10
-293.57777181405402
 20
67.795016250340225
 30
0.0
  0
VERTEX
  8
DETAIL
  6
CONTINUOUS
 62
     5
 10
-293.69126915085059
 20
67.787508814940367
 30
0.0
  0
VERTEX
  8
DETAIL
  6
CONTINUOUS
 62
     5
 10
-293.80447884690358
 20
67.775377497738432
 30
0.0
  0
VERTEX
  8
DETAIL
  6
CONTINUOUS
 62
     5
 10
-293.91679206002954
 20
67.757187840106923
 30
0.0
  0
VERTEX
  8
DETAIL
  6
CONTINUOUS
 62
     5
 10
-294.02751942994274
 20
67.731421910293804
 30
0.0
  0
VERTEX
  8
DETAIL
  6
CONTINUOUS
 62
     5
 10
-294.13568788344077
 20
67.69638279168349
 30
0.0
  0
VERTEX
  8
DETAIL
  6
CONTINUOUS
 62
     5
 10
-294.23951550399306
 20
67.649890412490464
 30
0.0
  0
VERTEX
  8
DETAIL
  6
CONTINUOUS
 62
     5
 10
-294.33574836699461
 20
67.589115983844408
 30
0.0
  0
VERTEX
  8
DETAIL
  6
CONTINUOUS
 62
     5
 10
-294.41844060126436
 20
67.510729378456659
 30
0.0
  0
VERTEX
  8
DETAIL
  6
CONTINUOUS
 62
     5
 10
-294.47734695272237
 20
67.411886027754633
 30
0.0
  0
VERTEX
  8
DETAIL
  6
CONTINUOUS
 62
     5
 10
-294.49999999999272
 20
67.29999989429416
 30
0.0
  0
SEQEND
  8
DETAIL
  6
CONTINUOUS
 62
     5
  0
POLYLINE
  8
DETAIL
  6
CONTINUOUS
 62
     5
 66
     1
 10
0.0
 20
0.0
 30
0.0
  0
VERTEX
  8
DETAIL
  6
CONTINUOUS
 62
     5
 10
-290.49999999999272
 20
67.299999938091787
 30
0.0
  0
VERTEX
  8
DETAIL
  6
CONTINUOUS
 62
     5
 10
-290.50459062125719
 20
67.349624220634979
 30
0.0
  0
VERTEX
  8
DETAIL
  6
CONTINUOUS
 62
     5
 10
-290.51760715000165
 20
67.398306332905605
 30
0.0
  0
VERTEX
  8
DETAIL
  6
CONTINUOUS
 62
     5
 10
-290.53791658365282
 20
67.444915997745255
 30
0.0
  0
VERTEX
  8
DETAIL
  6
CONTINUOUS
 62
     5
 10
-290.5643859196374
 20
67.488322937995548
 30
0.0
  0
VERTEX
  8
DETAIL
  6
CONTINUOUS
 62
     5
 10
-290.59591172123515
 20
67.527561813636552
 30
0.0
  0
VERTEX
  8
DETAIL
  6
CONTINUOUS
 62
     5
 10
-290.63156497147673
 20
67.562640308988151
 30
0.0
  0
VERTEX
  8
DETAIL
  6
CONTINUOUS
 62
     5
 10
-290.67048039169487
 20
67.593921681171039
 30
0.0
  0
VERTEX
  8
DETAIL
  6
CONTINUOUS
 62
     5
 10
-290.71179279749049
 20
67.621769713194226
 30
0.0
  0
SEQEND
  8
DETAIL
  6
CONTINUOUS
 62
     5
  0
POLYLINE
  8
DETAIL
  6
CONTINUOUS
 62
     5
 66
     1
 10
0.0
 20
0.0
 30
0.0
  0
VERTEX
  8
DETAIL
  6
CONTINUOUS
 62
     5
 10
-290.71179279749049
 20
67.621769713194226
 30
0.0
  0
VERTEX
  8
DETAIL
  6
CONTINUOUS
 62
     5
 10
-290.81817268214013
 20
67.677615731491088
 30
0.0
  0
VERTEX
  8
DETAIL
  6
CONTINUOUS
 62
     5
 10
-290.93141913450989
 20
67.719652122957996
 30
0.0
  0
VERTEX
  8
DETAIL
  6
CONTINUOUS
 62
     5
 10
-291.04917962363987
 20
67.75019052446595
 30
0.0
  0
VERTEX
  8
DETAIL
  6
CONTINUOUS
 62
     5
 10
-291.1691016185701
 20
67.771542572886005
 30
0.0
  0
VERTEX
  8
DETAIL
  6
CONTINUOUS
 62
     5
 10
-291.28922628465028
 20
67.785849268412008
 30
0.0
  0
VERTEX
  8
DETAIL
  6
CONTINUOUS
 62
     5
 10
-291.40924602451969
 20
67.794535928520901
 30
0.0
  0
VERTEX
  8
DETAIL
  6
CONTINUOUS
 62
     5
 10
-291.52928608198721
 20
67.798840267765357
 30
0.0
  0
VERTEX
  8
DETAIL
  6
CONTINUOUS
 62
     5
 10
-291.6494717024907
 20
67.799999999991996
 30
0.0
  0
SEQEND
  8
DETAIL
  6
CONTINUOUS
 62
     5
  0
POLYLINE
  8
DETAIL
  6
CONTINUOUS
 62
     5
 66
     1
 10
0.0
 20
0.0
 30
0.0
  0
VERTEX
  8
DETAIL
  6
CONTINUOUS
 62
     5
 10
407.50000000000728
 20
64.799999842392936
 30
0.0
  0
VERTEX
  8
DETAIL
  6
CONTINUOUS
 62
     5
 10
407.52276917429839
 20
64.688175202590173
 30
0.0
  0
VERTEX
  8
DETAIL
  6
CONTINUOUS
 62
     5
 10
407.58169181900718
 20
64.589274408513432
 30
0.0
  0
VERTEX
  8
DETAIL
  6
CONTINUOUS
 62
     5
 10
407.66419519060673
 20
64.510707250194187
 30
0.0
  0
VERTEX
  8
DETAIL
  6
CONTINUOUS
 62
     5
 10
407.76044619122155
 20
64.450029526188885
 30
0.0
  0
VERTEX
  8
DETAIL
  6
CONTINUOUS
 62
     5
 10
407.86436791761253
 20
64.403681442566281
 30
0.0
  0
VERTEX
  8
DETAIL
  6
CONTINUOUS
 62
     5
 10
407.97250740809682
 20
64.368583223936639
 30
0.0
  0
VERTEX
  8
DETAIL
  6
CONTINUOUS
 62
     5
 10
408.08320531173541
 20
64.342769782513628
 30
0.0
  0
VERTEX
  8
DETAIL
  6
CONTINUOUS
 62
     5
 10
408.19551954927152
 20
64.324592424433405
 30
0.0
  0
VERTEX
  8
DETAIL
  6
CONTINUOUS
 62
     5
 10
408.30873977875768
 20
64.312490639639762
 30
0.0
  0
VERTEX
  8
DETAIL
  6
CONTINUOUS
 62
     5
 10
408.42223927874511
 20
64.304994083077489
 30
0.0
  0
VERTEX
  8
DETAIL
  6
CONTINUOUS
 62
     5
 10
408.53583065965887
 20
64.301109203735507
 30
0.0
  0
VERTEX
  8
DETAIL
  6
CONTINUOUS
 62
     5
 10
408.6494717025052
 20
64.299999999991996
 30
0.0
  0
SEQEND
  8
DETAIL
  6
CONTINUOUS
 62
     5
  0
POLYLINE
  8
DETAIL
  6
CONTINUOUS
 62
     5
 66
     1
 10
0.0
 20
0.0
 30
0.0
  0
VERTEX
  8
DETAIL
  6
CONTINUOUS
 62
     5
 10
414.3505282975093
 20
64.299999999991996
 30
0.0
  0
VERTEX
  8
DETAIL
  6
CONTINUOUS
 62
     5
 10
414.47089123207189
 20
64.301163194111922
 30
0.0
  0
VERTEX
  8
DETAIL
  6
CONTINUOUS
 62
     5
 10
414.59110706334582
 20
64.305482074455725
 30
0.0
  0
VERTEX
  8
DETAIL
  6
CONTINUOUS
 62
     5
 10
414.71130390994381
 20
64.314200587999565
 30
0.0
  0
VERTEX
  8
DETAIL
  6
CONTINUOUS
 62
     5
 10
414.83160988876358
 20
64.328562682460642
 30
0.0
  0
VERTEX
  8
DETAIL
  6
CONTINUOUS
 62
     5
 10
414.951715314485
 20
64.350001578359965
 30
0.0
  0
VERTEX
  8
DETAIL
  6
CONTINUOUS
 62
     5
 10
415.0696414135104
 20
64.380672084654549
 30
0.0
  0
VERTEX
  8
DETAIL
  6
CONTINUOUS
 62
     5
 10
415.18301171624881
 20
64.422900944185201
 30
0.0
  0
VERTEX
  8
DETAIL
  6
CONTINUOUS
 62
     5
 10
415.28944975310878
 20
64.479014899792674
 30
0.0
  0
SEQEND
  8
DETAIL
  6
CONTINUOUS
 62
     5
  0
POLYLINE
  8
DETAIL
  6
CONTINUOUS
 62
     5
 66
     1
 10
0.0
 20
0.0
 30
0.0
  0
VERTEX
  8
DETAIL
  6
CONTINUOUS
 62
     5
 10
415.28944975310878
 20
64.479014899792674
 30
0.0
  0
VERTEX
  8
DETAIL
  6
CONTINUOUS
 62
     5
 10
415.33055037054282
 20
64.506852584431144
 30
0.0
  0
VERTEX
  8
DETAIL
  6
CONTINUOUS
 62
     5
 10
415.36925267775126
 20
64.538109143138698
 30
0.0
  0
VERTEX
  8
DETAIL
  6
CONTINUOUS
 62
     5
 10
415.40469966009255
 20
64.573138948688822
 30
0.0
  0
VERTEX
  8
DETAIL
  6
CONTINUOUS
 62
     5
 10
415.43603420901161
 20
64.612295851600379
 30
0.0
  0
VERTEX
  8
DETAIL
  6
CONTINUOUS
 62
     5
 10
415.4623360821501
 20
64.655582612909953
 30
0.0
  0
VERTEX
  8
DETAIL
  6
CONTINUOUS
 62
     5
 10
415.48251240966096
 20
64.702042005626254
 30
0.0
  0
VERTEX
  8
DETAIL
  6
CONTINUOUS
 62
     5
 10
415.495441084596
 20
64.750554214127988
 30
0.0
  0
VERTEX
  8
DETAIL
  6
CONTINUOUS
 62
     5
 10
415.50000000000728
 20
64.799999422793917
 30
0.0
  0
SEQEND
  8
DETAIL
  6
CONTINUOUS
 62
     5
  0
POLYLINE
  8
DETAIL
  6
CONTINUOUS
 62
     5
 66
     1
 10
0.0
 20
0.0
 30
0.0
  0
VERTEX
  8
DETAIL
  6
CONTINUOUS
 62
     5
 10
408.6494717025052
 20
67.799999999991996
 30
0.0
  0
VERTEX
  8
DETAIL
  6
CONTINUOUS
 62
     5
 10
408.53582473236037
 20
67.798896189782852
 30
0.0
  0
VERTEX
  8
DETAIL
  6
CONTINUOUS
 62
     5
 10
408.42222765643697
 20
67.795016588610338
 30
0.0
  0
VERTEX
  8
DETAIL
  6
CONTINUOUS
 62
     5
 10
408.30873026515178
 20
67.787508852614749
 30
0.0
  0
VERTEX
  8
DETAIL
  6
CONTINUOUS
 62
     5
 10
408.19552074967771
 20
67.775376647114612
 30
0.0
  0
VERTEX
  8
DETAIL
  6
CONTINUOUS
 62
     5
 10
408.08320747570565
 20
67.757186491879324
 30
0.0
  0
VERTEX
  8
DETAIL
  6
CONTINUOUS
 62
     5
 10
407.97247924070814
 20
67.731421627285926
 30
0.0
  0
VERTEX
  8
DETAIL
  6
CONTINUOUS
 62
     5
 10
407.86430991770123
 20
67.696383990149982
 30
0.0
  0
VERTEX
  8
DETAIL
  6
CONTINUOUS
 62
     5
 10
407.7604846056326
 20
67.649888071769709
 30
0.0
  0
VERTEX
  8
DETAIL
  6
CONTINUOUS
 62
     5
 10
407.66425165348971
 20
67.589111590830854
 30
0.0
  0
VERTEX
  8
DETAIL
  6
CONTINUOUS
 62
     5
 10
407.58155367658429
 20
67.510730190286552
 30
0.0
  0
VERTEX
  8
DETAIL
  6
CONTINUOUS
 62
     5
 10
407.52264869388608
 20
67.411888178285125
 30
0.0
  0
VERTEX
  8
DETAIL
  6
CONTINUOUS
 62
     5
 10
407.50000000000728
 20
67.299999898492388
 30
0.0
  0
SEQEND
  8
DETAIL
  6
CONTINUOUS
 62
     5
  0
POLYLINE
  8
DETAIL
  6
CONTINUOUS
 62
     5
 66
     1
 10
0.0
 20
0.0
 30
0.0
  0
VERTEX
  8
DETAIL
  6
CONTINUOUS
 62
     5
 10
411.50000000000728
 20
67.299999939492409
 30
0.0
  0
VERTEX
  8
DETAIL
  6
CONTINUOUS
 62
     5
 10
411.47731623053062
 20
67.411868280056552
 30
0.0
  0
VERTEX
  8
DETAIL
  6
CONTINUOUS
 62
     5
 10
411.4184181496891
 20
67.510739953147862
 30
0.0
  0
VERTEX
  8
DETAIL
  6
CONTINUOUS
 62
     5
 10
411.33579451885498
 20
67.589195849969954
 30
0.0
  0
VERTEX
  8
DETAIL
  6
CONTINUOUS
 62
     5
 10
411.23954626597526
 20
67.649924107448598
 30
0.0
  0
VERTEX
  8
DETAIL
  6
CONTINUOUS
 62
     5
 10
411.13567668689262
 20
67.696351878600709
 30
0.0
  0
VERTEX
  8
DETAIL
  6
CONTINUOUS
 62
     5
 10
411.02751721023964
 20
67.731411762788312
 30
0.0
  0
VERTEX
  8
DETAIL
  6
CONTINUOUS
 62
     5
 10
410.91680004231921
 20
67.757198092122422
 30
0.0
  0
VERTEX
  8
DETAIL
  6
CONTINUOUS
 62
     5
 10
410.80448539179349
 20
67.775386650659684
 30
0.0
  0
VERTEX
  8
DETAIL
  6
CONTINUOUS
 62
     5
 10
410.69127047069401
 20
67.787509621973271
 30
0.0
  0
VERTEX
  8
DETAIL
  6
CONTINUOUS
 62
     5
 10
410.57777083806172
 20
67.795013611188566
 30
0.0
  0
VERTEX
  8
DETAIL
  6
CONTINUOUS
 62
     5
 10
410.46417446786194
 20
67.798894615130592
 30
0.0
  0
VERTEX
  8
DETAIL
  6
CONTINUOUS
 62
     5
 10
410.3505282975093
 20
67.799999999991996
 30
0.0
  0
SEQEND
  8
DETAIL
  6
CONTINUOUS
 62
     5
  0
POLYLINE
  8
DETAIL
  6
CONTINUOUS
 62
     5
 66
     1
 10
0.0
 20
0.0
 30
0.0
  0
VERTEX
  8
DETAIL
  6
CONTINUOUS
 62
     5
 10
410.3505282975093
 20
64.299999999991996
 30
0.0
  0
VERTEX
  8
DETAIL
  6
CONTINUOUS
 62
     5
 10
410.46417249526928
 20
64.301106189127779
 30
0.0
  0
VERTEX
  8
DETAIL
  6
CONTINUOUS
 62
     5
 10
410.57776689988657
 20
64.304987928054459
 30
0.0
  0
VERTEX
  8
DETAIL
  6
CONTINUOUS
 62
     5
 10
410.6912648394582
 20
64.312490067006408
 30
0.0
  0
VERTEX
  8
DETAIL
  6
CONTINUOUS
 62
     5
 10
410.80447850894751
 20
64.324607440674455
 30
0.0
  0
VERTEX
  8
DETAIL
  6
CONTINUOUS
 62
     5
 10
410.91679220712962
 20
64.342789615928126
 30
0.0
  0
VERTEX
  8
DETAIL
  6
CONTINUOUS
 62
     5
 10
411.0275085119319
 20
64.368572524145861
 30
0.0
  0
VERTEX
  8
DETAIL
  6
CONTINUOUS
 62
     5
 10
411.13566485704519
 20
64.403637059504817
 30
0.0
  0
VERTEX
  8
DETAIL
  6
CONTINUOUS
 62
     5
 10
411.23952310578898
 20
64.45008340036847
 30
0.0
  0
VERTEX
  8
DETAIL
  6
CONTINUOUS
 62
     5
 10
411.3357609542619
 20
64.510825060754996
 30
0.0
  0
VERTEX
  8
DETAIL
  6
CONTINUOUS
 62
     5
 10
411.41838761000582
 20
64.589273165397714
 30
0.0
  0
VERTEX
  8
DETAIL
  6
CONTINUOUS
 62
     5
 10
411.47730328576796
 20
64.68813505456076
 30
0.0
  0
VERTEX
  8
DETAIL
  6
CONTINUOUS
 62
     5
 10
411.50000000000728
 20
64.799998546193819
 30
0.0
  0
SEQEND
  8
DETAIL
  6
CONTINUOUS
 62
     5
  0
POLYLINE
  8
DETAIL
  6
CONTINUOUS
 62
     5
 66
     1
 10
0.0
 20
0.0
 30
0.0
  0
VERTEX
  8
DETAIL
  6
CONTINUOUS
 62
     5
 10
411.50000000000728
 20
64.799999835591734
 30
0.0
  0
VERTEX
  8
DETAIL
  6
CONTINUOUS
 62
     5
 10
411.52277163771748
 20
64.688176885375569
 30
0.0
  0
VERTEX
  8
DETAIL
  6
CONTINUOUS
 62
     5
 10
411.58169080853543
 20
64.589271188297047
 30
0.0
  0
VERTEX
  8
DETAIL
  6
CONTINUOUS
 62
     5
 10
411.66418498237954
 20
64.510694084772553
 30
0.0
  0
VERTEX
  8
DETAIL
  6
CONTINUOUS
 62
     5
 10
411.7604394370648
 20
64.450024399181288
 30
0.0
  0
VERTEX
  8
DETAIL
  6
CONTINUOUS
 62
     5
 10
411.86436796014812
 20
64.403686762965521
 30
0.0
  0
VERTEX
  8
DETAIL
  6
CONTINUOUS
 62
     5
 10
411.97250628293023
 20
64.368585157421222
 30
0.0
  0
VERTEX
  8
DETAIL
  6
CONTINUOUS
 62
     5
 10
412.08320282440371
 20
64.342768362862842
 30
0.0
  0
VERTEX
  8
DETAIL
  6
CONTINUOUS
 62
     5
 10
412.19551753895746
 20
64.324591139447151
 30
0.0
  0
VERTEX
  8
DETAIL
  6
CONTINUOUS
 62
     5
 10
412.30873883940399
 20
64.312490654466131
 30
0.0
  0
VERTEX
  8
DETAIL
  6
CONTINUOUS
 62
     5
 10
412.42223894370045
 20
64.304994590518703
 30
0.0
  0
VERTEX
  8
DETAIL
  6
CONTINUOUS
 62
     5
 10
412.53583049854439
 20
64.301109455871654
 30
0.0
  0
VERTEX
  8
DETAIL
  6
CONTINUOUS
 62
     5
 10
412.6494717025052
 20
64.299999999991996
 30
0.0
  0
SEQEND
  8
DETAIL
  6
CONTINUOUS
 62
     5
  0
POLYLINE
  8
DETAIL
  6
CONTINUOUS
 62
     5
 66
     1
 10
0.0
 20
0.0
 30
0.0
  0
VERTEX
  8
DETAIL
  6
CONTINUOUS
 62
     5
 10
412.6494717025052
 20
67.799999999991996
 30
0.0
  0
VERTEX
  8
DETAIL
  6
CONTINUOUS
 62
     5
 10
412.53582499990364
 20
67.798896024802886
 30
0.0
  0
VERTEX
  8
DETAIL
  6
CONTINUOUS
 62
     5
 10
412.42222818594604
 20
67.795016250340225
 30
0.0
  0
VERTEX
  8
DETAIL
  6
CONTINUOUS
 62
     5
 10
412.30873084914947
 20
67.787508814940367
 30
0.0
  0
VERTEX
  8
DETAIL
  6
CONTINUOUS
 62
     5
 10
412.19552115309648
 20
67.775377497738432
 30
0.0
  0
VERTEX
  8
DETAIL
  6
CONTINUOUS
 62
     5
 10
412.08320793997046
 20
67.757187840106923
 30
0.0
  0
VERTEX
  8
DETAIL
  6
CONTINUOUS
 62
     5
 10
411.97248057005726
 20
67.731421910293804
 30
0.0
  0
VERTEX
  8
DETAIL
  6
CONTINUOUS
 62
     5
 10
411.86431211655918
 20
67.69638279168349
 30
0.0
  0
VERTEX
  8
DETAIL
  6
CONTINUOUS
 62
     5
 10
411.76048449600682
 20
67.649890412490464
 30
0.0
  0
VERTEX
  8
DETAIL
  6
CONTINUOUS
 62
     5
 10
411.66425163300528
 20
67.589115983844408
 30
0.0
  0
VERTEX
  8
DETAIL
  6
CONTINUOUS
 62
     5
 10
411.58155939873558
 20
67.510729378456659
 30
0.0
  0
VERTEX
  8
DETAIL
  6
CONTINUOUS
 62
     5
 10
411.5226530472778
 20
67.411886027754633
 30
0.0
  0
VERTEX
  8
DETAIL
  6
CONTINUOUS
 62
     5
 10
411.50000000000728
 20
67.29999989429416
 30
0.0
  0
SEQEND
  8
DETAIL
  6
CONTINUOUS
 62
     5
  0
POLYLINE
  8
DETAIL
  6
CONTINUOUS
 62
     5
 66
     1
 10
0.0
 20
0.0
 30
0.0
  0
VERTEX
  8
DETAIL
  6
CONTINUOUS
 62
     5
 10
415.50000000000728
 20
67.299999938091787
 30
0.0
  0
VERTEX
  8
DETAIL
  6
CONTINUOUS
 62
     5
 10
415.49540937874281
 20
67.349624220634979
 30
0.0
  0
VERTEX
  8
DETAIL
  6
CONTINUOUS
 62
     5
 10
415.48239284999835
 20
67.398306332905605
 30
0.0
  0
VERTEX
  8
DETAIL
  6
CONTINUOUS
 62
     5
 10
415.46208341634718
 20
67.444915997745255
 30
0.0
  0
VERTEX
  8
DETAIL
  6
CONTINUOUS
 62
     5
 10
415.43561408036254
 20
67.488322937995548
 30
0.0
  0
VERTEX
  8
DETAIL
  6
CONTINUOUS
 62
     5
 10
415.40408827876485
 20
67.527561813636552
 30
0.0
  0
VERTEX
  8
DETAIL
  6
CONTINUOUS
 62
     5
 10
415.36843502852327
 20
67.562640308988151
 30
0.0
  0
VERTEX
  8
DETAIL
  6
CONTINUOUS
 62
     5
 10
415.32951960830519
 20
67.593921681171039
 30
0.0
  0
VERTEX
  8
DETAIL
  6
CONTINUOUS
 62
     5
 10
415.28820720250951
 20
67.621769713194226
 30
0.0
  0
SEQEND
  8
DETAIL
  6
CONTINUOUS
 62
     5
  0
POLYLINE
  8
DETAIL
  6
CONTINUOUS
 62
     5
 66
     1
 10
0.0
 20
0.0
 30
0.0
  0
VERTEX
  8
DETAIL
  6
CONTINUOUS
 62
     5
 10
415.28820720250951
 20
67.621769713194226
 30
0.0
  0
VERTEX
  8
DETAIL
  6
CONTINUOUS
 62
     5
 10
415.18182731785987
 20
67.677615731491088
 30
0.0
  0
VERTEX
  8
DETAIL
  6
CONTINUOUS
 62
     5
 10
415.06858086549005
 20
67.719652122957996
 30
0.0
  0
VERTEX
  8
DETAIL
  6
CONTINUOUS
 62
     5
 10
414.95082037636013
 20
67.75019052446595
 30
0.0
  0
VERTEX
  8
DETAIL
  6
CONTINUOUS
 62
     5
 10
414.83089838142985
 20
67.771542572886005
 30
0.0
  0
VERTEX
  8
DETAIL
  6
CONTINUOUS
 62
     5
 10
414.71077371534977
 20
67.785849268412008
 30
0.0
  0
VERTEX
  8
DETAIL
  6
CONTINUOUS
 62
     5
 10
414.59075397548037
 20
67.794535928520901
 30
0.0
  0
VERTEX
  8
DETAIL
  6
CONTINUOUS
 62
     5
 10
414.47071391801285
 20
67.798840267765357
 30
0.0
  0
VERTEX
  8
DETAIL
  6
CONTINUOUS
 62
     5
 10
414.3505282975093
 20
67.799999999991996
 30
0.0
  0
SEQEND
  8
DETAIL
  6
CONTINUOUS
 62
     5
  0
POLYLINE
  8
DETAIL
  6
CONTINUOUS
 62
     5
 66
     1
 10
0.0
 20
0.0
 30
0.0
  0
VERTEX
  8
DETAIL
  6
CONTINUOUS
 62
     5
 10
290.50000000000728
 20
64.799999842392936
 30
0.0
  0
VERTEX
  8
DETAIL
  6
CONTINUOUS
 62
     5
 10
290.52276917429839
 20
64.688175202590173
 30
0.0
  0
VERTEX
  8
DETAIL
  6
CONTINUOUS
 62
     5
 10
290.58169181900723
 20
64.589274408513432
 30
0.0
  0
VERTEX
  8
DETAIL
  6
CONTINUOUS
 62
     5
 10
290.66419519060673
 20
64.510707250194187
 30
0.0
  0
VERTEX
  8
DETAIL
  6
CONTINUOUS
 62
     5
 10
290.7604461912216
 20
64.450029526188885
 30
0.0
  0
VERTEX
  8
DETAIL
  6
CONTINUOUS
 62
     5
 10
290.86436791761258
 20
64.403681442566281
 30
0.0
  0
VERTEX
  8
DETAIL
  6
CONTINUOUS
 62
     5
 10
290.97250740809693
 20
64.368583223936639
 30
0.0
  0
VERTEX
  8
DETAIL
  6
CONTINUOUS
 62
     5
 10
291.08320531173553
 20
64.342769782513628
 30
0.0
  0
VERTEX
  8
DETAIL
  6
CONTINUOUS
 62
     5
 10
291.19551954927158
 20
64.324592424433405
 30
0.0
  0
VERTEX
  8
DETAIL
  6
CONTINUOUS
 62
     5
 10
291.30873977875774
 20
64.312490639639762
 30
0.0
  0
VERTEX
  8
DETAIL
  6
CONTINUOUS
 62
     5
 10
291.42223927874522
 20
64.304994083077489
 30
0.0
  0
VERTEX
  8
DETAIL
  6
CONTINUOUS
 62
     5
 10
291.53583065965893
 20
64.301109203735507
 30
0.0
  0
VERTEX
  8
DETAIL
  6
CONTINUOUS
 62
     5
 10
291.6494717025052
 20
64.299999999991996
 30
0.0
  0
SEQEND
  8
DETAIL
  6
CONTINUOUS
 62
     5
  0
POLYLINE
  8
DETAIL
  6
CONTINUOUS
 62
     5
 66
     1
 10
0.0
 20
0.0
 30
0.0
  0
VERTEX
  8
DETAIL
  6
CONTINUOUS
 62
     5
 10
297.3505282975093
 20
64.299999999991996
 30
0.0
  0
VERTEX
  8
DETAIL
  6
CONTINUOUS
 62
     5
 10
297.47089123207184
 20
64.301163194111922
 30
0.0
  0
VERTEX
  8
DETAIL
  6
CONTINUOUS
 62
     5
 10
297.59110706334582
 20
64.305482074455725
 30
0.0
  0
VERTEX
  8
DETAIL
  6
CONTINUOUS
 62
     5
 10
297.71130390994381
 20
64.314200587999565
 30
0.0
  0
VERTEX
  8
DETAIL
  6
CONTINUOUS
 62
     5
 10
297.83160988876352
 20
64.328562682460642
 30
0.0
  0
VERTEX
  8
DETAIL
  6
CONTINUOUS
 62
     5
 10
297.951715314485
 20
64.350001578359965
 30
0.0
  0
VERTEX
  8
DETAIL
  6
CONTINUOUS
 62
     5
 10
298.06964141351051
 20
64.380672084654549
 30
0.0
  0
VERTEX
  8
DETAIL
  6
CONTINUOUS
 62
     5
 10
298.18301171624887
 20
64.422900944185201
 30
0.0
  0
VERTEX
  8
DETAIL
  6
CONTINUOUS
 62
     5
 10
298.28944975310878
 20
64.479014899792674
 30
0.0
  0
SEQEND
  8
DETAIL
  6
CONTINUOUS
 62
     5
  0
POLYLINE
  8
DETAIL
  6
CONTINUOUS
 62
     5
 66
     1
 10
0.0
 20
0.0
 30
0.0
  0
VERTEX
  8
DETAIL
  6
CONTINUOUS
 62
     5
 10
298.28944975310878
 20
64.479014899792674
 30
0.0
  0
VERTEX
  8
DETAIL
  6
CONTINUOUS
 62
     5
 10
298.33055037054282
 20
64.506852584431144
 30
0.0
  0
VERTEX
  8
DETAIL
  6
CONTINUOUS
 62
     5
 10
298.36925267775132
 20
64.538109143138698
 30
0.0
  0
VERTEX
  8
DETAIL
  6
CONTINUOUS
 62
     5
 10
298.40469966009249
 20
64.573138948688822
 30
0.0
  0
VERTEX
  8
DETAIL
  6
CONTINUOUS
 62
     5
 10
298.43603420901161
 20
64.612295851600379
 30
0.0
  0
VERTEX
  8
DETAIL
  6
CONTINUOUS
 62
     5
 10
298.46233608215016
 20
64.655582612909953
 30
0.0
  0
VERTEX
  8
DETAIL
  6
CONTINUOUS
 62
     5
 10
298.48251240966101
 20
64.702042005626254
 30
0.0
  0
VERTEX
  8
DETAIL
  6
CONTINUOUS
 62
     5
 10
298.495441084596
 20
64.750554214127988
 30
0.0
  0
VERTEX
  8
DETAIL
  6
CONTINUOUS
 62
     5
 10
298.50000000000728
 20
64.799999422793917
 30
0.0
  0
SEQEND
  8
DETAIL
  6
CONTINUOUS
 62
     5
  0
POLYLINE
  8
DETAIL
  6
CONTINUOUS
 62
     5
 66
     1
 10
0.0
 20
0.0
 30
0.0
  0
VERTEX
  8
DETAIL
  6
CONTINUOUS
 62
     5
 10
291.6494717025052
 20
67.799999999991996
 30
0.0
  0
VERTEX
  8
DETAIL
  6
CONTINUOUS
 62
     5
 10
291.53582473236042
 20
67.798896189796977
 30
0.0
  0
VERTEX
  8
DETAIL
  6
CONTINUOUS
 62
     5
 10
291.42222765643697
 20
67.795016588651123
 30
0.0
  0
VERTEX
  8
DETAIL
  6
CONTINUOUS
 62
     5
 10
291.30873026515184
 20
67.787508852671166
 30
0.0
  0
VERTEX
  8
DETAIL
  6
CONTINUOUS
 62
     5
 10
291.19552074967771
 20
67.775376647161025
 30
0.0
  0
VERTEX
  8
DETAIL
  6
CONTINUOUS
 62
     5
 10
291.08320747570565
 20
67.757186491902601
 30
0.0
  0
VERTEX
  8
DETAIL
  6
CONTINUOUS
 62
     5
 10
290.9724792407082
 20
67.731421627290615
 30
0.0
  0
VERTEX
  8
DETAIL
  6
CONTINUOUS
 62
     5
 10
290.86430991770129
 20
67.696383990150039
 30
0.0
  0
VERTEX
  8
DETAIL
  6
CONTINUOUS
 62
     5
 10
290.7604846056326
 20
67.649888071769709
 30
0.0
  0
VERTEX
  8
DETAIL
  6
CONTINUOUS
 62
     5
 10
290.66425165348977
 20
67.589111590830854
 30
0.0
  0
VERTEX
  8
DETAIL
  6
CONTINUOUS
 62
     5
 10
290.58155367658435
 20
67.510730190286552
 30
0.0
  0
VERTEX
  8
DETAIL
  6
CONTINUOUS
 62
     5
 10
290.52264869388608
 20
67.411888178285125
 30
0.0
  0
VERTEX
  8
DETAIL
  6
CONTINUOUS
 62
     5
 10
290.50000000000728
 20
67.299999898492388
 30
0.0
  0
SEQEND
  8
DETAIL
  6
CONTINUOUS
 62
     5
  0
POLYLINE
  8
DETAIL
  6
CONTINUOUS
 62
     5
 66
     1
 10
0.0
 20
0.0
 30
0.0
  0
VERTEX
  8
DETAIL
  6
CONTINUOUS
 62
     5
 10
294.50000000000728
 20
67.299999939492409
 30
0.0
  0
VERTEX
  8
DETAIL
  6
CONTINUOUS
 62
     5
 10
294.47731623053073
 20
67.411868280056552
 30
0.0
  0
VERTEX
  8
DETAIL
  6
CONTINUOUS
 62
     5
 10
294.41841814968922
 20
67.510739953147862
 30
0.0
  0
VERTEX
  8
DETAIL
  6
CONTINUOUS
 62
     5
 10
294.3357945188551
 20
67.589195849969954
 30
0.0
  0
VERTEX
  8
DETAIL
  6
CONTINUOUS
 62
     5
 10
294.23954626597538
 20
67.649924107448598
 30
0.0
  0
VERTEX
  8
DETAIL
  6
CONTINUOUS
 62
     5
 10
294.13567668689274
 20
67.696351878600709
 30
0.0
  0
VERTEX
  8
DETAIL
  6
CONTINUOUS
 62
     5
 10
294.02751721023969
 20
67.731411762788312
 30
0.0
  0
VERTEX
  8
DETAIL
  6
CONTINUOUS
 62
     5
 10
293.91680004231927
 20
67.757198092122422
 30
0.0
  0
VERTEX
  8
DETAIL
  6
CONTINUOUS
 62
     5
 10
293.80448539179361
 20
67.775386650659684
 30
0.0
  0
VERTEX
  8
DETAIL
  6
CONTINUOUS
 62
     5
 10
293.69127047069412
 20
67.787509621973271
 30
0.0
  0
VERTEX
  8
DETAIL
  6
CONTINUOUS
 62
     5
 10
293.57777083806189
 20
67.795013611188566
 30
0.0
  0
VERTEX
  8
DETAIL
  6
CONTINUOUS
 62
     5
 10
293.46417446786199
 20
67.798894615130592
 30
0.0
  0
VERTEX
  8
DETAIL
  6
CONTINUOUS
 62
     5
 10
293.3505282975093
 20
67.799999999991996
 30
0.0
  0
SEQEND
  8
DETAIL
  6
CONTINUOUS
 62
     5
  0
POLYLINE
  8
DETAIL
  6
CONTINUOUS
 62
     5
 66
     1
 10
0.0
 20
0.0
 30
0.0
  0
VERTEX
  8
DETAIL
  6
CONTINUOUS
 62
     5
 10
293.3505282975093
 20
64.299999999991996
 30
0.0
  0
VERTEX
  8
DETAIL
  6
CONTINUOUS
 62
     5
 10
293.46417249526934
 20
64.301106189127779
 30
0.0
  0
VERTEX
  8
DETAIL
  6
CONTINUOUS
 62
     5
 10
293.57776689988657
 20
64.304987928054459
 30
0.0
  0
VERTEX
  8
DETAIL
  6
CONTINUOUS
 62
     5
 10
293.69126483945814
 20
64.312490067006408
 30
0.0
  0
VERTEX
  8
DETAIL
  6
CONTINUOUS
 62
     5
 10
293.80447850894745
 20
64.324607440674455
 30
0.0
  0
VERTEX
  8
DETAIL
  6
CONTINUOUS
 62
     5
 10
293.91679220712962
 20
64.342789615928126
 30
0.0
  0
VERTEX
  8
DETAIL
  6
CONTINUOUS
 62
     5
 10
294.02750851193196
 20
64.368572524145861
 30
0.0
  0
VERTEX
  8
DETAIL
  6
CONTINUOUS
 62
     5
 10
294.1356648570453
 20
64.403637059504817
 30
0.0
  0
VERTEX
  8
DETAIL
  6
CONTINUOUS
 62
     5
 10
294.23952310578909
 20
64.45008340036847
 30
0.0
  0
VERTEX
  8
DETAIL
  6
CONTINUOUS
 62
     5
 10
294.33576095426184
 20
64.510825060754996
 30
0.0
  0
VERTEX
  8
DETAIL
  6
CONTINUOUS
 62
     5
 10
294.41838761000577
 20
64.589273165397714
 30
0.0
  0
VERTEX
  8
DETAIL
  6
CONTINUOUS
 62
     5
 10
294.47730328576802
 20
64.68813505456076
 30
0.0
  0
VERTEX
  8
DETAIL
  6
CONTINUOUS
 62
     5
 10
294.50000000000728
 20
64.799998546193819
 30
0.0
  0
SEQEND
  8
DETAIL
  6
CONTINUOUS
 62
     5
  0
POLYLINE
  8
DETAIL
  6
CONTINUOUS
 62
     5
 66
     1
 10
0.0
 20
0.0
 30
0.0
  0
VERTEX
  8
DETAIL
  6
CONTINUOUS
 62
     5
 10
294.50000000000728
 20
64.799999835591734
 30
0.0
  0
VERTEX
  8
DETAIL
  6
CONTINUOUS
 62
     5
 10
294.52277163771748
 20
64.688176885375569
 30
0.0
  0
VERTEX
  8
DETAIL
  6
CONTINUOUS
 62
     5
 10
294.58169080853548
 20
64.589271188297047
 30
0.0
  0
VERTEX
  8
DETAIL
  6
CONTINUOUS
 62
     5
 10
294.6641849823796
 20
64.510694084772553
 30
0.0
  0
VERTEX
  8
DETAIL
  6
CONTINUOUS
 62
     5
 10
294.7604394370648
 20
64.450024399181288
 30
0.0
  0
VERTEX
  8
DETAIL
  6
CONTINUOUS
 62
     5
 10
294.86436796014812
 20
64.403686762965521
 30
0.0
  0
VERTEX
  8
DETAIL
  6
CONTINUOUS
 62
     5
 10
294.97250628293017
 20
64.368585157421222
 30
0.0
  0
VERTEX
  8
DETAIL
  6
CONTINUOUS
 62
     5
 10
295.08320282440366
 20
64.342768362862842
 30
0.0
  0
VERTEX
  8
DETAIL
  6
CONTINUOUS
 62
     5
 10
295.19551753895746
 20
64.324591139447151
 30
0.0
  0
VERTEX
  8
DETAIL
  6
CONTINUOUS
 62
     5
 10
295.30873883940393
 20
64.312490654466131
 30
0.0
  0
VERTEX
  8
DETAIL
  6
CONTINUOUS
 62
     5
 10
295.42223894370039
 20
64.304994590518703
 30
0.0
  0
VERTEX
  8
DETAIL
  6
CONTINUOUS
 62
     5
 10
295.53583049854433
 20
64.301109455871654
 30
0.0
  0
VERTEX
  8
DETAIL
  6
CONTINUOUS
 62
     5
 10
295.6494717025052
 20
64.299999999991996
 30
0.0
  0
SEQEND
  8
DETAIL
  6
CONTINUOUS
 62
     5
  0
POLYLINE
  8
DETAIL
  6
CONTINUOUS
 62
     5
 66
     1
 10
0.0
 20
0.0
 30
0.0
  0
VERTEX
  8
DETAIL
  6
CONTINUOUS
 62
     5
 10
295.6494717025052
 20
67.799999999991996
 30
0.0
  0
VERTEX
  8
DETAIL
  6
CONTINUOUS
 62
     5
 10
295.53582499990358
 20
67.798896024802886
 30
0.0
  0
VERTEX
  8
DETAIL
  6
CONTINUOUS
 62
     5
 10
295.42222818594598
 20
67.795016250340225
 30
0.0
  0
VERTEX
  8
DETAIL
  6
CONTINUOUS
 62
     5
 10
295.30873084914947
 20
67.787508814940367
 30
0.0
  0
VERTEX
  8
DETAIL
  6
CONTINUOUS
 62
     5
 10
295.19552115309648
 20
67.775377497738432
 30
0.0
  0
VERTEX
  8
DETAIL
  6
CONTINUOUS
 62
     5
 10
295.08320793997052
 20
67.757187840106923
 30
0.0
  0
VERTEX
  8
DETAIL
  6
CONTINUOUS
 62
     5
 10
294.97248057005726
 20
67.731421910293804
 30
0.0
  0
VERTEX
  8
DETAIL
  6
CONTINUOUS
 62
     5
 10
294.86431211655929
 20
67.69638279168349
 30
0.0
  0
VERTEX
  8
DETAIL
  6
CONTINUOUS
 62
     5
 10
294.760484496007
 20
67.649890412490464
 30
0.0
  0
VERTEX
  8
DETAIL
  6
CONTINUOUS
 62
     5
 10
294.66425163300539
 20
67.589115983844408
 30
0.0
  0
VERTEX
  8
DETAIL
  6
CONTINUOUS
 62
     5
 10
294.58155939873558
 20
67.510729378456659
 30
0.0
  0
VERTEX
  8
DETAIL
  6
CONTINUOUS
 62
     5
 10
294.52265304727774
 20
67.411886027754633
 30
0.0
  0
VERTEX
  8
DETAIL
  6
CONTINUOUS
 62
     5
 10
294.50000000000728
 20
67.29999989429416
 30
0.0
  0
SEQEND
  8
DETAIL
  6
CONTINUOUS
 62
     5
  0
POLYLINE
  8
DETAIL
  6
CONTINUOUS
 62
     5
 66
     1
 10
0.0
 20
0.0
 30
0.0
  0
VERTEX
  8
DETAIL
  6
CONTINUOUS
 62
     5
 10
298.50000000000728
 20
67.299999938091787
 30
0.0
  0
VERTEX
  8
DETAIL
  6
CONTINUOUS
 62
     5
 10
298.49540937874292
 20
67.349624220634979
 30
0.0
  0
VERTEX
  8
DETAIL
  6
CONTINUOUS
 62
     5
 10
298.4823928499984
 20
67.398306332905605
 30
0.0
  0
VERTEX
  8
DETAIL
  6
CONTINUOUS
 62
     5
 10
298.46208341634724
 20
67.444915997745255
 30
0.0
  0
VERTEX
  8
DETAIL
  6
CONTINUOUS
 62
     5
 10
298.4356140803626
 20
67.488322937995548
 30
0.0
  0
VERTEX
  8
DETAIL
  6
CONTINUOUS
 62
     5
 10
298.4040882787649
 20
67.527561813636552
 30
0.0
  0
VERTEX
  8
DETAIL
  6
CONTINUOUS
 62
     5
 10
298.36843502852332
 20
67.562640308988151
 30
0.0
  0
VERTEX
  8
DETAIL
  6
CONTINUOUS
 62
     5
 10
298.32951960830525
 20
67.593921681171039
 30
0.0
  0
VERTEX
  8
DETAIL
  6
CONTINUOUS
 62
     5
 10
298.28820720250951
 20
67.621769713194226
 30
0.0
  0
SEQEND
  8
DETAIL
  6
CONTINUOUS
 62
     5
  0
POLYLINE
  8
DETAIL
  6
CONTINUOUS
 62
     5
 66
     1
 10
0.0
 20
0.0
 30
0.0
  0
VERTEX
  8
DETAIL
  6
CONTINUOUS
 62
     5
 10
298.28820720250951
 20
67.621769713194226
 30
0.0
  0
VERTEX
  8
DETAIL
  6
CONTINUOUS
 62
     5
 10
298.18182731785981
 20
67.677615731491088
 30
0.0
  0
VERTEX
  8
DETAIL
  6
CONTINUOUS
 62
     5
 10
298.06858086549011
 20
67.719652122957996
 30
0.0
  0
VERTEX
  8
DETAIL
  6
CONTINUOUS
 62
     5
 10
297.95082037636018
 20
67.75019052446595
 30
0.0
  0
VERTEX
  8
DETAIL
  6
CONTINUOUS
 62
     5
 10
297.8308983814299
 20
67.771542572886005
 30
0.0
  0
VERTEX
  8
DETAIL
  6
CONTINUOUS
 62
     5
 10
297.71077371534972
 20
67.785849268412008
 30
0.0
  0
VERTEX
  8
DETAIL
  6
CONTINUOUS
 62
     5
 10
297.59075397548042
 20
67.794535928520901
 30
0.0
  0
VERTEX
  8
DETAIL
  6
CONTINUOUS
 62
     5
 10
297.47071391801285
 20
67.798840267765357
 30
0.0
  0
VERTEX
  8
DETAIL
  6
CONTINUOUS
 62
     5
 10
297.3505282975093
 20
67.799999999991996
 30
0.0
  0
SEQEND
  8
DETAIL
  6
CONTINUOUS
 62
     5
  0
POLYLINE
  8
DETAIL
  6
CONTINUOUS
 62
     5
 66
     1
 10
0.0
 20
0.0
 30
0.0
  0
VERTEX
  8
DETAIL
  6
CONTINUOUS
 62
     5
 10
-365.49999999999272
 20
64.799999842392936
 30
0.0
  0
VERTEX
  8
DETAIL
  6
CONTINUOUS
 62
     5
 10
-365.47723082570155
 20
64.688175202590173
 30
0.0
  0
VERTEX
  8
DETAIL
  6
CONTINUOUS
 62
     5
 10
-365.41830818099282
 20
64.589274408513432
 30
0.0
  0
VERTEX
  8
DETAIL
  6
CONTINUOUS
 62
     5
 10
-365.33580480939338
 20
64.510707250194187
 30
0.0
  0
VERTEX
  8
DETAIL
  6
CONTINUOUS
 62
     5
 10
-365.23955380877834
 20
64.450029526188885
 30
0.0
  0
VERTEX
  8
DETAIL
  6
CONTINUOUS
 62
     5
 10
-365.13563208238736
 20
64.403681442566281
 30
0.0
  0
VERTEX
  8
DETAIL
  6
CONTINUOUS
 62
     5
 10
-365.02749259190318
 20
64.368583223936639
 30
0.0
  0
VERTEX
  8
DETAIL
  6
CONTINUOUS
 62
     5
 10
-364.91679468826447
 20
64.342769782513628
 30
0.0
  0
VERTEX
  8
DETAIL
  6
CONTINUOUS
 62
     5
 10
-364.80448045072848
 20
64.324592424433405
 30
0.0
  0
VERTEX
  8
DETAIL
  6
CONTINUOUS
 62
     5
 10
-364.69126022124226
 20
64.312490639639762
 30
0.0
  0
VERTEX
  8
DETAIL
  6
CONTINUOUS
 62
     5
 10
-364.57776072125489
 20
64.304994083077489
 30
0.0
  0
VERTEX
  8
DETAIL
  6
CONTINUOUS
 62
     5
 10
-364.46416934034119
 20
64.301109203735507
 30
0.0
  0
VERTEX
  8
DETAIL
  6
CONTINUOUS
 62
     5
 10
-364.3505282974948
 20
64.299999999991996
 30
0.0
  0
SEQEND
  8
DETAIL
  6
CONTINUOUS
 62
     5
  0
POLYLINE
  8
DETAIL
  6
CONTINUOUS
 62
     5
 66
     1
 10
0.0
 20
0.0
 30
0.0
  0
VERTEX
  8
DETAIL
  6
CONTINUOUS
 62
     5
 10
-358.6494717024907
 20
64.299999999991996
 30
0.0
  0
VERTEX
  8
DETAIL
  6
CONTINUOUS
 62
     5
 10
-358.52910876792805
 20
64.301163194111922
 30
0.0
  0
VERTEX
  8
DETAIL
  6
CONTINUOUS
 62
     5
 10
-358.40889293665401
 20
64.305482074455725
 30
0.0
  0
VERTEX
  8
DETAIL
  6
CONTINUOUS
 62
     5
 10
-358.28869609005631
 20
64.314200587999565
 30
0.0
  0
VERTEX
  8
DETAIL
  6
CONTINUOUS
 62
     5
 10
-358.16839011123648
 20
64.328562682460642
 30
0.0
  0
VERTEX
  8
DETAIL
  6
CONTINUOUS
 62
     5
 10
-358.04828468551506
 20
64.350001578359965
 30
0.0
  0
VERTEX
  8
DETAIL
  6
CONTINUOUS
 62
     5
 10
-357.93035858648955
 20
64.380672084654549
 30
0.0
  0
VERTEX
  8
DETAIL
  6
CONTINUOUS
 62
     5
 10
-357.81698828375124
 20
64.422900944185201
 30
0.0
  0
VERTEX
  8
DETAIL
  6
CONTINUOUS
 62
     5
 10
-357.71055024689122
 20
64.479014899792674
 30
0.0
  0
SEQEND
  8
DETAIL
  6
CONTINUOUS
 62
     5
  0
POLYLINE
  8
DETAIL
  6
CONTINUOUS
 62
     5
 66
     1
 10
0.0
 20
0.0
 30
0.0
  0
VERTEX
  8
DETAIL
  6
CONTINUOUS
 62
     5
 10
-357.71055024689122
 20
64.479014899792674
 30
0.0
  0
VERTEX
  8
DETAIL
  6
CONTINUOUS
 62
     5
 10
-357.66944962945718
 20
64.506852584431144
 30
0.0
  0
VERTEX
  8
DETAIL
  6
CONTINUOUS
 62
     5
 10
-357.63074732224874
 20
64.538109143138698
 30
0.0
  0
VERTEX
  8
DETAIL
  6
CONTINUOUS
 62
     5
 10
-357.59530033990757
 20
64.573138948688822
 30
0.0
  0
VERTEX
  8
DETAIL
  6
CONTINUOUS
 62
     5
 10
-357.56396579098839
 20
64.612295851600379
 30
0.0
  0
VERTEX
  8
DETAIL
  6
CONTINUOUS
 62
     5
 10
-357.53766391784995
 20
64.655582612909953
 30
0.0
  0
VERTEX
  8
DETAIL
  6
CONTINUOUS
 62
     5
 10
-357.51748759033904
 20
64.702042005626254
 30
0.0
  0
VERTEX
  8
DETAIL
  6
CONTINUOUS
 62
     5
 10
-357.50455891540395
 20
64.750554214127988
 30
0.0
  0
VERTEX
  8
DETAIL
  6
CONTINUOUS
 62
     5
 10
-357.49999999999272
 20
64.799999422793917
 30
0.0
  0
SEQEND
  8
DETAIL
  6
CONTINUOUS
 62
     5
  0
POLYLINE
  8
DETAIL
  6
CONTINUOUS
 62
     5
 66
     1
 10
0.0
 20
0.0
 30
0.0
  0
VERTEX
  8
DETAIL
  6
CONTINUOUS
 62
     5
 10
-364.3505282974948
 20
67.799999999991996
 30
0.0
  0
VERTEX
  8
DETAIL
  6
CONTINUOUS
 62
     5
 10
-364.46417526763963
 20
67.798896189796977
 30
0.0
  0
VERTEX
  8
DETAIL
  6
CONTINUOUS
 62
     5
 10
-364.57777234356308
 20
67.795016588651123
 30
0.0
  0
VERTEX
  8
DETAIL
  6
CONTINUOUS
 62
     5
 10
-364.69126973484811
 20
67.787508852671166
 30
0.0
  0
VERTEX
  8
DETAIL
  6
CONTINUOUS
 62
     5
 10
-364.80447925032223
 20
67.775376647161025
 30
0.0
  0
VERTEX
  8
DETAIL
  6
CONTINUOUS
 62
     5
 10
-364.91679252429441
 20
67.757186491902601
 30
0.0
  0
VERTEX
  8
DETAIL
  6
CONTINUOUS
 62
     5
 10
-365.0275207592918
 20
67.731421627290615
 30
0.0
  0
VERTEX
  8
DETAIL
  6
CONTINUOUS
 62
     5
 10
-365.13569008229865
 20
67.696383990150039
 30
0.0
  0
VERTEX
  8
DETAIL
  6
CONTINUOUS
 62
     5
 10
-365.23951539436752
 20
67.649888071769709
 30
0.0
  0
VERTEX
  8
DETAIL
  6
CONTINUOUS
 62
     5
 10
-365.33574834651017
 20
67.589111590830854
 30
0.0
  0
VERTEX
  8
DETAIL
  6
CONTINUOUS
 62
     5
 10
-365.41844632341565
 20
67.510730190286552
 30
0.0
  0
VERTEX
  8
DETAIL
  6
CONTINUOUS
 62
     5
 10
-365.47735130611397
 20
67.411888178285125
 30
0.0
  0
VERTEX
  8
DETAIL
  6
CONTINUOUS
 62
     5
 10
-365.49999999999272
 20
67.299999898492388
 30
0.0
  0
SEQEND
  8
DETAIL
  6
CONTINUOUS
 62
     5
  0
POLYLINE
  8
DETAIL
  6
CONTINUOUS
 62
     5
 66
     1
 10
0.0
 20
0.0
 30
0.0
  0
VERTEX
  8
DETAIL
  6
CONTINUOUS
 62
     5
 10
-361.49999999999272
 20
67.299999939492409
 30
0.0
  0
VERTEX
  8
DETAIL
  6
CONTINUOUS
 62
     5
 10
-361.52268376946944
 20
67.411868280056552
 30
0.0
  0
VERTEX
  8
DETAIL
  6
CONTINUOUS
 62
     5
 10
-361.58158185031078
 20
67.510739953147862
 30
0.0
  0
VERTEX
  8
DETAIL
  6
CONTINUOUS
 62
     5
 10
-361.66420548114496
 20
67.589195849969954
 30
0.0
  0
VERTEX
  8
DETAIL
  6
CONTINUOUS
 62
     5
 10
-361.76045373402474
 20
67.649924107448598
 30
0.0
  0
VERTEX
  8
DETAIL
  6
CONTINUOUS
 62
     5
 10
-361.86432331310732
 20
67.696351878600709
 30
0.0
  0
VERTEX
  8
DETAIL
  6
CONTINUOUS
 62
     5
 10
-361.97248278976025
 20
67.731411762788312
 30
0.0
  0
VERTEX
  8
DETAIL
  6
CONTINUOUS
 62
     5
 10
-362.08319995768079
 20
67.757198092122422
 30
0.0
  0
VERTEX
  8
DETAIL
  6
CONTINUOUS
 62
     5
 10
-362.19551460820645
 20
67.775386650659684
 30
0.0
  0
VERTEX
  8
DETAIL
  6
CONTINUOUS
 62
     5
 10
-362.30872952930599
 20
67.787509621973271
 30
0.0
  0
VERTEX
  8
DETAIL
  6
CONTINUOUS
 62
     5
 10
-362.42222916193816
 20
67.795013611188566
 30
0.0
  0
VERTEX
  8
DETAIL
  6
CONTINUOUS
 62
     5
 10
-362.53582553213812
 20
67.798894615130592
 30
0.0
  0
VERTEX
  8
DETAIL
  6
CONTINUOUS
 62
     5
 10
-362.6494717024907
 20
67.799999999991996
 30
0.0
  0
SEQEND
  8
DETAIL
  6
CONTINUOUS
 62
     5
  0
POLYLINE
  8
DETAIL
  6
CONTINUOUS
 62
     5
 66
     1
 10
0.0
 20
0.0
 30
0.0
  0
VERTEX
  8
DETAIL
  6
CONTINUOUS
 62
     5
 10
-362.6494717024907
 20
64.299999999991996
 30
0.0
  0
VERTEX
  8
DETAIL
  6
CONTINUOUS
 62
     5
 10
-362.53582750473061
 20
64.301106189127779
 30
0.0
  0
VERTEX
  8
DETAIL
  6
CONTINUOUS
 62
     5
 10
-362.42223310011337
 20
64.304987928054459
 30
0.0
  0
VERTEX
  8
DETAIL
  6
CONTINUOUS
 62
     5
 10
-362.30873516054186
 20
64.312490067006408
 30
0.0
  0
VERTEX
  8
DETAIL
  6
CONTINUOUS
 62
     5
 10
-362.19552149105243
 20
64.324607440674455
 30
0.0
  0
VERTEX
  8
DETAIL
  6
CONTINUOUS
 62
     5
 10
-362.08320779287038
 20
64.342789615928126
 30
0.0
  0
VERTEX
  8
DETAIL
  6
CONTINUOUS
 62
     5
 10
-361.97249148806799
 20
64.368572524145861
 30
0.0
  0
VERTEX
  8
DETAIL
  6
CONTINUOUS
 62
     5
 10
-361.8643351429547
 20
64.403637059504817
 30
0.0
  0
VERTEX
  8
DETAIL
  6
CONTINUOUS
 62
     5
 10
-361.76047689421091
 20
64.45008340036847
 30
0.0
  0
VERTEX
  8
DETAIL
  6
CONTINUOUS
 62
     5
 10
-361.66423904573816
 20
64.510825060754996
 30
0.0
  0
VERTEX
  8
DETAIL
  6
CONTINUOUS
 62
     5
 10
-361.58161238999429
 20
64.589273165397714
 30
0.0
  0
VERTEX
  8
DETAIL
  6
CONTINUOUS
 62
     5
 10
-361.52269671423198
 20
64.68813505456076
 30
0.0
  0
VERTEX
  8
DETAIL
  6
CONTINUOUS
 62
     5
 10
-361.49999999999272
 20
64.799998546193819
 30
0.0
  0
SEQEND
  8
DETAIL
  6
CONTINUOUS
 62
     5
  0
POLYLINE
  8
DETAIL
  6
CONTINUOUS
 62
     5
 66
     1
 10
0.0
 20
0.0
 30
0.0
  0
VERTEX
  8
DETAIL
  6
CONTINUOUS
 62
     5
 10
-361.49999999999272
 20
64.799999835591734
 30
0.0
  0
VERTEX
  8
DETAIL
  6
CONTINUOUS
 62
     5
 10
-361.47722836228257
 20
64.688176885375569
 30
0.0
  0
VERTEX
  8
DETAIL
  6
CONTINUOUS
 62
     5
 10
-361.41830919146446
 20
64.589271188297047
 30
0.0
  0
VERTEX
  8
DETAIL
  6
CONTINUOUS
 62
     5
 10
-361.3358150176212
 20
64.510694084772553
 30
0.0
  0
VERTEX
  8
DETAIL
  6
CONTINUOUS
 62
     5
 10
-361.23956056293878
 20
64.450024399181288
 30
0.0
  0
VERTEX
  8
DETAIL
  6
CONTINUOUS
 62
     5
 10
-361.135632039857
 20
64.403686762965521
 30
0.0
  0
VERTEX
  8
DETAIL
  6
CONTINUOUS
 62
     5
 10
-361.02749371707267
 20
64.368585157421222
 30
0.0
  0
VERTEX
  8
DETAIL
  6
CONTINUOUS
 62
     5
 10
-360.9167971755972
 20
64.342768362862842
 30
0.0
  0
VERTEX
  8
DETAIL
  6
CONTINUOUS
 62
     5
 10
-360.8044824610426
 20
64.324591139447151
 30
0.0
  0
VERTEX
  8
DETAIL
  6
CONTINUOUS
 62
     5
 10
-360.69126116059601
 20
64.312490654466131
 30
0.0
  0
VERTEX
  8
DETAIL
  6
CONTINUOUS
 62
     5
 10
-360.57776105629949
 20
64.304994590518703
 30
0.0
  0
VERTEX
  8
DETAIL
  6
CONTINUOUS
 62
     5
 10
-360.46416950145567
 20
64.301109455871654
 30
0.0
  0
VERTEX
  8
DETAIL
  6
CONTINUOUS
 62
     5
 10
-360.3505282974948
 20
64.299999999991996
 30
0.0
  0
SEQEND
  8
DETAIL
  6
CONTINUOUS
 62
     5
  0
POLYLINE
  8
DETAIL
  6
CONTINUOUS
 62
     5
 66
     1
 10
0.0
 20
0.0
 30
0.0
  0
VERTEX
  8
DETAIL
  6
CONTINUOUS
 62
     5
 10
-360.3505282974948
 20
67.799999999991996
 30
0.0
  0
VERTEX
  8
DETAIL
  6
CONTINUOUS
 62
     5
 10
-360.46417500009642
 20
67.798896024802886
 30
0.0
  0
VERTEX
  8
DETAIL
  6
CONTINUOUS
 62
     5
 10
-360.5777718140539
 20
67.795016250340225
 30
0.0
  0
VERTEX
  8
DETAIL
  6
CONTINUOUS
 62
     5
 10
-360.69126915085059
 20
67.787508814940367
 30
0.0
  0
VERTEX
  8
DETAIL
  6
CONTINUOUS
 62
     5
 10
-360.80447884690358
 20
67.775377497738432
 30
0.0
  0
VERTEX
  8
DETAIL
  6
CONTINUOUS
 62
     5
 10
-360.91679206002954
 20
67.757187840106923
 30
0.0
  0
VERTEX
  8
DETAIL
  6
CONTINUOUS
 62
     5
 10
-361.02751942994286
 20
67.731421910293804
 30
0.0
  0
VERTEX
  8
DETAIL
  6
CONTINUOUS
 62
     5
 10
-361.13568788344082
 20
67.69638279168349
 30
0.0
  0
VERTEX
  8
DETAIL
  6
CONTINUOUS
 62
     5
 10
-361.23951550399318
 20
67.649890412490464
 30
0.0
  0
VERTEX
  8
DETAIL
  6
CONTINUOUS
 62
     5
 10
-361.33574836699466
 20
67.589115983844408
 30
0.0
  0
VERTEX
  8
DETAIL
  6
CONTINUOUS
 62
     5
 10
-361.41844060126442
 20
67.510729378456659
 30
0.0
  0
VERTEX
  8
DETAIL
  6
CONTINUOUS
 62
     5
 10
-361.47734695272237
 20
67.411886027754633
 30
0.0
  0
VERTEX
  8
DETAIL
  6
CONTINUOUS
 62
     5
 10
-361.49999999999272
 20
67.29999989429416
 30
0.0
  0
SEQEND
  8
DETAIL
  6
CONTINUOUS
 62
     5
  0
POLYLINE
  8
DETAIL
  6
CONTINUOUS
 62
     5
 66
     1
 10
0.0
 20
0.0
 30
0.0
  0
VERTEX
  8
DETAIL
  6
CONTINUOUS
 62
     5
 10
-357.49999999999272
 20
67.299999938091787
 30
0.0
  0
VERTEX
  8
DETAIL
  6
CONTINUOUS
 62
     5
 10
-357.50459062125719
 20
67.349624220634979
 30
0.0
  0
VERTEX
  8
DETAIL
  6
CONTINUOUS
 62
     5
 10
-357.51760715000165
 20
67.398306332905605
 30
0.0
  0
VERTEX
  8
DETAIL
  6
CONTINUOUS
 62
     5
 10
-357.53791658365282
 20
67.444915997745255
 30
0.0
  0
VERTEX
  8
DETAIL
  6
CONTINUOUS
 62
     5
 10
-357.5643859196374
 20
67.488322937995548
 30
0.0
  0
VERTEX
  8
DETAIL
  6
CONTINUOUS
 62
     5
 10
-357.59591172123515
 20
67.527561813636552
 30
0.0
  0
VERTEX
  8
DETAIL
  6
CONTINUOUS
 62
     5
 10
-357.63156497147668
 20
67.562640308988151
 30
0.0
  0
VERTEX
  8
DETAIL
  6
CONTINUOUS
 62
     5
 10
-357.67048039169481
 20
67.593921681171039
 30
0.0
  0
VERTEX
  8
DETAIL
  6
CONTINUOUS
 62
     5
 10
-357.71179279749049
 20
67.621769713194226
 30
0.0
  0
SEQEND
  8
DETAIL
  6
CONTINUOUS
 62
     5
  0
POLYLINE
  8
DETAIL
  6
CONTINUOUS
 62
     5
 66
     1
 10
0.0
 20
0.0
 30
0.0
  0
VERTEX
  8
DETAIL
  6
CONTINUOUS
 62
     5
 10
-357.71179279749049
 20
67.621769713194226
 30
0.0
  0
VERTEX
  8
DETAIL
  6
CONTINUOUS
 62
     5
 10
-357.81817268214013
 20
67.677615731491088
 30
0.0
  0
VERTEX
  8
DETAIL
  6
CONTINUOUS
 62
     5
 10
-357.93141913450984
 20
67.719652122957996
 30
0.0
  0
VERTEX
  8
DETAIL
  6
CONTINUOUS
 62
     5
 10
-358.04917962363987
 20
67.75019052446595
 30
0.0
  0
VERTEX
  8
DETAIL
  6
CONTINUOUS
 62
     5
 10
-358.1691016185701
 20
67.771542572886005
 30
0.0
  0
VERTEX
  8
DETAIL
  6
CONTINUOUS
 62
     5
 10
-358.28922628465028
 20
67.785849268412008
 30
0.0
  0
VERTEX
  8
DETAIL
  6
CONTINUOUS
 62
     5
 10
-358.40924602451963
 20
67.794535928520901
 30
0.0
  0
VERTEX
  8
DETAIL
  6
CONTINUOUS
 62
     5
 10
-358.52928608198721
 20
67.798840267765357
 30
0.0
  0
VERTEX
  8
DETAIL
  6
CONTINUOUS
 62
     5
 10
-358.6494717024907
 20
67.799999999991996
 30
0.0
  0
SEQEND
  8
DETAIL
  6
CONTINUOUS
 62
     5
  0
POLYLINE
  8
DETAIL
  6
CONTINUOUS
 62
     5
 66
     1
 10
0.0
 20
0.0
 30
0.0
  0
VERTEX
  8
DETAIL
  6
CONTINUOUS
 62
     5
 10
357.50000000000728
 20
64.799999842392936
 30
0.0
  0
VERTEX
  8
DETAIL
  6
CONTINUOUS
 62
     5
 10
357.52276917429845
 20
64.688175202590173
 30
0.0
  0
VERTEX
  8
DETAIL
  6
CONTINUOUS
 62
     5
 10
357.58169181900723
 20
64.589274408513432
 30
0.0
  0
VERTEX
  8
DETAIL
  6
CONTINUOUS
 62
     5
 10
357.66419519060679
 20
64.510707250194187
 30
0.0
  0
VERTEX
  8
DETAIL
  6
CONTINUOUS
 62
     5
 10
357.76044619122166
 20
64.450029526188885
 30
0.0
  0
VERTEX
  8
DETAIL
  6
CONTINUOUS
 62
     5
 10
357.86436791761258
 20
64.403681442566281
 30
0.0
  0
VERTEX
  8
DETAIL
  6
CONTINUOUS
 62
     5
 10
357.97250740809693
 20
64.368583223936639
 30
0.0
  0
VERTEX
  8
DETAIL
  6
CONTINUOUS
 62
     5
 10
358.08320531173553
 20
64.342769782513628
 30
0.0
  0
VERTEX
  8
DETAIL
  6
CONTINUOUS
 62
     5
 10
358.19551954927158
 20
64.324592424433405
 30
0.0
  0
VERTEX
  8
DETAIL
  6
CONTINUOUS
 62
     5
 10
358.30873977875768
 20
64.312490639639762
 30
0.0
  0
VERTEX
  8
DETAIL
  6
CONTINUOUS
 62
     5
 10
358.42223927874511
 20
64.304994083077489
 30
0.0
  0
VERTEX
  8
DETAIL
  6
CONTINUOUS
 62
     5
 10
358.53583065965893
 20
64.301109203735507
 30
0.0
  0
VERTEX
  8
DETAIL
  6
CONTINUOUS
 62
     5
 10
358.64947170250531
 20
64.299999999991996
 30
0.0
  0
SEQEND
  8
DETAIL
  6
CONTINUOUS
 62
     5
  0
POLYLINE
  8
DETAIL
  6
CONTINUOUS
 62
     5
 66
     1
 10
0.0
 20
0.0
 30
0.0
  0
VERTEX
  8
DETAIL
  6
CONTINUOUS
 62
     5
 10
364.3505282975093
 20
64.299999999991996
 30
0.0
  0
VERTEX
  8
DETAIL
  6
CONTINUOUS
 62
     5
 10
364.47089123207189
 20
64.301163194111922
 30
0.0
  0
VERTEX
  8
DETAIL
  6
CONTINUOUS
 62
     5
 10
364.59110706334593
 20
64.305482074455725
 30
0.0
  0
VERTEX
  8
DETAIL
  6
CONTINUOUS
 62
     5
 10
364.71130390994381
 20
64.314200587999565
 30
0.0
  0
VERTEX
  8
DETAIL
  6
CONTINUOUS
 62
     5
 10
364.83160988876352
 20
64.328562682460642
 30
0.0
  0
VERTEX
  8
DETAIL
  6
CONTINUOUS
 62
     5
 10
364.95171531448506
 20
64.350001578359965
 30
0.0
  0
VERTEX
  8
DETAIL
  6
CONTINUOUS
 62
     5
 10
365.06964141351051
 20
64.380672084654549
 30
0.0
  0
VERTEX
  8
DETAIL
  6
CONTINUOUS
 62
     5
 10
365.18301171624887
 20
64.422900944185201
 30
0.0
  0
VERTEX
  8
DETAIL
  6
CONTINUOUS
 62
     5
 10
365.28944975310878
 20
64.479014899792674
 30
0.0
  0
SEQEND
  8
DETAIL
  6
CONTINUOUS
 62
     5
  0
POLYLINE
  8
DETAIL
  6
CONTINUOUS
 62
     5
 66
     1
 10
0.0
 20
0.0
 30
0.0
  0
VERTEX
  8
DETAIL
  6
CONTINUOUS
 62
     5
 10
365.28944975310878
 20
64.479014899792674
 30
0.0
  0
VERTEX
  8
DETAIL
  6
CONTINUOUS
 62
     5
 10
365.33055037054282
 20
64.506852584431144
 30
0.0
  0
VERTEX
  8
DETAIL
  6
CONTINUOUS
 62
     5
 10
365.36925267775132
 20
64.538109143138698
 30
0.0
  0
VERTEX
  8
DETAIL
  6
CONTINUOUS
 62
     5
 10
365.40469966009255
 20
64.573138948688822
 30
0.0
  0
VERTEX
  8
DETAIL
  6
CONTINUOUS
 62
     5
 10
365.43603420901161
 20
64.612295851600379
 30
0.0
  0
VERTEX
  8
DETAIL
  6
CONTINUOUS
 62
     5
 10
365.46233608215016
 20
64.655582612909953
 30
0.0
  0
VERTEX
  8
DETAIL
  6
CONTINUOUS
 62
     5
 10
365.48251240966096
 20
64.702042005626254
 30
0.0
  0
VERTEX
  8
DETAIL
  6
CONTINUOUS
 62
     5
 10
365.495441084596
 20
64.750554214127988
 30
0.0
  0
VERTEX
  8
DETAIL
  6
CONTINUOUS
 62
     5
 10
365.50000000000728
 20
64.799999422793917
 30
0.0
  0
SEQEND
  8
DETAIL
  6
CONTINUOUS
 62
     5
  0
POLYLINE
  8
DETAIL
  6
CONTINUOUS
 62
     5
 66
     1
 10
0.0
 20
0.0
 30
0.0
  0
VERTEX
  8
DETAIL
  6
CONTINUOUS
 62
     5
 10
358.64947170250531
 20
67.799999999991996
 30
0.0
  0
VERTEX
  8
DETAIL
  6
CONTINUOUS
 62
     5
 10
358.53582473236054
 20
67.798896189796977
 30
0.0
  0
VERTEX
  8
DETAIL
  6
CONTINUOUS
 62
     5
 10
358.42222765643709
 20
67.795016588651123
 30
0.0
  0
VERTEX
  8
DETAIL
  6
CONTINUOUS
 62
     5
 10
358.30873026515189
 20
67.787508852671166
 30
0.0
  0
VERTEX
  8
DETAIL
  6
CONTINUOUS
 62
     5
 10
358.19552074967771
 20
67.775376647161025
 30
0.0
  0
VERTEX
  8
DETAIL
  6
CONTINUOUS
 62
     5
 10
358.08320747570565
 20
67.757186491902601
 30
0.0
  0
VERTEX
  8
DETAIL
  6
CONTINUOUS
 62
     5
 10
357.9724792407082
 20
67.731421627290615
 30
0.0
  0
VERTEX
  8
DETAIL
  6
CONTINUOUS
 62
     5
 10
357.86430991770129
 20
67.696383990150039
 30
0.0
  0
VERTEX
  8
DETAIL
  6
CONTINUOUS
 62
     5
 10
357.76048460563248
 20
67.649888071769709
 30
0.0
  0
VERTEX
  8
DETAIL
  6
CONTINUOUS
 62
     5
 10
357.66425165348977
 20
67.589111590830854
 30
0.0
  0
VERTEX
  8
DETAIL
  6
CONTINUOUS
 62
     5
 10
357.58155367658429
 20
67.510730190286552
 30
0.0
  0
VERTEX
  8
DETAIL
  6
CONTINUOUS
 62
     5
 10
357.52264869388608
 20
67.411888178285125
 30
0.0
  0
VERTEX
  8
DETAIL
  6
CONTINUOUS
 62
     5
 10
357.50000000000728
 20
67.299999898492388
 30
0.0
  0
SEQEND
  8
DETAIL
  6
CONTINUOUS
 62
     5
  0
POLYLINE
  8
DETAIL
  6
CONTINUOUS
 62
     5
 66
     1
 10
0.0
 20
0.0
 30
0.0
  0
VERTEX
  8
DETAIL
  6
CONTINUOUS
 62
     5
 10
361.50000000000728
 20
67.299999939492409
 30
0.0
  0
VERTEX
  8
DETAIL
  6
CONTINUOUS
 62
     5
 10
361.47731623053068
 20
67.411868280056552
 30
0.0
  0
VERTEX
  8
DETAIL
  6
CONTINUOUS
 62
     5
 10
361.41841814968922
 20
67.510739953147862
 30
0.0
  0
VERTEX
  8
DETAIL
  6
CONTINUOUS
 62
     5
 10
361.33579451885515
 20
67.589195849969954
 30
0.0
  0
VERTEX
  8
DETAIL
  6
CONTINUOUS
 62
     5
 10
361.23954626597538
 20
67.649924107448598
 30
0.0
  0
VERTEX
  8
DETAIL
  6
CONTINUOUS
 62
     5
 10
361.13567668689268
 20
67.696351878600709
 30
0.0
  0
VERTEX
  8
DETAIL
  6
CONTINUOUS
 62
     5
 10
361.02751721023975
 20
67.731411762788312
 30
0.0
  0
VERTEX
  8
DETAIL
  6
CONTINUOUS
 62
     5
 10
360.91680004231927
 20
67.757198092122422
 30
0.0
  0
VERTEX
  8
DETAIL
  6
CONTINUOUS
 62
     5
 10
360.80448539179361
 20
67.775386650659684
 30
0.0
  0
VERTEX
  8
DETAIL
  6
CONTINUOUS
 62
     5
 10
360.69127047069412
 20
67.787509621973271
 30
0.0
  0
VERTEX
  8
DETAIL
  6
CONTINUOUS
 62
     5
 10
360.57777083806184
 20
67.795013611188566
 30
0.0
  0
VERTEX
  8
DETAIL
  6
CONTINUOUS
 62
     5
 10
360.46417446786205
 20
67.798894615130592
 30
0.0
  0
VERTEX
  8
DETAIL
  6
CONTINUOUS
 62
     5
 10
360.3505282975093
 20
67.799999999991996
 30
0.0
  0
SEQEND
  8
DETAIL
  6
CONTINUOUS
 62
     5
  0
POLYLINE
  8
DETAIL
  6
CONTINUOUS
 62
     5
 66
     1
 10
0.0
 20
0.0
 30
0.0
  0
VERTEX
  8
DETAIL
  6
CONTINUOUS
 62
     5
 10
360.3505282975093
 20
64.299999999991996
 30
0.0
  0
VERTEX
  8
DETAIL
  6
CONTINUOUS
 62
     5
 10
360.46417249526922
 20
64.301106189127779
 30
0.0
  0
VERTEX
  8
DETAIL
  6
CONTINUOUS
 62
     5
 10
360.57776689988657
 20
64.304987928054459
 30
0.0
  0
VERTEX
  8
DETAIL
  6
CONTINUOUS
 62
     5
 10
360.69126483945814
 20
64.312490067006408
 30
0.0
  0
VERTEX
  8
DETAIL
  6
CONTINUOUS
 62
     5
 10
360.80447850894751
 20
64.324607440674455
 30
0.0
  0
VERTEX
  8
DETAIL
  6
CONTINUOUS
 62
     5
 10
360.91679220712962
 20
64.342789615928126
 30
0.0
  0
VERTEX
  8
DETAIL
  6
CONTINUOUS
 62
     5
 10
361.0275085119319
 20
64.368572524145861
 30
0.0
  0
VERTEX
  8
DETAIL
  6
CONTINUOUS
 62
     5
 10
361.1356648570453
 20
64.403637059504817
 30
0.0
  0
VERTEX
  8
DETAIL
  6
CONTINUOUS
 62
     5
 10
361.23952310578915
 20
64.45008340036847
 30
0.0
  0
VERTEX
  8
DETAIL
  6
CONTINUOUS
 62
     5
 10
361.33576095426196
 20
64.510825060754996
 30
0.0
  0
VERTEX
  8
DETAIL
  6
CONTINUOUS
 62
     5
 10
361.41838761000588
 20
64.589273165397714
 30
0.0
  0
VERTEX
  8
DETAIL
  6
CONTINUOUS
 62
     5
 10
361.47730328576807
 20
64.68813505456076
 30
0.0
  0
VERTEX
  8
DETAIL
  6
CONTINUOUS
 62
     5
 10
361.50000000000728
 20
64.799998546193819
 30
0.0
  0
SEQEND
  8
DETAIL
  6
CONTINUOUS
 62
     5
  0
POLYLINE
  8
DETAIL
  6
CONTINUOUS
 62
     5
 66
     1
 10
0.0
 20
0.0
 30
0.0
  0
VERTEX
  8
DETAIL
  6
CONTINUOUS
 62
     5
 10
361.50000000000728
 20
64.799999835591734
 30
0.0
  0
VERTEX
  8
DETAIL
  6
CONTINUOUS
 62
     5
 10
361.52277163771748
 20
64.688176885375569
 30
0.0
  0
VERTEX
  8
DETAIL
  6
CONTINUOUS
 62
     5
 10
361.58169080853548
 20
64.589271188297047
 30
0.0
  0
VERTEX
  8
DETAIL
  6
CONTINUOUS
 62
     5
 10
361.66418498237954
 20
64.510694084772553
 30
0.0
  0
VERTEX
  8
DETAIL
  6
CONTINUOUS
 62
     5
 10
361.7604394370648
 20
64.450024399181288
 30
0.0
  0
VERTEX
  8
DETAIL
  6
CONTINUOUS
 62
     5
 10
361.86436796014812
 20
64.403686762965521
 30
0.0
  0
VERTEX
  8
DETAIL
  6
CONTINUOUS
 62
     5
 10
361.97250628293023
 20
64.368585157421222
 30
0.0
  0
VERTEX
  8
DETAIL
  6
CONTINUOUS
 62
     5
 10
362.08320282440371
 20
64.342768362862842
 30
0.0
  0
VERTEX
  8
DETAIL
  6
CONTINUOUS
 62
     5
 10
362.19551753895757
 20
64.324591139447151
 30
0.0
  0
VERTEX
  8
DETAIL
  6
CONTINUOUS
 62
     5
 10
362.30873883940404
 20
64.312490654466131
 30
0.0
  0
VERTEX
  8
DETAIL
  6
CONTINUOUS
 62
     5
 10
362.42223894370045
 20
64.304994590518703
 30
0.0
  0
VERTEX
  8
DETAIL
  6
CONTINUOUS
 62
     5
 10
362.53583049854444
 20
64.301109455871654
 30
0.0
  0
VERTEX
  8
DETAIL
  6
CONTINUOUS
 62
     5
 10
362.64947170250531
 20
64.299999999991996
 30
0.0
  0
SEQEND
  8
DETAIL
  6
CONTINUOUS
 62
     5
  0
POLYLINE
  8
DETAIL
  6
CONTINUOUS
 62
     5
 66
     1
 10
0.0
 20
0.0
 30
0.0
  0
VERTEX
  8
DETAIL
  6
CONTINUOUS
 62
     5
 10
362.64947170250531
 20
67.799999999991996
 30
0.0
  0
VERTEX
  8
DETAIL
  6
CONTINUOUS
 62
     5
 10
362.5358249999037
 20
67.798896024802886
 30
0.0
  0
VERTEX
  8
DETAIL
  6
CONTINUOUS
 62
     5
 10
362.42222818594604
 20
67.795016250340225
 30
0.0
  0
VERTEX
  8
DETAIL
  6
CONTINUOUS
 62
     5
 10
362.30873084914947
 20
67.787508814940367
 30
0.0
  0
VERTEX
  8
DETAIL
  6
CONTINUOUS
 62
     5
 10
362.19552115309648
 20
67.775377497738432
 30
0.0
  0
VERTEX
  8
DETAIL
  6
CONTINUOUS
 62
     5
 10
362.08320793997052
 20
67.757187840106923
 30
0.0
  0
VERTEX
  8
DETAIL
  6
CONTINUOUS
 62
     5
 10
361.97248057005731
 20
67.731421910293804
 30
0.0
  0
VERTEX
  8
DETAIL
  6
CONTINUOUS
 62
     5
 10
361.86431211655923
 20
67.69638279168349
 30
0.0
  0
VERTEX
  8
DETAIL
  6
CONTINUOUS
 62
     5
 10
361.76048449600694
 20
67.649890412490464
 30
0.0
  0
VERTEX
  8
DETAIL
  6
CONTINUOUS
 62
     5
 10
361.66425163300539
 20
67.589115983844408
 30
0.0
  0
VERTEX
  8
DETAIL
  6
CONTINUOUS
 62
     5
 10
361.58155939873564
 20
67.510729378456659
 30
0.0
  0
VERTEX
  8
DETAIL
  6
CONTINUOUS
 62
     5
 10
361.52265304727774
 20
67.411886027754633
 30
0.0
  0
VERTEX
  8
DETAIL
  6
CONTINUOUS
 62
     5
 10
361.50000000000728
 20
67.29999989429416
 30
0.0
  0
SEQEND
  8
DETAIL
  6
CONTINUOUS
 62
     5
  0
POLYLINE
  8
DETAIL
  6
CONTINUOUS
 62
     5
 66
     1
 10
0.0
 20
0.0
 30
0.0
  0
VERTEX
  8
DETAIL
  6
CONTINUOUS
 62
     5
 10
365.50000000000728
 20
67.299999938091787
 30
0.0
  0
VERTEX
  8
DETAIL
  6
CONTINUOUS
 62
     5
 10
365.49540937874275
 20
67.349624220634979
 30
0.0
  0
VERTEX
  8
DETAIL
  6
CONTINUOUS
 62
     5
 10
365.4823928499984
 20
67.398306332905605
 30
0.0
  0
VERTEX
  8
DETAIL
  6
CONTINUOUS
 62
     5
 10
365.46208341634718
 20
67.444915997745255
 30
0.0
  0
VERTEX
  8
DETAIL
  6
CONTINUOUS
 62
     5
 10
365.4356140803626
 20
67.488322937995548
 30
0.0
  0
VERTEX
  8
DETAIL
  6
CONTINUOUS
 62
     5
 10
365.4040882787649
 20
67.527561813636552
 30
0.0
  0
VERTEX
  8
DETAIL
  6
CONTINUOUS
 62
     5
 10
365.36843502852332
 20
67.562640308988151
 30
0.0
  0
VERTEX
  8
DETAIL
  6
CONTINUOUS
 62
     5
 10
365.32951960830525
 20
67.593921681171039
 30
0.0
  0
VERTEX
  8
DETAIL
  6
CONTINUOUS
 62
     5
 10
365.28820720250951
 20
67.621769713194226
 30
0.0
  0
SEQEND
  8
DETAIL
  6
CONTINUOUS
 62
     5
  0
POLYLINE
  8
DETAIL
  6
CONTINUOUS
 62
     5
 66
     1
 10
0.0
 20
0.0
 30
0.0
  0
VERTEX
  8
DETAIL
  6
CONTINUOUS
 62
     5
 10
365.28820720250951
 20
67.621769713194226
 30
0.0
  0
VERTEX
  8
DETAIL
  6
CONTINUOUS
 62
     5
 10
365.18182731785981
 20
67.677615731491088
 30
0.0
  0
VERTEX
  8
DETAIL
  6
CONTINUOUS
 62
     5
 10
365.06858086549005
 20
67.719652122957996
 30
0.0
  0
VERTEX
  8
DETAIL
  6
CONTINUOUS
 62
     5
 10
364.95082037636018
 20
67.75019052446595
 30
0.0
  0
VERTEX
  8
DETAIL
  6
CONTINUOUS
 62
     5
 10
364.8308983814299
 20
67.771542572886005
 30
0.0
  0
VERTEX
  8
DETAIL
  6
CONTINUOUS
 62
     5
 10
364.71077371534983
 20
67.785849268412008
 30
0.0
  0
VERTEX
  8
DETAIL
  6
CONTINUOUS
 62
     5
 10
364.59075397548042
 20
67.794535928520901
 30
0.0
  0
VERTEX
  8
DETAIL
  6
CONTINUOUS
 62
     5
 10
364.4707139180129
 20
67.798840267765357
 30
0.0
  0
VERTEX
  8
DETAIL
  6
CONTINUOUS
 62
     5
 10
364.3505282975093
 20
67.799999999991996
 30
0.0
  0
SEQEND
  8
DETAIL
  6
CONTINUOUS
 62
     5
  0
POLYLINE
  8
DETAIL
  6
CONTINUOUS
 62
     5
 66
     1
 10
0.0
 20
0.0
 30
0.0
  0
VERTEX
  8
DETAIL
  6
CONTINUOUS
 62
     5
 10
436.65685424950789
 20
1293.999999999992
 30
0.0
  0
VERTEX
  8
DETAIL
  6
CONTINUOUS
 62
     5
 10
436.61893662047231
 20
1295.0365901641294
 30
0.0
  0
VERTEX
  8
DETAIL
  6
CONTINUOUS
 62
     5
 10
436.50407343281057
 20
1296.0691521097162
 30
0.0
  0
VERTEX
  8
DETAIL
  6
CONTINUOUS
 62
     5
 10
436.31059923568978
 20
1297.0910747994285
 30
0.0
  0
VERTEX
  8
DETAIL
  6
CONTINUOUS
 62
     5
 10
436.03677697353316
 20
1298.0955652509763
 30
0.0
  0
VERTEX
  8
DETAIL
  6
CONTINUOUS
 62
     5
 10
435.67983555105235
 20
1299.0732030259931
 30
0.0
  0
VERTEX
  8
DETAIL
  6
CONTINUOUS
 62
     5
 10
435.23622656184915
 20
1300.0125925677742
 30
0.0
  0
VERTEX
  8
DETAIL
  6
CONTINUOUS
 62
     5
 10
434.70236713120261
 20
1300.9021951807647
 30
0.0
  0
VERTEX
  8
DETAIL
  6
CONTINUOUS
 62
     5
 10
434.07413745170044
 20
1301.7271862854909
 30
0.0
  0
VERTEX
  8
DETAIL
  6
CONTINUOUS
 62
     5
 10
433.34759609118805
 20
1302.4674441378133
 30
0.0
  0
VERTEX
  8
DETAIL
  6
CONTINUOUS
 62
     5
 10
432.52301299912051
 20
1303.0964729976527
 30
0.0
  0
VERTEX
  8
DETAIL
  6
CONTINUOUS
 62
     5
 10
431.60658119960419
 20
1303.5828270358363
 30
0.0
  0
VERTEX
  8
DETAIL
  6
CONTINUOUS
 62
     5
 10
430.61703443360591
 20
1303.8930811356929
 30
0.0
  0
SEQEND
  8
DETAIL
  6
CONTINUOUS
 62
     5
  0
POLYLINE
  8
DETAIL
  6
CONTINUOUS
 62
     5
 66
     1
 10
0.0
 20
0.0
 30
0.0
  0
VERTEX
  8
DETAIL
  6
CONTINUOUS
 62
     5
 10
436.65685424950789
 20
1493.999999999993
 30
0.0
  0
VERTEX
  8
DETAIL
  6
CONTINUOUS
 62
     5
 10
436.61893662047231
 20
1495.0365901641292
 30
0.0
  0
VERTEX
  8
DETAIL
  6
CONTINUOUS
 62
     5
 10
436.50407343281057
 20
1496.0691521097162
 30
0.0
  0
VERTEX
  8
DETAIL
  6
CONTINUOUS
 62
     5
 10
436.31059923568978
 20
1497.0910747994292
 30
0.0
  0
VERTEX
  8
DETAIL
  6
CONTINUOUS
 62
     5
 10
436.03677697353316
 20
1498.0955652509772
 30
0.0
  0
VERTEX
  8
DETAIL
  6
CONTINUOUS
 62
     5
 10
435.67983555105235
 20
1499.0732030259946
 30
0.0
  0
VERTEX
  8
DETAIL
  6
CONTINUOUS
 62
     5
 10
435.23622656184915
 20
1500.012592567776
 30
0.0
  0
VERTEX
  8
DETAIL
  6
CONTINUOUS
 62
     5
 10
434.70236713120261
 20
1500.9021951807656
 30
0.0
  0
VERTEX
  8
DETAIL
  6
CONTINUOUS
 62
     5
 10
434.07413745170044
 20
1501.7271862854916
 30
0.0
  0
VERTEX
  8
DETAIL
  6
CONTINUOUS
 62
     5
 10
433.34759609118805
 20
1502.467444137814
 30
0.0
  0
VERTEX
  8
DETAIL
  6
CONTINUOUS
 62
     5
 10
432.52301299912051
 20
1503.0964729976533
 30
0.0
  0
VERTEX
  8
DETAIL
  6
CONTINUOUS
 62
     5
 10
431.60658119960419
 20
1503.582827035837
 30
0.0
  0
VERTEX
  8
DETAIL
  6
CONTINUOUS
 62
     5
 10
430.61703443360591
 20
1503.8930811356929
 30
0.0
  0
SEQEND
  8
DETAIL
  6
CONTINUOUS
 62
     5
  0
POLYLINE
  8
DETAIL
  6
CONTINUOUS
 62
     5
 66
     1
 10
0.0
 20
0.0
 30
0.0
  0
VERTEX
  8
DETAIL
  6
CONTINUOUS
 62
     5
 10
424.01471862570901
 20
758.99999999999272
 30
0.0
  0
VERTEX
  8
DETAIL
  6
CONTINUOUS
 62
     5
 10
424.04670267756285
 20
758.02770105729655
 30
0.0
  0
VERTEX
  8
DETAIL
  6
CONTINUOUS
 62
     5
 10
424.14344861466566
 20
757.05782707152287
 30
0.0
  0
VERTEX
  8
DETAIL
  6
CONTINUOUS
 62
     5
 10
424.30614710932889
 20
756.09663938884228
 30
0.0
  0
VERTEX
  8
DETAIL
  6
CONTINUOUS
 62
     5
 10
424.53598980609155
 20
755.15039922905225
 30
0.0
  0
VERTEX
  8
DETAIL
  6
CONTINUOUS
 62
     5
 10
424.83478885186162
 20
754.22528715771114
 30
0.0
  0
VERTEX
  8
DETAIL
  6
CONTINUOUS
 62
     5
 10
425.2060437569977
 20
753.32728922226534
 30
0.0
  0
VERTEX
  8
DETAIL
  6
CONTINUOUS
 62
     5
 10
425.65379519316059
 20
752.46441900398804
 30
0.0
  0
VERTEX
  8
DETAIL
  6
CONTINUOUS
 62
     5
 10
426.18254829789532
 20
751.64849168969488
 30
0.0
  0
VERTEX
  8
DETAIL
  6
CONTINUOUS
 62
     5
 10
426.79710332810635
 20
750.89523018322382
 30
0.0
  0
VERTEX
  8
DETAIL
  6
CONTINUOUS
 62
     5
 10
427.50180332126877
 20
750.22512600362177
 30
0.0
  0
VERTEX
  8
DETAIL
  6
CONTINUOUS
 62
     5
 10
428.29771075809577
 20
749.6667270290867
 30
0.0
  0
VERTEX
  8
DETAIL
  6
CONTINUOUS
 62
     5
 10
429.17920299998855
 20
749.2559455909776
 30
0.0
  0
VERTEX
  8
DETAIL
  6
CONTINUOUS
 62
     5
 10
430.12510952870798
 20
749.03202211409371
 30
0.0
  0
SEQEND
  8
DETAIL
  6
CONTINUOUS
 62
     5
  0
POLYLINE
  8
DETAIL
  6
CONTINUOUS
 62
     5
 66
     1
 10
0.0
 20
0.0
 30
0.0
  0
VERTEX
  8
DETAIL
  6
CONTINUOUS
 62
     5
 10
430.12567943790782
 20
903.96804778019214
 30
0.0
  0
VERTEX
  8
DETAIL
  6
CONTINUOUS
 62
     5
 10
429.17970270732769
 20
903.74423023855888
 30
0.0
  0
VERTEX
  8
DETAIL
  6
CONTINUOUS
 62
     5
 10
428.29812989269163
 20
903.33351782842351
 30
0.0
  0
VERTEX
  8
DETAIL
  6
CONTINUOUS
 62
     5
 10
427.50214353071209
 20
902.77515484101366
 30
0.0
  0
VERTEX
  8
DETAIL
  6
CONTINUOUS
 62
     5
 10
426.79737219100343
 20
902.10506184869496
 30
0.0
  0
VERTEX
  8
DETAIL
  6
CONTINUOUS
 62
     5
 10
426.18275538267892
 20
901.35179407811268
 30
0.0
  0
VERTEX
  8
DETAIL
  6
CONTINUOUS
 62
     5
 10
425.6539499640848
 20
900.53584831198191
 30
0.0
  0
VERTEX
  8
DETAIL
  6
CONTINUOUS
 62
     5
 10
425.2061551010537
 20
899.67295117622677
 30
0.0
  0
VERTEX
  8
DETAIL
  6
CONTINUOUS
 62
     5
 10
424.83486484997786
 20
898.77492046386976
 30
0.0
  0
VERTEX
  8
DETAIL
  6
CONTINUOUS
 62
     5
 10
424.53603778133026
 20
897.84977121677582
 30
0.0
  0
VERTEX
  8
DETAIL
  6
CONTINUOUS
 62
     5
 10
424.30617373067719
 20
896.9034907108063
 30
0.0
  0
VERTEX
  8
DETAIL
  6
CONTINUOUS
 62
     5
 10
424.14346028395914
 20
895.94226054477065
 30
0.0
  0
VERTEX
  8
DETAIL
  6
CONTINUOUS
 62
     5
 10
424.04670555428208
 20
894.97234287902734
 30
0.0
  0
VERTEX
  8
DETAIL
  6
CONTINUOUS
 62
     5
 10
424.01471862570901
 20
893.99999999999261
 30
0.0
  0
SEQEND
  8
DETAIL
  6
CONTINUOUS
 62
     5
  0
POLYLINE
  8
DETAIL
  6
CONTINUOUS
 62
     5
 66
     1
 10
0.0
 20
0.0
 30
0.0
  0
VERTEX
  8
DETAIL
  6
CONTINUOUS
 62
     5
 10
430.61703443360591
 20
749.10691886429413
 30
0.0
  0
VERTEX
  8
DETAIL
  6
CONTINUOUS
 62
     5
 10
431.60658119960414
 20
749.41717296414902
 30
0.0
  0
VERTEX
  8
DETAIL
  6
CONTINUOUS
 62
     5
 10
432.52301299912062
 20
749.90352700233291
 30
0.0
  0
VERTEX
  8
DETAIL
  6
CONTINUOUS
 62
     5
 10
433.347596091188
 20
750.53255586217199
 30
0.0
  0
VERTEX
  8
DETAIL
  6
CONTINUOUS
 62
     5
 10
434.07413745170038
 20
751.2728137144943
 30
0.0
  0
VERTEX
  8
DETAIL
  6
CONTINUOUS
 62
     5
 10
434.70236713120266
 20
752.09780481922076
 30
0.0
  0
VERTEX
  8
DETAIL
  6
CONTINUOUS
 62
     5
 10
435.23622656184921
 20
752.98740743221049
 30
0.0
  0
VERTEX
  8
DETAIL
  6
CONTINUOUS
 62
     5
 10
435.67983555105235
 20
753.9267969739891
 30
0.0
  0
VERTEX
  8
DETAIL
  6
CONTINUOUS
 62
     5
 10
436.03677697353316
 20
754.90443474899678
 30
0.0
  0
VERTEX
  8
DETAIL
  6
CONTINUOUS
 62
     5
 10
436.31059923568972
 20
755.90892520052375
 30
0.0
  0
VERTEX
  8
DETAIL
  6
CONTINUOUS
 62
     5
 10
436.50407343281057
 20
756.93084789021384
 30
0.0
  0
VERTEX
  8
DETAIL
  6
CONTINUOUS
 62
     5
 10
436.61893662047237
 20
757.96340983580228
 30
0.0
  0
VERTEX
  8
DETAIL
  6
CONTINUOUS
 62
     5
 10
436.65685424950789
 20
758.99999999999272
 30
0.0
  0
SEQEND
  8
DETAIL
  6
CONTINUOUS
 62
     5
  0
POLYLINE
  8
DETAIL
  6
CONTINUOUS
 62
     5
 66
     1
 10
0.0
 20
0.0
 30
0.0
  0
VERTEX
  8
DETAIL
  6
CONTINUOUS
 62
     5
 10
424.01471862570901
 20
943.99999999999261
 30
0.0
  0
VERTEX
  8
DETAIL
  6
CONTINUOUS
 62
     5
 10
424.04670267756285
 20
943.02770105729655
 30
0.0
  0
VERTEX
  8
DETAIL
  6
CONTINUOUS
 62
     5
 10
424.14344861466566
 20
942.05782707152321
 30
0.0
  0
VERTEX
  8
DETAIL
  6
CONTINUOUS
 62
     5
 10
424.30614710932889
 20
941.09663938884228
 30
0.0
  0
VERTEX
  8
DETAIL
  6
CONTINUOUS
 62
     5
 10
424.53598980609155
 20
940.15039922905203
 30
0.0
  0
VERTEX
  8
DETAIL
  6
CONTINUOUS
 62
     5
 10
424.83478885186162
 20
939.22528715771102
 30
0.0
  0
VERTEX
  8
DETAIL
  6
CONTINUOUS
 62
     5
 10
425.2060437569977
 20
938.32728922226534
 30
0.0
  0
VERTEX
  8
DETAIL
  6
CONTINUOUS
 62
     5
 10
425.65379519316059
 20
937.46441900398804
 30
0.0
  0
VERTEX
  8
DETAIL
  6
CONTINUOUS
 62
     5
 10
426.18254829789532
 20
936.64849168969499
 30
0.0
  0
VERTEX
  8
DETAIL
  6
CONTINUOUS
 62
     5
 10
426.79710332810635
 20
935.89523018322393
 30
0.0
  0
VERTEX
  8
DETAIL
  6
CONTINUOUS
 62
     5
 10
427.50180332126877
 20
935.22512600362177
 30
0.0
  0
VERTEX
  8
DETAIL
  6
CONTINUOUS
 62
     5
 10
428.29771075809577
 20
934.6667270290867
 30
0.0
  0
VERTEX
  8
DETAIL
  6
CONTINUOUS
 62
     5
 10
429.17920299998855
 20
934.2559455909776
 30
0.0
  0
VERTEX
  8
DETAIL
  6
CONTINUOUS
 62
     5
 10
430.12510952870798
 20
934.03202211409359
 30
0.0
  0
SEQEND
  8
DETAIL
  6
CONTINUOUS
 62
     5
  0
POLYLINE
  8
DETAIL
  6
CONTINUOUS
 62
     5
 66
     1
 10
0.0
 20
0.0
 30
0.0
  0
VERTEX
  8
DETAIL
  6
CONTINUOUS
 62
     5
 10
430.12567943790782
 20
1103.9680477801919
 30
0.0
  0
VERTEX
  8
DETAIL
  6
CONTINUOUS
 62
     5
 10
429.17970270732769
 20
1103.7442302385584
 30
0.0
  0
VERTEX
  8
DETAIL
  6
CONTINUOUS
 62
     5
 10
428.29812989269163
 20
1103.3335178284233
 30
0.0
  0
VERTEX
  8
DETAIL
  6
CONTINUOUS
 62
     5
 10
427.50214353071209
 20
1102.7751548410135
 30
0.0
  0
VERTEX
  8
DETAIL
  6
CONTINUOUS
 62
     5
 10
426.79737219100343
 20
1102.1050618486947
 30
0.0
  0
VERTEX
  8
DETAIL
  6
CONTINUOUS
 62
     5
 10
426.18275538267892
 20
1101.3517940781126
 30
0.0
  0
VERTEX
  8
DETAIL
  6
CONTINUOUS
 62
     5
 10
425.6539499640848
 20
1100.5358483119817
 30
0.0
  0
VERTEX
  8
DETAIL
  6
CONTINUOUS
 62
     5
 10
425.2061551010537
 20
1099.6729511762262
 30
0.0
  0
VERTEX
  8
DETAIL
  6
CONTINUOUS
 62
     5
 10
424.83486484997786
 20
1098.7749204638694
 30
0.0
  0
VERTEX
  8
DETAIL
  6
CONTINUOUS
 62
     5
 10
424.53603778133026
 20
1097.8497712167759
 30
0.0
  0
VERTEX
  8
DETAIL
  6
CONTINUOUS
 62
     5
 10
424.30617373067719
 20
1096.9034907108069
 30
0.0
  0
VERTEX
  8
DETAIL
  6
CONTINUOUS
 62
     5
 10
424.14346028395914
 20
1095.9422605447714
 30
0.0
  0
VERTEX
  8
DETAIL
  6
CONTINUOUS
 62
     5
 10
424.04670555428208
 20
1094.9723428790278
 30
0.0
  0
VERTEX
  8
DETAIL
  6
CONTINUOUS
 62
     5
 10
424.01471862570901
 20
1093.999999999992
 30
0.0
  0
SEQEND
  8
DETAIL
  6
CONTINUOUS
 62
     5
  0
POLYLINE
  8
DETAIL
  6
CONTINUOUS
 62
     5
 66
     1
 10
0.0
 20
0.0
 30
0.0
  0
VERTEX
  8
DETAIL
  6
CONTINUOUS
 62
     5
 10
430.61703443360591
 20
934.10691886429424
 30
0.0
  0
VERTEX
  8
DETAIL
  6
CONTINUOUS
 62
     5
 10
431.60658119960414
 20
934.4171729641489
 30
0.0
  0
VERTEX
  8
DETAIL
  6
CONTINUOUS
 62
     5
 10
432.52301299912062
 20
934.90352700233291
 30
0.0
  0
VERTEX
  8
DETAIL
  6
CONTINUOUS
 62
     5
 10
433.347596091188
 20
935.53255586217165
 30
0.0
  0
VERTEX
  8
DETAIL
  6
CONTINUOUS
 62
     5
 10
434.07413745170038
 20
936.27281371449419
 30
0.0
  0
VERTEX
  8
DETAIL
  6
CONTINUOUS
 62
     5
 10
434.70236713120266
 20
937.09780481922064
 30
0.0
  0
VERTEX
  8
DETAIL
  6
CONTINUOUS
 62
     5
 10
435.23622656184921
 20
937.9874074322106
 30
0.0
  0
VERTEX
  8
DETAIL
  6
CONTINUOUS
 62
     5
 10
435.67983555105235
 20
938.9267969739891
 30
0.0
  0
VERTEX
  8
DETAIL
  6
CONTINUOUS
 62
     5
 10
436.03677697353316
 20
939.90443474899678
 30
0.0
  0
VERTEX
  8
DETAIL
  6
CONTINUOUS
 62
     5
 10
436.31059923568972
 20
940.90892520052364
 30
0.0
  0
VERTEX
  8
DETAIL
  6
CONTINUOUS
 62
     5
 10
436.50407343281057
 20
941.93084789021373
 30
0.0
  0
VERTEX
  8
DETAIL
  6
CONTINUOUS
 62
     5
 10
436.61893662047237
 20
942.96340983580217
 30
0.0
  0
VERTEX
  8
DETAIL
  6
CONTINUOUS
 62
     5
 10
436.65685424950789
 20
943.99999999999261
 30
0.0
  0
SEQEND
  8
DETAIL
  6
CONTINUOUS
 62
     5
  0
POLYLINE
  8
DETAIL
  6
CONTINUOUS
 62
     5
 66
     1
 10
0.0
 20
0.0
 30
0.0
  0
VERTEX
  8
DETAIL
  6
CONTINUOUS
 62
     5
 10
424.01471862570901
 20
1343.999999999992
 30
0.0
  0
VERTEX
  8
DETAIL
  6
CONTINUOUS
 62
     5
 10
424.04670267756285
 20
1343.0277010572966
 30
0.0
  0
VERTEX
  8
DETAIL
  6
CONTINUOUS
 62
     5
 10
424.14344861466566
 20
1342.057827071523
 30
0.0
  0
VERTEX
  8
DETAIL
  6
CONTINUOUS
 62
     5
 10
424.30614710932889
 20
1341.0966393888423
 30
0.0
  0
VERTEX
  8
DETAIL
  6
CONTINUOUS
 62
     5
 10
424.53598980609155
 20
1340.1503992290525
 30
0.0
  0
VERTEX
  8
DETAIL
  6
CONTINUOUS
 62
     5
 10
424.83478885186162
 20
1339.2252871577111
 30
0.0
  0
VERTEX
  8
DETAIL
  6
CONTINUOUS
 62
     5
 10
425.2060437569977
 20
1338.3272892222653
 30
0.0
  0
VERTEX
  8
DETAIL
  6
CONTINUOUS
 62
     5
 10
425.65379519316059
 20
1337.4644190039878
 30
0.0
  0
VERTEX
  8
DETAIL
  6
CONTINUOUS
 62
     5
 10
426.18254829789532
 20
1336.6484916896948
 30
0.0
  0
VERTEX
  8
DETAIL
  6
CONTINUOUS
 62
     5
 10
426.79710332810635
 20
1335.8952301832239
 30
0.0
  0
VERTEX
  8
DETAIL
  6
CONTINUOUS
 62
     5
 10
427.50180332126877
 20
1335.2251260036217
 30
0.0
  0
VERTEX
  8
DETAIL
  6
CONTINUOUS
 62
     5
 10
428.29771075809577
 20
1334.6667270290866
 30
0.0
  0
VERTEX
  8
DETAIL
  6
CONTINUOUS
 62
     5
 10
429.17920299998855
 20
1334.2559455909775
 30
0.0
  0
VERTEX
  8
DETAIL
  6
CONTINUOUS
 62
     5
 10
430.12510952870798
 20
1334.032022114093
 30
0.0
  0
SEQEND
  8
DETAIL
  6
CONTINUOUS
 62
     5
  0
POLYLINE
  8
DETAIL
  6
CONTINUOUS
 62
     5
 66
     1
 10
0.0
 20
0.0
 30
0.0
  0
VERTEX
  8
DETAIL
  6
CONTINUOUS
 62
     5
 10
436.65685424950789
 20
1093.999999999992
 30
0.0
  0
VERTEX
  8
DETAIL
  6
CONTINUOUS
 62
     5
 10
436.61893662047231
 20
1095.0365901641294
 30
0.0
  0
VERTEX
  8
DETAIL
  6
CONTINUOUS
 62
     5
 10
436.50407343281057
 20
1096.069152109716
 30
0.0
  0
VERTEX
  8
DETAIL
  6
CONTINUOUS
 62
     5
 10
436.31059923568978
 20
1097.0910747994287
 30
0.0
  0
VERTEX
  8
DETAIL
  6
CONTINUOUS
 62
     5
 10
436.03677697353316
 20
1098.0955652509765
 30
0.0
  0
VERTEX
  8
DETAIL
  6
CONTINUOUS
 62
     5
 10
435.67983555105235
 20
1099.0732030259937
 30
0.0
  0
VERTEX
  8
DETAIL
  6
CONTINUOUS
 62
     5
 10
435.23622656184915
 20
1100.0125925677748
 30
0.0
  0
VERTEX
  8
DETAIL
  6
CONTINUOUS
 62
     5
 10
434.70236713120261
 20
1100.9021951807649
 30
0.0
  0
VERTEX
  8
DETAIL
  6
CONTINUOUS
 62
     5
 10
434.07413745170044
 20
1101.7271862854914
 30
0.0
  0
VERTEX
  8
DETAIL
  6
CONTINUOUS
 62
     5
 10
433.34759609118805
 20
1102.4674441378133
 30
0.0
  0
VERTEX
  8
DETAIL
  6
CONTINUOUS
 62
     5
 10
432.52301299912051
 20
1103.0964729976527
 30
0.0
  0
VERTEX
  8
DETAIL
  6
CONTINUOUS
 62
     5
 10
431.60658119960419
 20
1103.5828270358365
 30
0.0
  0
VERTEX
  8
DETAIL
  6
CONTINUOUS
 62
     5
 10
430.61703443360591
 20
1103.8930811356929
 30
0.0
  0
SEQEND
  8
DETAIL
  6
CONTINUOUS
 62
     5
  0
POLYLINE
  8
DETAIL
  6
CONTINUOUS
 62
     5
 66
     1
 10
0.0
 20
0.0
 30
0.0
  0
VERTEX
  8
DETAIL
  6
CONTINUOUS
 62
     5
 10
430.12567943790782
 20
1503.968047780193
 30
0.0
  0
VERTEX
  8
DETAIL
  6
CONTINUOUS
 62
     5
 10
429.17970270732769
 20
1503.7442302385582
 30
0.0
  0
VERTEX
  8
DETAIL
  6
CONTINUOUS
 62
     5
 10
428.29812989269163
 20
1503.3335178284233
 30
0.0
  0
VERTEX
  8
DETAIL
  6
CONTINUOUS
 62
     5
 10
427.50214353071209
 20
1502.7751548410129
 30
0.0
  0
VERTEX
  8
DETAIL
  6
CONTINUOUS
 62
     5
 10
426.79737219100343
 20
1502.105061848694
 30
0.0
  0
VERTEX
  8
DETAIL
  6
CONTINUOUS
 62
     5
 10
426.18275538267892
 20
1501.3517940781126
 30
0.0
  0
VERTEX
  8
DETAIL
  6
CONTINUOUS
 62
     5
 10
425.6539499640848
 20
1500.5358483119824
 30
0.0
  0
VERTEX
  8
DETAIL
  6
CONTINUOUS
 62
     5
 10
425.2061551010537
 20
1499.6729511762267
 30
0.0
  0
VERTEX
  8
DETAIL
  6
CONTINUOUS
 62
     5
 10
424.83486484997786
 20
1498.7749204638694
 30
0.0
  0
VERTEX
  8
DETAIL
  6
CONTINUOUS
 62
     5
 10
424.53603778133026
 20
1497.8497712167762
 30
0.0
  0
VERTEX
  8
DETAIL
  6
CONTINUOUS
 62
     5
 10
424.30617373067719
 20
1496.9034907108066
 30
0.0
  0
VERTEX
  8
DETAIL
  6
CONTINUOUS
 62
     5
 10
424.14346028395914
 20
1495.9422605447708
 30
0.0
  0
VERTEX
  8
DETAIL
  6
CONTINUOUS
 62
     5
 10
424.04670555428208
 20
1494.9723428790276
 30
0.0
  0
VERTEX
  8
DETAIL
  6
CONTINUOUS
 62
     5
 10
424.01471862570901
 20
1493.999999999993
 30
0.0
  0
SEQEND
  8
DETAIL
  6
CONTINUOUS
 62
     5
  0
POLYLINE
  8
DETAIL
  6
CONTINUOUS
 62
     5
 66
     1
 10
0.0
 20
0.0
 30
0.0
  0
VERTEX
  8
DETAIL
  6
CONTINUOUS
 62
     5
 10
430.61703443360591
 20
1334.1069188642939
 30
0.0
  0
VERTEX
  8
DETAIL
  6
CONTINUOUS
 62
     5
 10
431.60658119960414
 20
1334.4171729641487
 30
0.0
  0
VERTEX
  8
DETAIL
  6
CONTINUOUS
 62
     5
 10
432.52301299912062
 20
1334.9035270023328
 30
0.0
  0
VERTEX
  8
DETAIL
  6
CONTINUOUS
 62
     5
 10
433.347596091188
 20
1335.5325558621721
 30
0.0
  0
VERTEX
  8
DETAIL
  6
CONTINUOUS
 62
     5
 10
434.07413745170038
 20
1336.2728137144954
 30
0.0
  0
VERTEX
  8
DETAIL
  6
CONTINUOUS
 62
     5
 10
434.70236713120266
 20
1337.0978048192217
 30
0.0
  0
VERTEX
  8
DETAIL
  6
CONTINUOUS
 62
     5
 10
435.23622656184921
 20
1337.9874074322108
 30
0.0
  0
VERTEX
  8
DETAIL
  6
CONTINUOUS
 62
     5
 10
435.67983555105235
 20
1338.926796973989
 30
0.0
  0
VERTEX
  8
DETAIL
  6
CONTINUOUS
 62
     5
 10
436.03677697353316
 20
1339.9044347489964
 30
0.0
  0
VERTEX
  8
DETAIL
  6
CONTINUOUS
 62
     5
 10
436.31059923568972
 20
1340.9089252005231
 30
0.0
  0
VERTEX
  8
DETAIL
  6
CONTINUOUS
 62
     5
 10
436.50407343281057
 20
1341.9308478902135
 30
0.0
  0
VERTEX
  8
DETAIL
  6
CONTINUOUS
 62
     5
 10
436.61893662047237
 20
1342.9634098358019
 30
0.0
  0
VERTEX
  8
DETAIL
  6
CONTINUOUS
 62
     5
 10
436.65685424950789
 20
1343.999999999992
 30
0.0
  0
SEQEND
  8
DETAIL
  6
CONTINUOUS
 62
     5
  0
POLYLINE
  8
DETAIL
  6
CONTINUOUS
 62
     5
 66
     1
 10
0.0
 20
0.0
 30
0.0
  0
VERTEX
  8
DETAIL
  6
CONTINUOUS
 62
     5
 10
424.01471862570901
 20
1143.999999999993
 30
0.0
  0
VERTEX
  8
DETAIL
  6
CONTINUOUS
 62
     5
 10
424.04670267756285
 20
1143.0277010572968
 30
0.0
  0
VERTEX
  8
DETAIL
  6
CONTINUOUS
 62
     5
 10
424.14344861466566
 20
1142.057827071523
 30
0.0
  0
VERTEX
  8
DETAIL
  6
CONTINUOUS
 62
     5
 10
424.30614710932889
 20
1141.0966393888423
 30
0.0
  0
VERTEX
  8
DETAIL
  6
CONTINUOUS
 62
     5
 10
424.53598980609155
 20
1140.1503992290518
 30
0.0
  0
VERTEX
  8
DETAIL
  6
CONTINUOUS
 62
     5
 10
424.83478885186162
 20
1139.2252871577107
 30
0.0
  0
VERTEX
  8
DETAIL
  6
CONTINUOUS
 62
     5
 10
425.2060437569977
 20
1138.3272892222647
 30
0.0
  0
VERTEX
  8
DETAIL
  6
CONTINUOUS
 62
     5
 10
425.65379519316059
 20
1137.4644190039874
 30
0.0
  0
VERTEX
  8
DETAIL
  6
CONTINUOUS
 62
     5
 10
426.18254829789532
 20
1136.6484916896941
 30
0.0
  0
VERTEX
  8
DETAIL
  6
CONTINUOUS
 62
     5
 10
426.79710332810635
 20
1135.8952301832232
 30
0.0
  0
VERTEX
  8
DETAIL
  6
CONTINUOUS
 62
     5
 10
427.50180332126877
 20
1135.2251260036212
 30
0.0
  0
VERTEX
  8
DETAIL
  6
CONTINUOUS
 62
     5
 10
428.29771075809577
 20
1134.6667270290864
 30
0.0
  0
VERTEX
  8
DETAIL
  6
CONTINUOUS
 62
     5
 10
429.17920299998855
 20
1134.2559455909775
 30
0.0
  0
VERTEX
  8
DETAIL
  6
CONTINUOUS
 62
     5
 10
430.12510952870798
 20
1134.0320221140939
 30
0.0
  0
SEQEND
  8
DETAIL
  6
CONTINUOUS
 62
     5
  0
POLYLINE
  8
DETAIL
  6
CONTINUOUS
 62
     5
 66
     1
 10
0.0
 20
0.0
 30
0.0
  0
VERTEX
  8
DETAIL
  6
CONTINUOUS
 62
     5
 10
430.12567943790782
 20
1303.9680477801919
 30
0.0
  0
VERTEX
  8
DETAIL
  6
CONTINUOUS
 62
     5
 10
429.17970270732769
 20
1303.7442302385587
 30
0.0
  0
VERTEX
  8
DETAIL
  6
CONTINUOUS
 62
     5
 10
428.29812989269163
 20
1303.3335178284235
 30
0.0
  0
VERTEX
  8
DETAIL
  6
CONTINUOUS
 62
     5
 10
427.50214353071209
 20
1302.7751548410135
 30
0.0
  0
VERTEX
  8
DETAIL
  6
CONTINUOUS
 62
     5
 10
426.79737219100343
 20
1302.1050618486947
 30
0.0
  0
VERTEX
  8
DETAIL
  6
CONTINUOUS
 62
     5
 10
426.18275538267892
 20
1301.3517940781126
 30
0.0
  0
VERTEX
  8
DETAIL
  6
CONTINUOUS
 62
     5
 10
425.6539499640848
 20
1300.5358483119817
 30
0.0
  0
VERTEX
  8
DETAIL
  6
CONTINUOUS
 62
     5
 10
425.2061551010537
 20
1299.6729511762264
 30
0.0
  0
VERTEX
  8
DETAIL
  6
CONTINUOUS
 62
     5
 10
424.83486484997786
 20
1298.7749204638696
 30
0.0
  0
VERTEX
  8
DETAIL
  6
CONTINUOUS
 62
     5
 10
424.53603778133026
 20
1297.8497712167759
 30
0.0
  0
VERTEX
  8
DETAIL
  6
CONTINUOUS
 62
     5
 10
424.30617373067719
 20
1296.9034907108066
 30
0.0
  0
VERTEX
  8
DETAIL
  6
CONTINUOUS
 62
     5
 10
424.14346028395914
 20
1295.9422605447712
 30
0.0
  0
VERTEX
  8
DETAIL
  6
CONTINUOUS
 62
     5
 10
424.04670555428208
 20
1294.972342879028
 30
0.0
  0
VERTEX
  8
DETAIL
  6
CONTINUOUS
 62
     5
 10
424.01471862570901
 20
1293.999999999992
 30
0.0
  0
SEQEND
  8
DETAIL
  6
CONTINUOUS
 62
     5
  0
POLYLINE
  8
DETAIL
  6
CONTINUOUS
 62
     5
 66
     1
 10
0.0
 20
0.0
 30
0.0
  0
VERTEX
  8
DETAIL
  6
CONTINUOUS
 62
     5
 10
430.61703443360591
 20
1134.1069188642939
 30
0.0
  0
VERTEX
  8
DETAIL
  6
CONTINUOUS
 62
     5
 10
431.60658119960414
 20
1134.4171729641484
 30
0.0
  0
VERTEX
  8
DETAIL
  6
CONTINUOUS
 62
     5
 10
432.52301299912062
 20
1134.9035270023328
 30
0.0
  0
VERTEX
  8
DETAIL
  6
CONTINUOUS
 62
     5
 10
433.347596091188
 20
1135.5325558621721
 30
0.0
  0
VERTEX
  8
DETAIL
  6
CONTINUOUS
 62
     5
 10
434.07413745170038
 20
1136.2728137144952
 30
0.0
  0
VERTEX
  8
DETAIL
  6
CONTINUOUS
 62
     5
 10
434.70236713120266
 20
1137.097804819221
 30
0.0
  0
VERTEX
  8
DETAIL
  6
CONTINUOUS
 62
     5
 10
435.23622656184921
 20
1137.9874074322104
 30
0.0
  0
VERTEX
  8
DETAIL
  6
CONTINUOUS
 62
     5
 10
435.67983555105235
 20
1138.9267969739885
 30
0.0
  0
VERTEX
  8
DETAIL
  6
CONTINUOUS
 62
     5
 10
436.03677697353316
 20
1139.9044347489962
 30
0.0
  0
VERTEX
  8
DETAIL
  6
CONTINUOUS
 62
     5
 10
436.31059923568972
 20
1140.9089252005228
 30
0.0
  0
VERTEX
  8
DETAIL
  6
CONTINUOUS
 62
     5
 10
436.50407343281057
 20
1141.9308478902135
 30
0.0
  0
VERTEX
  8
DETAIL
  6
CONTINUOUS
 62
     5
 10
436.61893662047237
 20
1142.9634098358022
 30
0.0
  0
VERTEX
  8
DETAIL
  6
CONTINUOUS
 62
     5
 10
436.65685424950789
 20
1143.999999999993
 30
0.0
  0
SEQEND
  8
DETAIL
  6
CONTINUOUS
 62
     5
  0
POLYLINE
  8
DETAIL
  6
CONTINUOUS
 62
     5
 66
     1
 10
0.0
 20
0.0
 30
0.0
  0
VERTEX
  8
DETAIL
  6
CONTINUOUS
 62
     5
 10
436.65685424950789
 20
893.99999999999261
 30
0.0
  0
VERTEX
  8
DETAIL
  6
CONTINUOUS
 62
     5
 10
436.61893662047231
 20
895.03659016412962
 30
0.0
  0
VERTEX
  8
DETAIL
  6
CONTINUOUS
 62
     5
 10
436.50407343281057
 20
896.06915210971647
 30
0.0
  0
VERTEX
  8
DETAIL
  6
CONTINUOUS
 62
     5
 10
436.31059923568978
 20
897.09107479942872
 30
0.0
  0
VERTEX
  8
DETAIL
  6
CONTINUOUS
 62
     5
 10
436.03677697353316
 20
898.09556525097628
 30
0.0
  0
VERTEX
  8
DETAIL
  6
CONTINUOUS
 62
     5
 10
435.67983555105235
 20
899.07320302599351
 30
0.0
  0
VERTEX
  8
DETAIL
  6
CONTINUOUS
 62
     5
 10
435.23622656184915
 20
900.01259256777462
 30
0.0
  0
VERTEX
  8
DETAIL
  6
CONTINUOUS
 62
     5
 10
434.70236713120261
 20
900.90219518076481
 30
0.0
  0
VERTEX
  8
DETAIL
  6
CONTINUOUS
 62
     5
 10
434.07413745170044
 20
901.72718628549114
 30
0.0
  0
VERTEX
  8
DETAIL
  6
CONTINUOUS
 62
     5
 10
433.34759609118805
 20
902.46744413781357
 30
0.0
  0
VERTEX
  8
DETAIL
  6
CONTINUOUS
 62
     5
 10
432.52301299912051
 20
903.09647299765254
 30
0.0
  0
VERTEX
  8
DETAIL
  6
CONTINUOUS
 62
     5
 10
431.60658119960419
 20
903.58282703583643
 30
0.0
  0
VERTEX
  8
DETAIL
  6
CONTINUOUS
 62
     5
 10
430.61703443360591
 20
903.89308113569325
 30
0.0
  0
SEQEND
  8
DETAIL
  6
CONTINUOUS
 62
     5
  0
POLYLINE
  8
DETAIL
  6
CONTINUOUS
 62
     5
 66
     1
 10
0.0
 20
0.0
 30
0.0
  0
VERTEX
  8
DETAIL
  6
CONTINUOUS
 62
     5
 10
-322.00877246539312
 20
1588.6533525468931
 30
0.0
  0
VERTEX
  8
DETAIL
  6
CONTINUOUS
 62
     5
 10
-321.98768941262477
 20
1588.6298155441318
 30
0.0
  0
VERTEX
  8
DETAIL
  6
CONTINUOUS
 62
     5
 10
-321.96311355554428
 20
1588.6095427213031
 30
0.0
  0
VERTEX
  8
DETAIL
  6
CONTINUOUS
 62
     5
 10
-321.93585488282105
 20
1588.5927804045036
 30
0.0
  0
VERTEX
  8
DETAIL
  6
CONTINUOUS
 62
     5
 10
-321.90672123106128
 20
1588.5797712877602
 30
0.0
  0
VERTEX
  8
DETAIL
  6
CONTINUOUS
 62
     5
 10
-321.87636943834917
 20
1588.570503222541
 30
0.0
  0
VERTEX
  8
DETAIL
  6
CONTINUOUS
 62
     5
 10
-321.84520876709695
 20
1588.56454622299
 30
0.0
  0
VERTEX
  8
DETAIL
  6
CONTINUOUS
 62
     5
 10
-321.81362551933427
 20
1588.5614315526575
 30
0.0
  0
VERTEX
  8
DETAIL
  6
CONTINUOUS
 62
     5
 10
-321.78200599709089
 20
1588.560690475093
 30
0.0
  0
SEQEND
  8
DETAIL
  6
CONTINUOUS
 62
     5
  0
POLYLINE
  8
DETAIL
  6
CONTINUOUS
 62
     5
 66
     1
 10
0.0
 20
0.0
 30
0.0
  0
VERTEX
  8
DETAIL
  6
CONTINUOUS
 62
     5
 10
-411.63518199809181
 20
1815.999999999993
 30
0.0
  0
VERTEX
  8
DETAIL
  6
CONTINUOUS
 62
     5
 10
-411.61025480144156
 20
1816.0007097638922
 30
0.0
  0
VERTEX
  8
DETAIL
  6
CONTINUOUS
 62
     5
 10
-411.5853112433316
 20
1816.0028243021925
 30
0.0
  0
VERTEX
  8
DETAIL
  6
CONTINUOUS
 62
     5
 10
-411.56046431616778
 20
1816.0063214847955
 30
0.0
  0
VERTEX
  8
DETAIL
  6
CONTINUOUS
 62
     5
 10
-411.53582701235626
 20
1816.0111791816046
 30
0.0
  0
VERTEX
  8
DETAIL
  6
CONTINUOUS
 62
     5
 10
-411.51151232430311
 20
1816.0173752625221
 30
0.0
  0
VERTEX
  8
DETAIL
  6
CONTINUOUS
 62
     5
 10
-411.4876332444145
 20
1816.0248875974507
 30
0.0
  0
VERTEX
  8
DETAIL
  6
CONTINUOUS
 62
     5
 10
-411.46430276509631
 20
1816.0336940562929
 30
0.0
  0
SEQEND
  8
DETAIL
  6
CONTINUOUS
 62
     5
  0
POLYLINE
  8
DETAIL
  6
CONTINUOUS
 62
     5
 66
     1
 10
0.0
 20
0.0
 30
0.0
  0
VERTEX
  8
DETAIL
  6
CONTINUOUS
 62
     5
 10
411.46430276500899
 20
1816.0336940562929
 30
0.0
  0
VERTEX
  8
DETAIL
  6
CONTINUOUS
 62
     5
 10
411.48763324435947
 20
1816.0248875974505
 30
0.0
  0
VERTEX
  8
DETAIL
  6
CONTINUOUS
 62
     5
 10
411.51151232426275
 20
1816.0173752625219
 30
0.0
  0
VERTEX
  8
DETAIL
  6
CONTINUOUS
 62
     5
 10
411.53582701231971
 20
1816.0111791816046
 30
0.0
  0
VERTEX
  8
DETAIL
  6
CONTINUOUS
 62
     5
 10
411.56046431613152
 20
1816.0063214847955
 30
0.0
  0
VERTEX
  8
DETAIL
  6
CONTINUOUS
 62
     5
 10
411.58531124329926
 20
1816.002824302192
 30
0.0
  0
VERTEX
  8
DETAIL
  6
CONTINUOUS
 62
     5
 10
411.61025480142382
 20
1816.0007097638927
 30
0.0
  0
VERTEX
  8
DETAIL
  6
CONTINUOUS
 62
     5
 10
411.63518199810642
 20
1815.999999999993
 30
0.0
  0
SEQEND
  8
DETAIL
  6
CONTINUOUS
 62
     5
  0
POLYLINE
  8
DETAIL
  6
CONTINUOUS
 62
     5
 66
     1
 10
0.0
 20
0.0
 30
0.0
  0
VERTEX
  8
DETAIL
  6
CONTINUOUS
 62
     5
 10
-343.84695682029269
 20
1568.1896629924929
 30
0.0
  0
VERTEX
  8
DETAIL
  6
CONTINUOUS
 62
     5
 10
-344.64487166681567
 20
1569.6836930748304
 30
0.0
  0
VERTEX
  8
DETAIL
  6
CONTINUOUS
 62
     5
 10
-345.45037446216259
 20
1571.1736623723323
 30
0.0
  0
VERTEX
  8
DETAIL
  6
CONTINUOUS
 62
     5
 10
-346.26205605859843
 20
1572.6602945122581
 30
0.0
  0
VERTEX
  8
DETAIL
  6
CONTINUOUS
 62
     5
 10
-347.07850781551815
 20
1574.1443128781916
 30
0.0
  0
VERTEX
  8
DETAIL
  6
CONTINUOUS
 62
     5
 10
-347.89853170209983
 20
1575.6263396556535
 30
0.0
  0
VERTEX
  8
DETAIL
  6
CONTINUOUS
 62
     5
 10
-348.72146463361128
 20
1577.1067399884062
 30
0.0
  0
VERTEX
  8
DETAIL
  6
CONTINUOUS
 62
     5
 10
-349.54672719662022
 20
1578.5858388161271
 30
0.0
  0
VERTEX
  8
DETAIL
  6
CONTINUOUS
 62
     5
 10
-350.37373997769458
 20
1580.063961078494
 30
0.0
  0
SEQEND
  8
DETAIL
  6
CONTINUOUS
 62
     5
  0
POLYLINE
  8
DETAIL
  6
CONTINUOUS
 62
     5
 66
     1
 10
0.0
 20
0.0
 30
0.0
  0
VERTEX
  8
DETAIL
  6
CONTINUOUS
 62
     5
 10
-350.37373997769458
 20
1580.063961078494
 30
0.0
  0
VERTEX
  8
DETAIL
  6
CONTINUOUS
 62
     5
 10
-350.37972822412365
 20
1580.2218757431654
 30
0.0
  0
VERTEX
  8
DETAIL
  6
CONTINUOUS
 62
     5
 10
-350.3185910001722
 20
1580.3681803047839
 30
0.0
  0
VERTEX
  8
DETAIL
  6
CONTINUOUS
 62
     5
 10
-350.23568778308078
 20
1580.5038333725111
 30
0.0
  0
VERTEX
  8
DETAIL
  6
CONTINUOUS
 62
     5
 10
-350.1408679568986
 20
1580.6315002982806
 30
0.0
  0
VERTEX
  8
DETAIL
  6
CONTINUOUS
 62
     5
 10
-350.0378500308596
 20
1580.752520567783
 30
0.0
  0
VERTEX
  8
DETAIL
  6
CONTINUOUS
 62
     5
 10
-349.92882175474097
 20
1580.8681844332862
 30
0.0
  0
VERTEX
  8
DETAIL
  6
CONTINUOUS
 62
     5
 10
-349.81480818459391
 20
1580.9788963706494
 30
0.0
  0
VERTEX
  8
DETAIL
  6
CONTINUOUS
 62
     5
 10
-349.69637828782481
 20
1581.08475907247
 30
0.0
  0
VERTEX
  8
DETAIL
  6
CONTINUOUS
 62
     5
 10
-349.57378121926388
 20
1581.1859346578276
 30
0.0
  0
VERTEX
  8
DETAIL
  6
CONTINUOUS
 62
     5
 10
-349.44711481871167
 20
1581.2824650578732
 30
0.0
  0
VERTEX
  8
DETAIL
  6
CONTINUOUS
 62
     5
 10
-349.31621515291022
 20
1581.3732996328381
 30
0.0
  0
VERTEX
  8
DETAIL
  6
CONTINUOUS
 62
     5
 10
-349.18079697588354
 20
1581.4568810526353
 30
0.0
  0
VERTEX
  8
DETAIL
  6
CONTINUOUS
 62
     5
 10
-349.04057437668962
 20
1581.5316492097929
 30
0.0
  0
SEQEND
  8
DETAIL
  6
CONTINUOUS
 62
     5
  0
POLYLINE
  8
DETAIL
  6
CONTINUOUS
 62
     5
 66
     1
 10
0.0
 20
0.0
 30
0.0
  0
VERTEX
  8
DETAIL
  6
CONTINUOUS
 62
     5
 10
-349.04057437668962
 20
1581.5316492097929
 30
0.0
  0
VERTEX
  8
DETAIL
  6
CONTINUOUS
 62
     5
 10
-345.07774887577926
 20
1583.4893680797254
 30
0.0
  0
VERTEX
  8
DETAIL
  6
CONTINUOUS
 62
     5
 10
-341.12846819076469
 20
1585.4744357051127
 30
0.0
  0
VERTEX
  8
DETAIL
  6
CONTINUOUS
 62
     5
 10
-337.19110423810542
 20
1587.4832005423409
 30
0.0
  0
VERTEX
  8
DETAIL
  6
CONTINUOUS
 62
     5
 10
-333.26402893426098
 20
1589.5120110477944
 30
0.0
  0
VERTEX
  8
DETAIL
  6
CONTINUOUS
 62
     5
 10
-329.34562253785776
 20
1591.5573218016366
 30
0.0
  0
VERTEX
  8
DETAIL
  6
CONTINUOUS
 62
     5
 10
-325.43429975960112
 20
1593.616025661604
 30
0.0
  0
VERTEX
  8
DETAIL
  6
CONTINUOUS
 62
     5
 10
-321.52848420280498
 20
1595.6851286115839
 30
0.0
  0
VERTEX
  8
DETAIL
  6
CONTINUOUS
 62
     5
 10
-317.62659947079368
 20
1597.761636635593
 30
0.0
  0
SEQEND
  8
DETAIL
  6
CONTINUOUS
 62
     5
  0
POLYLINE
  8
DETAIL
  6
CONTINUOUS
 62
     5
 66
     1
 10
0.0
 20
0.0
 30
0.0
  0
VERTEX
  8
DETAIL
  6
CONTINUOUS
 62
     5
 10
-317.62659947079368
 20
1597.761636635593
 30
0.0
  0
VERTEX
  8
DETAIL
  6
CONTINUOUS
 62
     5
 10
-317.57177201634931
 20
1597.7891185142523
 30
0.0
  0
VERTEX
  8
DETAIL
  6
CONTINUOUS
 62
     5
 10
-317.51543686125342
 20
1597.8134691903665
 30
0.0
  0
VERTEX
  8
DETAIL
  6
CONTINUOUS
 62
     5
 10
-317.45758026677288
 20
1597.8340286983801
 30
0.0
  0
VERTEX
  8
DETAIL
  6
CONTINUOUS
 62
     5
 10
-317.3982231884217
 20
1597.8500382995596
 30
0.0
  0
VERTEX
  8
DETAIL
  6
CONTINUOUS
 62
     5
 10
-317.33761700286658
 20
1597.860083255094
 30
0.0
  0
VERTEX
  8
DETAIL
  6
CONTINUOUS
 62
     5
 10
-317.27611037484189
 20
1597.8624804225299
 30
0.0
  0
VERTEX
  8
DETAIL
  6
CONTINUOUS
 62
     5
 10
-317.21477273581741
 20
1597.8553256651285
 30
0.0
  0
VERTEX
  8
DETAIL
  6
CONTINUOUS
 62
     5
 10
-317.15628370276806
 20
1597.8362227139521
 30
0.0
  0
VERTEX
  8
DETAIL
  6
CONTINUOUS
 62
     5
 10
-317.1036886786847
 20
1597.8036350423022
 30
0.0
  0
VERTEX
  8
DETAIL
  6
CONTINUOUS
 62
     5
 10
-317.06060227799031
 20
1597.7596013257919
 30
0.0
  0
SEQEND
  8
DETAIL
  6
CONTINUOUS
 62
     5
  0
POLYLINE
  8
DETAIL
  6
CONTINUOUS
 62
     5
 66
     1
 10
0.0
 20
0.0
 30
0.0
  0
VERTEX
  8
DETAIL
  6
CONTINUOUS
 62
     5
 10
-274.2357573384943
 20
1588.385596813793
 30
0.0
  0
VERTEX
  8
DETAIL
  6
CONTINUOUS
 62
     5
 10
-274.1820761403086
 20
1588.3831647101936
 30
0.0
  0
VERTEX
  8
DETAIL
  6
CONTINUOUS
 62
     5
 10
-274.12856965888136
 20
1588.3765670864227
 30
0.0
  0
VERTEX
  8
DETAIL
  6
CONTINUOUS
 62
     5
 10
-274.07586958302107
 20
1588.3651542475293
 30
0.0
  0
VERTEX
  8
DETAIL
  6
CONTINUOUS
 62
     5
 10
-274.02460760153627
 20
1588.3482764985638
 30
0.0
  0
VERTEX
  8
DETAIL
  6
CONTINUOUS
 62
     5
 10
-273.97545470464837
 20
1588.3253426824658
 30
0.0
  0
VERTEX
  8
DETAIL
  6
CONTINUOUS
 62
     5
 10
-273.92947838917291
 20
1588.2963522229693
 30
0.0
  0
VERTEX
  8
DETAIL
  6
CONTINUOUS
 62
     5
 10
-273.88797593771949
 20
1588.2616468006056
 30
0.0
  0
VERTEX
  8
DETAIL
  6
CONTINUOUS
 62
     5
 10
-273.85224744659348
 20
1588.2215722867929
 30
0.0
  0
SEQEND
  8
DETAIL
  6
CONTINUOUS
 62
     5
  0
POLYLINE
  8
DETAIL
  6
CONTINUOUS
 62
     5
 66
     1
 10
0.0
 20
0.0
 30
0.0
  0
VERTEX
  8
DETAIL
  6
CONTINUOUS
 62
     5
 10
-273.85224744659348
 20
1588.2215722867929
 30
0.0
  0
VERTEX
  8
DETAIL
  6
CONTINUOUS
 62
     5
 10
-273.81071957622856
 20
1588.1518807437294
 30
0.0
  0
VERTEX
  8
DETAIL
  6
CONTINUOUS
 62
     5
 10
-273.78403313062148
 20
1588.074776189151
 30
0.0
  0
VERTEX
  8
DETAIL
  6
CONTINUOUS
 62
     5
 10
-273.77176684424398
 20
1587.9944731093776
 30
0.0
  0
VERTEX
  8
DETAIL
  6
CONTINUOUS
 62
     5
 10
-273.77188972250718
 20
1587.9132336085511
 30
0.0
  0
VERTEX
  8
DETAIL
  6
CONTINUOUS
 62
     5
 10
-273.78199985172887
 20
1587.8327147258003
 30
0.0
  0
VERTEX
  8
DETAIL
  6
CONTINUOUS
 62
     5
 10
-273.80035415098024
 20
1587.7537429892889
 30
0.0
  0
VERTEX
  8
DETAIL
  6
CONTINUOUS
 62
     5
 10
-273.82560333694767
 20
1587.6766485294334
 30
0.0
  0
VERTEX
  8
DETAIL
  6
CONTINUOUS
 62
     5
 10
-273.85652689496601
 20
1587.6017042579313
 30
0.0
  0
VERTEX
  8
DETAIL
  6
CONTINUOUS
 62
     5
 10
-273.89234189812362
 20
1587.5290039483539
 30
0.0
  0
VERTEX
  8
DETAIL
  6
CONTINUOUS
 62
     5
 10
-273.93236230949702
 20
1587.4586017097929
 30
0.0
  0
SEQEND
  8
DETAIL
  6
CONTINUOUS
 62
     5
  0
POLYLINE
  8
DETAIL
  6
CONTINUOUS
 62
     5
 66
     1
 10
0.0
 20
0.0
 30
0.0
  0
VERTEX
  8
DETAIL
  6
CONTINUOUS
 62
     5
 10
-321.89462499919318
 20
1588.575064160993
 30
0.0
  0
VERTEX
  8
DETAIL
  6
CONTINUOUS
 62
     5
 10
-321.89602833717828
 20
1588.593299727029
 30
0.0
  0
VERTEX
  8
DETAIL
  6
CONTINUOUS
 62
     5
 10
-321.89662925997294
 20
1588.611586927635
 30
0.0
  0
VERTEX
  8
DETAIL
  6
CONTINUOUS
 62
     5
 10
-321.89649583712765
 20
1588.6298922611752
 30
0.0
  0
VERTEX
  8
DETAIL
  6
CONTINUOUS
 62
     5
 10
-321.89567949052042
 20
1588.6481915173756
 30
0.0
  0
VERTEX
  8
DETAIL
  6
CONTINUOUS
 62
     5
 10
-321.89422904112729
 20
1588.666461937572
 30
0.0
  0
VERTEX
  8
DETAIL
  6
CONTINUOUS
 62
     5
 10
-321.89219330992461
 20
1588.6846807630995
 30
0.0
  0
VERTEX
  8
DETAIL
  6
CONTINUOUS
 62
     5
 10
-321.88962111788857
 20
1588.7028252352943
 30
0.0
  0
VERTEX
  8
DETAIL
  6
CONTINUOUS
 62
     5
 10
-321.88656128599541
 20
1588.720872595492
 30
0.0
  0
SEQEND
  8
DETAIL
  6
CONTINUOUS
 62
     5
  0
POLYLINE
  8
DETAIL
  6
CONTINUOUS
 62
     5
 66
     1
 10
0.0
 20
0.0
 30
0.0
  0
VERTEX
  8
DETAIL
  6
CONTINUOUS
 62
     5
 10
-321.88656128599541
 20
1588.720872595492
 30
0.0
  0
VERTEX
  8
DETAIL
  6
CONTINUOUS
 62
     5
 10
-321.86956415403802
 20
1588.7944684212
 30
0.0
  0
VERTEX
  8
DETAIL
  6
CONTINUOUS
 62
     5
 10
-321.84649733808328
 20
1588.8665715383429
 30
0.0
  0
VERTEX
  8
DETAIL
  6
CONTINUOUS
 62
     5
 10
-321.81850953856025
 20
1588.9371079371579
 30
0.0
  0
VERTEX
  8
DETAIL
  6
CONTINUOUS
 62
     5
 10
-321.78674050732542
 20
1589.0060052722708
 30
0.0
  0
VERTEX
  8
DETAIL
  6
CONTINUOUS
 62
     5
 10
-321.75197305969732
 20
1589.0732575866095
 30
0.0
  0
VERTEX
  8
DETAIL
  6
CONTINUOUS
 62
     5
 10
-321.71452102683077
 20
1589.1389461516669
 30
0.0
  0
VERTEX
  8
DETAIL
  6
CONTINUOUS
 62
     5
 10
-321.67466635687794
 20
1589.2031581690071
 30
0.0
  0
VERTEX
  8
DETAIL
  6
CONTINUOUS
 62
     5
 10
-321.63269099799072
 20
1589.2659808401929
 30
0.0
  0
SEQEND
  8
DETAIL
  6
CONTINUOUS
 62
     5
  0
POLYLINE
  8
DETAIL
  6
CONTINUOUS
 62
     5
 66
     1
 10
0.0
 20
0.0
 30
0.0
  0
VERTEX
  8
DETAIL
  6
CONTINUOUS
 62
     5
 10
-317.06060227799031
 20
1597.7596013257919
 30
0.0
  0
VERTEX
  8
DETAIL
  6
CONTINUOUS
 62
     5
 10
-317.01230202026272
 20
1597.6654301810288
 30
0.0
  0
VERTEX
  8
DETAIL
  6
CONTINUOUS
 62
     5
 10
-316.99221083710455
 20
1597.5583119257756
 30
0.0
  0
VERTEX
  8
DETAIL
  6
CONTINUOUS
 62
     5
 10
-316.99343925607781
 20
1597.4459480876103
 30
0.0
  0
VERTEX
  8
DETAIL
  6
CONTINUOUS
 62
     5
 10
-317.00915233315231
 20
1597.3359354036463
 30
0.0
  0
VERTEX
  8
DETAIL
  6
CONTINUOUS
 62
     5
 10
-317.03468224886882
 20
1597.2317059197005
 30
0.0
  0
VERTEX
  8
DETAIL
  6
CONTINUOUS
 62
     5
 10
-317.06820404819564
 20
1597.1312283810857
 30
0.0
  0
VERTEX
  8
DETAIL
  6
CONTINUOUS
 62
     5
 10
-317.10818805222385
 20
1597.0324573629616
 30
0.0
  0
VERTEX
  8
DETAIL
  6
CONTINUOUS
 62
     5
 10
-317.1536918850606
 20
1596.9353898483232
 30
0.0
  0
VERTEX
  8
DETAIL
  6
CONTINUOUS
 62
     5
 10
-317.20398203319201
 20
1596.840749160993
 30
0.0
  0
SEQEND
  8
DETAIL
  6
CONTINUOUS
 62
     5
  0
POLYLINE
  8
DETAIL
  6
CONTINUOUS
 62
     5
 66
     1
 10
0.0
 20
0.0
 30
0.0
  0
VERTEX
  8
DETAIL
  6
CONTINUOUS
 62
     5
 10
-343.67041495239391
 20
1567.9555009041931
 30
0.0
  0
VERTEX
  8
DETAIL
  6
CONTINUOUS
 62
     5
 10
-343.52511437246079
 20
1567.8979816446508
 30
0.0
  0
VERTEX
  8
DETAIL
  6
CONTINUOUS
 62
     5
 10
-343.36796874170858
 20
1567.9049278609282
 30
0.0
  0
VERTEX
  8
DETAIL
  6
CONTINUOUS
 62
     5
 10
-343.2123015182566
 20
1567.9322080603931
 30
0.0
  0
VERTEX
  8
DETAIL
  6
CONTINUOUS
 62
     5
 10
-343.05948738446176
 20
1567.9718542293338
 30
0.0
  0
VERTEX
  8
DETAIL
  6
CONTINUOUS
 62
     5
 10
-342.90922020512147
 20
1568.0201105346873
 30
0.0
  0
VERTEX
  8
DETAIL
  6
CONTINUOUS
 62
     5
 10
-342.76119158139124
 20
1568.0749739421938
 30
0.0
  0
VERTEX
  8
DETAIL
  6
CONTINUOUS
 62
     5
 10
-342.61541729337949
 20
1568.1358311912568
 30
0.0
  0
VERTEX
  8
DETAIL
  6
CONTINUOUS
 62
     5
 10
-342.47192819123495
 20
1568.2021336274067
 30
0.0
  0
VERTEX
  8
DETAIL
  6
CONTINUOUS
 62
     5
 10
-342.3307870489237
 20
1568.2733903758285
 30
0.0
  0
VERTEX
  8
DETAIL
  6
CONTINUOUS
 62
     5
 10
-342.19237932436465
 20
1568.3496945948839
 30
0.0
  0
VERTEX
  8
DETAIL
  6
CONTINUOUS
 62
     5
 10
-342.05727775414198
 20
1568.4314784029348
 30
0.0
  0
VERTEX
  8
DETAIL
  6
CONTINUOUS
 62
     5
 10
-341.9260573783904
 20
1568.519178087593
 30
0.0
  0
SEQEND
  8
DETAIL
  6
CONTINUOUS
 62
     5
  0
POLYLINE
  8
DETAIL
  6
CONTINUOUS
 62
     5
 66
     1
 10
0.0
 20
0.0
 30
0.0
  0
VERTEX
  8
DETAIL
  6
CONTINUOUS
 62
     5
 10
-333.87794267269049
 20
1574.8161723298931
 30
0.0
  0
VERTEX
  8
DETAIL
  6
CONTINUOUS
 62
     5
 10
-334.04247539872051
 20
1574.7975409793426
 30
0.0
  0
VERTEX
  8
DETAIL
  6
CONTINUOUS
 62
     5
 10
-334.20349732759223
 20
1574.754341759583
 30
0.0
  0
VERTEX
  8
DETAIL
  6
CONTINUOUS
 62
     5
 10
-334.3597093307614
 20
1574.6978391340699
 30
0.0
  0
VERTEX
  8
DETAIL
  6
CONTINUOUS
 62
     5
 10
-334.51145622947467
 20
1574.631451332368
 30
0.0
  0
VERTEX
  8
DETAIL
  6
CONTINUOUS
 62
     5
 10
-334.65939479479647
 20
1574.5569747563163
 30
0.0
  0
VERTEX
  8
DETAIL
  6
CONTINUOUS
 62
     5
 10
-334.80377028115936
 20
1574.4755403154488
 30
0.0
  0
VERTEX
  8
DETAIL
  6
CONTINUOUS
 62
     5
 10
-334.94445054883317
 20
1574.3876686088236
 30
0.0
  0
VERTEX
  8
DETAIL
  6
CONTINUOUS
 62
     5
 10
-335.0812458587601
 20
1574.2938007292225
 30
0.0
  0
VERTEX
  8
DETAIL
  6
CONTINUOUS
 62
     5
 10
-335.21353676068424
 20
1574.1938172005239
 30
0.0
  0
VERTEX
  8
DETAIL
  6
CONTINUOUS
 62
     5
 10
-335.34045943029201
 20
1574.0872797545931
 30
0.0
  0
SEQEND
  8
DETAIL
  6
CONTINUOUS
 62
     5
  0
POLYLINE
  8
DETAIL
  6
CONTINUOUS
 62
     5
 66
     1
 10
0.0
 20
0.0
 30
0.0
  0
VERTEX
  8
DETAIL
  6
CONTINUOUS
 62
     5
 10
-342.09452752279321
 20
1568.7408770176919
 30
0.0
  0
VERTEX
  8
DETAIL
  6
CONTINUOUS
 62
     5
 10
-342.22583497760218
 20
1568.6532859565064
 30
0.0
  0
VERTEX
  8
DETAIL
  6
CONTINUOUS
 62
     5
 10
-342.36101433132637
 20
1568.5716078286016
 30
0.0
  0
VERTEX
  8
DETAIL
  6
CONTINUOUS
 62
     5
 10
-342.49949154650079
 20
1568.4954056274119
 30
0.0
  0
VERTEX
  8
DETAIL
  6
CONTINUOUS
 62
     5
 10
-342.64069489187642
 20
1568.4242465274615
 30
0.0
  0
VERTEX
  8
DETAIL
  6
CONTINUOUS
 62
     5
 10
-342.78423956480805
 20
1568.358036598441
 30
0.0
  0
VERTEX
  8
DETAIL
  6
CONTINUOUS
 62
     5
 10
-342.93006252488721
 20
1568.2972652539738
 30
0.0
  0
VERTEX
  8
DETAIL
  6
CONTINUOUS
 62
     5
 10
-343.07813252384665
 20
1568.2424795457475
 30
0.0
  0
VERTEX
  8
DETAIL
  6
CONTINUOUS
 62
     5
 10
-343.22843342715578
 20
1568.1942910394509
 30
0.0
  0
VERTEX
  8
DETAIL
  6
CONTINUOUS
 62
     5
 10
-343.38127414614092
 20
1568.1546987808856
 30
0.0
  0
VERTEX
  8
DETAIL
  6
CONTINUOUS
 62
     5
 10
-343.53696088095023
 20
1568.1274509293326
 30
0.0
  0
VERTEX
  8
DETAIL
  6
CONTINUOUS
 62
     5
 10
-343.69411400472723
 20
1568.1204968422435
 30
0.0
  0
VERTEX
  8
DETAIL
  6
CONTINUOUS
 62
     5
 10
-343.83945517539541
 20
1568.1779500324931
 30
0.0
  0
SEQEND
  8
DETAIL
  6
CONTINUOUS
 62
     5
  0
POLYLINE
  8
DETAIL
  6
CONTINUOUS
 62
     5
 66
     1
 10
0.0
 20
0.0
 30
0.0
  0
VERTEX
  8
DETAIL
  6
CONTINUOUS
 62
     5
 10
-321.79691932999413
 20
1589.4820977411939
 30
0.0
  0
VERTEX
  8
DETAIL
  6
CONTINUOUS
 62
     5
 10
-321.8513432986789
 20
1589.3994350754717
 30
0.0
  0
VERTEX
  8
DETAIL
  6
CONTINUOUS
 62
     5
 10
-321.90200293388392
 20
1589.3143572249051
 30
0.0
  0
VERTEX
  8
DETAIL
  6
CONTINUOUS
 62
     5
 10
-321.94819912574229
 20
1589.227562791825
 30
0.0
  0
VERTEX
  8
DETAIL
  6
CONTINUOUS
 62
     5
 10
-321.98907241980868
 20
1589.1391098769207
 30
0.0
  0
VERTEX
  8
DETAIL
  6
CONTINUOUS
 62
     5
 10
-322.02311532207466
 20
1589.0464679657425
 30
0.0
  0
VERTEX
  8
DETAIL
  6
CONTINUOUS
 62
     5
 10
-322.04854802168649
 20
1588.9466375361087
 30
0.0
  0
VERTEX
  8
DETAIL
  6
CONTINUOUS
 62
     5
 10
-322.06040070430902
 20
1588.8420481124169
 30
0.0
  0
VERTEX
  8
DETAIL
  6
CONTINUOUS
 62
     5
 10
-322.05007421909579
 20
1588.7413059637702
 30
0.0
  0
VERTEX
  8
DETAIL
  6
CONTINUOUS
 62
     5
 10
-322.00877246539312
 20
1588.6533525468931
 30
0.0
  0
SEQEND
  8
DETAIL
  6
CONTINUOUS
 62
     5
  0
POLYLINE
  8
DETAIL
  6
CONTINUOUS
 62
     5
 66
     1
 10
0.0
 20
0.0
 30
0.0
  0
VERTEX
  8
DETAIL
  6
CONTINUOUS
 62
     5
 10
-282.97537462819309
 20
1575.3010626088931
 30
0.0
  0
VERTEX
  8
DETAIL
  6
CONTINUOUS
 62
     5
 10
-283.09932124790225
 20
1575.1785108316706
 30
0.0
  0
VERTEX
  8
DETAIL
  6
CONTINUOUS
 62
     5
 10
-283.23405671817528
 20
1575.0673572803596
 30
0.0
  0
VERTEX
  8
DETAIL
  6
CONTINUOUS
 62
     5
 10
-283.37676041455313
 20
1574.966573949861
 30
0.0
  0
VERTEX
  8
DETAIL
  6
CONTINUOUS
 62
     5
 10
-283.52566974880949
 20
1574.8756507445721
 30
0.0
  0
VERTEX
  8
DETAIL
  6
CONTINUOUS
 62
     5
 10
-283.68003453695013
 20
1574.7945731414848
 30
0.0
  0
VERTEX
  8
DETAIL
  6
CONTINUOUS
 62
     5
 10
-283.83919995689655
 20
1574.7234680961076
 30
0.0
  0
VERTEX
  8
DETAIL
  6
CONTINUOUS
 62
     5
 10
-284.00290142025568
 20
1574.6633291765304
 30
0.0
  0
VERTEX
  8
DETAIL
  6
CONTINUOUS
 62
     5
 10
-284.17104104755265
 20
1574.6155338643925
 30
0.0
  0
VERTEX
  8
DETAIL
  6
CONTINUOUS
 62
     5
 10
-284.34298262823836
 20
1574.5830044069021
 30
0.0
  0
VERTEX
  8
DETAIL
  6
CONTINUOUS
 62
     5
 10
-284.51690269779652
 20
1574.572062216693
 30
0.0
  0
SEQEND
  8
DETAIL
  6
CONTINUOUS
 62
     5
  0
POLYLINE
  8
DETAIL
  6
CONTINUOUS
 62
     5
 66
     1
 10
0.0
 20
0.0
 30
0.0
  0
VERTEX
  8
DETAIL
  6
CONTINUOUS
 62
     5
 10
-273.93236230949702
 20
1587.4586017097929
 30
0.0
  0
VERTEX
  8
DETAIL
  6
CONTINUOUS
 62
     5
 10
-274.93195269529156
 20
1585.8479946290176
 30
0.0
  0
VERTEX
  8
DETAIL
  6
CONTINUOUS
 62
     5
 10
-275.96849554909613
 20
1584.2603977167455
 30
0.0
  0
VERTEX
  8
DETAIL
  6
CONTINUOUS
 62
     5
 10
-277.04270083743603
 20
1582.6967044982794
 30
0.0
  0
VERTEX
  8
DETAIL
  6
CONTINUOUS
 62
     5
 10
-278.1545876157378
 20
1581.1586186807858
 30
0.0
  0
VERTEX
  8
DETAIL
  6
CONTINUOUS
 62
     5
 10
-279.30397714202246
 20
1579.6480759142557
 30
0.0
  0
VERTEX
  8
DETAIL
  6
CONTINUOUS
 62
     5
 10
-280.49069065823193
 20
1578.1670118675336
 30
0.0
  0
VERTEX
  8
DETAIL
  6
CONTINUOUS
 62
     5
 10
-281.71454940630815
 20
1576.7173622094642
 30
0.0
  0
VERTEX
  8
DETAIL
  6
CONTINUOUS
 62
     5
 10
-282.97537462819309
 20
1575.3010626088931
 30
0.0
  0
SEQEND
  8
DETAIL
  6
CONTINUOUS
 62
     5
  0
POLYLINE
  8
DETAIL
  6
CONTINUOUS
 62
     5
 66
     1
 10
0.0
 20
0.0
 30
0.0
  0
VERTEX
  8
DETAIL
  6
CONTINUOUS
 62
     5
 10
-317.03703883299022
 20
1596.621059618893
 30
0.0
  0
VERTEX
  8
DETAIL
  6
CONTINUOUS
 62
     5
 10
-316.98671603508018
 20
1596.7156161897476
 30
0.0
  0
VERTEX
  8
DETAIL
  6
CONTINUOUS
 62
     5
 10
-316.94117323449541
 20
1596.8126004335218
 30
0.0
  0
VERTEX
  8
DETAIL
  6
CONTINUOUS
 62
     5
 10
-316.90114391981069
 20
1596.911289305468
 30
0.0
  0
VERTEX
  8
DETAIL
  6
CONTINUOUS
 62
     5
 10
-316.86757016739284
 20
1597.0116856006568
 30
0.0
  0
VERTEX
  8
DETAIL
  6
CONTINUOUS
 62
     5
 10
-316.84198190135311
 20
1597.1158376955209
 30
0.0
  0
VERTEX
  8
DETAIL
  6
CONTINUOUS
 62
     5
 10
-316.82620408280746
 20
1597.2257825568286
 30
0.0
  0
VERTEX
  8
DETAIL
  6
CONTINUOUS
 62
     5
 10
-316.82490689850266
 20
1597.338092991756
 30
0.0
  0
VERTEX
  8
DETAIL
  6
CONTINUOUS
 62
     5
 10
-316.84493501720743
 20
1597.4451657882973
 30
0.0
  0
VERTEX
  8
DETAIL
  6
CONTINUOUS
 62
     5
 10
-316.89318813909631
 20
1597.5392920484931
 30
0.0
  0
SEQEND
  8
DETAIL
  6
CONTINUOUS
 62
     5
  0
POLYLINE
  8
DETAIL
  6
CONTINUOUS
 62
     5
 66
     1
 10
0.0
 20
0.0
 30
0.0
  0
VERTEX
  8
DETAIL
  6
CONTINUOUS
 62
     5
 10
-335.17557577718981
 20
1573.870300481293
 30
0.0
  0
VERTEX
  8
DETAIL
  6
CONTINUOUS
 62
     5
 10
-335.04870794551454
 20
1573.9768923254453
 30
0.0
  0
VERTEX
  8
DETAIL
  6
CONTINUOUS
 62
     5
 10
-334.91646606482823
 20
1574.0769292620605
 30
0.0
  0
VERTEX
  8
DETAIL
  6
CONTINUOUS
 62
     5
 10
-334.77971453406343
 20
1574.1708488758472
 30
0.0
  0
VERTEX
  8
DETAIL
  6
CONTINUOUS
 62
     5
 10
-334.63907332668447
 20
1574.2587701854561
 30
0.0
  0
VERTEX
  8
DETAIL
  6
CONTINUOUS
 62
     5
 10
-334.49473235546111
 20
1574.3402517002737
 30
0.0
  0
VERTEX
  8
DETAIL
  6
CONTINUOUS
 62
     5
 10
-334.34682386967143
 20
1574.4147724018856
 30
0.0
  0
VERTEX
  8
DETAIL
  6
CONTINUOUS
 62
     5
 10
-334.19510240203078
 20
1574.4812006639561
 30
0.0
  0
VERTEX
  8
DETAIL
  6
CONTINUOUS
 62
     5
 10
-334.03891036047918
 20
1574.5377386287003
 30
0.0
  0
VERTEX
  8
DETAIL
  6
CONTINUOUS
 62
     5
 10
-333.877902302395
 20
1574.5809662829579
 30
0.0
  0
VERTEX
  8
DETAIL
  6
CONTINUOUS
 62
     5
 10
-333.71337852779112
 20
1574.5996135146929
 30
0.0
  0
SEQEND
  8
DETAIL
  6
CONTINUOUS
 62
     5
  0
POLYLINE
  8
DETAIL
  6
CONTINUOUS
 62
     5
 66
     1
 10
0.0
 20
0.0
 30
0.0
  0
VERTEX
  8
DETAIL
  6
CONTINUOUS
 62
     5
 10
-284.35239780459227
 20
1574.3555813739929
 30
0.0
  0
VERTEX
  8
DETAIL
  6
CONTINUOUS
 62
     5
 10
-284.17848167633224
 20
1574.3665240467205
 30
0.0
  0
VERTEX
  8
DETAIL
  6
CONTINUOUS
 62
     5
 10
-284.00654562179375
 20
1574.3990652590069
 30
0.0
  0
VERTEX
  8
DETAIL
  6
CONTINUOUS
 62
     5
 10
-283.83841554174177
 20
1574.4468812263151
 30
0.0
  0
VERTEX
  8
DETAIL
  6
CONTINUOUS
 62
     5
 10
-283.67472837472747
 20
1574.507048012834
 30
0.0
  0
VERTEX
  8
DETAIL
  6
CONTINUOUS
 62
     5
 10
-283.51558205099383
 20
1574.5781864882881
 30
0.0
  0
VERTEX
  8
DETAIL
  6
CONTINUOUS
 62
     5
 10
-283.36124136563586
 20
1574.6593017891034
 30
0.0
  0
VERTEX
  8
DETAIL
  6
CONTINUOUS
 62
     5
 10
-283.21236153387093
 20
1574.7502661012866
 30
0.0
  0
VERTEX
  8
DETAIL
  6
CONTINUOUS
 62
     5
 10
-283.06969316989682
 20
1574.8510930816099
 30
0.0
  0
VERTEX
  8
DETAIL
  6
CONTINUOUS
 62
     5
 10
-282.93499950676505
 20
1574.9622914130621
 30
0.0
  0
VERTEX
  8
DETAIL
  6
CONTINUOUS
 62
     5
 10
-282.81110161599651
 20
1575.0848869107931
 30
0.0
  0
SEQEND
  8
DETAIL
  6
CONTINUOUS
 62
     5
  0
POLYLINE
  8
DETAIL
  6
CONTINUOUS
 62
     5
 66
     1
 10
0.0
 20
0.0
 30
0.0
  0
VERTEX
  8
DETAIL
  6
CONTINUOUS
 62
     5
 10
-282.81110161599651
 20
1575.0848869108929
 30
0.0
  0
VERTEX
  8
DETAIL
  6
CONTINUOUS
 62
     5
 10
-281.55101199392789
 20
1576.501175320227
 30
0.0
  0
VERTEX
  8
DETAIL
  6
CONTINUOUS
 62
     5
 10
-280.32809247460835
 20
1577.9502173004541
 30
0.0
  0
VERTEX
  8
DETAIL
  6
CONTINUOUS
 62
     5
 10
-279.14216896523089
 20
1579.4307117102128
 30
0.0
  0
VERTEX
  8
DETAIL
  6
CONTINUOUS
 62
     5
 10
-277.99324631041821
 20
1580.9409377895568
 30
0.0
  0
VERTEX
  8
DETAIL
  6
CONTINUOUS
 62
     5
 10
-276.88136870240925
 20
1582.4790825061114
 30
0.0
  0
VERTEX
  8
DETAIL
  6
CONTINUOUS
 62
     5
 10
-275.80658033344304
 20
1584.0433328275019
 30
0.0
  0
VERTEX
  8
DETAIL
  6
CONTINUOUS
 62
     5
 10
-274.76892539575863
 20
1585.6318757213542
 30
0.0
  0
VERTEX
  8
DETAIL
  6
CONTINUOUS
 62
     5
 10
-273.76844808159512
 20
1587.242898155293
 30
0.0
  0
SEQEND
  8
DETAIL
  6
CONTINUOUS
 62
     5
  0
POLYLINE
  8
DETAIL
  6
CONTINUOUS
 62
     5
 66
     1
 10
0.0
 20
0.0
 30
0.0
  0
VERTEX
  8
DETAIL
  6
CONTINUOUS
 62
     5
 10
-273.76844808159512
 20
1587.242898155293
 30
0.0
  0
VERTEX
  8
DETAIL
  6
CONTINUOUS
 62
     5
 10
-273.72841676058812
 20
1587.3132743754811
 30
0.0
  0
VERTEX
  8
DETAIL
  6
CONTINUOUS
 62
     5
 10
-273.6925889127038
 20
1587.3859491302185
 30
0.0
  0
VERTEX
  8
DETAIL
  6
CONTINUOUS
 62
     5
 10
-273.66165063166943
 20
1587.4608686595548
 30
0.0
  0
VERTEX
  8
DETAIL
  6
CONTINUOUS
 62
     5
 10
-273.63638491684117
 20
1587.5379395882649
 30
0.0
  0
VERTEX
  8
DETAIL
  6
CONTINUOUS
 62
     5
 10
-273.61801273104533
 20
1587.6168895004985
 30
0.0
  0
VERTEX
  8
DETAIL
  6
CONTINUOUS
 62
     5
 10
-273.60788398901241
 20
1587.6973887661934
 30
0.0
  0
VERTEX
  8
DETAIL
  6
CONTINUOUS
 62
     5
 10
-273.60774259892338
 20
1587.7786112278945
 30
0.0
  0
VERTEX
  8
DETAIL
  6
CONTINUOUS
 62
     5
 10
-273.61999208751456
 20
1587.8588994229144
 30
0.0
  0
VERTEX
  8
DETAIL
  6
CONTINUOUS
 62
     5
 10
-273.64666482581009
 20
1587.9359906573491
 30
0.0
  0
VERTEX
  8
DETAIL
  6
CONTINUOUS
 62
     5
 10
-273.68818145619298
 20
1588.005669019793
 30
0.0
  0
SEQEND
  8
DETAIL
  6
CONTINUOUS
 62
     5
  0
POLYLINE
  8
DETAIL
  6
CONTINUOUS
 62
     5
 66
     1
 10
0.0
 20
0.0
 30
0.0
210
0.0
220
0.0
230
1.0
  0
VERTEX
  8
DETAIL
  6
CONTINUOUS
 62
     5
 10
-298.50000000287753
 20
701.37381939665408
 30
0.0
 42
0.0805952217806686
  0
VERTEX
  8
DETAIL
  6
CONTINUOUS
 62
     5
 10
-298.34188761995478
 20
701.39947150060766
 30
0.0
 42
0.0806164233424153
  0
VERTEX
  8
DETAIL
  6
CONTINUOUS
 62
     5
 10
-298.19998781723507
 20
701.47380949732315
 30
0.0
 42
0.1164536493592763
  0
VERTEX
  8
DETAIL
  6
CONTINUOUS
 62
     5
 10
-298.0527706057967
 20
701.65020268969306
 30
0.0
 42
0.1164536493592763
  0
VERTEX
  8
DETAIL
  6
CONTINUOUS
 62
     5
 10
-298.00000000002422
 20
701.87376228338746
 30
0.0
 42
0.0000262366384806
  0
SEQEND
  8
DETAIL
  6
CONTINUOUS
 62
     5
  0
POLYLINE
  8
DETAIL
  6
CONTINUOUS
 62
     5
 66
     1
 10
0.0
 20
0.0
 30
0.0
210
0.0
220
0.0
230
1.0
  0
VERTEX
  8
DETAIL
  6
CONTINUOUS
 62
     5
 10
-304.97385747359158
 20
701.37381939654745
 30
0.0
 42
0.0806039316815739
  0
VERTEX
  8
DETAIL
  6
CONTINUOUS
 62
     5
 10
-305.00005848473279
 20
701.37347610351515
 30
0.0
 42
0.0740139799849396
  0
SEQEND
  8
DETAIL
  6
CONTINUOUS
 62
     5
  0
POLYLINE
  8
DETAIL
  6
CONTINUOUS
 62
     5
 66
     1
 10
0.0
 20
0.0
 30
0.0
210
0.0
220
0.0
230
1.0
  0
VERTEX
  8
DETAIL
  6
CONTINUOUS
 62
     5
 10
-303.99060715098938
 20
697.50000000002649
 30
0.0
 42
0.0033298800235485
  0
VERTEX
  8
DETAIL
  6
CONTINUOUS
 62
     5
 10
-303.99792315088558
 20
697.31011033726043
 30
0.0
 42
0.0318181778256968
  0
VERTEX
  8
DETAIL
  6
CONTINUOUS
 62
     5
 10
-303.99999999999233
 20
697.20210174256329
 30
0.0
 42
0.0550474243012399
  0
SEQEND
  8
DETAIL
  6
CONTINUOUS
 62
     5
  0
POLYLINE
  8
DETAIL
  6
CONTINUOUS
 62
     5
 66
     1
 10
0.0
 20
0.0
 30
0.0
210
0.0
220
0.0
230
1.0
  0
VERTEX
  8
DETAIL
  6
CONTINUOUS
 62
     5
 10
-303.99999999994151
 20
698.65099048199397
 30
0.0
 42
0.00214398704338
  0
VERTEX
  8
DETAIL
  6
CONTINUOUS
 62
     5
 10
-303.99723582959342
 20
697.98017008871409
 30
0.0
 42
0.0021305955436161
  0
VERTEX
  8
DETAIL
  6
CONTINUOUS
 62
     5
 10
-303.99233129472776
 20
697.59033031015929
 30
0.0
 42
0.0040634237727143
  0
VERTEX
  8
DETAIL
  6
CONTINUOUS
 62
     5
 10
-303.99060715097204
 20
697.50000000000887
 30
0.0
 42
0.0033544130978834
  0
SEQEND
  8
DETAIL
  6
CONTINUOUS
 62
     5
  0
LINE
  8
DETAIL
  6
CONTINUOUS
 62
     5
 10
-269.38625033046992
 20
1465.4597928967489
 30
0.0
 11
-269.38625033046992
 21
1318.483208920479
 31
0.0
  0
LINE
  8
DETAIL
  6
CONTINUOUS
 62
     5
 10
-254.38625033046989
 20
1458.9922564451481
 30
0.0
 11
-254.38625033046989
 21
1322.79363170949
 31
0.0
  0
LINE
  8
DETAIL
  6
CONTINUOUS
 62
     5
 10
-239.38625033046989
 20
1452.524719993547
 30
0.0
 11
-239.38625033046989
 21
1327.104054498499
 31
0.0
  0
LINE
  8
DETAIL
  6
CONTINUOUS
 62
     5
 10
-224.38625033046989
 20
1446.057183541948
 30
0.0
 11
-224.38625033046989
 21
1331.41447728751
 31
0.0
  0
LINE
  8
DETAIL
  6
CONTINUOUS
 62
     5
 10
326.73589771494881
 20
915.42954525302423
 30
0.0
 11
326.73589771494881
 21
768.45296127675647
 31
0.0
  0
LINE
  8
DETAIL
  6
CONTINUOUS
 62
     5
 10
311.73589771494881
 20
908.96200880142533
 30
0.0
 11
311.73589771494881
 21
772.76338406576724
 31
0.0
  0
LINE
  8
DETAIL
  6
CONTINUOUS
 62
     5
 10
296.73589771494881
 20
902.49447234982472
 30
0.0
 11
296.73589771494881
 21
777.07380685477608
 31
0.0
  0
LINE
  8
DETAIL
  6
CONTINUOUS
 62
     5
 10
281.73589771494881
 20
896.02693589822593
 30
0.0
 11
281.73589771494881
 21
781.38422964378685
 31
0.0
  0
LINE
  8
DETAIL
  6
CONTINUOUS
 62
     5
 10
-408.85356547754049
 20
94.999999999992724
 30
0.0
 11
-408.85356547754049
 21
1522.499999999993
 31
0.0
  0
LINE
  8
DETAIL
  6
CONTINUOUS
 62
     5
 10
-407.7929053057378
 20
94.999999999992724
 30
0.0
 11
-407.7929053057378
 21
1522.499999999993
 31
0.0
  0
LINE
  8
DETAIL
  6
CONTINUOUS
 62
     5
 10
407.79288113185612
 20
94.999999999992724
 30
0.0
 11
407.79288113185612
 21
1522.499999999993
 31
0.0
  0
LINE
  8
DETAIL
  6
CONTINUOUS
 62
     5
 10
408.8535413036588
 20
94.999999999992724
 30
0.0
 11
408.8535413036588
 21
1522.499999999993
 31
0.0
  0
LINE
  8
OUTLINE
  6
CONTINUOUS
 62
     3
 10
-450.49999999999272
 20
-0.000000000007276
 30
0.0
 11
-282.49999999999272
 21
-0.000000000007276
 31
0.0
  0
LINE
  8
OUTLINE
  6
CONTINUOUS
 62
     3
 10
450.50000000000722
 20
-0.000000000007276
 30
0.0
 11
282.50000000000728
 21
-0.000000000007276
 31
0.0
  0
LINE
  8
OUTLINE
  6
CONTINUOUS
 62
     3
 10
285.50000000000728
 20
2.299999999991996
 30
0.0
 11
282.50000000000728
 21
2.299999999991996
 31
0.0
  0
LINE
  8
OUTLINE
  6
CONTINUOUS
 62
     3
 10
-282.49999999999272
 20
2.299999999991996
 30
0.0
 11
-285.49999999999272
 21
2.299999999991996
 31
0.0
  0
LINE
  8
OUTLINE
  6
CONTINUOUS
 62
     3
 10
450.50000000000722
 20
57.699999999993452
 30
0.0
 11
282.50000000000728
 21
57.699999999993452
 31
0.0
  0
LINE
  8
OUTLINE
  6
CONTINUOUS
 62
     3
 10
-282.49999999999272
 20
57.699999999993452
 30
0.0
 11
-450.49999999999272
 21
57.699999999993452
 31
0.0
  0
LINE
  8
OUTLINE
  6
CONTINUOUS
 62
     3
 10
450.50000000000722
 20
59.999999999992717
 30
0.0
 11
-450.49999999999272
 21
59.999999999992717
 31
0.0
  0
LINE
  8
OUTLINE
  6
CONTINUOUS
 62
     3
 10
-454.99999999999261
 20
64.499999999992724
 30
0.0
 11
-450.49999999999272
 21
64.499999999992724
 31
0.0
  0
LINE
  8
OUTLINE
  6
CONTINUOUS
 62
     3
 10
455.00000000000722
 20
64.499999999992724
 30
0.0
 11
450.50000000000722
 21
64.499999999992724
 31
0.0
  0
LINE
  8
OUTLINE
  6
CONTINUOUS
 62
     3
 10
455.00000000000722
 20
1522.499999999993
 30
0.0
 11
455.00000000000722
 21
64.499999999992724
 31
0.0
  0
LINE
  8
OUTLINE
  6
CONTINUOUS
 62
     3
 10
450.50000000000722
 20
-0.000000000007276
 30
0.0
 11
450.50000000000722
 21
64.499999999992724
 31
0.0
  0
LINE
  8
OUTLINE
  6
CONTINUOUS
 62
     3
 10
414.7581315186107
 20
1834.5999999999931
 30
0.0
 11
414.7581315186107
 21
1817.0999999999931
 31
0.0
  0
LINE
  8
OUTLINE
  6
CONTINUOUS
 62
     3
 10
414.00000000000722
 20
1555.068379814418
 30
0.0
 11
414.00000000000722
 21
1565.479448065993
 31
0.0
  0
LINE
  8
OUTLINE
  6
CONTINUOUS
 62
     3
 10
411.18510216230789
 20
1816.449999999993
 30
0.0
 11
411.18510216230789
 21
1817.0999999999931
 31
0.0
  0
LINE
  8
OUTLINE
  6
CONTINUOUS
 62
     3
 10
409.25813151870528
 20
1838.5999999999931
 30
0.0
 11
409.25813151870528
 21
1857.5999999999931
 31
0.0
  0
LINE
  8
OUTLINE
  6
CONTINUOUS
 62
     3
 10
460.01256111890689
 20
1551.1038951757939
 30
0.0
 11
460.2709103982051
 21
1522.499999999993
 31
0.0
  0
LINE
  8
OUTLINE
  6
CONTINUOUS
 62
     3
 10
360.49577722660609
 20
1744.846313774993
 30
0.0
 11
365.02571006170911
 21
1641.0937941690929
 31
0.0
  0
LINE
  8
OUTLINE
  6
CONTINUOUS
 62
     3
 10
285.50000000000728
 20
57.699999999993452
 30
0.0
 11
285.50000000000728
 21
2.299999999991996
 31
0.0
  0
LINE
  8
OUTLINE
  6
CONTINUOUS
 62
     3
 10
282.50000000000728
 20
2.299999999991996
 30
0.0
 11
282.50000000000728
 21
-0.000000000007276
 31
0.0
  0
LINE
  8
OUTLINE
  6
CONTINUOUS
 62
     3
 10
282.50000000000728
 20
57.699999999993452
 30
0.0
 11
282.50000000000728
 21
59.999999999992717
 31
0.0
  0
LINE
  8
OUTLINE
  6
CONTINUOUS
 62
     3
 10
-367.15284503038862
 20
1765.034507127391
 30
0.0
 11
-405.79908646169491
 21
1812.7586407816921
 31
0.0
  0
LINE
  8
OUTLINE
  6
CONTINUOUS
 62
     3
 10
-411.95431669078971
 20
1815.5926699021929
 30
0.0
 11
-410.33474862439459
 21
1813.5926699021929
 31
0.0
  0
LINE
  8
OUTLINE
  6
CONTINUOUS
 62
     3
 10
410.33474862430728
 20
1813.5926699021929
 30
0.0
 11
411.95431669070967
 21
1815.5926699021929
 31
0.0
  0
LINE
  8
OUTLINE
  6
CONTINUOUS
 62
     3
 10
367.15284503030853
 20
1765.034507127391
 30
0.0
 11
405.7990864616076
 21
1812.7586407816921
 31
0.0
  0
LINE
  8
OUTLINE
  6
CONTINUOUS
 62
     3
 10
-282.49999999999272
 20
2.299999999991996
 30
0.0
 11
-282.49999999999272
 21
-0.000000000007276
 31
0.0
  0
LINE
  8
OUTLINE
  6
CONTINUOUS
 62
     3
 10
-282.49999999999272
 20
57.699999999993452
 30
0.0
 11
-282.49999999999272
 21
59.999999999992717
 31
0.0
  0
LINE
  8
OUTLINE
  6
CONTINUOUS
 62
     3
 10
-285.49999999999272
 20
2.299999999991996
 30
0.0
 11
-285.49999999999272
 21
57.699999999993452
 31
0.0
  0
LINE
  8
OUTLINE
  6
CONTINUOUS
 62
     3
 10
-360.49577722669352
 20
1744.846313774993
 30
0.0
 11
-365.0257100617892
 21
1641.0937941690929
 31
0.0
  0
LINE
  8
OUTLINE
  6
CONTINUOUS
 62
     3
 10
-409.25813151869067
 20
1838.5999999999931
 30
0.0
 11
-409.25813151869067
 21
1857.5999999999931
 31
0.0
  0
LINE
  8
OUTLINE
  6
CONTINUOUS
 62
     3
 10
-411.18510216238792
 20
1816.449999999993
 30
0.0
 11
-411.18510216238792
 21
1817.0999999999931
 31
0.0
  0
LINE
  8
OUTLINE
  6
CONTINUOUS
 62
     3
 10
-413.99999999999272
 20
1565.479448065993
 30
0.0
 11
-413.99999999999272
 21
1555.068379814418
 31
0.0
  0
LINE
  8
OUTLINE
  6
CONTINUOUS
 62
     3
 10
-414.75813151869079
 20
1834.5999999999931
 30
0.0
 11
-414.75813151869079
 21
1817.0999999999931
 31
0.0
  0
LINE
  8
OUTLINE
  6
CONTINUOUS
 62
     3
 10
460.2709103982051
 20
1522.499999999993
 30
0.0
 11
-454.99999768818083
 21
1522.499999999993
 31
0.0
  0
LINE
  8
OUTLINE
  6
CONTINUOUS
 62
     3
 10
-460.27091039829241
 20
1522.499999999993
 30
0.0
 11
-460.0125611189942
 21
1551.1038951757939
 31
0.0
  0
LINE
  8
OUTLINE
  6
CONTINUOUS
 62
     3
 10
-450.49999999999272
 20
-0.000000000007276
 30
0.0
 11
-450.49999999999272
 21
64.499999999992724
 31
0.0
  0
LINE
  8
OUTLINE
  6
CONTINUOUS
 62
     3
 10
-454.99999768818083
 20
1522.499999999993
 30
0.0
 11
-454.99999999999261
 21
64.499999999992724
 31
0.0
  0
LINE
  8
OUTLINE
  6
CONTINUOUS
 62
     3
 10
-410.14042876788881
 20
1813.499999999993
 30
0.0
 11
-407.35337838409032
 21
1813.499999999993
 31
0.0
  0
LINE
  8
OUTLINE
  6
CONTINUOUS
 62
     3
 10
407.35337838401028
 20
1813.499999999993
 30
0.0
 11
410.14042876780883
 21
1813.499999999993
 31
0.0
  0
LINE
  8
OUTLINE
  6
CONTINUOUS
 62
     3
 10
-411.76003020039201
 20
1815.999999999993
 30
0.0
 11
-411.63518190316972
 21
1815.999999999993
 31
0.0
  0
LINE
  8
OUTLINE
  6
CONTINUOUS
 62
     3
 10
411.75999744160788
 20
1815.999999999993
 30
0.0
 11
411.63518175126222
 21
1815.999999999993
 31
0.0
  0
LINE
  8
OUTLINE
  6
CONTINUOUS
 62
     3
 10
-414.75813151869079
 20
1817.0999999999931
 30
0.0
 11
-411.18510216238792
 21
1817.099999999992
 31
0.0
  0
LINE
  8
OUTLINE
  6
CONTINUOUS
 62
     3
 10
411.18510216230061
 20
1817.099999999992
 30
0.0
 11
414.7581315186107
 21
1817.0999999999931
 31
0.0
  0
LINE
  8
OUTLINE
  6
CONTINUOUS
 62
     3
 10
411.25813151870528
 20
1836.599999999992
 30
0.0
 11
412.75813523880782
 21
1836.5999999999931
 31
0.0
  0
LINE
  8
OUTLINE
  6
CONTINUOUS
 62
     3
 10
-411.25813151869079
 20
1836.5999999999931
 30
0.0
 11
-412.75811570269428
 21
1836.5999999999931
 31
0.0
  0
LINE
  8
OUTLINE
  6
CONTINUOUS
 62
     3
 10
408.75810734380502
 20
1858.0999999999931
 30
0.0
 11
-408.75813151869067
 21
1858.0999999999931
 31
0.0
  0
ARC
  8
OUTLINE
  6
CONTINUOUS
 62
     3
 10
523.63601768770604
 20
1697.9538730385941
 30
0.0
 40
168.5
 50
199.72159686133861
 51
227.91519734417801
  0
ARC
  8
OUTLINE
  6
CONTINUOUS
 62
     3
 10
456.01271342670952
 20
1551.0689890337919
 30
0.0
 40
4.0
 50
0.4999999999647253
 51
89.000000000128935
  0
ARC
  8
OUTLINE
  6
CONTINUOUS
 62
     3
 10
411.25813151870528
 20
1838.5999999999931
 30
0.0
 40
2.0
 50
180.0
 51
270.0
  0
ARC
  8
OUTLINE
  6
CONTINUOUS
 62
     3
 10
412.7581315186107
 20
1834.5999999999931
 30
0.0
 40
2.0
 50
0.0
 51
89.999893424202796
  0
ARC
  8
OUTLINE
  6
CONTINUOUS
 62
     3
 10
407.35337838401028
 20
1811.499999999993
 30
0.0
 40
2.0
 50
90.0
 51
141.00000000008839
  0
ARC
  8
OUTLINE
  6
CONTINUOUS
 62
     3
 10
408.75813151870528
 20
1857.5999999999931
 30
0.0
 40
0.5
 50
0.0
 51
90.0
  0
ARC
  8
OUTLINE
  6
CONTINUOUS
 62
     3
 10
411.63522823670792
 20
1816.450283410293
 30
0.0
 40
0.4502834127000001
 50
264.53398539953332
 51
269.99411641984352
  0
ARC
  8
OUTLINE
  6
CONTINUOUS
 62
     3
 10
411.6350989704078
 20
1816.450021985594
 30
0.0
 40
0.4499968087
 50
180.0027993172223
 51
247.6756132333328
  0
ARC
  8
OUTLINE
  6
CONTINUOUS
 62
     3
 10
411.76003020040662
 20
1815.749999999993
 30
0.0
 40
0.25
 50
321.00000000025051
 51
90.0
  0
ARC
  8
OUTLINE
  6
CONTINUOUS
 62
     3
 10
410.14046213400428
 20
1813.749999999993
 30
0.0
 40
0.25
 50
270.0
 51
321.00000000025051
  0
ARC
  8
OUTLINE
  6
CONTINUOUS
 62
     3
 10
390.46722387411143
 20
1746.154895395892
 30
0.0
 40
30.0
 50
141.0000000002504
 51
182.4999999999709
  0
ARC
  8
OUTLINE
  6
CONTINUOUS
 62
     3
 10
404.00000000000722
 20
1565.479448065993
 30
0.0
 40
10.0
 50
0.0
 51
47.915197344178019
  0
ARC
  8
OUTLINE
  6
CONTINUOUS
 62
     3
 10
-403.99999999999272
 20
1565.479448065993
 30
0.0
 40
10.0
 50
132.0848026558219
 51
180.0
  0
ARC
  8
OUTLINE
  6
CONTINUOUS
 62
     3
 10
-390.4672238740896
 20
1746.154895395892
 30
0.0
 40
30.0
 50
357.50000000002899
 51
38.999999999749519
  0
ARC
  8
OUTLINE
  6
CONTINUOUS
 62
     3
 10
-411.25813151869079
 20
1838.5999999999931
 30
0.0
 40
2.0
 50
270.0
 51
0.0
  0
ARC
  8
OUTLINE
  6
CONTINUOUS
 62
     3
 10
-412.75813151869067
 20
1834.5999999999931
 30
0.0
 40
2.0
 50
89.999546904660477
 51
180.0
  0
ARC
  8
OUTLINE
  6
CONTINUOUS
 62
     3
 10
-407.35337838409032
 20
1811.499999999993
 30
0.0
 40
2.0
 50
38.999999999911502
 51
90.0
  0
ARC
  8
OUTLINE
  6
CONTINUOUS
 62
     3
 10
-408.75813151869067
 20
1857.5999999999931
 30
0.0
 40
0.5
 50
90.0
 51
180.0
  0
ARC
  8
OUTLINE
  6
CONTINUOUS
 62
     3
 10
-411.63530469559191
 20
1816.451412965893
 30
0.0
 40
0.4514129826
 50
270.01557343180889
 51
270.84215304054862
  0
ARC
  8
OUTLINE
  6
CONTINUOUS
 62
     3
 10
-411.63509897049511
 20
1816.450021985594
 30
0.0
 40
0.4499968087
 50
292.32438676573759
 51
359.9972006830904
  0
ARC
  8
OUTLINE
  6
CONTINUOUS
 62
     3
 10
-411.76003020039201
 20
1815.749999999993
 30
0.0
 40
0.25
 50
90.0
 51
218.99999999974949
  0
ARC
  8
OUTLINE
  6
CONTINUOUS
 62
     3
 10
-410.14046213398979
 20
1813.749999999993
 30
0.0
 40
0.25
 50
218.99999999974949
 51
270.0
  0
ARC
  8
OUTLINE
  6
CONTINUOUS
 62
     3
 10
-523.63601768779336
 20
1697.9538730385941
 30
0.0
 40
168.5
 50
312.08480265582199
 51
340.27840313866142
  0
ARC
  8
OUTLINE
  6
CONTINUOUS
 62
     3
 10
-456.0127134267895
 20
1551.0689890337919
 30
0.0
 40
4.0
 50
90.999999999871036
 51
179.50000000003519
  0
POLYLINE
  8
OUTLINE
  6
CONTINUOUS
 62
     3
 66
     1
 10
0.0
 20
0.0
 30
0.0
  0
VERTEX
  8
OUTLINE
  6
CONTINUOUS
 62
     3
 10
-411.46430276508897
 20
1816.033694056292
 30
0.0
  0
VERTEX
  8
OUTLINE
  6
CONTINUOUS
 62
     3
 10
-411.48675091089859
 20
1816.025193521717
 30
0.0
  0
VERTEX
  8
OUTLINE
  6
CONTINUOUS
 62
     3
 10
-411.50971133774868
 20
1816.0178914394471
 30
0.0
  0
VERTEX
  8
OUTLINE
  6
CONTINUOUS
 62
     3
 10
-411.53308325203801
 20
1816.0118075503869
 30
0.0
  0
VERTEX
  8
OUTLINE
  6
CONTINUOUS
 62
     3
 10
-411.556765860165
 20
1816.0069615954417
 30
0.0
  0
VERTEX
  8
OUTLINE
  6
CONTINUOUS
 62
     3
 10
-411.58065836852836
 20
1816.0033733155151
 30
0.0
  0
VERTEX
  8
OUTLINE
  6
CONTINUOUS
 62
     3
 10
-411.60465998352686
 20
1816.0010624515123
 30
0.0
  0
VERTEX
  8
OUTLINE
  6
CONTINUOUS
 62
     3
 10
-411.62866991155897
 20
1816.0000487443381
 30
0.0
  0
SEQEND
  8
OUTLINE
  6
CONTINUOUS
 62
     3
  0
POLYLINE
  8
OUTLINE
  6
CONTINUOUS
 62
     3
 66
     1
 10
0.0
 20
0.0
 30
0.0
  0
VERTEX
  8
OUTLINE
  6
CONTINUOUS
 62
     3
 10
411.63266699500667
 20
1816.000007281908
 30
0.0
  0
VERTEX
  8
OUTLINE
  6
CONTINUOUS
 62
     3
 10
411.60809327406025
 20
1816.0008376681194
 30
0.0
  0
VERTEX
  8
OUTLINE
  6
CONTINUOUS
 62
     3
 10
411.58351316725975
 20
1816.0030307001027
 30
0.0
  0
VERTEX
  8
OUTLINE
  6
CONTINUOUS
 62
     3
 10
411.55903484373579
 20
1816.0065651924199
 30
0.0
  0
VERTEX
  8
OUTLINE
  6
CONTINUOUS
 62
     3
 10
411.53476647261834
 20
1816.0114199596346
 30
0.0
  0
VERTEX
  8
OUTLINE
  6
CONTINUOUS
 62
     3
 10
411.51081622303786
 20
1816.0175738163093
 30
0.0
  0
VERTEX
  8
OUTLINE
  6
CONTINUOUS
 62
     3
 10
411.48729226412479
 20
1816.0250055770077
 30
0.0
  0
VERTEX
  8
OUTLINE
  6
CONTINUOUS
 62
     3
 10
411.46430276500899
 20
1816.033694056292
 30
0.0
  0
SEQEND
  8
OUTLINE
  6
CONTINUOUS
 62
     3
  0
LINE
  8
OUTLINE
  6
CONTINUOUS
 62
     3
 10
-460.27091039829241
 20
1522.499999999993
 30
0.0
 11
-454.99999999999261
 21
1522.499999999993
 31
0.0
  0
LINE
  8
SIZE
  6
CONTINUOUS
 62
    30
 10
470.50000000000722
 20
59.99999999999271
 30
0.0
 11
766.65211120327842
 21
59.999999999992632
 31
0.0
  0
LINE
  8
SIZE
  6
CONTINUOUS
 62
    30
 10
476.08252305255149
 20
1555.068379814493
 30
0.0
 11
766.65211120327865
 21
1555.0683798144919
 31
0.0
  0
LINE
  8
SIZE
  6
CONTINUOUS
 62
    30
 10
746.65211120327842
 20
59.999999999992639
 30
0.0
 11
746.65211120327865
 21
1555.0683798144919
 31
0.0
  0
CIRCLE
  8
SIZE
  6
CONTINUOUS
 62
    30
 10
746.65211120327842
 20
59.999999999992639
 30
0.0
 40
7.5
  0
CIRCLE
  8
SIZE
  6
CONTINUOUS
 62
    30
 10
746.65211120327865
 20
1555.0683798144919
 30
0.0
 40
7.5
  0
TEXT
  8
SIZE
  6
CONTINUOUS
 62
    30
 10
726.65211120327842
 20
743.81418990724262
 30
0.0
 40
40.0
  1
1495
 50
90.0
 41
0.9
 51
0.0
  7
STANDARD
 71
     0
 72
     1
 11
726.65211120327842
 21
807.53418990724265
 31
0.0
210
0.0
220
0.0
230
1.0
  0
POINT
  8
DEFPOINTS
  6
CONTINUOUS
 62
    30
 10
450.50000000000722
 20
59.999999999992717
 30
0.0
  0
POINT
  8
DEFPOINTS
  6
CONTINUOUS
 62
    30
 10
456.08252305255149
 20
1555.068379814493
 30
0.0
  0
POINT
  8
DEFPOINTS
  6
CONTINUOUS
 62
    30
 10
746.65211120327865
 20
1555.0683798144919
 30
0.0
  0
LINE
  8
SIZE
  6
CONTINUOUS
 62
    30
 10
476.08252305255149
 20
1555.068379814493
 30
0.0
 11
766.65211120323488
 21
1555.0683798144919
 31
0.0
  0
LINE
  8
SIZE
  6
CONTINUOUS
 62
    30
 10
428.75813151870528
 20
1858.0999999999931
 30
0.0
 11
766.65211120323499
 21
1858.0999999999931
 31
0.0
  0
LINE
  8
SIZE
  6
CONTINUOUS
 62
    30
 10
746.65211120323488
 20
1555.0683798144919
 30
0.0
 11
746.65211120323511
 21
1858.0999999999931
 31
0.0
  0
CIRCLE
  8
SIZE
  6
CONTINUOUS
 62
    30
 10
746.65211120323488
 20
1555.0683798144919
 30
0.0
 40
7.5
  0
CIRCLE
  8
SIZE
  6
CONTINUOUS
 62
    30
 10
746.65211120323511
 20
1858.0999999999931
 30
0.0
 40
7.5
  0
TEXT
  8
SIZE
  6
CONTINUOUS
 62
    30
 10
726.65211120323465
 20
1656.004189907243
 30
0.0
 40
40.0
  1
303
 50
90.0
 41
0.9
 51
0.0
  7
STANDARD
 71
     0
 72
     1
 11
726.65211120323465
 21
1706.5841899072429
 31
0.0
210
0.0
220
0.0
230
1.0
  0
POINT
  8
DEFPOINTS
  6
CONTINUOUS
 62
    30
 10
456.08252305255149
 20
1555.068379814493
 30
0.0
  0
POINT
  8
DEFPOINTS
  6
CONTINUOUS
 62
    30
 10
408.75813151870528
 20
1858.0999999999931
 30
0.0
  0
POINT
  8
DEFPOINTS
  6
CONTINUOUS
 62
    30
 10
746.65211120323511
 20
1858.0999999999931
 30
0.0
  0
LINE
  8
SIZE
  6
CONTINUOUS
 62
    30
 10
428.75813151870528
 20
1858.0999999999931
 30
0.0
 11
875.50633908747147
 21
1858.0999999999931
 31
0.0
  0
LINE
  8
SIZE
  6
CONTINUOUS
 62
    30
 10
470.50000000000722
 20
59.99999999999271
 30
0.0
 11
875.50633908747113
 21
59.99999999999261
 31
0.0
  0
LINE
  8
SIZE
  6
CONTINUOUS
 62
    30
 10
855.50633908747159
 20
1858.0999999999931
 30
0.0
 11
855.50633908747102
 21
59.99999999999261
 31
0.0
  0
CIRCLE
  8
SIZE
  6
CONTINUOUS
 62
    30
 10
855.50633908747159
 20
1858.0999999999931
 30
0.0
 40
7.5
  0
CIRCLE
  8
SIZE
  6
CONTINUOUS
 62
    30
 10
855.50633908747102
 20
59.99999999999261
 30
0.0
 40
7.5
  0
TEXT
  8
SIZE
  6
CONTINUOUS
 62
    30
 10
835.50633908747125
 20
895.68999999999289
 30
0.0
 40
40.0
  1
1798
 50
90.0
 41
0.9
 51
0.0
  7
STANDARD
 71
     0
 72
     1
 11
835.50633908747125
 21
959.04999999999291
 31
0.0
210
0.0
220
0.0
230
1.0
  0
POINT
  8
DEFPOINTS
  6
CONTINUOUS
 62
    30
 10
408.75813151870528
 20
1858.0999999999931
 30
0.0
  0
POINT
  8
DEFPOINTS
  6
CONTINUOUS
 62
    30
 10
450.50000000000722
 20
59.999999999992717
 30
0.0
  0
POINT
  8
DEFPOINTS
  6
CONTINUOUS
 62
    30
 10
855.50633908747102
 20
59.99999999999261
 30
0.0
  0
LINE
  8
SIZE
  6
CONTINUOUS
 62
    30
 10
470.50000000000722
 20
-0.0000000000072816
 30
0.0
 11
875.50633908747113
 21
-0.0000000000073964
 31
0.0
  0
LINE
  8
SIZE
  6
CONTINUOUS
 62
    30
 10
470.50000000000722
 20
59.99999999999271
 30
0.0
 11
875.50633908747113
 21
59.99999999999261
 31
0.0
  0
LINE
  8
SIZE
  6
CONTINUOUS
 62
    30
 10
855.50633908747102
 20
59.99999999999261
 30
0.0
 11
855.50633908747102
 21
-0.0000000000073907
 31
0.0
  0
LINE
  8
SIZE
  6
CONTINUOUS
 62
    30
 10
855.50633908747102
 20
-0.0000000000073907
 30
0.0
 11
855.50633908747102
 21
-174.57142857143589
 31
0.0
  0
CIRCLE
  8
SIZE
  6
CONTINUOUS
 62
    30
 10
855.50633908747102
 20
59.99999999999261
 30
0.0
 40
7.5
  0
CIRCLE
  8
SIZE
  6
CONTINUOUS
 62
    30
 10
855.50633908747102
 20
-0.0000000000073907
 30
0.0
 40
7.5
  0
TEXT
  8
SIZE
  6
CONTINUOUS
 62
    30
 10
825.03014861128065
 20
-159.88571428572152
 30
0.0
 40
40.0
  1
(60)
 50
90.0
 41
0.9
 51
0.0
  7
STANDARD
 71
     0
 72
     1
 11
825.03014861128065
 21
-102.2857142857215
 31
0.0
210
0.0
220
0.0
230
1.0
  0
POINT
  8
DEFPOINTS
  6
CONTINUOUS
 62
    30
 10
450.50000000000722
 20
-0.000000000007276
 30
0.0
  0
POINT
  8
DEFPOINTS
  6
CONTINUOUS
 62
    30
 10
450.50000000000722
 20
59.999999999992717
 30
0.0
  0
POINT
  8
DEFPOINTS
  6
CONTINUOUS
 62
    30
 10
855.50633908747102
 20
59.99999999999261
 30
0.0
  0
LINE
  8
SIZE
  6
CONTINUOUS
 62
    30
 10
470.50000000000722
 20
-0.0000000000072816
 30
0.0
 11
991.45350120076887
 21
-0.0000000000074292
 31
0.0
  0
LINE
  8
SIZE
  6
CONTINUOUS
 62
    30
 10
428.75813151870528
 20
1858.0999999999931
 30
0.0
 11
991.45350120076932
 21
1858.0999999999931
 31
0.0
  0
LINE
  8
SIZE
  6
CONTINUOUS
 62
    30
 10
971.45350120076898
 20
-0.0000000000074235
 30
0.0
 11
971.45350120076944
 21
1858.0999999999931
 31
0.0
  0
CIRCLE
  8
SIZE
  6
CONTINUOUS
 62
    30
 10
971.45350120076898
 20
-0.0000000000074235
 30
0.0
 40
7.5
  0
CIRCLE
  8
SIZE
  6
CONTINUOUS
 62
    30
 10
971.45350120076944
 20
1858.0999999999931
 30
0.0
 40
7.5
  0
TEXT
  8
SIZE
  6
CONTINUOUS
 62
    30
 10
951.4535012007691
 20
866.18999999998096
 30
0.0
 40
40.0
  1
1858
 50
90.0
 41
0.9
 51
0.0
  7
STANDARD
 71
     0
 72
     1
 11
951.4535012007691
 21
929.54999999998097
 31
0.0
210
0.0
220
0.0
230
1.0
  0
POINT
  8
DEFPOINTS
  6
CONTINUOUS
 62
    30
 10
450.50000000000722
 20
-0.000000000007276
 30
0.0
  0
POINT
  8
DEFPOINTS
  6
CONTINUOUS
 62
    30
 10
408.75813151870528
 20
1858.0999999999931
 30
0.0
  0
POINT
  8
DEFPOINTS
  6
CONTINUOUS
 62
    30
 10
971.45350120076944
 20
1858.0999999999931
 30
0.0
  0
LINE
  8
BASIS
  6
DASHDOT
 62
     6
 10
0.0000000000582077
 20
-31.3610063692613
 30
0.0
 11
0.0000000000582077
 21
1892.0202212592631
 31
0.0
  0
CIRCLE
  8
ARRANGE
  6
CONTINUOUS
 62
     1
 10
0.0
 20
0.0
 30
0.0
 40
20.0
  0
LINE
  8
ARRANGE
  6
CONTINUOUS
 62
     1
 10
-28.284271247459401
 20
28.284271247463039
 30
0.0
 11
28.284271247459401
 21
-28.28427124746668
 31
0.0
  0
LINE
  8
ARRANGE
  6
CONTINUOUS
 62
     1
 10
28.28427124746668
 20
28.284271247463039
 30
0.0
 11
-28.284271247459401
 21
-28.28427124746122
 31
0.0
  0
CIRCLE
  8
FIX
  6
CONTINUOUS
 62
    11
 10
380.30000000001019
 20
-0.000000000007276
 30
0.0
 40
11.0
  0
LINE
  8
NOTE
  6
CONTINUOUS
 62
     4
 10
360.18724409454438
 20
-0.000000000007276
 30
0.0
 11
400.41275590547588
 21
-0.000000000007276
 31
0.0
  0
LINE
  8
NOTE
  6
CONTINUOUS
 62
     4
 10
380.30000000001019
 20
-20.112755905476661
 30
0.0
 11
380.30000000001019
 21
20.112755905462109
 31
0.0
  0
LINE
  8
SIZE
  6
CONTINUOUS
 62
    30
 10
380.30000000001019
 20
-40.112755905476661
 30
0.0
 11
380.30000000001019
 21
-160.34169244483931
 31
0.0
  0
LINE
  8
SIZE
  6
CONTINUOUS
 62
    30
 10
460.27091039830702
 20
1502.499999999993
 30
0.0
 11
460.27091039830691
 21
-160.34169244483931
 31
0.0
  0
LINE
  8
SIZE
  6
CONTINUOUS
 62
    30
 10
380.30000000001019
 20
-140.34169244483931
 30
0.0
 11
460.27091039830691
 21
-140.34169244483931
 31
0.0
  0
LINE
  8
SIZE
  6
CONTINUOUS
 62
    30
 10
460.27091039830691
 20
-140.34169244483931
 30
0.0
 11
588.55662468402124
 21
-140.34169244483931
 31
0.0
  0
CIRCLE
  8
SIZE
  6
CONTINUOUS
 62
    30
 10
380.30000000001019
 20
-140.34169244483931
 30
0.0
 40
7.5
  0
CIRCLE
  8
SIZE
  6
CONTINUOUS
 62
    30
 10
460.27091039830691
 20
-140.34169244483931
 30
0.0
 40
7.5
  0
TEXT
  8
SIZE
  6
CONTINUOUS
 62
    30
 10
505.57376754116405
 20
-120.3416924448393
 30
0.0
 40
40.0
  1
80
 50
0.0
 41
0.9
 51
0.0
  7
STANDARD
 71
     0
 72
     1
 11
539.41376754116402
 21
-120.3416924448393
 31
0.0
210
0.0
220
0.0
230
1.0
  0
POINT
  8
DEFPOINTS
  6
CONTINUOUS
 62
    30
 10
380.30000000001019
 20
-20.112755905476661
 30
0.0
  0
POINT
  8
DEFPOINTS
  6
CONTINUOUS
 62
    30
 10
460.27091039830702
 20
1522.499999999993
 30
0.0
  0
POINT
  8
DEFPOINTS
  6
CONTINUOUS
 62
    30
 10
460.27091039830691
 20
-140.34169244483931
 30
0.0
  0
CIRCLE
  8
FIX
  6
CONTINUOUS
 62
    11
 10
-380.2999999998865
 20
-0.000000000007276
 30
0.0
 40
11.0
  0
LINE
  8
NOTE
  6
CONTINUOUS
 62
     4
 10
-380.2999999998865
 20
-20.112755905476661
 30
0.0
 11
-380.2999999998865
 21
20.112755905462109
 31
0.0
  0
LINE
  8
SIZE
  6
CONTINUOUS
 62
    30
 10
-380.2999999998865
 20
-40.112755905476661
 30
0.0
 11
-380.2999999998865
 21
-160.34169244483931
 31
0.0
  0
LINE
  8
SIZE
  6
CONTINUOUS
 62
    30
 10
-460.27091039818328
 20
1502.499999999993
 30
0.0
 11
-460.27091039818339
 21
-160.34169244483931
 31
0.0
  0
LINE
  8
SIZE
  6
CONTINUOUS
 62
    30
 10
-380.2999999998865
 20
-140.34169244483931
 30
0.0
 11
-460.27091039818339
 21
-140.34169244483931
 31
0.0
  0
LINE
  8
SIZE
  6
CONTINUOUS
 62
    30
 10
-460.27091039818339
 20
-140.34169244483931
 30
0.0
 11
-588.55662468389767
 21
-140.34169244483931
 31
0.0
  0
CIRCLE
  8
SIZE
  6
CONTINUOUS
 62
    30
 10
-380.2999999998865
 20
-140.34169244483931
 30
0.0
 40
7.5
  0
CIRCLE
  8
SIZE
  6
CONTINUOUS
 62
    30
 10
-460.27091039818339
 20
-140.34169244483931
 30
0.0
 40
7.5
  0
TEXT
  8
SIZE
  6
CONTINUOUS
 62
    30
 10
-573.25376754104059
 20
-120.3416924448393
 30
0.0
 40
40.0
  1
80
 50
0.0
 41
0.9
 51
0.0
  7
STANDARD
 71
     0
 72
     1
 11
-539.41376754104056
 21
-120.3416924448393
 31
0.0
210
0.0
220
0.0
230
1.0
  0
POINT
  8
DEFPOINTS
  6
CONTINUOUS
 62
    30
 10
-380.2999999998865
 20
-20.112755905476661
 30
0.0
  0
POINT
  8
DEFPOINTS
  6
CONTINUOUS
 62
    30
 10
-460.27091039818328
 20
1522.499999999993
 30
0.0
  0
POINT
  8
DEFPOINTS
  6
CONTINUOUS
 62
    30
 10
-460.27091039818339
 20
-140.34169244483931
 30
0.0
  0
LINE
  8
SIZE
  6
CONTINUOUS
 62
    30
 10
-380.2999999998865
 20
-40.112755905476661
 30
0.0
 11
-380.2999999998865
 21
-160.34169244483931
 31
0.0
  0
LINE
  8
SIZE
  6
CONTINUOUS
 62
    30
 10
380.30000000001019
 20
-40.112755905476661
 30
0.0
 11
380.30000000001019
 21
-160.34169244483931
 31
0.0
  0
LINE
  8
SIZE
  6
CONTINUOUS
 62
    30
 10
-380.2999999998865
 20
-140.34169244483931
 30
0.0
 11
380.30000000001019
 21
-140.34169244483931
 31
0.0
  0
CIRCLE
  8
SIZE
  6
CONTINUOUS
 62
    30
 10
-380.2999999998865
 20
-140.34169244483931
 30
0.0
 40
7.5
  0
CIRCLE
  8
SIZE
  6
CONTINUOUS
 62
    30
 10
380.30000000001019
 20
-140.34169244483931
 30
0.0
 40
7.5
  0
TEXT
  8
SIZE
  6
CONTINUOUS
 62
    30
 10
-50.579999999938153
 20
-120.3416924448393
 30
0.0
 40
40.0
  1
760
 50
0.0
 41
0.9
 51
0.0
  7
STANDARD
 71
     0
 72
     1
 11
0.0000000000618456
 21
-120.3416924448393
 31
0.0
210
0.0
220
0.0
230
1.0
  0
POINT
  8
DEFPOINTS
  6
CONTINUOUS
 62
    30
 10
-380.2999999998865
 20
-20.112755905476661
 30
0.0
  0
POINT
  8
DEFPOINTS
  6
CONTINUOUS
 62
    30
 10
380.30000000001019
 20
-20.112755905476661
 30
0.0
  0
POINT
  8
DEFPOINTS
  6
CONTINUOUS
 62
    30
 10
380.30000000001019
 20
-140.34169244483931
 30
0.0
  0
TEXT
  8
SIZE
  6
CONTINUOUS
 62
    30
 10
-175.48681243295141
 20
-194.8653019980284
 30
0.0
 40
53.0
  1
(Mounting pitch) 
 50
0.0000025045208307
 41
0.51
  7
KAIGAI_STANDARD_1
  0
LINE
  8
NOTE
  6
CONTINUOUS
 62
     4
 10
335.80000000010477
 20
176.19999999998981
 30
0.0
 11
264.80000000010477
 21
176.19999999998981
 31
0.0
  0
LINE
  8
NOTE
  6
CONTINUOUS
 62
     4
 10
300.30000000010477
 20
140.69999999998981
 30
0.0
 11
300.30000000010477
 21
211.69999999998981
 31
0.0
  0
LINE
  8
NOTE
  6
CONTINUOUS
 62
     4
 10
252.8000000001048
 20
176.1999999999916
 30
0.0
 11
181.80000000010469
 21
176.1999999999916
 31
0.0
  0
LINE
  8
NOTE
  6
CONTINUOUS
 62
     4
 10
217.3000000001048
 20
140.6999999999916
 30
0.0
 11
217.3000000001048
 21
211.6999999999916
 31
0.0
  0
LINE
  8
SIZE
  6
CONTINUOUS
 62
    30
 10
272.80000000010477
 20
176.1999999999916
 30
0.0
 11
638.57605560164654
 21
176.19999999999149
 31
0.0
  0
LINE
  8
SIZE
  6
CONTINUOUS
 62
    30
 10
470.50000000010908
 20
59.99999999999271
 30
0.0
 11
638.57605560164654
 21
59.999999999992667
 31
0.0
  0
LINE
  8
SIZE
  6
CONTINUOUS
 62
    30
 10
618.57605560164654
 20
176.19999999999149
 30
0.0
 11
618.57605560164654
 21
59.999999999992681
 31
0.0
  0
CIRCLE
  8
SIZE
  6
CONTINUOUS
 62
    30
 10
618.57605560164654
 20
176.19999999999149
 30
0.0
 40
7.5
  0
CIRCLE
  8
SIZE
  6
CONTINUOUS
 62
    30
 10
618.57605560164654
 20
59.999999999992681
 30
0.0
 40
7.5
  0
TEXT
  8
SIZE
  6
CONTINUOUS
 62
    30
 10
598.57605560164654
 20
77.470213519777218
 30
0.0
 40
40.0
  1
116
 50
90.0
 41
0.9
 51
0.0
  7
STANDARD
 71
     0
 72
     1
 11
598.57605560164654
 21
120.4902135197772
 31
0.0
210
0.0
220
0.0
230
1.0
  0
POINT
  8
DEFPOINTS
  6
CONTINUOUS
 62
    30
 10
252.8000000001048
 20
176.1999999999916
 30
0.0
  0
POINT
  8
DEFPOINTS
  6
CONTINUOUS
 62
    30
 10
450.50000000010908
 20
59.999999999992717
 30
0.0
  0
POINT
  8
DEFPOINTS
  6
CONTINUOUS
 62
    30
 10
618.57605560164654
 20
59.999999999992681
 30
0.0
  0
LINE
  8
SIZE
  6
CONTINUOUS
 62
    30
 10
300.30000000010477
 20
231.69999999998981
 30
0.0
 11
300.30000000010477
 21
484.51904673739591
 31
0.0
  0
LINE
  8
SIZE
  6
CONTINUOUS
 62
    30
 10
460.27091039829969
 20
196.1999999999916
 30
0.0
 11
460.27091039829969
 21
484.51904673739591
 31
0.0
  0
LINE
  8
SIZE
  6
CONTINUOUS
 62
    30
 10
300.30000000010477
 20
464.51904673739591
 30
0.0
 11
460.27091039829969
 21
464.51904673739591
 31
0.0
  0
LINE
  8
SIZE
  6
CONTINUOUS
 62
    30
 10
460.27091039829969
 20
464.51904673739591
 30
0.0
 11
622.41379038688115
 21
464.51904673739591
 31
0.0
  0
CIRCLE
  8
SIZE
  6
CONTINUOUS
 62
    30
 10
300.30000000010477
 20
464.51904673739591
 30
0.0
 40
7.5
  0
CIRCLE
  8
SIZE
  6
CONTINUOUS
 62
    30
 10
460.27091039829969
 20
464.51904673739591
 30
0.0
 40
7.5
  0
TEXT
  8
SIZE
  6
CONTINUOUS
 62
    30
 10
512.57664752973824
 20
484.5190467373958
 30
0.0
 40
40.0
  1
160
 50
0.0
 41
0.9
 51
0.0
  7
STANDARD
 71
     0
 72
     1
 11
559.55664752973826
 21
484.5190467373958
 31
0.0
210
0.0
220
0.0
230
1.0
  0
POINT
  8
DEFPOINTS
  6
CONTINUOUS
 62
    30
 10
300.30000000010477
 20
211.69999999998981
 30
0.0
  0
POINT
  8
DEFPOINTS
  6
CONTINUOUS
 62
    30
 10
460.27091039829969
 20
176.1999999999916
 30
0.0
  0
POINT
  8
DEFPOINTS
  6
CONTINUOUS
 62
    30
 10
460.27091039829969
 20
464.51904673739591
 30
0.0
  0
LINE
  8
SIZE
  6
CONTINUOUS
 62
    30
 10
217.3000000001048
 20
231.6999999999916
 30
0.0
 11
217.3000000001048
 21
579.34191445290696
 31
0.0
  0
LINE
  8
SIZE
  6
CONTINUOUS
 62
    30
 10
460.27091039829969
 20
196.1999999999916
 30
0.0
 11
460.27091039829969
 21
579.34191445290696
 31
0.0
  0
LINE
  8
SIZE
  6
CONTINUOUS
 62
    30
 10
217.3000000001048
 20
559.34191445290708
 30
0.0
 11
460.27091039829969
 21
559.34191445290708
 31
0.0
  0
LINE
  8
SIZE
  6
CONTINUOUS
 62
    30
 10
460.27091039829969
 20
559.34191445290708
 30
0.0
 11
629.27093324402495
 21
559.34191445290708
 31
0.0
  0
CIRCLE
  8
SIZE
  6
CONTINUOUS
 62
    30
 10
217.3000000001048
 20
559.34191445290708
 30
0.0
 40
7.5
  0
CIRCLE
  8
SIZE
  6
CONTINUOUS
 62
    30
 10
460.27091039829969
 20
559.34191445290708
 30
0.0
 40
7.5
  0
TEXT
  8
SIZE
  6
CONTINUOUS
 62
    30
 10
512.40521895831068
 20
579.34191445290696
 30
0.0
 40
40.0
  1
243
 50
0.0
 41
0.9
 51
0.0
  7
STANDARD
 71
     0
 72
     1
 11
562.98521895831072
 21
579.34191445290696
 31
0.0
210
0.0
220
0.0
230
1.0
  0
POINT
  8
DEFPOINTS
  6
CONTINUOUS
 62
    30
 10
217.3000000001048
 20
211.6999999999916
 30
0.0
  0
POINT
  8
DEFPOINTS
  6
CONTINUOUS
 62
    30
 10
460.27091039829969
 20
176.1999999999916
 30
0.0
  0
POINT
  8
DEFPOINTS
  6
CONTINUOUS
 62
    30
 10
460.27091039829969
 20
559.34191445290708
 30
0.0
  0
LINE
  8
SIZE
  6
CONTINUOUS
 62
    30
 10
-460.27091039819061
 20
1502.499999999993
 30
0.0
 11
-460.27091039819072
 21
-306.19306902588141
 31
0.0
  0
LINE
  8
SIZE
  6
CONTINUOUS
 62
    30
 10
460.27091039830702
 20
1502.499999999993
 30
0.0
 11
460.27091039830691
 21
-306.19306902588141
 31
0.0
  0
LINE
  8
SIZE
  6
CONTINUOUS
 62
    30
 10
-460.27091039819072
 20
-286.19306902588141
 30
0.0
 11
460.27091039830691
 21
-286.19306902588141
 31
0.0
  0
CIRCLE
  8
SIZE
  6
CONTINUOUS
 62
    30
 10
-460.27091039819072
 20
-286.19306902588141
 30
0.0
 40
7.5
  0
CIRCLE
  8
SIZE
  6
CONTINUOUS
 62
    30
 10
460.27091039830691
 20
-286.19306902588141
 30
0.0
 40
7.5
  0
TEXT
  8
SIZE
  6
CONTINUOUS
 62
    30
 10
-50.579999999941791
 20
-266.19306902588141
 30
0.0
 40
40.0
  1
920
 50
0.0
 41
0.9
 51
0.0
  7
STANDARD
 71
     0
 72
     1
 11
0.0000000000582077
 21
-266.19306902588141
 31
0.0
210
0.0
220
0.0
230
1.0
  0
POINT
  8
DEFPOINTS
  6
CONTINUOUS
 62
    30
 10
-460.27091039819061
 20
1522.499999999993
 30
0.0
  0
POINT
  8
DEFPOINTS
  6
CONTINUOUS
 62
    30
 10
460.27091039830702
 20
1522.499999999993
 30
0.0
  0
POINT
  8
DEFPOINTS
  6
CONTINUOUS
 62
    30
 10
460.27091039830691
 20
-286.19306902588141
 30
0.0
  0
LINE
  8
NOTE
  6
CONTINUOUS
 62
     4
 10
-272.28766689440818
 20
1917.8675021683321
 30
0.0
 11
-222.2876668944082
 21
1917.8675021683321
 31
0.0
  0
LINE
  8
NOTE
  6
CONTINUOUS
 62
     4
 10
-222.2876668944082
 20
1958.5535891683301
 30
0.0
 11
-222.2876668944082
 21
1917.8675021683321
 31
0.0
  0
LINE
  8
NOTE
  6
CONTINUOUS
 62
     4
 10
-272.28766689440818
 20
1958.5535891683301
 30
0.0
 11
-272.28766689440818
 21
1917.8675021683321
 31
0.0
  0
LINE
  8
NOTE
  6
CONTINUOUS
 62
     4
 10
-272.28766689440818
 20
1958.5535891683301
 30
0.0
 11
-297.28766689440818
 21
1958.5535891683301
 31
0.0
  0
LINE
  8
NOTE
  6
CONTINUOUS
 62
     4
 10
-197.28766689440809
 20
1958.5535891683301
 30
0.0
 11
-222.2876668944082
 21
1958.5535891683301
 31
0.0
  0
LINE
  8
NOTE
  6
CONTINUOUS
 62
     4
 10
-197.28766689440809
 20
1958.5535891683301
 30
0.0
 11
-247.2876668944082
 21
2008.4496341683321
 31
0.0
  0
LINE
  8
NOTE
  6
CONTINUOUS
 62
     4
 10
-247.2876668944082
 20
2008.4496341683321
 30
0.0
 11
-297.28766689440818
 21
1958.5535891683301
 31
0.0
  0
LINE
  8
NOTE
  6
CONTINUOUS
 62
     4
 10
235.53742642082219
 20
1917.8675021683359
 30
0.0
 11
285.53742642082221
 21
1917.8675021683359
 31
0.0
  0
LINE
  8
NOTE
  6
CONTINUOUS
 62
     4
 10
285.53742642082221
 20
1958.5535891683339
 30
0.0
 11
285.53742642082221
 21
1917.8675021683359
 31
0.0
  0
LINE
  8
NOTE
  6
CONTINUOUS
 62
     4
 10
235.53742642082219
 20
1958.5535891683339
 30
0.0
 11
235.53742642082219
 21
1917.8675021683359
 31
0.0
  0
LINE
  8
NOTE
  6
CONTINUOUS
 62
     4
 10
235.53742642082219
 20
1958.5535891683339
 30
0.0
 11
210.53742642082219
 21
1958.5535891683339
 31
0.0
  0
LINE
  8
NOTE
  6
CONTINUOUS
 62
     4
 10
310.53742642082221
 20
1958.5535891683339
 30
0.0
 11
285.53742642082221
 21
1958.5535891683339
 31
0.0
  0
LINE
  8
NOTE
  6
CONTINUOUS
 62
     4
 10
310.53742642082221
 20
1958.5535891683339
 30
0.0
 11
260.53742642082221
 21
2008.449635168336
 31
0.0
  0
LINE
  8
NOTE
  6
CONTINUOUS
 62
     4
 10
260.53742642082221
 20
2008.449635168336
 30
0.0
 11
210.53742642082219
 21
1958.5535891683339
 31
0.0
  0
LINE
  8
NOTE
  6
CONTINUOUS
 62
     4
 10
-272.28766689440818
 20
1958.5535891683301
 30
0.0
 11
-297.28766689440818
 21
1958.5535891683301
 31
0.0
  0
TEXT
  8
NOTE
  6
CONTINUOUS
 62
     4
 10
-157.9654250083986
 20
1942.836305523497
 30
0.0
 40
53.0
  1
Discharge air
 50
0.0000025045208307
 41
0.51
  7
KAIGAI_STANDARD_1
  0
LINE
  8
NOTE
  6
CONTINUOUS
 62
     4
 10
633.98908962639689
 20
1045.8291083362531
 30
0.0
 11
633.98908962639689
 21
1095.8291083362531
 31
0.0
  0
LINE
  8
NOTE
  6
CONTINUOUS
 62
     4
 10
593.3030026264023
 20
1095.8291083362531
 30
0.0
 11
633.98908962639689
 21
1095.8291083362531
 31
0.0
  0
LINE
  8
NOTE
  6
CONTINUOUS
 62
     4
 10
593.3030026264023
 20
1045.8291083362531
 30
0.0
 11
633.98908962639689
 21
1045.8291083362531
 31
0.0
  0
LINE
  8
NOTE
  6
CONTINUOUS
 62
     4
 10
593.3030026264023
 20
1045.8291083362531
 30
0.0
 11
593.3030026264023
 21
1020.8291083362529
 31
0.0
  0
LINE
  8
NOTE
  6
CONTINUOUS
 62
     4
 10
593.3030026264023
 20
1120.8291083362531
 30
0.0
 11
593.3030026264023
 21
1095.8291083362531
 31
0.0
  0
LINE
  8
NOTE
  6
CONTINUOUS
 62
     4
 10
593.3030026264023
 20
1120.8291083362531
 30
0.0
 11
543.40695762640087
 21
1070.8291083362531
 31
0.0
  0
LINE
  8
NOTE
  6
CONTINUOUS
 62
     4
 10
543.40695762640087
 20
1070.8291083362531
 30
0.0
 11
593.3030026264023
 21
1020.8291083362529
 31
0.0
  0
LINE
  8
NOTE
  6
CONTINUOUS
 62
     4
 10
633.98908962639689
 20
1316.1644273362519
 30
0.0
 11
633.98908962639689
 21
1366.1644273362519
 31
0.0
  0
LINE
  8
NOTE
  6
CONTINUOUS
 62
     4
 10
593.3030026264023
 20
1366.1644273362519
 30
0.0
 11
633.98908962639689
 21
1366.1644273362519
 31
0.0
  0
LINE
  8
NOTE
  6
CONTINUOUS
 62
     4
 10
593.3030026264023
 20
1316.1644273362519
 30
0.0
 11
633.98908962639689
 21
1316.1644273362519
 31
0.0
  0
LINE
  8
NOTE
  6
CONTINUOUS
 62
     4
 10
593.3030026264023
 20
1316.1644273362519
 30
0.0
 11
593.3030026264023
 21
1291.1644273362531
 31
0.0
  0
LINE
  8
NOTE
  6
CONTINUOUS
 62
     4
 10
593.3030026264023
 20
1391.1644273362519
 30
0.0
 11
593.3030026264023
 21
1366.1644273362519
 31
0.0
  0
LINE
  8
NOTE
  6
CONTINUOUS
 62
     4
 10
593.3030026264023
 20
1391.1644273362519
 30
0.0
 11
543.40695662639325
 21
1341.1644273362519
 31
0.0
  0
LINE
  8
NOTE
  6
CONTINUOUS
 62
     4
 10
543.40695662639325
 20
1341.1644273362519
 30
0.0
 11
593.3030026264023
 21
1291.1644273362531
 31
0.0
  0
TEXT
  8
NOTE
  6
CONTINUOUS
 62
     4
 10
542.13468459338026
 20
1216.981031608557
 30
0.0
 40
53.0
  1
Intake
 50
0.0000025045208307
 41
0.51
  7
KAIGAI_STANDARD_1
  0
LINE
  8
NOTE
  6
CONTINUOUS
 62
     4
 10
593.3030026264023
 20
1391.1644273362519
 30
0.0
 11
593.3030026264023
 21
1366.1644273362519
 31
0.0
  0
TEXT
  8
NOTE
  6
CONTINUOUS
 62
     4
 10
545.1381599982268
 20
1151.2229171417559
 30
0.0
 40
53.0
  1
air
 50
0.0000025045208307
 41
0.51
  7
KAIGAI_STANDARD_1
  0
LINE
  8
NOTE
  6
CONTINUOUS
 62
     4
 10
-655.97773437360593
 20
1045.8291083362531
 30
0.0
 11
-655.97773437360593
 21
1095.8291083362531
 31
0.0
  0
LINE
  8
NOTE
  6
CONTINUOUS
 62
     4
 10
-615.29164737360395
 20
1095.8291083362531
 30
0.0
 11
-655.97773437360593
 21
1095.8291083362531
 31
0.0
  0
LINE
  8
NOTE
  6
CONTINUOUS
 62
     4
 10
-615.29164737360395
 20
1045.8291083362531
 30
0.0
 11
-655.97773437360593
 21
1045.8291083362531
 31
0.0
  0
LINE
  8
NOTE
  6
CONTINUOUS
 62
     4
 10
-615.29164737360395
 20
1045.8291083362531
 30
0.0
 11
-615.29164737360395
 21
1020.8291083362529
 31
0.0
  0
LINE
  8
NOTE
  6
CONTINUOUS
 62
     4
 10
-615.29164737360395
 20
1120.8291083362531
 30
0.0
 11
-615.29164737360395
 21
1095.8291083362531
 31
0.0
  0
LINE
  8
NOTE
  6
CONTINUOUS
 62
     4
 10
-615.29164737360395
 20
1120.8291083362531
 30
0.0
 11
-565.39560237360274
 21
1070.8291083362531
 31
0.0
  0
LINE
  8
NOTE
  6
CONTINUOUS
 62
     4
 10
-565.39560237360274
 20
1070.8291083362531
 30
0.0
 11
-615.29164737360395
 21
1020.8291083362529
 31
0.0
  0
LINE
  8
NOTE
  6
CONTINUOUS
 62
     4
 10
-655.97773437359865
 20
1316.1644273362519
 30
0.0
 11
-655.97773437359865
 21
1366.1644273362519
 31
0.0
  0
LINE
  8
NOTE
  6
CONTINUOUS
 62
     4
 10
-615.29164737359679
 20
1366.1644273362519
 30
0.0
 11
-655.97773437359865
 21
1366.1644273362519
 31
0.0
  0
LINE
  8
NOTE
  6
CONTINUOUS
 62
     4
 10
-615.29164737359679
 20
1316.1644273362519
 30
0.0
 11
-655.97773437359865
 21
1316.1644273362519
 31
0.0
  0
LINE
  8
NOTE
  6
CONTINUOUS
 62
     4
 10
-615.29164737359679
 20
1316.1644273362519
 30
0.0
 11
-615.29164737359679
 21
1291.1644273362531
 31
0.0
  0
LINE
  8
NOTE
  6
CONTINUOUS
 62
     4
 10
-615.29164737359679
 20
1391.1644273362519
 30
0.0
 11
-615.29164737359679
 21
1366.1644273362519
 31
0.0
  0
LINE
  8
NOTE
  6
CONTINUOUS
 62
     4
 10
-615.29164737359679
 20
1391.1644273362519
 30
0.0
 11
-565.39560137360229
 21
1341.1644273362519
 31
0.0
  0
LINE
  8
NOTE
  6
CONTINUOUS
 62
     4
 10
-565.39560137360229
 20
1341.1644273362519
 30
0.0
 11
-615.29164737359679
 21
1291.1644273362531
 31
0.0
  0
TEXT
  8
NOTE
  6
CONTINUOUS
 62
     4
 10
-726.90190076916031
 20
1216.981024939447
 30
0.0
 40
53.0
  1
Intake
 50
0.0000025045208307
 41
0.51
  7
KAIGAI_STANDARD_1
  0
TEXT
  8
NOTE
  6
CONTINUOUS
 62
     4
 10
-722.25389041230665
 20
1149.7633429986381
 30
0.0
 40
53.0
  1
air
 50
0.0000025045208307
 41
0.51
  7
KAIGAI_STANDARD_1
  0
LINE
  8
NOTE
  6
CONTINUOUS
 62
     4
 10
-400.0736504847809
 20
-23.950361961376991
 30
0.0
 11
-380.2999999998865
 21
-0.000000000007276
 31
0.0
  0
LINE
  8
NOTE
  6
CONTINUOUS
 62
     4
 10
-380.2999999998865
 20
-0.000000000007276
 30
0.0
 11
-385.44930280362308
 21
-30.62844710747413
 31
0.0
  0
LINE
  8
NOTE
  6
CONTINUOUS
 62
     4
 10
-380.2999999998865
 20
-0.000000000007276
 30
0.0
 11
-392.76147664420569
 21
-27.289404534425561
 31
0.0
  0
LINE
  8
NOTE
  6
CONTINUOUS
 62
     4
 10
-392.76147664420569
 20
-27.289404534425561
 30
0.0
 11
-517.876374216008
 21
-301.27868771273643
 31
0.0
  0
LINE
  8
NOTE
  6
CONTINUOUS
 62
     4
 10
-517.876374216008
 20
-301.27868771273643
 30
0.0
 11
-1635.6574859806999
 21
-301.27868771273643
 31
0.0
  0
TEXT
  8
NOTE
  6
CONTINUOUS
 62
     4
 10
-1628.6110932657321
 20
-279.5406011473533
 30
0.0
 40
53.0
  1
2X2-14X20 Oval hole(without detachable leg)
 50
359.99999749547919
 41
0.51
  7
KAIGAI_STANDARD_1
  0
TEXT
  8
ETC
  6
CONTINUOUS
 62
    61
 10
-1483.7992741312121
 20
2091.7669764751772
 30
0.0
 40
70.0
  1
PUHY-EM200,250YNW-A1_3
 41
0.9
  0
LINE
  8
NOTE
  6
CONTINUOUS
 62
     4
 10
-400.41275590535218
 20
-0.000000000007276
 30
0.0
 11
-360.18724409442069
 21
-0.000000000007276
 31
0.0
  0
LINE
  8
SIZE
  6
CONTINUOUS
 62
    30
 10
-470.49999999999272
 20
59.999999999992731
 30
0.0
 11
-645.68908273206034
 21
59.999999999992781
 31
0.0
  0
LINE
  8
SIZE
  6
CONTINUOUS
 62
    30
 10
-429.96357325969439
 20
94.999999999992724
 30
0.0
 11
-645.68908273206034
 21
94.999999999992795
 31
0.0
  0
LINE
  8
SIZE
  6
CONTINUOUS
 62
    30
 10
-625.68908273206034
 20
94.999999999992795
 30
0.0
 11
-625.68908273206034
 21
124.9999999999928
 31
0.0
  0
LINE
  8
SIZE
  6
CONTINUOUS
 62
    30
 10
-625.68908273206034
 20
59.999999999992781
 30
0.0
 11
-625.68908273206034
 21
-98.285714285721497
 31
0.0
  0
LINE
  8
SIZE
  6
CONTINUOUS
 62
    30
 10
-625.68908273206034
 20
94.999999999992795
 30
0.0
 11
-625.68908273206034
 21
59.999999999992781
 31
0.0
  0
CIRCLE
  8
SIZE
  6
CONTINUOUS
 62
    30
 10
-625.68908273206034
 20
94.999999999992795
 30
0.0
 40
7.5
  0
CIRCLE
  8
SIZE
  6
CONTINUOUS
 62
    30
 10
-625.68908273206034
 20
59.999999999992781
 30
0.0
 40
7.5
  0
TEXT
  8
SIZE
  6
CONTINUOUS
 62
    30
 10
-645.68908273206034
 20
-82.622857142864476
 30
0.0
 40
40.0
  1
35
 50
90.0
 41
0.9
 51
0.0
  7
STANDARD
 71
     0
 72
     1
 11
-645.68908273206034
 21
-49.142857142864457
 31
0.0
210
0.0
220
0.0
230
1.0
  0
POINT
  8
DEFPOINTS
  6
CONTINUOUS
 62
    30
 10
-450.49999999999272
 20
59.999999999992717
 30
0.0
  0
POINT
  8
DEFPOINTS
  6
CONTINUOUS
 62
    30
 10
-409.96357325969439
 20
94.999999999992724
 30
0.0
  0
POINT
  8
DEFPOINTS
  6
CONTINUOUS
 62
    30
 10
-625.68908273206034
 20
94.999999999992795
 30
0.0
  0
LINE
  8
DETAIL
  6
CONTINUOUS
 62
     5
 10
-456.08252305252961
 20
1555.068379814418
 30
0.0
 11
456.08252305244957
 21
1555.0683798144189
 31
0.0
  0
LINE
  8
OUTLINE
  6
CONTINUOUS
 62
     3
 10
-456.08252305255883
 20
1555.068379814418
 30
0.0
 11
456.08252305242058
 21
1555.0683798144189
 31
0.0
  0
LINE
  8
NOTE
  6
CONTINUOUS
 62
     4
 10
225.08937307244921
 20
146.13435916665179
 30
0.0
 11
217.3000000001048
 21
176.1999999999916
 31
0.0
  0
LINE
  8
NOTE
  6
CONTINUOUS
 62
     4
 10
217.3000000001048
 20
176.1999999999916
 30
0.0
 11
239.0786152765213
 21
154.05707769463149
 31
0.0
  0
LINE
  8
NOTE
  6
CONTINUOUS
 62
     4
 10
217.3000000001048
 20
176.1999999999916
 30
0.0
 11
232.0839941744853
 21
150.09571843064259
 31
0.0
  0
LINE
  8
NOTE
  6
CONTINUOUS
 62
     4
 10
232.0839941744853
 20
150.09571843064259
 30
0.0
 11
627.23818355870753
 21
-547.63292657042075
 31
0.0
  0
LINE
  8
NOTE
  6
CONTINUOUS
 62
     4
 10
627.23818355870753
 20
-547.63292657042075
 30
0.0
 11
1365.5570554416411
 21
-547.63292657042075
 31
0.0
  0
LINE
  8
NOTE
  6
CONTINUOUS
 62
     4
 10
307.94808126892889
 20
146.09810729396671
 30
0.0
 11
300.30000000010477
 21
176.19999999998981
 31
0.0
  0
LINE
  8
NOTE
  6
CONTINUOUS
 62
     4
 10
300.30000000010477
 20
176.19999999998981
 30
0.0
 11
321.97437892120797
 21
153.95503675066351
 31
0.0
  0
LINE
  8
NOTE
  6
CONTINUOUS
 62
     4
 10
300.30000000010477
 20
176.19999999998981
 30
0.0
 11
314.96123009506852
 21
150.02657202231421
 31
0.0
  0
LINE
  8
NOTE
  6
CONTINUOUS
 62
     4
 10
314.96123009506852
 20
150.02657202231421
 30
0.0
 11
600.11775740769372
 21
-359.03875071240691
 31
0.0
  0
LINE
  8
NOTE
  6
CONTINUOUS
 62
     4
 10
600.11775740769372
 20
-359.03875071240691
 30
0.0
 11
1365.5570554416411
 21
-359.03875071240691
 31
0.0
  0
TEXT
  8
NOTE
  6
CONTINUOUS
 62
     4
 10
640.96523133134178
 20
-526.03378166878974
 30
0.0
 40
53.0
  1
Service valve %%C22.2<Gas> 
 50
0.0000025045208307
 41
0.51
  7
KAIGAI_STANDARD_1
  0
TEXT
  8
NOTE
  6
CONTINUOUS
 62
     4
 10
644.59053569834941
 20
-447.78139470565651
 30
0.0
 40
53.0
  1
For Refrigerant pipe %%C22.2
 50
0.0000025045208307
 41
0.51
  7
KAIGAI_STANDARD_1
  0
TEXT
  8
NOTE
  6
CONTINUOUS
 62
     4
 10
639.40614610690682
 20
-336.8940509173845
 30
0.0
 40
53.0
  1
Service valve %%C9.52<Liquid> 
 50
0.0000025045208307
 41
0.51
  7
KAIGAI_STANDARD_1
  0
TEXT
  8
NOTE
  6
CONTINUOUS
 62
     4
 10
640.50210764059011
 20
-258.64165922809661
 30
0.0
 40
53.0
  1
For Refrigerant pipe %%C9.52 
 50
0.0000025045208307
 41
0.51
  7
KAIGAI_STANDARD_1
  0
ENDSEC
  0
EOF

