  0
SECTION
  2
HEADER
  9
$ACADVER
  1
AC1015
  9
$ACADMAINTVER
 70
     6
  9
$DWGCODEPAGE
  3
ANSI_932
  9
$INSBASE
 10
0.0
 20
0.0
 30
0.0
  9
$EXTMIN
 10
-3423.0574265619
 20
-1058.58154521665
 30
-0.0015258207003583
  9
$EXTMAX
 10
-1485.031238306284
 20
594.7055460832671
 30
0.0000000349246037
  9
$LIMMIN
 10
-4267.152221060482
 20
-2696.083210198413
  9
$LIMMAX
 10
7190.717422586465
 20
5141.155363923066
  9
$ORTHOMODE
 70
     0
  9
$REGENMODE
 70
     1
  9
$FILLMODE
 70
     1
  9
$QTEXTMODE
 70
     0
  9
$MIRRTEXT
 70
     0
  9
$LTSCALE
 40
20.0
  9
$ATTMODE
 70
     1
  9
$TEXTSIZE
 40
60.0
  9
$TRACEWID
 40
0.05
  9
$TEXTSTYLE
  7
STANDARD1
  9
$CLAYER
  8
NOTE
  9
$CELTYPE
  6
BYLAYER
  9
$CECOLOR
 62
   256
  9
$CELTSCALE
 40
1.0
  9
$DISPSILH
 70
     0
  9
$DIMSCALE
 40
1.0
  9
$DIMASZ
 40
30.0
  9
$DIMEXO
 40
20.0
  9
$DIMDLI
 40
80.0
  9
$DIMRND
 40
0.0
  9
$DIMDLE
 40
0.0
  9
$DIMEXE
 40
20.0
  9
$DIMTP
 40
0.0
  9
$DIMTM
 40
0.0
  9
$DIMTXT
 40
40.0
  9
$DIMCEN
 40
0.09
  9
$DIMTSZ
 40
0.0
  9
$DIMTOL
 70
     0
  9
$DIMLIM
 70
     0
  9
$DIMTIH
 70
     0
  9
$DIMTOH
 70
     0
  9
$DIMSE1
 70
     0
  9
$DIMSE2
 70
     0
  9
$DIMTAD
 70
     1
  9
$DIMZIN
 70
     8
  9
$DIMBLK
  1
Small
  9
$DIMASO
 70
     1
  9
$DIMSHO
 70
     0
  9
$DIMPOST
  1

  9
$DIMAPOST
  1

  9
$DIMALT
 70
     0
  9
$DIMALTD
 70
     2
  9
$DIMALTF
 40
25.4
  9
$DIMLFAC
 40
1.0
  9
$DIMTOFL
 70
     1
  9
$DIMTVP
 40
0.0
  9
$DIMTIX
 70
     0
  9
$DIMSOXD
 70
     0
  9
$DIMSAH
 70
     0
  9
$DIMBLK1
  1

  9
$DIMBLK2
  1

  9
$DIMSTYLE
  2
kaigai_CADSYMBOL
  9
$DIMCLRD
 70
     0
  9
$DIMCLRE
 70
     0
  9
$DIMCLRT
 70
     0
  9
$DIMTFAC
 40
1.0
  9
$DIMGAP
 40
20.0
  9
$DIMJUST
 70
     0
  9
$DIMSD1
 70
     0
  9
$DIMSD2
 70
     0
  9
$DIMTOLJ
 70
     1
  9
$DIMTZIN
 70
     0
  9
$DIMALTZ
 70
     0
  9
$DIMALTTZ
 70
     0
  9
$DIMUPT
 70
     0
  9
$DIMDEC
 70
     1
  9
$DIMTDEC
 70
     1
  9
$DIMALTU
 70
     2
  9
$DIMALTTD
 70
     2
  9
$DIMTXSTY
  7
STANDARD
  9
$DIMAUNIT
 70
     0
  9
$DIMADEC
 70
     0
  9
$DIMALTRND
 40
0.0
  9
$DIMAZIN
 70
     2
  9
$DIMDSEP
 70
    46
  9
$DIMATFIT
 70
     3
  9
$DIMFRAC
 70
     0
  9
$DIMLDRBLK
  1
Open30
  9
$DIMLUNIT
 70
     2
  9
$DIMLWD
 70
    -2
  9
$DIMLWE
 70
    -2
  9
$DIMTMOVE
 70
     0
  9
$LUNITS
 70
     2
  9
$LUPREC
 70
     4
  9
$SKETCHINC
 40
0.1
  9
$FILLETRAD
 40
0.0
  9
$AUNITS
 70
     1
  9
$AUPREC
 70
     3
  9
$MENU
  1
ACAD
  9
$ELEVATION
 40
0.0
  9
$PELEVATION
 40
0.0
  9
$THICKNESS
 40
0.0
  9
$LIMCHECK
 70
     0
  9
$CHAMFERA
 40
0.0
  9
$CHAMFERB
 40
0.0
  9
$CHAMFERC
 40
0.0
  9
$CHAMFERD
 40
0.0
  9
$SKPOLY
 70
     0
  9
$TDCREATE
 40
2455902.607169062
  9
$TDUCREATE
 40
2455902.232169062
  9
$TDUPDATE
 40
2459459.516768634
  9
$TDUUPDATE
 40
2459459.141768634
  9
$TDINDWG
 40
1.6968386806
  9
$TDUSRTIMER
 40
1.6968350579
  9
$USRTIMER
 70
     1
  9
$ANGBASE
 50
0.0
  9
$ANGDIR
 70
     0
  9
$PDMODE
 70
     3
  9
$PDSIZE
 40
-2.0
  9
$PLINEWID
 40
0.0
  9
$SPLFRAME
 70
     0
  9
$SPLINETYPE
 70
     6
  9
$SPLINESEGS
 70
     8
  9
$HANDSEED
  5
9B715
  9
$SURFTAB1
 70
     6
  9
$SURFTAB2
 70
     6
  9
$SURFTYPE
 70
     6
  9
$SURFU
 70
     6
  9
$SURFV
 70
     6
  9
$UCSBASE
  2

  9
$UCSNAME
  2

  9
$UCSORG
 10
0.0
 20
0.0
 30
0.0
  9
$UCSXDIR
 10
1.0
 20
0.0
 30
0.0
  9
$UCSYDIR
 10
0.0
 20
1.0
 30
0.0
  9
$UCSORTHOREF
  2

  9
$UCSORTHOVIEW
 70
     0
  9
$UCSORGTOP
 10
0.0
 20
0.0
 30
0.0
  9
$UCSORGBOTTOM
 10
0.0
 20
0.0
 30
0.0
  9
$UCSORGLEFT
 10
0.0
 20
0.0
 30
0.0
  9
$UCSORGRIGHT
 10
0.0
 20
0.0
 30
0.0
  9
$UCSORGFRONT
 10
0.0
 20
0.0
 30
0.0
  9
$UCSORGBACK
 10
0.0
 20
0.0
 30
0.0
  9
$PUCSBASE
  2

  9
$PUCSNAME
  2

  9
$PUCSORG
 10
0.0
 20
0.0
 30
0.0
  9
$PUCSXDIR
 10
1.0
 20
0.0
 30
0.0
  9
$PUCSYDIR
 10
0.0
 20
1.0
 30
0.0
  9
$PUCSORTHOREF
  2

  9
$PUCSORTHOVIEW
 70
     0
  9
$PUCSORGTOP
 10
0.0
 20
0.0
 30
0.0
  9
$PUCSORGBOTTOM
 10
0.0
 20
0.0
 30
0.0
  9
$PUCSORGLEFT
 10
0.0
 20
0.0
 30
0.0
  9
$PUCSORGRIGHT
 10
0.0
 20
0.0
 30
0.0
  9
$PUCSORGFRONT
 10
0.0
 20
0.0
 30
0.0
  9
$PUCSORGBACK
 10
0.0
 20
0.0
 30
0.0
  9
$USERI1
 70
     0
  9
$USERI2
 70
     0
  9
$USERI3
 70
     0
  9
$USERI4
 70
     0
  9
$USERI5
 70
     0
  9
$USERR1
 40
20.0
  9
$USERR2
 40
0.0
  9
$USERR3
 40
0.0
  9
$USERR4
 40
0.0
  9
$USERR5
 40
0.0
  9
$WORLDVIEW
 70
     1
  9
$SHADEDGE
 70
     3
  9
$SHADEDIF
 70
    70
  9
$TILEMODE
 70
     1
  9
$MAXACTVP
 70
    48
  9
$PINSBASE
 10
0.0
 20
0.0
 30
0.0
  9
$PLIMCHECK
 70
     0
  9
$PEXTMIN
 10
1.000000000000000E+20
 20
1.000000000000000E+20
 30
1.000000000000000E+20
  9
$PEXTMAX
 10
-1.000000000000000E+20
 20
-1.000000000000000E+20
 30
-1.000000000000000E+20
  9
$PLIMMIN
 10
0.0
 20
0.0
  9
$PLIMMAX
 10
12.0
 20
9.0
  9
$UNITMODE
 70
     0
  9
$VISRETAIN
 70
     1
  9
$PLINEGEN
 70
     0
  9
$PSLTSCALE
 70
     1
  9
$TREEDEPTH
 70
  3020
  9
$CMLSTYLE
  2
STANDARD
  9
$CMLJUST
 70
     0
  9
$CMLSCALE
 40
1.0
  9
$PROXYGRAPHICS
 70
     1
  9
$MEASUREMENT
 70
     0
  9
$CELWEIGHT
370
    -1
  9
$ENDCAPS
280
     0
  9
$JOINSTYLE
280
     0
  9
$LWDISPLAY
290
     0
  9
$INSUNITS
 70
     0
  9
$HYPERLINKBASE
  1

  9
$STYLESHEET
  1
monochrome.ctb
  9
$XEDIT
290
     1
  9
$CEPSNTYPE
380
     0
  9
$PSTYLEMODE
290
     1
  9
$FINGERPRINTGUID
  2
{E0B14F79-3871-45BD-B89A-A0F693FE2771}
  9
$VERSIONGUID
  2
{F3B8F382-100D-4804-839B-42B69A240302}
  9
$EXTNAMES
290
     1
  9
$PSVPSCALE
 40
0.0
  9
$OLESTARTUP
290
     0
  0
ENDSEC
  0
SECTION
  2
CLASSES
  0
CLASS
  1
ACDBDICTIONARYWDFLT
  2
AcDbDictionaryWithDefault
  3
ObjectDBX Classes
 90
        0
280
     0
281
     0
  0
CLASS
  1
ACDBPLACEHOLDER
  2
AcDbPlaceHolder
  3
ObjectDBX Classes
 90
        0
280
     0
281
     0
  0
CLASS
  1
LAYOUT
  2
AcDbLayout
  3
ObjectDBX Classes
 90
        0
280
     0
281
     0
  0
CLASS
  1
DICTIONARYVAR
  2
AcDbDictionaryVar
  3
ObjectDBX Classes
 90
        0
280
     0
281
     0
  0
CLASS
  1
SORTENTSTABLE
  2
AcDbSortentsTable
  3
ObjectDBX Classes
 90
        0
280
     0
281
     0
  0
CLASS
  1
MATERIAL
  2
AcDbMaterial
  3
ObjectDBX Classes
 90
     1153
280
     0
281
     0
  0
CLASS
  1
VISUALSTYLE
  2
AcDbVisualStyle
  3
ObjectDBX Classes
 90
     4095
280
     0
281
     0
  0
CLASS
  1
TABLESTYLE
  2
AcDbTableStyle
  3
ObjectDBX Classes
 90
     4095
280
     0
281
     0
  0
CLASS
  1
SCALE
  2
AcDbScale
  3
ObjectDBX Classes
 90
     1153
280
     0
281
     0
  0
CLASS
  1
MLEADERSTYLE
  2
AcDbMLeaderStyle
  3
ACDB_MLEADERSTYLE_CLASS
 90
     4095
280
     0
281
     0
  0
CLASS
  1
CELLSTYLEMAP
  2
AcDbCellStyleMap
  3
ObjectDBX Classes
 90
     1152
280
     0
281
     0
  0
CLASS
  1
ACARRAYJIGENTITY
  2
AcArrayJigEntity
  3
ACAD_ARRAY
 90
      129
280
     1
281
     1
  0
CLASS
  1
ACDBASSOCNETWORK
  2
AcDbAssocNetwork
  3
ObjectDBX Classes
 90
     1025
280
     1
281
     0
  0
CLASS
  1
ACDBASSOCACTION
  2
AcDbAssocAction
  3
ObjectDBX Classes
 90
     1025
280
     1
281
     0
  0
CLASS
  1
ACDBASSOCARRAYACTIONBODY
  2
AcDbAssocArrayActionBody
  3
ObjectDBX Classes
 90
     1025
280
     1
281
     0
  0
CLASS
  1
ACDBASSOCVERTEXACTIONPARAM
  2
AcDbAssocVertexActionParam
  3
ObjectDBX Classes
 90
     1025
280
     1
281
     0
  0
CLASS
  1
ACDBASSOCDEPENDENCY
  2
AcDbAssocDependency
  3
ObjectDBX Classes
 90
     1025
280
     1
281
     0
  0
CLASS
  1
ACDBASSOCARRAYRECTANGULARPARAMETERS
  2
AcDbAssocArrayRectangularParameters
  3
ObjectDBX Classes
 90
     1025
280
     1
281
     0
  0
CLASS
  1
ACAD_EVALUATION_GRAPH
  2
AcDbEvalGraph
  3
ObjectDBX Classes
 90
     1153
280
     1
281
     0
  0
CLASS
  1
ACAECUSTOBJ
  2
AcAeEditorObj
  3
AcAeEditorObj
 90
     1024
280
     1
281
     0
  0
CLASS
  1
ACDB_DYNAMICBLOCKPURGEPREVENTER_VERSION
  2
AcDbDynamicBlockPurgePreventer
  3
ObjectDBX Classes
 90
     1153
280
     1
281
     0
  0
CLASS
  1
ACDBSECTIONVIEWSTYLE
  2
AcDbSectionViewStyle
  3
ObjectDBX Classes
 90
     1025
280
     0
281
     0
  0
CLASS
  1
ACDBDETAILVIEWSTYLE
  2
AcDbDetailViewStyle
  3
ObjectDBX Classes
 90
     1025
280
     0
281
     0
  0
ENDSEC
  0
SECTION
  2
TABLES
  0
TABLE
  2
VPORT
  5
8
102
{ACAD_XDICTIONARY
360
70D15
102
}
330
0
100
AcDbSymbolTable
 70
     1
  0
VPORT
  5
513CD
330
8
100
AcDbSymbolTableRecord
100
AcDbViewportTableRecord
  2
*Active
 70
     0
 10
0.0
 20
0.0
 11
1.0
 21
1.0
 12
-2454.044332434092
 22
-231.9379995666913
 13
0.0
 23
0.0
 14
50.0
 24
50.0
 15
100.0
 25
100.0
 16
0.0
 26
0.0
 36
1.0
 17
0.0
 27
0.0
 37
0.0
 40
1666.30509989283
 41
2.446780551905387
 42
50.0
 43
0.0
 44
0.0
 50
0.0
 51
0.0
 71
     0
 72
  1000
 73
     1
 74
     0
 75
     0
 76
     0
 77
     0
 78
     0
281
     0
 65
     1
110
0.0
120
0.0
130
0.0
111
1.0
121
0.0
131
0.0
112
0.0
122
1.0
132
0.0
 79
     0
146
0.0
1001
ACAD_NAV_VCDISPLAY
1070
     3
  0
ENDTAB
  0
TABLE
  2
LTYPE
  5
5
330
0
100
AcDbSymbolTable
 70
     2
  0
LTYPE
  5
12
330
5
100
AcDbSymbolTableRecord
100
AcDbLinetypeTableRecord
  2
BYBLOCK
 70
     0
  3

 72
    65
 73
     0
 40
0.0
  0
LTYPE
  5
13
330
5
100
AcDbSymbolTableRecord
100
AcDbLinetypeTableRecord
  2
BYLAYER
 70
     0
  3

 72
    65
 73
     0
 40
0.0
  0
LTYPE
  5
14
330
5
100
AcDbSymbolTableRecord
100
AcDbLinetypeTableRecord
  2
CONTINUOUS
 70
     0
  3
実線
 72
    65
 73
     0
 40
0.0
  0
LTYPE
  5
1F
330
5
100
AcDbSymbolTableRecord
100
AcDbLinetypeTableRecord
  2
DASHDOT
 70
     0
  3
____ _ ____ _ ____ _ ____ _ ____ _ ____ _ ____
 72
    65
 73
     4
 40
5.5
 49
4.0
 74
     0
 49
-0.6
 74
     0
 49
0.3
 74
     0
 49
-0.6
 74
     0
  0
ENDTAB
  0
TABLE
  2
LAYER
  5
2
102
{ACAD_XDICTIONARY
360
5148D
102
}
330
0
100
AcDbSymbolTable
 70
    12
  0
LAYER
  5
E
102
{ACAD_XDICTIONARY
360
5144C
102
}
330
2
100
AcDbSymbolTableRecord
100
AcDbLayerTableRecord
  2
0
 70
     0
 62
     7
  6
CONTINUOUS
370
    -3
390
21F0
  0
LAYER
  5
25
102
{ACAD_XDICTIONARY
360
5144E
102
}
330
2
100
AcDbSymbolTableRecord
100
AcDbLayerTableRecord
  2
OUTLINE
 70
     0
 62
     3
  6
CONTINUOUS
370
    -3
390
21F0
  0
LAYER
  5
26
102
{ACAD_XDICTIONARY
360
51450
102
}
330
2
100
AcDbSymbolTableRecord
100
AcDbLayerTableRecord
  2
DETAIL
 70
     0
 62
     5
  6
CONTINUOUS
370
    -3
390
21F0
  0
LAYER
  5
27
102
{ACAD_XDICTIONARY
360
51452
102
}
330
2
100
AcDbSymbolTableRecord
100
AcDbLayerTableRecord
  2
BASIS
 70
     0
 62
     6
  6
DASHDOT
370
    -3
390
21F0
  0
LAYER
  5
28
102
{ACAD_XDICTIONARY
360
51454
102
}
330
2
100
AcDbSymbolTableRecord
100
AcDbLayerTableRecord
  2
SIZE
 70
     0
 62
    30
  6
CONTINUOUS
370
    -3
390
21F0
  0
LAYER
  5
29
102
{ACAD_XDICTIONARY
360
51456
102
}
330
2
100
AcDbSymbolTableRecord
100
AcDbLayerTableRecord
  2
NOTE
 70
     0
 62
     4
  6
CONTINUOUS
370
    -3
390
21F0
  0
LAYER
  5
2A
330
2
100
AcDbSymbolTableRecord
100
AcDbLayerTableRecord
  2
DEFPOINTS
 70
     0
 62
     7
  6
CONTINUOUS
290
     0
370
    -3
390
21F0
  0
LAYER
  5
2B
102
{ACAD_XDICTIONARY
360
51458
102
}
330
2
100
AcDbSymbolTableRecord
100
AcDbLayerTableRecord
  2
FIX
 70
     0
 62
    11
  6
CONTINUOUS
370
    -3
390
21F0
  0
LAYER
  5
2C
102
{ACAD_XDICTIONARY
360
5145A
102
}
330
2
100
AcDbSymbolTableRecord
100
AcDbLayerTableRecord
  2
ARRANGE
 70
     0
 62
     1
  6
CONTINUOUS
370
    -3
390
21F0
  0
LAYER
  5
2D
102
{ACAD_XDICTIONARY
360
5145C
102
}
330
2
100
AcDbSymbolTableRecord
100
AcDbLayerTableRecord
  2
ETC
 70
     0
 62
    61
  6
CONTINUOUS
370
    -3
390
21F0
  0
LAYER
  5
85433
330
2
100
AcDbSymbolTableRecord
100
AcDbLayerTableRecord
  2
SERVICESPACE
 70
     0
 62
     2
  6
DASHDOT
370
    -3
390
21F0
  0
LAYER
  5
85435
330
2
100
AcDbSymbolTableRecord
100
AcDbLayerTableRecord
  2
SYMBOLLINE
 70
     0
 62
    15
  6
CONTINUOUS
370
    -3
390
21F0
  0
ENDTAB
  0
TABLE
  2
STYLE
  5
3
330
0
100
AcDbSymbolTable
 70
     5
  0
STYLE
  5
F
330
3
100
AcDbSymbolTableRecord
100
AcDbTextStyleTableRecord
  2
STANDARD
 70
     0
 40
0.0
 41
0.9
 50
0.0
 71
     0
 42
64.0
  3
SIMPLEX
  4
BIGFONT
  0
STYLE
  5
30
330
3
100
AcDbSymbolTableRecord
100
AcDbTextStyleTableRecord
  2
STANDARD1
 70
     0
 40
60.0
 41
0.7
 50
0.0
 71
     0
 42
60.0
  3
MONOTXT.shx
  4
BIGFONT.shx
  0
STYLE
  5
51425
330
3
100
AcDbSymbolTableRecord
100
AcDbTextStyleTableRecord
  2
STANDARD_MODELNAME
 70
     0
 40
80.0
 41
0.8
 50
0.0
 71
     0
 42
64.0
  3
MONOTXT.shx
  4
BIGFONT.shx
  0
STYLE
  5
6FACE
330
3
100
AcDbSymbolTableRecord
100
AcDbTextStyleTableRecord
  2
kaigai_standard_1
 70
     0
 40
53.0
 41
0.51
 50
0.0
 71
     0
 42
53.0
  3
MONOTXT.shx
  4
BIGFONT.shx
  0
STYLE
  5
9B34A
330
3
100
AcDbSymbolTableRecord
100
AcDbTextStyleTableRecord
  2
note
 70
     0
 40
0.0
 41
0.7
 50
0.0
 71
     0
 42
64.0
  3
SIMPLEX.shx
  4
BIGFONT.shx
  0
ENDTAB
  0
TABLE
  2
VIEW
  5
6
330
0
100
AcDbSymbolTable
 70
     1
  0
VIEW
  5
31
330
6
100
AcDbSymbolTableRecord
100
AcDbViewTableRecord
  2
ALL
 70
     0
 40
9000.0
 10
241.506647
 20
0.0
 41
12483.01
 11
0.0
 21
0.0
 31
1.0
 12
0.0
 22
0.0
 32
0.0
 42
50.0
 43
0.0
 44
0.0
 50
0.0
 71
     0
281
     0
 72
     0
  0
ENDTAB
  0
TABLE
  2
UCS
  5
7
330
0
100
AcDbSymbolTable
 70
     0
  0
ENDTAB
  0
TABLE
  2
APPID
  5
9
330
0
100
AcDbSymbolTable
 70
    16
  0
APPID
  5
10
330
9
100
AcDbSymbolTableRecord
100
AcDbRegAppTableRecord
  2
ACAD
 70
     0
  0
APPID
  5
51420
330
9
100
AcDbSymbolTableRecord
100
AcDbRegAppTableRecord
  2
ACAD_MLEADERVER
 70
     0
  0
APPID
  5
51424
330
9
100
AcDbSymbolTableRecord
100
AcDbRegAppTableRecord
  2
AcadAnnoPO
 70
     0
  0
APPID
  5
6B6C8
330
9
100
AcDbSymbolTableRecord
100
AcDbRegAppTableRecord
  2
ACAD_PSEXT
 70
     0
  0
APPID
  5
6CFAF
330
9
100
AcDbSymbolTableRecord
100
AcDbRegAppTableRecord
  2
ACAD_EXEMPT_FROM_CAD_STANDARDS
 70
     0
  0
APPID
  5
6E4A4
330
9
100
AcDbSymbolTableRecord
100
AcDbRegAppTableRecord
  2
ACAD_DSTYLE_DIMJAG
 70
     0
  0
APPID
  5
6E4A5
330
9
100
AcDbSymbolTableRecord
100
AcDbRegAppTableRecord
  2
ACAD_DSTYLE_DIMTALN
 70
     0
  0
APPID
  5
6EF6C
330
9
100
AcDbSymbolTableRecord
100
AcDbRegAppTableRecord
  2
ACAD_DSTYLE_DIMBREAK
 70
     0
  0
APPID
  5
70D0F
330
9
100
AcDbSymbolTableRecord
100
AcDbRegAppTableRecord
  2
ACAD_NAV_VCDISPLAY
 70
     0
  0
APPID
  5
990C9
330
9
100
AcDbSymbolTableRecord
100
AcDbRegAppTableRecord
  2
ACAUTHENVIRON
 70
     0
  0
APPID
  5
990CD
330
9
100
AcDbSymbolTableRecord
100
AcDbRegAppTableRecord
  2
AcDbDynamicBlockTrueName
 70
     0
  0
APPID
  5
990CE
330
9
100
AcDbSymbolTableRecord
100
AcDbRegAppTableRecord
  2
AcDbDynamicBlockGUID
 70
     0
  0
APPID
  5
9B6CC
330
9
100
AcDbSymbolTableRecord
100
AcDbRegAppTableRecord
  2
ACAD_DSTYLE_DIM_LINETYPE
 70
     0
  0
APPID
  5
9B6CD
330
9
100
AcDbSymbolTableRecord
100
AcDbRegAppTableRecord
  2
ACAD_DSTYLE_DIM_EXT1_LINETYPE
 70
     0
  0
APPID
  5
9B6CE
330
9
100
AcDbSymbolTableRecord
100
AcDbRegAppTableRecord
  2
ACAD_DSTYLE_DIM_EXT2_LINETYPE
 70
     0
  0
APPID
  5
9B6CF
330
9
100
AcDbSymbolTableRecord
100
AcDbRegAppTableRecord
  2
ACAD_DSTYLE_DIMARC_LENGTH_SYMBOL
 70
     0
  0
ENDTAB
  0
TABLE
  2
DIMSTYLE
  5
A
330
0
100
AcDbSymbolTable
 70
     4
100
AcDbDimStyleTable
  0
DIMSTYLE
105
138
330
A
100
AcDbSymbolTableRecord
100
AcDbDimStyleTableRecord
  2
STANDARD
 70
     0
 73
     0
 74
     0
 77
     1
140
40.0
147
15.0
178
     0
340
F
1001
ACAD_DSTYLE_DIMJAG
1070
   388
1040
1.5
1001
ACAD_DSTYLE_DIMTALN
1070
   392
1070
     0
  0
DIMSTYLE
105
6EF6D
330
A
100
AcDbSymbolTableRecord
100
AcDbDimStyleTableRecord
  2
kaigai_CADSYMBOL
 70
     0
 41
30.0
 42
20.0
 43
80.0
 44
20.0
 73
     0
 74
     0
 77
     1
 78
     8
 79
     2
140
40.0
147
20.0
172
     1
178
     0
271
     1
272
     1
340
F
341
4C0C3
342
4C0BF
1001
ACAD_DSTYLE_DIMBREAK
1070
   391
1040
0.125
1001
ACAD_DSTYLE_DIMJAG
1070
   388
1040
1.5
1001
ACAD_DSTYLE_DIMTALN
1070
   392
1070
     0
  0
DIMSTYLE
105
9B34B
330
A
100
AcDbSymbolTableRecord
100
AcDbDimStyleTableRecord
  2
CADSYMBOL
 70
     0
 41
20.0
 42
15.0
 43
50.0
 44
5.0
 73
     0
 74
     0
 77
     1
 78
     8
 79
     2
140
30.0
147
15.0
172
     1
176
   256
177
   256
271
     1
178
   256
271
     1
272
     1
340
F
341
4C0C3
342
4C0BF
371
    -1
372
    -1
1001
ACAD_DSTYLE_DIMJAG
1070
   388
1040
1.5
1001
ACAD_DSTYLE_DIMTALN
1070
   392
1070
     0
1001
ACAD_DSTYLE_DIM_LINETYPE
1070
   380
1005
13
1001
ACAD_DSTYLE_DIM_EXT1_LINETYPE
1070
   381
1005
13
1001
ACAD_DSTYLE_DIM_EXT2_LINETYPE
1070
   382
1005
13
  0
DIMSTYLE
105
9B34C
330
A
100
AcDbSymbolTableRecord
100
AcDbDimStyleTableRecord
  2
AM_ANSI
 70
     0
  4
mm
 41
0.12
 42
0.05
 43
0.5
 44
0.1
 47
0.1
 48
0.1
 78
     7
 79
     2
140
0.12
141
0.0
146
0.71
147
0.06
176
   256
177
   256
178
     2
274
     4
284
     7
340
F
371
    -1
372
    -1
1001
ACAD_DSTYLE_DIMARC_LENGTH_SYMBOL
1070
   379
1070
     1
1001
ACAD_DSTYLE_DIM_LINETYPE
1070
   380
1005
12
1001
ACAD_DSTYLE_DIM_EXT1_LINETYPE
1070
   381
1005
12
1001
ACAD_DSTYLE_DIM_EXT2_LINETYPE
1070
   382
1005
12
  0
ENDTAB
  0
TABLE
  2
BLOCK_RECORD
  5
1
330
0
100
AcDbSymbolTable
 70
     4
  0
BLOCK_RECORD
  5
18
102
{ACAD_XDICTIONARY
360
28B3
102
}
330
1
100
AcDbSymbolTableRecord
100
AcDbBlockTableRecord
  2
*MODEL_SPACE
340
21F3
  0
BLOCK_RECORD
  5
15
330
1
100
AcDbSymbolTableRecord
100
AcDbBlockTableRecord
  2
*PAPER_SPACE
340
21F4
  0
BLOCK_RECORD
  5
4C0BF
330
1
100
AcDbSymbolTableRecord
100
AcDbBlockTableRecord
  2
_Small
340
0
  0
BLOCK_RECORD
  5
4C0C3
330
1
100
AcDbSymbolTableRecord
100
AcDbBlockTableRecord
  2
_Open30
340
0
1001
AcDbDynamicBlockGUID
1000
{CF3FF556-EE00-416E-9104-4A9DDFC40C99}
  0
BLOCK_RECORD
  5
992F8
330
1
100
AcDbSymbolTableRecord
100
AcDbBlockTableRecord
  2
_DOTBLANK
340
0
  0
BLOCK_RECORD
  5
9B34D
102
{ACAD_XDICTIONARY
360
9B4E7
102
}
330
1
100
AcDbSymbolTableRecord
100
AcDbBlockTableRecord
  2
block
340
0
  0
ENDTAB
  0
ENDSEC
  0
SECTION
  2
BLOCKS
  0
BLOCK
  5
19
330
18
100
AcDbEntity
  8
0
100
AcDbBlockBegin
  2
*MODEL_SPACE
 70
     0
 10
0.0
 20
0.0
 30
0.0
  3
*MODEL_SPACE
  1

  0
ENDBLK
  5
1A
330
18
100
AcDbEntity
  8
0
100
AcDbBlockEnd
  0
BLOCK
  5
16
330
15
100
AcDbEntity
 67
     1
  8
0
100
AcDbBlockBegin
  2
*PAPER_SPACE
 70
     0
 10
0.0
 20
0.0
 30
0.0
  3
*PAPER_SPACE
  1

  0
ENDBLK
  5
17
330
15
100
AcDbEntity
 67
     1
  8
0
100
AcDbBlockEnd
  0
BLOCK
  5
4C0C1
330
4C0BF
100
AcDbEntity
  8
0
100
AcDbBlockBegin
  2
_Small
 70
     0
 10
0.0
 20
0.0
 30
0.0
  3
_Small
  1

  0
CIRCLE
  5
4C0C0
330
4C0BF
100
AcDbEntity
  8
0
  6
ByBlock
 62
     0
370
    -2
100
AcDbCircle
 10
0.0
 20
0.0
 30
0.0
 40
0.25
  0
ENDBLK
  5
4C0C2
330
4C0BF
100
AcDbEntity
  8
0
100
AcDbBlockEnd
  0
BLOCK
  5
4C0C7
330
4C0C3
100
AcDbEntity
  8
0
100
AcDbBlockBegin
  2
_Open30
 70
     0
 10
0.0
 20
0.0
 30
0.0
  3
_Open30
  1

  0
LINE
  5
990C6
330
4C0C3
100
AcDbEntity
  8
NOTE
100
AcDbLine
 10
-1.0
 20
0.26794919
 30
0.0
 11
0.0
 21
0.0
 31
0.0
  0
LINE
  5
990C7
330
4C0C3
100
AcDbEntity
  8
NOTE
100
AcDbLine
 10
0.0
 20
0.0
 30
0.0
 11
-1.0
 21
-0.26794919
 31
0.0
  0
LINE
  5
990C8
330
4C0C3
100
AcDbEntity
  8
NOTE
100
AcDbLine
 10
0.0
 20
0.0
 30
0.0
 11
-1.0
 21
0.0
 31
0.0
  0
ENDBLK
  5
4C0C8
330
4C0C3
100
AcDbEntity
  8
0
100
AcDbBlockEnd
  0
BLOCK
  5
992F9
330
992F8
100
AcDbEntity
  8
0
100
AcDbBlockBegin
  2
_DOTBLANK
 70
     0
 10
0.0
 20
0.0
 30
0.0
  3
_DOTBLANK
  1

  0
CIRCLE
  5
992FA
330
992F8
100
AcDbEntity
  8
0
  6
ByBlock
 62
     0
100
AcDbCircle
 10
0.0
 20
0.0
 30
0.0
 40
0.5
  0
LINE
  5
992FB
330
992F8
100
AcDbEntity
  8
0
  6
ByBlock
 62
     0
100
AcDbLine
 10
-0.5
 20
0.0
 30
0.0
 11
-1.0
 21
0.0
 31
0.0
  0
ENDBLK
  5
992FC
330
992F8
100
AcDbEntity
  8
0
100
AcDbBlockEnd
  0
BLOCK
  5
9B4E9
330
9B34D
100
AcDbEntity
  8
0
100
AcDbBlockBegin
  2
block
 70
     0
 10
0.0
 20
0.0
 30
0.0
  3
block
  1

  0
TEXT
  5
9B34E
330
9B34D
100
AcDbEntity
  8
ETC
100
AcDbText
 10
-3422.880991152335
 20
534.2332999999999
 30
0.0
 40
60.0
  1
PEAD-M35_50JA2_5
 50
0.0000029998804485
 41
0.8
100
AcDbText
  0
LINE
  5
9B34F
330
9B34D
100
AcDbEntity
  8
BASIS
100
AcDbLine
 10
-2254.93664287967
 20
-87.20831167762844
 30
0.0
 11
-2254.93664287967
 21
-399.2903489468899
 31
0.0
  0
CIRCLE
  5
9B350
330
9B34D
100
AcDbEntity
  8
ARRANGE
100
AcDbCircle
 10
-2254.93664287967
 20
-116.6207204673755
 30
0.0
 40
19.125
  0
LINE
  5
9B351
330
9B34D
100
AcDbEntity
  8
DETAIL
100
AcDbLine
 10
-2011.938502679377
 20
-356.6064143157246
 30
0.0
 11
-1904.936642879667
 21
-356.6064143157246
 31
0.0
  0
LINE
  5
9B352
330
9B34D
100
AcDbEntity
  8
DETAIL
100
AcDbLine
 10
-1913.949518416157
 20
-181.7137104530802
 30
0.0
 11
-1913.949518416157
 21
-160.1829522270418
 31
0.0
  0
LINE
  5
9B353
330
9B34D
100
AcDbEntity
  8
DETAIL
100
AcDbLine
 10
-1945.995298101414
 20
-160.1829522270418
 30
0.0
 11
-1945.995298101414
 21
-181.7137104530802
 31
0.0
  0
LINE
  5
9B354
330
9B34D
100
AcDbEntity
  8
DETAIL
100
AcDbLine
 10
-1920.959532722303
 20
-153.1729379208891
 30
0.0
 11
-1938.985283795268
 21
-153.1729379208891
 31
0.0
  0
LINE
  5
9B355
330
9B34D
100
AcDbEntity
  8
DETAIL
100
AcDbLine
 10
-2563.923767343192
 20
-153.1729379208891
 30
0.0
 11
-2581.949518416144
 21
-153.1729379208891
 31
0.0
  0
LINE
  5
9B356
330
9B34D
100
AcDbEntity
  8
DETAIL
100
AcDbLine
 10
-2556.913753037032
 20
-181.7137104530802
 30
0.0
 11
-2556.913753037032
 21
-160.1829522270418
 31
0.0
  0
LINE
  5
9B357
330
9B34D
100
AcDbEntity
  8
DETAIL
100
AcDbLine
 10
-2588.959532722304
 20
-160.1829522270418
 30
0.0
 11
-2588.959532722304
 21
-181.7137104530802
 31
0.0
  0
ARC
  5
9B358
330
9B34D
100
AcDbEntity
  8
DETAIL
100
AcDbCircle
 10
-1916.953810261641
 20
-181.7137104530802
 30
0.0
 40
3.0042918454936
100
AcDbArc
 50
180.0
 51
0.0
  0
ARC
  5
9B359
330
9B34D
100
AcDbEntity
  8
DETAIL
100
AcDbCircle
 10
-1942.991006255903
 20
-181.7137104530802
 30
0.0
 40
3.0042918454936
100
AcDbArc
 50
180.0
 51
0.0
  0
ARC
  5
9B35A
330
9B34D
100
AcDbEntity
  8
DETAIL
100
AcDbCircle
 10
-1920.959532722303
 20
-160.1829522270418
 30
0.0
 40
7.010014306151662
100
AcDbArc
 50
0.0
 51
90.0
  0
ARC
  5
9B35B
330
9B34D
100
AcDbEntity
  8
DETAIL
100
AcDbCircle
 10
-1938.985283795268
 20
-160.1829522270418
 30
0.0
 40
7.010014306151662
100
AcDbArc
 50
90.0
 51
180.0
  0
ARC
  5
9B35C
330
9B34D
100
AcDbEntity
  8
DETAIL
100
AcDbCircle
 10
-2559.91804488253
 20
-181.7137104530802
 30
0.0
 40
3.004291845493577
100
AcDbArc
 50
180.0
 51
0.0
  0
ARC
  5
9B35D
330
9B34D
100
AcDbEntity
  8
DETAIL
100
AcDbCircle
 10
-2585.955240876792
 20
-181.7137104530802
 30
0.0
 40
3.0042918454936
100
AcDbArc
 50
180.0
 51
0.0
  0
ARC
  5
9B35E
330
9B34D
100
AcDbEntity
  8
DETAIL
100
AcDbCircle
 10
-2563.923767343192
 20
-160.1829522270418
 30
0.0
 40
7.010014306151662
100
AcDbArc
 50
0.0
 51
90.0
  0
ARC
  5
9B35F
330
9B34D
100
AcDbEntity
  8
DETAIL
100
AcDbCircle
 10
-2581.949518416144
 20
-160.1829522270418
 30
0.0
 40
7.010014306151715
100
AcDbArc
 50
90.0
 51
180.0
  0
LINE
  5
9B360
330
9B34D
100
AcDbEntity
  8
DETAIL
100
AcDbLine
 10
-1872.936642879678
 20
-139.6207204673701
 30
0.0
 11
-1872.936642879678
 21
-317.6207204673701
 31
0.0
  0
LINE
  5
9B361
330
9B34D
100
AcDbEntity
  8
DETAIL
100
AcDbLine
 10
-1904.936642879667
 20
-188.7237247592284
 30
0.0
 11
-1904.936642879667
 21
-140.6550552313301
 31
0.0
  0
LINE
  5
9B362
330
9B34D
100
AcDbEntity
  8
DETAIL
100
AcDbLine
 10
-1904.936642879667
 20
-116.6207204673701
 30
0.0
 11
-1904.936642879667
 21
-140.6550552313301
 31
0.0
  0
LINE
  5
9B363
330
9B34D
100
AcDbEntity
  8
DETAIL
100
AcDbLine
 10
-1919.958102107121
 20
-176.7140265119487
 30
0.0
 11
-1919.958102107121
 21
-181.7137104530802
 31
0.0
  0
LINE
  5
9B364
330
9B34D
100
AcDbEntity
  8
DETAIL
100
AcDbLine
 10
-1923.963824567785
 20
-131.6421796948543
 30
0.0
 11
-1923.963824567785
 21
-140.6550552313301
 31
0.0
  0
LINE
  5
9B365
330
9B34D
100
AcDbEntity
  8
DETAIL
100
AcDbLine
 10
-1935.980991949756
 20
-131.6421796948543
 30
0.0
 11
-1935.980991949756
 21
-140.6550552313301
 31
0.0
  0
LINE
  5
9B366
330
9B34D
100
AcDbEntity
  8
DETAIL
100
AcDbLine
 10
-1939.986714410421
 20
-181.7137104530802
 30
0.0
 11
-1939.986714410421
 21
-176.7140265119487
 31
0.0
  0
LINE
  5
9B367
330
9B34D
100
AcDbEntity
  8
DETAIL
100
AcDbLine
 10
-1955.008173637889
 20
-188.7237247592284
 30
0.0
 11
-1955.008173637889
 21
-140.6550552313301
 31
0.0
  0
LINE
  5
9B368
330
9B34D
100
AcDbEntity
  8
DETAIL
100
AcDbLine
 10
-1955.008173637889
 20
-131.6421796948543
 30
0.0
 11
-1955.008173637889
 21
-140.6550552313301
 31
0.0
  0
LINE
  5
9B369
330
9B34D
100
AcDbEntity
  8
DETAIL
100
AcDbLine
 10
-2060.859389660774
 20
-125.633596003865
 30
0.0
 11
-2060.859389660774
 21
-116.6207204673846
 31
0.0
  0
LINE
  5
9B36A
330
9B34D
100
AcDbEntity
  8
DETAIL
100
AcDbLine
 10
-2328.209948180194
 20
-366.6207204673701
 30
0.0
 11
-1904.936642879667
 21
-366.6207204673701
 31
0.0
  0
LINE
  5
9B36B
330
9B34D
100
AcDbEntity
  8
DETAIL
100
AcDbLine
 10
-2011.938502679377
 20
-356.6064143157246
 30
0.0
 11
-2604.936642879668
 21
-356.6064143157246
 31
0.0
  0
LINE
  5
9B36C
330
9B34D
100
AcDbEntity
  8
DETAIL
100
AcDbLine
 10
-1872.936642879668
 20
-317.6207204673701
 30
0.0
 11
-1904.936642879667
 21
-317.6207204673701
 31
0.0
  0
LINE
  5
9B36D
330
9B34D
100
AcDbEntity
  8
DETAIL
100
AcDbLine
 10
-1907.940934725149
 20
-191.7280166047248
 30
0.0
 11
-1952.003881792378
 21
-191.7280166047248
 31
0.0
  0
LINE
  5
9B36E
330
9B34D
100
AcDbEntity
  8
DETAIL
100
AcDbLine
 10
-2551.860820275948
 20
-191.7280166047248
 30
0.0
 11
-2595.923767343178
 21
-191.7280166047248
 31
0.0
  0
LINE
  5
9B36F
330
9B34D
100
AcDbEntity
  8
DETAIL
100
AcDbLine
 10
-2582.950949031311
 20
-176.7065573772561
 30
0.0
 11
-2562.922336728012
 21
-176.7065573772561
 31
0.0
  0
LINE
  5
9B370
330
9B34D
100
AcDbEntity
  8
DETAIL
100
AcDbLine
 10
-1939.986714410421
 20
-176.7065573772561
 30
0.0
 11
-1919.958102107121
 21
-176.7065573772561
 31
0.0
  0
LINE
  5
9B371
330
9B34D
100
AcDbEntity
  8
DETAIL
100
AcDbLine
 10
-1907.940934725149
 20
-143.6593470768275
 30
0.0
 11
-1920.959532722303
 21
-143.6593470768275
 31
0.0
  0
LINE
  5
9B372
330
9B34D
100
AcDbEntity
  8
DETAIL
100
AcDbLine
 10
-1938.985283795268
 20
-143.6593470768275
 30
0.0
 11
-1952.003881792378
 21
-143.6593470768275
 31
0.0
  0
LINE
  5
9B373
330
9B34D
100
AcDbEntity
  8
DETAIL
100
AcDbLine
 10
-2551.860820275948
 20
-143.6593470768275
 30
0.0
 11
-2564.879418273102
 21
-143.6593470768275
 31
0.0
  0
LINE
  5
9B374
330
9B34D
100
AcDbEntity
  8
DETAIL
100
AcDbLine
 10
-2582.905169346054
 20
-143.6593470768275
 30
0.0
 11
-2595.923767343178
 21
-143.6593470768275
 31
0.0
  0
LINE
  5
9B375
330
9B34D
100
AcDbEntity
  8
DETAIL
100
AcDbLine
 10
-1872.936642879668
 20
-139.6207204673701
 30
0.0
 11
-1904.936642879667
 21
-139.6207204673701
 31
0.0
  0
LINE
  5
9B376
330
9B34D
100
AcDbEntity
  8
DETAIL
100
AcDbLine
 10
-2579.900877500542
 20
-134.1457562327614
 30
0.0
 11
-2567.883710118584
 21
-134.1457562327614
 31
0.0
  0
LINE
  5
9B377
330
9B34D
100
AcDbEntity
  8
DETAIL
100
AcDbLine
 10
-1935.980991949756
 20
-134.1457562327614
 30
0.0
 11
-1923.963824567785
 21
-134.1457562327614
 31
0.0
  0
LINE
  5
9B378
330
9B34D
100
AcDbEntity
  8
DETAIL
100
AcDbLine
 10
-1904.936642879667
 20
-131.6207204673701
 30
0.0
 11
-1955.008173637889
 21
-131.6207204673701
 31
0.0
  0
LINE
  5
9B379
330
9B34D
100
AcDbEntity
  8
DETAIL
100
AcDbLine
 10
-2548.856528430468
 20
-131.6207204673701
 30
0.0
 11
-2598.928059188689
 21
-131.6207204673701
 31
0.0
  0
LINE
  5
9B37A
330
9B34D
100
AcDbEntity
  8
DETAIL
100
AcDbLine
 10
-2057.855097815293
 20
-128.6378878493579
 30
0.0
 11
-1904.936642879667
 21
-128.6378878493506
 31
0.0
  0
LINE
  5
9B37B
330
9B34D
100
AcDbEntity
  8
DETAIL
100
AcDbLine
 10
-1904.936642879667
 20
-116.6207204673701
 30
0.0
 11
-2604.936642879668
 21
-116.6207204673701
 31
0.0
  0
LINE
  5
9B37C
330
9B34D
100
AcDbEntity
  8
DETAIL
100
AcDbLine
 10
-2548.856528430468
 20
-188.7237247592284
 30
0.0
 11
-2548.856528430468
 21
-140.6550552313301
 31
0.0
  0
LINE
  5
9B37D
330
9B34D
100
AcDbEntity
  8
DETAIL
100
AcDbLine
 10
-2548.856528430468
 20
-131.6421796948543
 30
0.0
 11
-2548.856528430468
 21
-140.6550552313301
 31
0.0
  0
LINE
  5
9B37E
330
9B34D
100
AcDbEntity
  8
DETAIL
100
AcDbLine
 10
-2562.922336728012
 20
-176.7140265119487
 30
0.0
 11
-2562.922336728012
 21
-181.7137104530802
 31
0.0
  0
LINE
  5
9B37F
330
9B34D
100
AcDbEntity
  8
DETAIL
100
AcDbLine
 10
-2567.883710118584
 20
-131.6421796948543
 30
0.0
 11
-2567.883710118584
 21
-140.6550552313301
 31
0.0
  0
LINE
  5
9B380
330
9B34D
100
AcDbEntity
  8
DETAIL
100
AcDbLine
 10
-2579.900877500542
 20
-131.6421796948543
 30
0.0
 11
-2579.900877500542
 21
-140.6550552313301
 31
0.0
  0
LINE
  5
9B381
330
9B34D
100
AcDbEntity
  8
DETAIL
100
AcDbLine
 10
-2582.950949031311
 20
-181.7137104530802
 30
0.0
 11
-2582.950949031311
 21
-176.7140265119487
 31
0.0
  0
LINE
  5
9B382
330
9B34D
100
AcDbEntity
  8
DETAIL
100
AcDbLine
 10
-2598.928059188689
 20
-188.7237247592284
 30
0.0
 11
-2598.928059188689
 21
-140.6550552313301
 31
0.0
  0
LINE
  5
9B383
330
9B34D
100
AcDbEntity
  8
DETAIL
100
AcDbLine
 10
-2598.928059188689
 20
-131.6421796948543
 30
0.0
 11
-2598.928059188689
 21
-140.6550552313301
 31
0.0
  0
LINE
  5
9B384
330
9B34D
100
AcDbEntity
  8
DETAIL
100
AcDbLine
 10
-2604.936642879668
 20
-364.6178592370388
 30
0.0
 11
-2604.936642879668
 21
-353.4018363471978
 31
0.0
  0
LINE
  5
9B385
330
9B34D
100
AcDbEntity
  8
DETAIL
100
AcDbLine
 10
-2604.936642879668
 20
-350.7551982928508
 30
0.0
 11
-2604.936642879668
 21
-116.6207204673856
 31
0.0
  0
LINE
  5
9B386
330
9B34D
100
AcDbEntity
  8
DETAIL
100
AcDbLine
 10
-2604.936642879668
 20
-239.5964000095891
 30
0.0
 11
-2604.936642879668
 21
-128.6378878493579
 31
0.0
  0
ARC
  5
9B387
330
9B34D
100
AcDbEntity
  8
DETAIL
100
AcDbCircle
 10
-1907.940934725149
 20
-188.7237247592284
 30
0.0
 40
3.0042918454936
100
AcDbArc
 50
270.0
 51
0.0
  0
ARC
  5
9B388
330
9B34D
100
AcDbEntity
  8
DETAIL
100
AcDbCircle
 10
-1952.003881792378
 20
-188.7237247592284
 30
0.0
 40
3.004291845493496
100
AcDbArc
 50
180.0
 51
270.0
  0
CIRCLE
  5
9B389
330
9B34D
100
AcDbEntity
  8
DETAIL
100
AcDbCircle
 10
-1929.972408258778
 20
-171.699404301431
 30
0.0
 40
3.505007153075836
  0
ARC
  5
9B38A
330
9B34D
100
AcDbEntity
  8
DETAIL
100
AcDbCircle
 10
-1907.940934725149
 20
-140.6550552313301
 30
0.0
 40
3.0042918454936
100
AcDbArc
 50
270.0
 51
0.0
  0
ARC
  5
9B38B
330
9B34D
100
AcDbEntity
  8
DETAIL
100
AcDbCircle
 10
-1920.959532722303
 20
-140.6550552313301
 30
0.0
 40
3.0042918454936
100
AcDbArc
 50
180.0
 51
270.0
  0
ARC
  5
9B38C
330
9B34D
100
AcDbEntity
  8
DETAIL
100
AcDbCircle
 10
-1938.985283795268
 20
-140.6550552313301
 30
0.0
 40
3.0042918454936
100
AcDbArc
 50
270.0
 51
0.0
  0
ARC
  5
9B38D
330
9B34D
100
AcDbEntity
  8
DETAIL
100
AcDbCircle
 10
-1952.003881792378
 20
-140.6550552313301
 30
0.0
 40
3.0042918454936
100
AcDbArc
 50
180.0
 51
270.0
  0
ARC
  5
9B38E
330
9B34D
100
AcDbEntity
  8
DETAIL
100
AcDbCircle
 10
-2057.855097815293
 20
-125.633596003865
 30
0.0
 40
3.0042918454936
100
AcDbArc
 50
180.0
 51
270.0
  0
ARC
  5
9B38F
330
9B34D
100
AcDbEntity
  8
DETAIL
100
AcDbCircle
 10
-2551.860820275948
 20
-188.7237247592284
 30
0.0
 40
3.0042918454936
100
AcDbArc
 50
270.0
 51
0.0
  0
ARC
  5
9B390
330
9B34D
100
AcDbEntity
  8
DETAIL
100
AcDbCircle
 10
-2595.923767343178
 20
-188.7237247592284
 30
0.0
 40
3.004291845493496
100
AcDbArc
 50
180.0
 51
270.0
  0
CIRCLE
  5
9B391
330
9B34D
100
AcDbEntity
  8
DETAIL
100
AcDbCircle
 10
-2572.936642879668
 20
-171.699404301431
 30
0.0
 40
3.505007153075836
  0
ARC
  5
9B392
330
9B34D
100
AcDbEntity
  8
DETAIL
100
AcDbCircle
 10
-2551.860820275948
 20
-140.6550552313301
 30
0.0
 40
3.0042918454936
100
AcDbArc
 50
270.0
 51
0.0
  0
ARC
  5
9B393
330
9B34D
100
AcDbEntity
  8
DETAIL
100
AcDbCircle
 10
-2564.879418273102
 20
-140.6550552313301
 30
0.0
 40
3.0042918454936
100
AcDbArc
 50
180.0
 51
270.0
  0
ARC
  5
9B394
330
9B34D
100
AcDbEntity
  8
DETAIL
100
AcDbCircle
 10
-2582.905169346054
 20
-140.6550552313301
 30
0.0
 40
3.0042918454936
100
AcDbArc
 50
270.0
 51
0.0
  0
ARC
  5
9B395
330
9B34D
100
AcDbEntity
  8
DETAIL
100
AcDbCircle
 10
-2595.923767343178
 20
-140.6550552313301
 30
0.0
 40
3.0042918454936
100
AcDbArc
 50
180.0
 51
270.0
  0
LINE
  5
9B396
330
9B34D
100
AcDbEntity
  8
NOTE
100
AcDbLine
 10
-1882.936642879678
 20
-175.9842080628095
 30
0.0
 11
-1882.936642879678
 21
-183.2572328719298
 31
0.0
  0
LINE
  5
9B397
330
9B34D
100
AcDbEntity
  8
NOTE
100
AcDbLine
 10
-1879.30013047512
 20
-179.6207204673701
 30
0.0
 11
-1886.573155284241
 21
-179.6207204673701
 31
0.0
  0
LINE
  5
9B398
330
9B34D
100
AcDbEntity
  8
NOTE
100
AcDbLine
 10
-1882.936642879678
 20
-275.9842080628096
 30
0.0
 11
-1882.936642879678
 21
-283.2572328719298
 31
0.0
  0
LINE
  5
9B399
330
9B34D
100
AcDbEntity
  8
NOTE
100
AcDbLine
 10
-1879.30013047512
 20
-279.6207204673701
 30
0.0
 11
-1886.573155284241
 21
-279.6207204673701
 31
0.0
  0
CIRCLE
  5
9B39A
330
9B34D
100
AcDbEntity
  8
DETAIL
100
AcDbCircle
 10
-1882.936642879678
 20
-279.6207204673701
 30
0.0
 40
1.45
  0
CIRCLE
  5
9B39B
330
9B34D
100
AcDbEntity
  8
DETAIL
100
AcDbCircle
 10
-1882.936642879678
 20
-179.6207204673701
 30
0.0
 40
1.45
  0
LINE
  5
9B39C
330
9B34D
100
AcDbEntity
  8
DETAIL
100
AcDbLine
 10
-2604.936642879668
 20
-366.6207204673701
 30
0.0
 11
-2604.936642879668
 21
-116.6207204673701
 31
0.0
  0
LINE
  5
9B39D
330
9B34D
100
AcDbEntity
  8
DETAIL
100
AcDbLine
 10
-2604.936642879668
 20
-116.6207204673701
 30
0.0
 11
-1904.936642879667
 21
-116.6207204673701
 31
0.0
  0
LINE
  5
9B39E
330
9B34D
100
AcDbEntity
  8
DETAIL
100
AcDbLine
 10
-1904.936642879667
 20
-116.6207204673701
 30
0.0
 11
-1904.936642879667
 21
-366.6207204673701
 31
0.0
  0
LINE
  5
9B39F
330
9B34D
100
AcDbEntity
  8
DETAIL
100
AcDbLine
 10
-1904.936642879667
 20
-366.6207204673701
 30
0.0
 11
-2604.936642879668
 21
-366.6207204673701
 31
0.0
  0
LINE
  5
9B3A0
330
9B34D
100
AcDbEntity
  8
NOTE
100
AcDbLine
 10
-1882.936642879678
 20
-135.9842080628095
 30
0.0
 11
-1882.936642879678
 21
-143.2572328719297
 31
0.0
  0
LINE
  5
9B3A1
330
9B34D
100
AcDbEntity
  8
NOTE
100
AcDbLine
 10
-1879.30013047512
 20
-139.6207204673701
 30
0.0
 11
-1886.573155284241
 21
-139.6207204673701
 31
0.0
  0
LINE
  5
9B3A2
330
9B34D
100
AcDbEntity
  8
NOTE
100
AcDbLine
 10
-1882.936642879678
 20
-313.9842080628095
 30
0.0
 11
-1882.936642879678
 21
-321.2572328719298
 31
0.0
  0
LINE
  5
9B3A3
330
9B34D
100
AcDbEntity
  8
NOTE
100
AcDbLine
 10
-1879.30013047512
 20
-317.6207204673701
 30
0.0
 11
-1886.573155284241
 21
-317.6207204673701
 31
0.0
  0
LINE
  5
9B3A4
330
9B34D
100
AcDbEntity
  8
NOTE
100
AcDbLine
 10
-1929.936642879667
 20
-120.7544485553771
 30
0.0
 11
-1929.936642879667
 21
-142.4869923793631
 31
0.0
  0
LINE
  5
9B3A5
330
9B34D
100
AcDbEntity
  8
NOTE
100
AcDbLine
 10
-1919.070370967675
 20
-131.6207204673701
 30
0.0
 11
-1940.80291479166
 21
-131.6207204673701
 31
0.0
  0
LINE
  5
9B3A6
330
9B34D
100
AcDbEntity
  8
NOTE
100
AcDbLine
 10
-2572.936642879668
 20
-120.7544485553771
 30
0.0
 11
-2572.936642879668
 21
-142.4869923793631
 31
0.0
  0
LINE
  5
9B3A7
330
9B34D
100
AcDbEntity
  8
NOTE
100
AcDbLine
 10
-2562.070370967675
 20
-131.6207204673701
 30
0.0
 11
-2583.802914791661
 21
-131.6207204673701
 31
0.0
  0
CIRCLE
  5
9B3A8
330
9B34D
100
AcDbEntity
  8
FIX
100
AcDbCircle
 10
-1929.936642879667
 20
-131.6207204673701
 30
0.0
 40
9.947006128806798
  0
CIRCLE
  5
9B3A9
330
9B34D
100
AcDbEntity
  8
FIX
100
AcDbCircle
 10
-2572.936642879668
 20
-131.6207204673701
 30
0.0
 40
9.947006128806798
  0
LINE
  5
9B3AA
330
9B34D
100
AcDbEntity
  8
OUTLINE
100
AcDbLine
 10
-1872.936642879668
 20
-139.6207204673701
 30
0.0
 11
-1904.936642879667
 21
-139.6207204673701
 31
0.0
  0
LINE
  5
9B3AB
330
9B34D
100
AcDbEntity
  8
OUTLINE
100
AcDbLine
 10
-1872.936642879678
 20
-139.6207204673701
 30
0.0
 11
-1872.936642879668
 21
-317.6207204673701
 31
0.0
  0
LINE
  5
9B3AC
330
9B34D
100
AcDbEntity
  8
OUTLINE
100
AcDbLine
 10
-1872.936642879668
 20
-317.6207204673701
 30
0.0
 11
-1904.936642879667
 21
-317.6207204673701
 31
0.0
  0
LINE
  5
9B3AD
330
9B34D
100
AcDbEntity
  8
OUTLINE
100
AcDbLine
 10
-1904.936642879667
 20
-116.6207204673701
 30
0.0
 11
-2604.936642879668
 21
-116.6207204673856
 31
0.0
  0
LINE
  5
9B3AE
330
9B34D
100
AcDbEntity
  8
OUTLINE
100
AcDbLine
 10
-2604.936642879668
 20
-116.6207204673856
 30
0.0
 11
-2604.936642879668
 21
-366.6207204673701
 31
0.0
  0
LINE
  5
9B3AF
330
9B34D
100
AcDbEntity
  8
OUTLINE
100
AcDbLine
 10
-2604.936642879668
 20
-366.6207204673701
 30
0.0
 11
-1904.936642879667
 21
-366.6207204673701
 31
0.0
  0
LINE
  5
9B3B0
330
9B34D
100
AcDbEntity
  8
OUTLINE
100
AcDbLine
 10
-1904.936642879667
 20
-366.6207204673701
 30
0.0
 11
-1904.936642879667
 21
-116.6207204673701
 31
0.0
  0
LINE
  5
9B3B1
330
9B34D
100
AcDbEntity
  8
SIZE
100
AcDbLine
 10
-1872.936642879668
 20
-124.6207204673701
 30
0.0
 11
-1872.936642879668
 21
-53.02807580779699
 31
0.0
  0
LINE
  5
9B3B2
330
9B34D
100
AcDbEntity
  8
SIZE
100
AcDbLine
 10
-1882.936642879678
 20
-160.9842080628095
 30
0.0
 11
-1882.936642879678
 21
-53.02807580779699
 31
0.0
  0
LINE
  5
9B3B3
330
9B34D
100
AcDbEntity
  8
SIZE
100
AcDbLine
 10
-1882.936642879678
 20
-58.02807580779699
 30
0.0
 11
-1902.936642879678
 21
-58.02807580779699
 31
0.0
  0
LINE
  5
9B3B4
330
9B34D
100
AcDbEntity
  8
SIZE
100
AcDbLine
 10
-1872.936642879668
 20
-58.02807580779699
 30
0.0
 11
-1818.650928593953
 21
-58.02807580779699
 31
0.0
  0
LINE
  5
9B3B5
330
9B34D
100
AcDbEntity
  8
SIZE
100
AcDbLine
 10
-1882.936642879678
 20
-58.02807580779699
 30
0.0
 11
-1872.936642879668
 21
-58.02807580779699
 31
0.0
  0
CIRCLE
  5
9B3B6
330
9B34D
100
AcDbEntity
  8
SIZE
100
AcDbCircle
 10
-1882.936642879678
 20
-58.02807580779699
 30
0.0
 40
5.0
  0
CIRCLE
  5
9B3B7
330
9B34D
100
AcDbEntity
  8
SIZE
100
AcDbCircle
 10
-1872.936642879668
 20
-58.02807580779699
 30
0.0
 40
5.0
  0
TEXT
  5
9B3B8
330
9B34D
100
AcDbEntity
  8
SIZE
100
AcDbText
 10
-1851.471775981525
 20
-43.02807580779699
 30
0.0
 40
30.0
  1
10
 41
0.9
100
AcDbText
  0
LINE
  5
9B3B9
330
9B34D
100
AcDbEntity
  8
SIZE
100
AcDbLine
 10
-1872.936642879678
 20
-124.6207204673701
 30
0.0
 11
-1872.936642879678
 21
67.14027120374158
 31
0.0
  0
LINE
  5
9B3BA
330
9B34D
100
AcDbEntity
  8
SIZE
100
AcDbLine
 10
-1929.936642879667
 20
-105.7544485553771
 30
0.0
 11
-1929.936642879667
 21
67.14027120374158
 31
0.0
  0
LINE
  5
9B3BB
330
9B34D
100
AcDbEntity
  8
SIZE
100
AcDbLine
 10
-1929.936642879667
 20
62.14027120374158
 30
0.0
 11
-1872.936642879678
 21
62.14027120374158
 31
0.0
  0
LINE
  5
9B3BC
330
9B34D
100
AcDbEntity
  8
SIZE
100
AcDbLine
 10
-1872.936642879678
 20
62.14027120374158
 30
0.0
 11
-1779.222357165392
 21
62.14027120374158
 31
0.0
  0
CIRCLE
  5
9B3BD
330
9B34D
100
AcDbEntity
  8
SIZE
100
AcDbCircle
 10
-1929.936642879667
 20
62.14027120374158
 30
0.0
 40
5.0
  0
CIRCLE
  5
9B3BE
330
9B34D
100
AcDbEntity
  8
SIZE
100
AcDbCircle
 10
-1872.936642879678
 20
62.14027120374158
 30
0.0
 40
5.0
  0
TEXT
  5
9B3BF
330
9B34D
100
AcDbEntity
  8
SIZE
100
AcDbText
 10
-1837.936642879678
 20
77.14027120374158
 30
0.0
 40
30.0
  1
57
 41
0.9
100
AcDbText
  0
LINE
  5
9B3C0
330
9B34D
100
AcDbEntity
  8
SIZE
100
AcDbLine
 10
-1929.936642879667
 20
-105.7544485553771
 30
0.0
 11
-1929.936642879667
 21
67.14027120374158
 31
0.0
  0
LINE
  5
9B3C1
330
9B34D
100
AcDbEntity
  8
SIZE
100
AcDbLine
 10
-2572.936642879668
 20
-105.7544485553771
 30
0.0
 11
-2572.936642879668
 21
67.14027120374158
 31
0.0
  0
LINE
  5
9B3C2
330
9B34D
100
AcDbEntity
  8
SIZE
100
AcDbLine
 10
-1929.936642879667
 20
62.14027120374158
 30
0.0
 11
-2572.936642879668
 21
62.14027120374158
 31
0.0
  0
CIRCLE
  5
9B3C3
330
9B34D
100
AcDbEntity
  8
SIZE
100
AcDbCircle
 10
-1929.936642879667
 20
62.14027120374158
 30
0.0
 40
5.0
  0
CIRCLE
  5
9B3C4
330
9B34D
100
AcDbEntity
  8
SIZE
100
AcDbCircle
 10
-2572.936642879668
 20
62.14027120374158
 30
0.0
 40
5.0
  0
TEXT
  5
9B3C5
330
9B34D
100
AcDbEntity
  8
SIZE
100
AcDbText
 10
-2520.922357165382
 20
79.99741406088442
 30
0.0
 40
30.0
  1
643(Suspension bolt pitch)
 41
0.9
100
AcDbText
  0
LINE
  5
9B3C6
330
9B34D
100
AcDbEntity
  8
SIZE
100
AcDbLine
 10
-1872.936642879668
 20
-124.6207204673701
 30
0.0
 11
-1872.936642879668
 21
162.3315751231453
 31
0.0
  0
LINE
  5
9B3C7
330
9B34D
100
AcDbEntity
  8
SIZE
100
AcDbLine
 10
-1904.936642879667
 20
-96.62072046737012
 30
0.0
 11
-1904.936642879667
 21
162.3315751231453
 31
0.0
  0
LINE
  5
9B3C8
330
9B34D
100
AcDbEntity
  8
SIZE
100
AcDbLine
 10
-1904.936642879667
 20
157.3315751231453
 30
0.0
 11
-1872.936642879668
 21
157.3315751231453
 31
0.0
  0
LINE
  5
9B3C9
330
9B34D
100
AcDbEntity
  8
SIZE
100
AcDbLine
 10
-1872.936642879668
 20
157.3315751231453
 30
0.0
 11
-1779.222357165381
 21
157.3315751231453
 31
0.0
  0
CIRCLE
  5
9B3CA
330
9B34D
100
AcDbEntity
  8
SIZE
100
AcDbCircle
 10
-1904.936642879667
 20
157.3315751231453
 30
0.0
 40
5.0
  0
CIRCLE
  5
9B3CB
330
9B34D
100
AcDbEntity
  8
SIZE
100
AcDbCircle
 10
-1872.936642879668
 20
157.3315751231453
 30
0.0
 40
5.0
  0
TEXT
  5
9B3CC
330
9B34D
100
AcDbEntity
  8
SIZE
100
AcDbText
 10
-1837.936642879667
 20
172.3315751231453
 30
0.0
 40
30.0
  1
32
 41
0.9
100
AcDbText
  0
LINE
  5
9B3CD
330
9B34D
100
AcDbEntity
  8
SIZE
100
AcDbLine
 10
-1904.936642879667
 20
-96.62072046737012
 30
0.0
 11
-1904.936642879667
 21
162.3315751231453
 31
0.0
  0
LINE
  5
9B3CE
330
9B34D
100
AcDbEntity
  8
SIZE
100
AcDbLine
 10
-2604.936642879668
 20
-101.6207204673855
 30
0.0
 11
-2604.936642879668
 21
162.3315751231453
 31
0.0
  0
LINE
  5
9B3CF
330
9B34D
100
AcDbEntity
  8
SIZE
100
AcDbLine
 10
-1904.936642879667
 20
157.3315751231453
 30
0.0
 11
-2604.936642879668
 21
157.3315751231453
 31
0.0
  0
CIRCLE
  5
9B3D0
330
9B34D
100
AcDbEntity
  8
SIZE
100
AcDbCircle
 10
-1904.936642879667
 20
157.3315751231453
 30
0.0
 40
5.0
  0
CIRCLE
  5
9B3D1
330
9B34D
100
AcDbEntity
  8
SIZE
100
AcDbCircle
 10
-2604.936642879668
 20
157.3315751231453
 30
0.0
 40
5.0
  0
TEXT
  5
9B3D2
330
9B34D
100
AcDbEntity
  8
SIZE
100
AcDbText
 10
-2289.650928593953
 20
172.3315751231453
 30
0.0
 40
30.0
  1
700
 41
0.9
100
AcDbText
  0
LINE
  5
9B3D3
330
9B34D
100
AcDbEntity
  8
SIZE
100
AcDbLine
 10
-1872.936642879678
 20
-124.6207204673701
 30
0.0
 11
-1872.936642879678
 21
261.0389797430102
 31
0.0
  0
LINE
  5
9B3D4
330
9B34D
100
AcDbEntity
  8
SIZE
100
AcDbLine
 10
-2604.936642879668
 20
-105.4261568050096
 30
0.0
 11
-2604.936642879668
 21
261.0389797430102
 31
0.0
  0
LINE
  5
9B3D5
330
9B34D
100
AcDbEntity
  8
SIZE
100
AcDbLine
 10
-1872.936642879678
 20
256.0389797430103
 30
0.0
 11
-2604.936642879668
 21
256.0389797430103
 31
0.0
  0
CIRCLE
  5
9B3D6
330
9B34D
100
AcDbEntity
  8
SIZE
100
AcDbCircle
 10
-1872.936642879678
 20
256.0389797430103
 30
0.0
 40
5.0
  0
CIRCLE
  5
9B3D7
330
9B34D
100
AcDbEntity
  8
SIZE
100
AcDbCircle
 10
-2604.936642879668
 20
256.0389797430103
 30
0.0
 40
5.0
  0
TEXT
  5
9B3D8
330
9B34D
100
AcDbEntity
  8
SIZE
100
AcDbText
 10
-2273.650928593959
 20
271.0389797430102
 30
0.0
 40
30.0
  1
732
 41
0.9
100
AcDbText
  0
LINE
  5
9B3D9
330
9B34D
100
AcDbEntity
  8
NOTE
100
AcDbLine
 10
-2572.936642879668
 20
-131.6207204673701
 30
0.0
 11
-2595.025309530904
 21
-105.2684819370015
 31
0.0
  0
LINE
  5
9B3DA
330
9B34D
100
AcDbEntity
  8
NOTE
100
AcDbLine
 10
-2572.936642879668
 20
-131.6207204673701
 30
0.0
 11
-2578.889869576757
 21
-97.75467904115521
 31
0.0
  0
LINE
  5
9B3DB
330
9B34D
100
AcDbEntity
  8
NOTE
100
AcDbLine
 10
-2653.003147446534
 20
37.13389247578016
 30
0.0
 11
-2572.936642879668
 21
-131.6207204673701
 31
0.0
  0
LINE
  5
9B3DC
330
9B34D
100
AcDbEntity
  8
NOTE
100
AcDbLine
 10
-1562.590560298871
 20
32.38347464413619
 30
0.0
 11
-1690.146099510563
 21
32.38347464413619
 31
0.0
  0
TEXT
  5
9B3DD
330
9B34D
100
AcDbEntity
  8
NOTE
100
AcDbText
 10
-1750.423893632205
 20
39.79089236108348
 30
0.0
 40
30.0
  1
2X2-%%c2.9
 50
359.9999974955248
 41
0.7
  7
STANDARD1
100
AcDbText
  0
LINE
  5
9B3DE
330
9B34D
100
AcDbEntity
  8
NOTE
100
AcDbLine
 10
-1562.590560298871
 20
32.38347464413619
 30
0.0
 11
-1761.884263193733
 21
32.38347464413619
 31
0.0
  0
LINE
  5
9B3DF
330
9B34D
100
AcDbEntity
  8
NOTE
100
AcDbLine
 10
-1882.936642879678
 20
-179.6207204673701
 30
0.0
 11
-1873.956993652038
 21
-146.4286194531323
 31
0.0
  0
LINE
  5
9B3E0
330
9B34D
100
AcDbEntity
  8
NOTE
100
AcDbLine
 10
-1882.936642879678
 20
-179.6207204673701
 30
0.0
 11
-1858.563987670972
 21
-155.3653427530053
 31
0.0
  0
LINE
  5
9B3E1
330
9B34D
100
AcDbEntity
  8
NOTE
100
AcDbLine
 10
-1761.884263193733
 20
32.38347464413619
 30
0.0
 11
-1882.936642879678
 21
-179.6207204673701
 31
0.0
  0
LINE
  5
9B3E2
330
9B34D
100
AcDbEntity
  8
SIZE
100
AcDbLine
 10
-2619.936642879669
 20
-116.6207204673856
 30
0.0
 11
-3156.797556465281
 21
-116.6207204673857
 31
0.0
  0
LINE
  5
9B3E3
330
9B34D
100
AcDbEntity
  8
SIZE
100
AcDbLine
 10
-2619.936642879669
 20
-366.6207204673702
 30
0.0
 11
-3156.797556465281
 21
-366.6207204673703
 31
0.0
  0
LINE
  5
9B3E4
330
9B34D
100
AcDbEntity
  8
SIZE
100
AcDbLine
 10
-3151.797556465281
 20
-116.6207204673857
 30
0.0
 11
-3151.797556465281
 21
-366.6207204673703
 31
0.0
  0
CIRCLE
  5
9B3E5
330
9B34D
100
AcDbEntity
  8
SIZE
100
AcDbCircle
 10
-3151.797556465281
 20
-116.6207204673857
 30
0.0
 40
5.0
  0
CIRCLE
  5
9B3E6
330
9B34D
100
AcDbEntity
  8
SIZE
100
AcDbCircle
 10
-3151.797556465281
 20
-366.6207204673703
 30
0.0
 40
5.0
  0
TEXT
  5
9B3E7
330
9B34D
100
AcDbEntity
  8
SIZE
100
AcDbText
 10
-3166.79755646528
 20
-276.3350061816628
 30
0.0
 40
30.0
  1
250
 50
90.0
 41
0.9
100
AcDbText
  0
LINE
  5
9B3E8
330
9B34D
100
AcDbEntity
  8
ARRANGE
100
AcDbLine
 10
-2276.202516642983
 20
-137.6677205562664
 30
0.0
 11
-2233.670769116352
 21
-95.5737203784902
 31
0.0
  0
LINE
  5
9B3E9
330
9B34D
100
AcDbEntity
  8
ARRANGE
100
AcDbLine
 10
-2276.171242286631
 20
-95.54216767823436
 30
0.0
 11
-2233.702043472704
 21
-137.6992732565213
 31
0.0
  0
TEXT
  5
9B3EA
330
9B34D
100
AcDbEntity
  8
SIZE
100
AcDbText
 10
-1521.52875597604
 20
-284.7437877901981
 30
0.0
 40
30.0
  1
(Duct)
 50
90.0
 41
0.9
100
AcDbText
  0
LINE
  5
9B3EB
330
9B34D
100
AcDbEntity
  8
SIZE
100
AcDbLine
 10
-2619.936642879669
 20
-116.6207204673856
 30
0.0
 11
-2685.293213104448
 21
-116.6207204673856
 31
0.0
  0
LINE
  5
9B3EC
330
9B34D
100
AcDbEntity
  8
SIZE
100
AcDbLine
 10
-2597.883649008475
 20
-131.6207204673702
 30
0.0
 11
-2685.293213104448
 21
-131.6207204673702
 31
0.0
  0
LINE
  5
9B3ED
330
9B34D
100
AcDbEntity
  8
SIZE
100
AcDbLine
 10
-2680.293213104448
 20
-131.6207204673702
 30
0.0
 11
-2680.293213104448
 21
-151.6207204673702
 31
0.0
  0
LINE
  5
9B3EE
330
9B34D
100
AcDbEntity
  8
SIZE
100
AcDbLine
 10
-2680.293213104448
 20
-116.6207204673856
 30
0.0
 11
-2680.293213104448
 21
-8.049291895955562
 31
0.0
  0
LINE
  5
9B3EF
330
9B34D
100
AcDbEntity
  8
SIZE
100
AcDbLine
 10
-2680.293213104448
 20
-131.6207204673702
 30
0.0
 11
-2680.293213104448
 21
-116.6207204673856
 31
0.0
  0
CIRCLE
  5
9B3F0
330
9B34D
100
AcDbEntity
  8
SIZE
100
AcDbCircle
 10
-2680.293213104448
 20
-131.6207204673702
 30
0.0
 40
5.0
  0
CIRCLE
  5
9B3F1
330
9B34D
100
AcDbEntity
  8
SIZE
100
AcDbCircle
 10
-2680.293213104448
 20
-116.6207204673856
 30
0.0
 40
5.0
  0
TEXT
  5
9B3F2
330
9B34D
100
AcDbEntity
  8
SIZE
100
AcDbText
 10
-2695.293213104447
 20
-61.62072046738337
 30
0.0
 40
30.0
  1
15
 50
90.0
 41
0.9
100
AcDbText
  0
LINE
  5
9B3F3
330
9B34D
100
AcDbEntity
  8
NOTE
100
AcDbLine
 10
-2634.081735024698
 20
-213.2063827378697
 30
0.0
 11
-2662.123497254859
 21
-193.3224314029849
 31
0.0
  0
LINE
  5
9B3F4
330
9B34D
100
AcDbEntity
  8
NOTE
100
AcDbLine
 10
-2662.123497254859
 20
-205.5284806533655
 30
0.0
 11
-2662.123497254859
 21
-193.3224314029849
 31
0.0
  0
LINE
  5
9B3F5
330
9B34D
100
AcDbEntity
  8
NOTE
100
AcDbLine
 10
-2685.15720350837
 20
-205.5284806533655
 30
0.0
 11
-2662.123497254859
 21
-205.5284806533655
 31
0.0
  0
LINE
  5
9B3F6
330
9B34D
100
AcDbEntity
  8
NOTE
100
AcDbLine
 10
-2685.15720350837
 20
-220.8842848223776
 30
0.0
 11
-2685.15720350837
 21
-205.5284806533655
 31
0.0
  0
LINE
  5
9B3F7
330
9B34D
100
AcDbEntity
  8
NOTE
100
AcDbLine
 10
-2685.15720350837
 20
-220.8842848223776
 30
0.0
 11
-2662.123497254859
 21
-220.8842848223776
 31
0.0
  0
LINE
  5
9B3F8
330
9B34D
100
AcDbEntity
  8
NOTE
100
AcDbLine
 10
-2634.081735024698
 20
-213.2063827378697
 30
0.0
 11
-2662.123497254859
 21
-233.0903340727555
 31
0.0
  0
LINE
  5
9B3F9
330
9B34D
100
AcDbEntity
  8
NOTE
100
AcDbLine
 10
-2662.123497254859
 20
-220.8842848223776
 30
0.0
 11
-2662.123497254859
 21
-233.0903340727555
 31
0.0
  0
TEXT
  5
9B3FA
330
9B34D
100
AcDbEntity
  8
NOTE
100
AcDbText
 10
-2757.08718937282
 20
-293.0861341479868
 30
0.0
 40
23.69722882067107
  1
Air inlet
 50
359.9999974955184
 41
0.6
  7
STANDARD1
100
AcDbText
  0
LINE
  5
9B3FB
330
9B34D
100
AcDbEntity
  8
NOTE
100
AcDbLine
 10
-1769.709031516471
 20
-213.2063827378697
 30
0.0
 11
-1797.750793746632
 21
-193.3224314029849
 31
0.0
  0
LINE
  5
9B3FC
330
9B34D
100
AcDbEntity
  8
NOTE
100
AcDbLine
 10
-1797.750793746632
 20
-205.5284806533655
 30
0.0
 11
-1797.750793746632
 21
-193.3224314029849
 31
0.0
  0
LINE
  5
9B3FD
330
9B34D
100
AcDbEntity
  8
NOTE
100
AcDbLine
 10
-1820.784500000143
 20
-205.5284806533655
 30
0.0
 11
-1797.750793746632
 21
-205.5284806533655
 31
0.0
  0
LINE
  5
9B3FE
330
9B34D
100
AcDbEntity
  8
NOTE
100
AcDbLine
 10
-1820.784500000143
 20
-220.8842848223776
 30
0.0
 11
-1820.784500000143
 21
-205.5284806533655
 31
0.0
  0
LINE
  5
9B3FF
330
9B34D
100
AcDbEntity
  8
NOTE
100
AcDbLine
 10
-1820.784500000143
 20
-220.8842848223776
 30
0.0
 11
-1797.750793746632
 21
-220.8842848223776
 31
0.0
  0
LINE
  5
9B400
330
9B34D
100
AcDbEntity
  8
NOTE
100
AcDbLine
 10
-1769.709031516471
 20
-213.2063827378697
 30
0.0
 11
-1797.750793746632
 21
-233.0903340727555
 31
0.0
  0
LINE
  5
9B401
330
9B34D
100
AcDbEntity
  8
NOTE
100
AcDbLine
 10
-1797.750793746632
 20
-220.8842848223776
 30
0.0
 11
-1797.750793746632
 21
-233.0903340727555
 31
0.0
  0
TEXT
  5
9B402
330
9B34D
100
AcDbEntity
  8
NOTE
100
AcDbText
 10
-1866.409292324286
 20
-271.8335220224199
 30
0.0
 40
23.69722882067107
  1
 outlet
 50
359.9999974955184
 41
0.6
  7
STANDARD1
100
AcDbText
  0
TEXT
  5
9B403
330
9B34D
100
AcDbEntity
  8
NOTE
100
AcDbText
 10
-3001.178515487749
 20
134.2947251771625
 30
0.0
 40
30.0
  1
Suspension bolt hole
 50
359.9999974955248
 41
0.6
  7
STANDARD1
100
AcDbText
  0
LINE
  5
9B404
330
9B34D
100
AcDbEntity
  8
NOTE
100
AcDbLine
 10
-2653.003147446534
 20
37.13389247578016
 30
0.0
 11
-3008.444069746627
 21
37.13392452293192
 31
0.0
  0
TEXT
  5
9B405
330
9B34D
100
AcDbEntity
  8
NOTE
100
AcDbText
 10
-3010.13688948102
 20
85.87068234896105
 30
0.0
 40
30.0
  1
 4-14X30 Slot
 50
359.9999974955248
 41
0.6
  7
STANDARD1
100
AcDbText
  0
TEXT
  5
9B406
330
9B34D
100
AcDbEntity
  8
NOTE
100
AcDbText
 10
-3000.146091493576
 20
47.03706255145653
 30
0.0
 40
30.0
  1
(Use M10 screw)
 50
359.9999974955248
 41
0.6
  7
STANDARD1
100
AcDbText
  0
LINE
  5
9B407
330
9B34D
100
AcDbEntity
  8
SIZE
100
AcDbLine
 10
-1857.936642879679
 20
-139.6207204673701
 30
0.0
 11
-1704.333100779277
 21
-139.6207204673701
 31
0.0
  0
LINE
  5
9B408
330
9B34D
100
AcDbEntity
  8
SIZE
100
AcDbLine
 10
-1864.30013047512
 20
-179.6207204673702
 30
0.0
 11
-1704.333100779277
 21
-179.6207204673701
 31
0.0
  0
LINE
  5
9B409
330
9B34D
100
AcDbEntity
  8
SIZE
100
AcDbLine
 10
-1709.333100779277
 20
-179.6207204673701
 30
0.0
 11
-1709.333100779277
 21
-139.6207204673701
 31
0.0
  0
LINE
  5
9B40A
330
9B34D
100
AcDbEntity
  8
SIZE
100
AcDbLine
 10
-1709.333100779277
 20
-139.6207204673701
 30
0.0
 11
-1709.333100779277
 21
-45.90643475308282
 31
0.0
  0
CIRCLE
  5
9B40B
330
9B34D
100
AcDbEntity
  8
SIZE
100
AcDbCircle
 10
-1709.333100779277
 20
-179.6207204673701
 30
0.0
 40
5.0
  0
CIRCLE
  5
9B40C
330
9B34D
100
AcDbEntity
  8
SIZE
100
AcDbCircle
 10
-1709.333100779277
 20
-139.6207204673701
 30
0.0
 40
5.0
  0
TEXT
  5
9B40D
330
9B34D
100
AcDbEntity
  8
SIZE
100
AcDbText
 10
-1724.333100779277
 20
-104.620720467368
 30
0.0
 40
30.0
  1
40
 50
90.0
 41
0.9
100
AcDbText
  0
LINE
  5
9B40E
330
9B34D
100
AcDbEntity
  8
SIZE
100
AcDbLine
 10
-1864.30013047512
 20
-179.6207204673702
 30
0.0
 11
-1704.333100779276
 21
-179.6207204673701
 31
0.0
  0
LINE
  5
9B40F
330
9B34D
100
AcDbEntity
  8
SIZE
100
AcDbLine
 10
-1864.30013047512
 20
-279.6207204673702
 30
0.0
 11
-1704.333100779276
 21
-279.6207204673702
 31
0.0
  0
LINE
  5
9B410
330
9B34D
100
AcDbEntity
  8
SIZE
100
AcDbLine
 10
-1709.333100779276
 20
-179.6207204673701
 30
0.0
 11
-1709.333100779276
 21
-279.6207204673702
 31
0.0
  0
CIRCLE
  5
9B411
330
9B34D
100
AcDbEntity
  8
SIZE
100
AcDbCircle
 10
-1709.333100779276
 20
-179.6207204673701
 30
0.0
 40
5.0
  0
CIRCLE
  5
9B412
330
9B34D
100
AcDbEntity
  8
SIZE
100
AcDbCircle
 10
-1709.333100779276
 20
-279.6207204673702
 30
0.0
 40
5.0
  0
TEXT
  5
9B413
330
9B34D
100
AcDbEntity
  8
SIZE
100
AcDbText
 10
-1724.333100779276
 20
-261.7635776102268
 30
0.0
 40
30.0
  1
100
 50
90.0
 41
0.9
100
AcDbText
  0
TEXT
  5
9B414
330
9B34D
100
AcDbEntity
  8
NOTE
100
AcDbText
 10
-1856.208136688961
 20
-242.8399700451682
 30
0.0
 40
23.69722882067107
  1
Air
 50
359.9999974955184
 41
0.6
  7
STANDARD1
100
AcDbText
  0
LINE
  5
9B415
330
9B34D
100
AcDbEntity
  8
SIZE
100
AcDbLine
 10
-1889.936642879668
 20
-116.6207204673701
 30
0.0
 11
-1572.288781237647
 21
-116.6207204673701
 31
0.0
  0
LINE
  5
9B416
330
9B34D
100
AcDbEntity
  8
SIZE
100
AcDbLine
 10
-1857.936642879679
 20
-139.6207204673701
 30
0.0
 11
-1572.288781237647
 21
-139.6207204673701
 31
0.0
  0
LINE
  5
9B417
330
9B34D
100
AcDbEntity
  8
SIZE
100
AcDbLine
 10
-1577.288781237647
 20
-139.6207204673701
 30
0.0
 11
-1577.288781237647
 21
-159.6207204673701
 31
0.0
  0
LINE
  5
9B418
330
9B34D
100
AcDbEntity
  8
SIZE
100
AcDbLine
 10
-1577.288781237647
 20
-116.6207204673701
 30
0.0
 11
-1577.288781237647
 21
-2.906434753082787
 31
0.0
  0
LINE
  5
9B419
330
9B34D
100
AcDbEntity
  8
SIZE
100
AcDbLine
 10
-1577.288781237647
 20
-139.6207204673701
 30
0.0
 11
-1577.288781237647
 21
-116.6207204673701
 31
0.0
  0
CIRCLE
  5
9B41A
330
9B34D
100
AcDbEntity
  8
SIZE
100
AcDbCircle
 10
-1577.288781237647
 20
-139.6207204673701
 30
0.0
 40
5.0
  0
CIRCLE
  5
9B41B
330
9B34D
100
AcDbEntity
  8
SIZE
100
AcDbCircle
 10
-1577.288781237647
 20
-116.6207204673701
 30
0.0
 40
5.0
  0
TEXT
  5
9B41C
330
9B34D
100
AcDbEntity
  8
SIZE
100
AcDbText
 10
-1592.288781237646
 20
-61.62072046736803
 30
0.0
 40
30.0
  1
23
 50
90.0
 41
0.9
100
AcDbText
  0
LINE
  5
9B41D
330
9B34D
100
AcDbEntity
  8
SIZE
100
AcDbLine
 10
-1857.936642879679
 20
-139.6207204673701
 30
0.0
 11
-1572.288781237646
 21
-139.6207204673701
 31
0.0
  0
LINE
  5
9B41E
330
9B34D
100
AcDbEntity
  8
SIZE
100
AcDbLine
 10
-1857.936642879668
 20
-317.6207204673702
 30
0.0
 11
-1572.288781237646
 21
-317.6207204673702
 31
0.0
  0
LINE
  5
9B41F
330
9B34D
100
AcDbEntity
  8
SIZE
100
AcDbLine
 10
-1577.288781237647
 20
-139.6207204673701
 30
0.0
 11
-1577.288781237647
 21
-317.6207204673702
 31
0.0
  0
CIRCLE
  5
9B420
330
9B34D
100
AcDbEntity
  8
SIZE
100
AcDbCircle
 10
-1577.288781237647
 20
-139.6207204673701
 30
0.0
 40
5.0
  0
CIRCLE
  5
9B421
330
9B34D
100
AcDbEntity
  8
SIZE
100
AcDbCircle
 10
-1577.288781237647
 20
-317.6207204673702
 30
0.0
 40
5.0
  0
TEXT
  5
9B422
330
9B34D
100
AcDbEntity
  8
SIZE
100
AcDbText
 10
-1592.288781237646
 20
-260.7635776102268
 30
0.0
 40
30.0
  1
178
 50
90.0
 41
0.9
100
AcDbText
  0
LINE
  5
9B423
330
9B34D
100
AcDbEntity
  8
DETAIL
100
AcDbLine
 10
-2449.013896098565
 20
-125.633596003865
 30
0.0
 11
-2449.013896098565
 21
-116.6207204673846
 31
0.0
  0
LINE
  5
9B424
330
9B34D
100
AcDbEntity
  8
DETAIL
100
AcDbLine
 10
-2452.018187944046
 20
-128.6378878493579
 30
0.0
 11
-2604.936642879672
 21
-128.6378878493506
 31
0.0
  0
ARC
  5
9B425
330
9B34D
100
AcDbEntity
  8
DETAIL
100
AcDbCircle
 10
-2452.018187944046
 20
-125.633596003865
 30
0.0
 40
3.0042918454936
100
AcDbArc
 50
270.0
 51
0.0
  0
LINE
  5
9B426
330
9B34D
100
AcDbEntity
  8
DETAIL
100
AcDbLine
 10
-2604.936642879668
 20
-365.819575975238
 30
0.0
 11
-2605.737787371789
 21
-365.819575975238
 31
0.0
  0
LINE
  5
9B427
330
9B34D
100
AcDbEntity
  8
DETAIL
100
AcDbLine
 10
-2607.940934725179
 20
-363.4161424988424
 30
0.0
 11
-2605.938073494848
 21
-363.4161424988424
 31
0.0
  0
LINE
  5
9B428
330
9B34D
100
AcDbEntity
  8
DETAIL
100
AcDbLine
 10
-2611.445941878244
 20
-356.9068435002737
 30
0.0
 11
-2607.940934725179
 21
-356.9068435002737
 31
0.0
  0
LINE
  5
9B429
330
9B34D
100
AcDbEntity
  8
DETAIL
100
AcDbLine
 10
-2604.936642879668
 20
-344.6207204673856
 30
0.0
 11
-2607.940934725179
 21
-344.6207204673856
 31
0.0
  0
LINE
  5
9B42A
330
9B34D
100
AcDbEntity
  8
DETAIL
100
AcDbLine
 10
-2611.445941878244
 20
-126.9354558035793
 30
0.0
 11
-2607.940934725179
 21
-126.9354558035793
 31
0.0
  0
LINE
  5
9B42B
330
9B34D
100
AcDbEntity
  8
DETAIL
100
AcDbLine
 10
-2611.946657185812
 20
-120.9268721125927
 30
0.0
 11
-2610.544654324587
 21
-120.9268721125927
 31
0.0
  0
LINE
  5
9B42C
330
9B34D
100
AcDbEntity
  8
DETAIL
100
AcDbLine
 10
-2607.940934725179
 20
-120.4261568050096
 30
0.0
 11
-2604.936642879668
 21
-120.4261568050096
 31
0.0
  0
LINE
  5
9B42D
330
9B34D
100
AcDbEntity
  8
DETAIL
100
AcDbLine
 10
-2610.544654324587
 20
-120.9268721125927
 30
0.0
 11
-2609.864640615541
 21
-123.19358447601
 31
0.0
  0
LINE
  5
9B42E
330
9B34D
100
AcDbEntity
  8
DETAIL
100
AcDbLine
 10
-2598.928059188688
 20
-188.7237247592284
 30
0.0
 11
-2598.928059188688
 21
-140.6550552313301
 31
0.0
  0
LINE
  5
9B42F
330
9B34D
100
AcDbEntity
  8
DETAIL
100
AcDbLine
 10
-2598.928059188688
 20
-131.6421796948543
 30
0.0
 11
-2598.928059188688
 21
-140.6550552313301
 31
0.0
  0
LINE
  5
9B430
330
9B34D
100
AcDbEntity
  8
DETAIL
100
AcDbLine
 10
-2604.936642879668
 20
-364.6178592370388
 30
0.0
 11
-2604.936642879668
 21
-353.4018363471978
 31
0.0
  0
LINE
  5
9B431
330
9B34D
100
AcDbEntity
  8
DETAIL
100
AcDbLine
 10
-2604.936642879668
 20
-350.7551982928508
 30
0.0
 11
-2604.936642879668
 21
-116.6207204673856
 31
0.0
  0
LINE
  5
9B432
330
9B34D
100
AcDbEntity
  8
DETAIL
100
AcDbLine
 10
-2604.936642879668
 20
-239.5964000095891
 30
0.0
 11
-2604.936642879668
 21
-128.6378878493579
 31
0.0
  0
LINE
  5
9B433
330
9B34D
100
AcDbEntity
  8
DETAIL
100
AcDbLine
 10
-2605.938073494848
 20
-364.6178592370388
 30
0.0
 11
-2605.938073494848
 21
-344.6207204673856
 31
0.0
  0
LINE
  5
9B434
330
9B34D
100
AcDbEntity
  8
DETAIL
100
AcDbLine
 10
-2605.938073494848
 20
-364.6178592370388
 30
0.0
 11
-2605.938073494848
 21
-365.619289852204
 31
0.0
  0
LINE
  5
9B435
330
9B34D
100
AcDbEntity
  8
DETAIL
100
AcDbLine
 10
-2607.940934725179
 20
-120.4261568050096
 30
0.0
 11
-2607.940934725179
 21
-134.6207204673856
 31
0.0
  0
LINE
  5
9B436
330
9B34D
100
AcDbEntity
  8
DETAIL
100
AcDbLine
 10
-2607.940934725179
 20
-344.6207204673856
 30
0.0
 11
-2607.940934725179
 21
-363.4161424988424
 31
0.0
  0
LINE
  5
9B437
330
9B34D
100
AcDbEntity
  8
DETAIL
100
AcDbLine
 10
-2609.750846722829
 20
-126.4522152081726
 30
0.0
 11
-2609.864640615541
 21
-123.19358447601
 31
0.0
  0
ARC
  5
9B438
330
9B34D
100
AcDbEntity
  8
DETAIL
100
AcDbCircle
 10
-2611.445941878244
 20
-356.4061281926906
 30
0.0
 40
0.5007153075822283
100
AcDbArc
 50
180.0
 51
270.0
  0
ARC
  5
9B439
330
9B34D
100
AcDbEntity
  8
DETAIL
100
AcDbCircle
 10
-2605.737787371789
 20
-365.619289852204
 30
0.0
 40
0.2002861230327059
100
AcDbArc
 50
180.0
 51
270.0
  0
ARC
  5
9B43A
330
9B34D
100
AcDbEntity
  8
DETAIL
100
AcDbCircle
 10
-2611.445941878244
 20
-127.4361711111614
 30
0.0
 40
0.500715307582258
100
AcDbArc
 50
90.0
 51
180.0
  0
ARC
  5
9B43B
330
9B34D
100
AcDbEntity
  8
DETAIL
100
AcDbCircle
 10
-2609.250436437504
 20
-126.4347404959963
 30
0.0
 40
0.5007153075822283
100
AcDbArc
 50
182.0000000000036
 51
270.0
  0
LINE
  5
9B43C
330
9B34D
100
AcDbEntity
  8
DETAIL
100
AcDbLine
 10
-2611.946657185827
 20
-356.4061281926906
 30
0.0
 11
-2611.946657185827
 21
-120.9268721125927
 31
0.0
  0
LINE
  5
9B43D
330
9B34D
100
AcDbEntity
  8
DETAIL
100
AcDbLine
 10
-2604.936642879668
 20
-366.6207204673701
 30
0.0
 11
-2604.936642879668
 21
-116.6207204673701
 31
0.0
  0
LINE
  5
9B43E
330
9B34D
100
AcDbEntity
  8
OUTLINE
100
AcDbLine
 10
-2604.936642879668
 20
-116.6207204673856
 30
0.0
 11
-2604.936642879668
 21
-366.6207204673701
 31
0.0
  0
LINE
  5
9B43F
330
9B34D
100
AcDbEntity
  8
DETAIL
100
AcDbLine
 10
-2607.940934725179
 20
-134.6207204673856
 30
0.0
 11
-2604.936642879668
 21
-134.6207204673856
 31
0.0
  0
LINE
  5
9B440
330
9B34D
100
AcDbEntity
  8
NOTE
100
AcDbLine
 10
-2604.936642879668
 20
-123.9842080628259
 30
0.0
 11
-2604.936642879668
 21
-131.2572328719452
 31
0.0
  0
LINE
  5
9B441
330
9B34D
100
AcDbEntity
  8
NOTE
100
AcDbLine
 10
-2608.573155284228
 20
-127.6207204673855
 30
0.0
 11
-2601.300130475107
 21
-127.6207204673855
 31
0.0
  0
LINE
  5
9B442
330
9B34D
100
AcDbEntity
  8
NOTE
100
AcDbLine
 10
-2604.936642879668
 20
-235.984208062825
 30
0.0
 11
-2604.936642879668
 21
-243.2572328719452
 31
0.0
  0
LINE
  5
9B443
330
9B34D
100
AcDbEntity
  8
NOTE
100
AcDbLine
 10
-2608.573155284228
 20
-239.6207204673856
 30
0.0
 11
-2601.300130475107
 21
-239.6207204673856
 31
0.0
  0
LINE
  5
9B444
330
9B34D
100
AcDbEntity
  8
NOTE
100
AcDbLine
 10
-2604.936642879668
 20
-347.984208062825
 30
0.0
 11
-2604.936642879668
 21
-355.2572328719453
 31
0.0
  0
LINE
  5
9B445
330
9B34D
100
AcDbEntity
  8
NOTE
100
AcDbLine
 10
-2608.573155284228
 20
-351.6207204673856
 30
0.0
 11
-2601.300130475107
 21
-351.6207204673856
 31
0.0
  0
LINE
  5
9B446
330
9B34D
100
AcDbEntity
  8
SERVICESPACE
100
AcDbLine
 10
-2904.936642879667
 20
-786.6207204673701
 30
0.0
 11
-1904.936642879667
 21
-786.6207204673701
 31
0.0
  0
LINE
  5
9B447
330
9B34D
100
AcDbEntity
  8
SERVICESPACE
100
AcDbLine
 10
-1904.936642879667
 20
-766.6207204673701
 30
0.0
 11
-2904.936642879667
 21
-766.6207204673701
 31
0.0
  0
LINE
  5
9B448
330
9B34D
100
AcDbEntity
  8
SERVICESPACE
100
AcDbLine
 10
-2379.936642879667
 20
-786.6207204673701
 30
0.0
 11
-2379.936642879667
 21
-766.6207204673701
 31
0.0
  0
LINE
  5
9B449
330
9B34D
100
AcDbEntity
  8
SERVICESPACE
100
AcDbLine
 10
-2379.936642879667
 20
-766.6207204673701
 30
0.0
 11
-2829.936642879668
 21
-786.6207204673701
 31
0.0
  0
LINE
  5
9B44A
330
9B34D
100
AcDbEntity
  8
SERVICESPACE
100
AcDbLine
 10
-2829.936642879668
 20
-786.6207204673701
 30
0.0
 11
-2829.936642879668
 21
-766.6207204673701
 31
0.0
  0
LINE
  5
9B44B
330
9B34D
100
AcDbEntity
  8
SERVICESPACE
100
AcDbLine
 10
-2829.936642879668
 20
-766.6207204673701
 30
0.0
 11
-2379.936642879667
 21
-786.6207204673701
 31
0.0
  0
LINE
  5
9B44C
330
9B34D
100
AcDbEntity
  8
SERVICESPACE
100
AcDbLine
 10
-2904.936642879667
 20
-766.6207204673701
 30
0.0
 11
-2904.936642879667
 21
-786.6207204673701
 31
0.0
  0
LINE
  5
9B44D
330
9B34D
100
AcDbEntity
  8
SERVICESPACE
100
AcDbLine
 10
-2454.936643381029
 20
-786.6207204673701
 30
0.0
 11
-2454.936643381029
 21
-766.6207204673701
 31
0.0
  0
LINE
  5
9B44E
330
9B34D
100
AcDbEntity
  8
SERVICESPACE
100
AcDbLine
 10
-2454.936643381029
 20
-766.6207204673701
 30
0.0
 11
-2004.936643381029
 21
-786.6207204673701
 31
0.0
  0
LINE
  5
9B44F
330
9B34D
100
AcDbEntity
  8
SERVICESPACE
100
AcDbLine
 10
-2004.936643381029
 20
-786.6207204673701
 30
0.0
 11
-2004.936643381029
 21
-766.6207204673701
 31
0.0
  0
LINE
  5
9B450
330
9B34D
100
AcDbEntity
  8
SERVICESPACE
100
AcDbLine
 10
-2004.936643381029
 20
-766.6207204673701
 30
0.0
 11
-2454.936643381029
 21
-786.6207204673701
 31
0.0
  0
LINE
  5
9B451
330
9B34D
100
AcDbEntity
  8
SERVICESPACE
100
AcDbLine
 10
-1904.936642879667
 20
-766.6207204673701
 30
0.0
 11
-1904.936642879667
 21
-786.6207204673701
 31
0.0
  0
LINE
  5
9B452
330
9B34D
100
AcDbEntity
  8
SIZE
100
AcDbLine
 10
-2829.936642879668
 20
-801.6207204673701
 30
0.0
 11
-2829.936642879668
 21
-960.7658165351922
 31
0.0
  0
LINE
  5
9B453
330
9B34D
100
AcDbEntity
  8
SIZE
100
AcDbLine
 10
-2379.936642879667
 20
-801.6207204673701
 30
0.0
 11
-2379.936642879667
 21
-960.7658165351922
 31
0.0
  0
LINE
  5
9B454
330
9B34D
100
AcDbEntity
  8
SIZE
100
AcDbLine
 10
-2829.936642879668
 20
-955.7658165351922
 30
0.0
 11
-2379.936642879667
 21
-955.7658165351922
 31
0.0
  0
TEXT
  5
9B455
330
9B34D
100
AcDbEntity
  8
SIZE
100
AcDbText
 10
-2706.048365770473
 20
-940.7658165351922
 30
0.0
 40
30.0
  1
450
 41
0.9
100
AcDbText
  0
CIRCLE
  5
9B456
330
9B34D
100
AcDbEntity
  8
SIZE
100
AcDbCircle
 10
-2829.936642879668
 20
-955.7658165351922
 30
0.0
 40
5.0
  0
CIRCLE
  5
9B457
330
9B34D
100
AcDbEntity
  8
SIZE
100
AcDbCircle
 10
-2379.936642879667
 20
-955.7658165351922
 30
0.0
 40
5.0
  0
LINE
  5
9B458
330
9B34D
100
AcDbEntity
  8
SIZE
100
AcDbLine
 10
-2604.93664287967
 20
-381.6207204673701
 30
0.0
 11
-2604.93664287967
 21
-1058.406475257905
 31
0.0
  0
LINE
  5
9B459
330
9B34D
100
AcDbEntity
  8
SIZE
100
AcDbLine
 10
-2904.936642879667
 20
-801.6207204673701
 30
0.0
 11
-2904.936642879667
 21
-1058.406475257905
 31
0.0
  0
LINE
  5
9B45A
330
9B34D
100
AcDbEntity
  8
SIZE
100
AcDbLine
 10
-2604.93664287967
 20
-1053.406475257905
 30
0.0
 11
-2904.936642879667
 21
-1053.406475257905
 31
0.0
  0
CIRCLE
  5
9B45B
330
9B34D
100
AcDbEntity
  8
SIZE
100
AcDbCircle
 10
-2604.93664287967
 20
-1053.406475257905
 30
0.0
 40
5.0
  0
CIRCLE
  5
9B45C
330
9B34D
100
AcDbEntity
  8
SIZE
100
AcDbCircle
 10
-2904.936642879667
 20
-1053.406475257905
 30
0.0
 40
5.0
  0
TEXT
  5
9B45D
330
9B34D
100
AcDbEntity
  8
SIZE
100
AcDbText
 10
-2866.150928593954
 20
-1038.406475257905
 30
0.0
 40
30.0
  1
Min.300mm
 41
0.9
100
AcDbText
  0
LINE
  5
9B45E
330
9B34D
100
AcDbEntity
  8
SIZE
100
AcDbLine
 10
-2570.45130096855
 20
-666.6207204673703
 30
0.0
 11
-3156.797556465281
 21
-666.6207204673703
 31
0.0
  0
LINE
  5
9B45F
330
9B34D
100
AcDbEntity
  8
SIZE
100
AcDbLine
 10
-2619.936642879669
 20
-366.6207204673702
 30
0.0
 11
-3156.797556465281
 21
-366.6207204673703
 31
0.0
  0
LINE
  5
9B460
330
9B34D
100
AcDbEntity
  8
SIZE
100
AcDbLine
 10
-3151.797556465281
 20
-666.6207204673703
 30
0.0
 11
-3151.797556465281
 21
-366.6207204673703
 31
0.0
  0
CIRCLE
  5
9B461
330
9B34D
100
AcDbEntity
  8
SIZE
100
AcDbCircle
 10
-3151.797556465281
 20
-666.6207204673703
 30
0.0
 40
5.0
  0
CIRCLE
  5
9B462
330
9B34D
100
AcDbEntity
  8
SIZE
100
AcDbCircle
 10
-3151.797556465281
 20
-366.6207204673703
 30
0.0
 40
5.0
  0
TEXT
  5
9B463
330
9B34D
100
AcDbEntity
  8
SIZE
100
AcDbText
 10
-3166.79755646528
 20
-627.8350061816552
 30
0.0
 40
30.0
  1
Min.300mm
 50
90.0
 41
0.9
100
AcDbText
  0
LINE
  5
9B464
330
9B34D
100
AcDbEntity
  8
SIZE
100
AcDbLine
 10
-2454.936643381029
 20
-801.6207204673701
 30
0.0
 11
-2454.936643381029
 21
-882.2546602014507
 31
0.0
  0
LINE
  5
9B465
330
9B34D
100
AcDbEntity
  8
SIZE
100
AcDbLine
 10
-2004.936643381029
 20
-801.6207204673701
 30
0.0
 11
-2004.936643381029
 21
-882.2546602014507
 31
0.0
  0
LINE
  5
9B466
330
9B34D
100
AcDbEntity
  8
SIZE
100
AcDbLine
 10
-2454.936643381029
 20
-877.2546602014509
 30
0.0
 11
-2004.936643381029
 21
-877.2546602014509
 31
0.0
  0
TEXT
  5
9B467
330
9B34D
100
AcDbEntity
  8
SIZE
100
AcDbText
 10
-2259.167946956846
 20
-862.2546602014509
 30
0.0
 40
30.0
  1
450
 41
0.9
100
AcDbText
  0
CIRCLE
  5
9B468
330
9B34D
100
AcDbEntity
  8
SIZE
100
AcDbCircle
 10
-2454.936643381029
 20
-877.2546602014509
 30
0.0
 40
5.0
  0
CIRCLE
  5
9B469
330
9B34D
100
AcDbEntity
  8
SIZE
100
AcDbCircle
 10
-2004.936643381029
 20
-877.2546602014509
 30
0.0
 40
5.0
  0
LINE
  5
9B46A
330
9B34D
100
AcDbEntity
  8
OUTLINE
100
AcDbLine
 10
-1964.206387027907
 20
-666.6207204673701
 30
0.0
 11
-1964.206387027907
 21
-706.6207204673701
 31
0.0
  0
LINE
  5
9B46B
330
9B34D
100
AcDbEntity
  8
OUTLINE
100
AcDbLine
 10
-1964.206387027907
 20
-706.6207204673701
 30
0.0
 11
-1924.206387027907
 21
-706.6207204673701
 31
0.0
  0
LINE
  5
9B46C
330
9B34D
100
AcDbEntity
  8
OUTLINE
100
AcDbLine
 10
-1924.206387027907
 20
-706.6207204673701
 30
0.0
 11
-1924.206387027907
 21
-666.6207204673701
 31
0.0
  0
LINE
  5
9B46D
330
9B34D
100
AcDbEntity
  8
OUTLINE
100
AcDbLine
 10
-1924.206387027907
 20
-666.6207204673701
 30
0.0
 11
-1964.206387027907
 21
-666.6207204673701
 31
0.0
  0
LINE
  5
9B46E
330
9B34D
100
AcDbEntity
  8
OUTLINE
100
AcDbLine
 10
-1924.206387027907
 20
-706.6207204673701
 30
0.0
 11
-1964.206387027907
 21
-666.6207204673701
 31
0.0
  0
LINE
  5
9B46F
330
9B34D
100
AcDbEntity
  8
OUTLINE
100
AcDbLine
 10
-1964.206387027907
 20
-706.6207204673701
 30
0.0
 11
-1924.206387027907
 21
-666.6207204673701
 31
0.0
  0
LINE
  5
9B470
330
9B34D
100
AcDbEntity
  8
OUTLINE
100
AcDbLine
 10
-2555.451300968549
 20
-666.6207204673701
 30
0.0
 11
-2555.451300968549
 21
-706.6207204673701
 31
0.0
  0
LINE
  5
9B471
330
9B34D
100
AcDbEntity
  8
OUTLINE
100
AcDbLine
 10
-2555.451300968549
 20
-706.6207204673701
 30
0.0
 11
-2515.451300968549
 21
-706.6207204673701
 31
0.0
  0
LINE
  5
9B472
330
9B34D
100
AcDbEntity
  8
OUTLINE
100
AcDbLine
 10
-2515.451300968549
 20
-706.6207204673701
 30
0.0
 11
-2515.451300968549
 21
-666.6207204673701
 31
0.0
  0
LINE
  5
9B473
330
9B34D
100
AcDbEntity
  8
OUTLINE
100
AcDbLine
 10
-2515.451300968549
 20
-666.6207204673701
 30
0.0
 11
-2555.451300968549
 21
-666.6207204673701
 31
0.0
  0
LINE
  5
9B474
330
9B34D
100
AcDbEntity
  8
OUTLINE
100
AcDbLine
 10
-2515.451300968549
 20
-706.6207204673701
 30
0.0
 11
-2555.451300968549
 21
-666.6207204673701
 31
0.0
  0
LINE
  5
9B475
330
9B34D
100
AcDbEntity
  8
OUTLINE
100
AcDbLine
 10
-2555.451300968549
 20
-706.6207204673701
 30
0.0
 11
-2515.451300968549
 21
-666.6207204673701
 31
0.0
  0
TEXT
  5
9B476
330
9B34D
100
AcDbEntity
  8
NOTE
100
AcDbText
 10
-3344.023283746397
 20
-862.6728632702134
 30
0.0
 40
35.0
  1
Ceiling surface
 50
359.999999316757
 41
0.7
  7
STANDARD1
100
AcDbText
  0
LINE
  5
9B477
330
9B34D
100
AcDbEntity
  8
NOTE
100
AcDbLine
 10
-2904.936642879667
 20
-786.6207204673701
 30
0.0
 11
-2932.136469670802
 21
-807.6568582431873
 31
0.0
  0
LINE
  5
9B478
330
9B34D
100
AcDbEntity
  8
NOTE
100
AcDbLine
 10
-2904.936642879667
 20
-786.6207204673701
 30
0.0
 11
-2917.974314507829
 21
-818.438463764235
 31
0.0
  0
LINE
  5
9B479
330
9B34D
100
AcDbEntity
  8
NOTE
100
AcDbLine
 10
-2978.46390270807
 20
-881.7740155329675
 30
0.0
 11
-2904.936642879667
 21
-786.6207204673701
 31
0.0
  0
LINE
  5
9B47A
330
9B34D
100
AcDbEntity
  8
NOTE
100
AcDbLine
 10
-2978.46390270807
 20
-881.7740155329675
 30
0.0
 11
-3351.49590183086
 21
-881.7740155329675
 31
0.0
  0
LINE
  5
9B47B
330
9B34D
100
AcDbEntity
  8
NOTE
100
AcDbLine
 10
-2035.922633777867
 20
-734.586217477934
 30
0.0
 11
-2018.989185826066
 21
-766.6207204673701
 31
0.0
  0
LINE
  5
9B47C
330
9B34D
100
AcDbEntity
  8
NOTE
100
AcDbLine
 10
-2018.989185826066
 20
-766.6207204673701
 30
0.0
 11
-2049.671233333259
 21
-747.3447509176212
 31
0.0
  0
LINE
  5
9B47D
330
9B34D
100
AcDbEntity
  8
NOTE
100
AcDbLine
 10
-2018.989185826066
 20
-766.6207204673701
 30
0.0
 11
-2042.796933555563
 21
-740.9654841977771
 31
0.0
  0
LINE
  5
9B47E
330
9B34D
100
AcDbEntity
  8
NOTE
100
AcDbLine
 10
-2042.796933555563
 20
-740.9654841977771
 30
0.0
 11
-2093.648190987476
 21
-686.1681535622055
 31
0.0
1001
ACAD
1000
DSTYLE
1002
{
1070
   341
1005
4C0C3
1070
    41
1040
35.0
1070
   271
1070
     0
1002
}
  0
LINE
  5
9B47F
330
9B34D
100
AcDbEntity
  8
NOTE
100
AcDbLine
 10
-2093.648190987476
 20
-686.1681535622055
 30
0.0
 11
-2406.419482482268
 21
-686.1681535622055
 31
0.0
1001
ACAD
1000
DSTYLE
1002
{
1070
   341
1005
4C0C3
1070
    41
1040
35.0
1070
   271
1070
     0
1002
}
  0
TEXT
  5
9B480
330
9B34D
100
AcDbEntity
  8
NOTE
100
AcDbText
 10
-2401.772590789507
 20
-676.2819130455445
 30
0.0
 40
35.0
  1
Access door 2
 50
359.999999316757
 41
0.7
  7
STANDARD1
100
AcDbText
  0
TEXT
  5
9B481
330
9B34D
100
AcDbEntity
  8
NOTE
100
AcDbText
 10
-2282.436190091026
 20
-743.1889414945726
 30
0.0
 40
35.0
  1
(450X450)
 50
0.0000025044752157
 41
0.55
  7
STANDARD1
100
AcDbText
  0
TEXT
  5
9B482
330
9B34D
100
AcDbEntity
  8
NOTE
100
AcDbText
 10
-1773.297418486949
 20
-774.5403022718473
 30
0.0
 40
35.0
  1
Ceiling beam
 50
359.999999316757
 41
0.7
  7
STANDARD1
100
AcDbText
  0
LINE
  5
9B483
330
9B34D
100
AcDbEntity
  8
NOTE
100
AcDbLine
 10
-2676.410846589317
 20
-731.4589322927623
 30
0.0
 11
-2667.658721494203
 21
-766.6207204673701
 31
0.0
  0
LINE
  5
9B484
330
9B34D
100
AcDbEntity
  8
NOTE
100
AcDbLine
 10
-2667.658721494203
 20
-766.6207204673701
 30
0.0
 11
-2692.819178132686
 21
-740.5457810990883
 31
0.0
  0
LINE
  5
9B485
330
9B34D
100
AcDbEntity
  8
NOTE
100
AcDbLine
 10
-2667.658721494203
 20
-766.6207204673701
 30
0.0
 11
-2684.615012361002
 21
-736.0023566959252
 31
0.0
  0
LINE
  5
9B486
330
9B34D
100
AcDbEntity
  8
NOTE
100
AcDbLine
 10
-2684.615012361002
 20
-736.0023566959252
 30
0.0
 11
-2784.354349598323
 21
-555.9007452146807
 31
0.0
1001
ACAD
1000
DSTYLE
1002
{
1070
   341
1005
4C0C3
1070
    41
1040
35.0
1070
   271
1070
     0
1002
}
  0
LINE
  5
9B487
330
9B34D
100
AcDbEntity
  8
NOTE
100
AcDbLine
 10
-2784.354349598323
 20
-555.9007452146807
 30
0.0
 11
-3099.102334610491
 21
-555.9007452146807
 31
0.0
1001
ACAD
1000
DSTYLE
1002
{
1070
   341
1005
4C0C3
1070
    41
1040
35.0
1070
   271
1070
     0
1002
}
  0
TEXT
  5
9B488
330
9B34D
100
AcDbEntity
  8
NOTE
100
AcDbText
 10
-3093.469880434559
 20
-539.9053805690737
 30
0.0
 40
35.0
  1
Access door 1
 50
359.999999316757
 41
0.7
  7
STANDARD1
100
AcDbText
  0
TEXT
  5
9B489
330
9B34D
100
AcDbEntity
  8
NOTE
100
AcDbText
 10
-2974.133479736078
 20
-606.8124090181018
 30
0.0
 40
35.0
  1
(450X450)
 50
0.0000025044752157
 41
0.55
  7
STANDARD1
100
AcDbText
  0
LINE
  5
9B48A
330
9B34D
100
AcDbEntity
  8
SIZE
100
AcDbLine
 10
-2379.936642879667
 20
-801.6207204673701
 30
0.0
 11
-2379.936642879667
 21
-960.7658165351922
 31
0.0
  0
LINE
  5
9B48B
330
9B34D
100
AcDbEntity
  8
SIZE
100
AcDbLine
 10
-1904.936642879667
 20
-801.6207204673701
 30
0.0
 11
-1904.936642879667
 21
-960.7658165351922
 31
0.0
  0
LINE
  5
9B48C
330
9B34D
100
AcDbEntity
  8
SIZE
100
AcDbLine
 10
-2379.936642879667
 20
-955.7658165351922
 30
0.0
 11
-1904.936642879667
 21
-955.7658165351922
 31
0.0
  0
CIRCLE
  5
9B48D
330
9B34D
100
AcDbEntity
  8
SIZE
100
AcDbCircle
 10
-2379.936642879667
 20
-955.7658165351922
 30
0.0
 40
5.0
  0
CIRCLE
  5
9B48E
330
9B34D
100
AcDbEntity
  8
SIZE
100
AcDbCircle
 10
-1904.936642879667
 20
-955.7658165351922
 30
0.0
 40
5.0
  0
TEXT
  5
9B48F
330
9B34D
100
AcDbEntity
  8
SIZE
100
AcDbText
 10
-2177.150928593953
 20
-940.7658165351922
 30
0.0
 40
30.0
  1
475
 41
0.9
100
AcDbText
  0
LINE
  5
9B490
330
9B34D
100
AcDbEntity
  8
SIZE
100
AcDbLine
 10
-2004.936643381029
 20
-801.6207204673701
 30
0.0
 11
-2004.936643381029
 21
-882.2546602014507
 31
0.0
  0
LINE
  5
9B491
330
9B34D
100
AcDbEntity
  8
SIZE
100
AcDbLine
 10
-1904.936642879667
 20
-381.6207204673701
 30
0.0
 11
-1904.936642879667
 21
-882.2546602014507
 31
0.0
  0
LINE
  5
9B492
330
9B34D
100
AcDbEntity
  8
SIZE
100
AcDbLine
 10
-2004.936643381029
 20
-877.2546602014509
 30
0.0
 11
-1904.936642879667
 21
-877.2546602014509
 31
0.0
  0
LINE
  5
9B493
330
9B34D
100
AcDbEntity
  8
SIZE
100
AcDbLine
 10
-1904.936642879667
 20
-877.2546602014509
 30
0.0
 11
-1705.79378573681
 21
-877.2546602014509
 31
0.0
  0
CIRCLE
  5
9B494
330
9B34D
100
AcDbEntity
  8
SIZE
100
AcDbCircle
 10
-2004.936643381029
 20
-877.2546602014509
 30
0.0
 40
5.0
  0
CIRCLE
  5
9B495
330
9B34D
100
AcDbEntity
  8
SIZE
100
AcDbCircle
 10
-1904.936642879667
 20
-877.2546602014509
 30
0.0
 40
5.0
  0
TEXT
  5
9B496
330
9B34D
100
AcDbEntity
  8
SIZE
100
AcDbText
 10
-1869.936642879667
 20
-862.2546602014509
 30
0.0
 40
30.0
  1
50~150
 41
0.9
100
AcDbText
  0
LINE
  5
9B497
330
9B34D
100
AcDbEntity
  8
NOTE
100
AcDbLine
 10
-1901.004798608434
 20
-727.2678361592256
 30
0.0
 11
-1924.206387027907
 21
-706.6207204673701
 31
0.0
  0
LINE
  5
9B498
330
9B34D
100
AcDbEntity
  8
NOTE
100
AcDbLine
 10
-1924.206387027907
 20
-706.6207204673701
 30
0.0
 11
-1893.789664231055
 21
-712.9008530996434
 31
0.0
  0
LINE
  5
9B499
330
9B34D
100
AcDbEntity
  8
NOTE
100
AcDbLine
 10
-1924.206387027907
 20
-706.6207204673701
 30
0.0
 11
-1897.397231419745
 21
-720.0843446294346
 31
0.0
  0
LINE
  5
9B49A
330
9B34D
100
AcDbEntity
  8
NOTE
100
AcDbLine
 10
-1897.397231419745
 20
-720.0843446294346
 30
0.0
 11
-1773.297418486949
 21
-782.4075771970784
 31
0.0
1001
ACAD
1000
DSTYLE
1002
{
1070
    41
1040
30.0
1070
    90
1070
     1
1070
   345
1005
12
1070
   346
1005
12
1070
   347
1005
12
1002
}
  0
LINE
  5
9B49B
330
9B34D
100
AcDbEntity
  8
NOTE
100
AcDbLine
 10
-1773.297418486949
 20
-782.4075771970784
 30
0.0
 11
-1485.294295390693
 21
-782.4075771970784
 31
0.0
1001
ACAD
1000
DSTYLE
1002
{
1070
    41
1040
30.0
1070
    90
1070
     1
1070
   345
1005
12
1070
   346
1005
12
1070
   347
1005
12
1002
}
  0
LINE
  5
9B49C
330
9B34D
100
AcDbEntity
  8
NOTE
100
AcDbLine
 10
-2040.936642879668
 20
-227.7544485553769
 30
0.0
 11
-2040.936642879668
 21
-249.4869923793633
 31
0.0
  0
LINE
  5
9B49D
330
9B34D
100
AcDbEntity
  8
NOTE
100
AcDbLine
 10
-2030.070370967675
 20
-238.6207204673701
 30
0.0
 11
-2051.80291479166
 21
-238.6207204673701
 31
0.0
  0
LINE
  5
9B49E
330
9B34D
100
AcDbEntity
  8
NOTE
100
AcDbLine
 10
-2107.936642879668
 20
-260.7544485553769
 30
0.0
 11
-2107.936642879668
 21
-282.4869923793633
 31
0.0
  0
LINE
  5
9B49F
330
9B34D
100
AcDbEntity
  8
NOTE
100
AcDbLine
 10
-2097.070370967674
 20
-271.6207204673701
 30
0.0
 11
-2118.802914791661
 21
-271.6207204673701
 31
0.0
  0
LINE
  5
9B4A0
330
9B34D
100
AcDbEntity
  8
SIZE
100
AcDbLine
 10
-1904.936642879667
 20
-381.6207204673701
 30
0.0
 11
-1904.936642879667
 21
-476.3846198710675
 31
0.0
  0
LINE
  5
9B4A1
330
9B34D
100
AcDbEntity
  8
SIZE
100
AcDbLine
 10
-2040.936642879668
 20
-264.4869923793633
 30
0.0
 11
-2040.936642879668
 21
-476.3846198710675
 31
0.0
  0
LINE
  5
9B4A2
330
9B34D
100
AcDbEntity
  8
SIZE
100
AcDbLine
 10
-1904.936642879667
 20
-471.3846198710675
 30
0.0
 11
-2040.936642879668
 21
-471.3846198710675
 31
0.0
  0
CIRCLE
  5
9B4A3
330
9B34D
100
AcDbEntity
  8
SIZE
100
AcDbCircle
 10
-1904.936642879667
 20
-471.3846198710675
 30
0.0
 40
5.0
  0
CIRCLE
  5
9B4A4
330
9B34D
100
AcDbEntity
  8
SIZE
100
AcDbCircle
 10
-2040.936642879668
 20
-471.3846198710675
 30
0.0
 40
5.0
  0
TEXT
  5
9B4A5
330
9B34D
100
AcDbEntity
  8
SIZE
100
AcDbText
 10
-2004.436642879667
 20
-456.3846198710676
 30
0.0
 40
30.0
  1
136
 41
0.9
100
AcDbText
  0
LINE
  5
9B4A6
330
9B34D
100
AcDbEntity
  8
SIZE
100
AcDbLine
 10
-2040.936642879668
 20
-264.4869923793633
 30
0.0
 11
-2040.936642879668
 21
-476.3846198710675
 31
0.0
  0
LINE
  5
9B4A7
330
9B34D
100
AcDbEntity
  8
SIZE
100
AcDbLine
 10
-2107.936642879668
 20
-297.4869923793633
 30
0.0
 11
-2107.936642879668
 21
-476.3846198710675
 31
0.0
  0
LINE
  5
9B4A8
330
9B34D
100
AcDbEntity
  8
SIZE
100
AcDbLine
 10
-2040.936642879668
 20
-471.3846198710675
 30
0.0
 11
-2107.936642879668
 21
-471.3846198710675
 31
0.0
  0
TEXT
  5
9B4A9
330
9B34D
100
AcDbEntity
  8
SIZE
100
AcDbText
 10
-2096.29378573681
 20
-456.3846198710676
 30
0.0
 40
30.0
  1
67
 41
0.9
100
AcDbText
  0
CIRCLE
  5
9B4AA
330
9B34D
100
AcDbEntity
  8
SIZE
100
AcDbCircle
 10
-2040.936642879668
 20
-471.3846198710675
 30
0.0
 40
5.0
  0
CIRCLE
  5
9B4AB
330
9B34D
100
AcDbEntity
  8
SIZE
100
AcDbCircle
 10
-2107.936642879668
 20
-471.3846198710675
 30
0.0
 40
5.0
  0
LINE
  5
9B4AC
330
9B34D
100
AcDbEntity
  8
SIZE
100
AcDbLine
 10
-2589.936642879669
 20
-116.6207204673701
 30
0.0
 11
-1973.763118185077
 21
-116.6207204673701
 31
0.0
  0
LINE
  5
9B4AD
330
9B34D
100
AcDbEntity
  8
SIZE
100
AcDbLine
 10
-2015.070370967675
 20
-238.6207204673702
 30
0.0
 11
-1973.763118185077
 21
-238.6207204673702
 31
0.0
  0
LINE
  5
9B4AE
330
9B34D
100
AcDbEntity
  8
SIZE
100
AcDbLine
 10
-1978.763118185077
 20
-116.6207204673701
 30
0.0
 11
-1978.763118185077
 21
-238.6207204673702
 31
0.0
  0
CIRCLE
  5
9B4AF
330
9B34D
100
AcDbEntity
  8
SIZE
100
AcDbCircle
 10
-1978.763118185077
 20
-116.6207204673701
 30
0.0
 40
5.0
  0
CIRCLE
  5
9B4B0
330
9B34D
100
AcDbEntity
  8
SIZE
100
AcDbCircle
 10
-1978.763118185077
 20
-238.6207204673702
 30
0.0
 40
5.0
  0
TEXT
  5
9B4B1
330
9B34D
100
AcDbEntity
  8
SIZE
100
AcDbText
 10
-1993.763118185077
 20
-209.7635776102267
 30
0.0
 40
30.0
  1
122
 50
90.0
 41
0.9
100
AcDbText
  0
LINE
  5
9B4B2
330
9B34D
100
AcDbEntity
  8
SIZE
100
AcDbLine
 10
-2015.070370967675
 20
-238.6207204673702
 30
0.0
 11
-1973.76311818508
 21
-238.6207204673702
 31
0.0
  0
LINE
  5
9B4B3
330
9B34D
100
AcDbEntity
  8
SIZE
100
AcDbLine
 10
-2082.070370967675
 20
-271.6207204673702
 30
0.0
 11
-1973.76311818508
 21
-271.6207204673702
 31
0.0
  0
LINE
  5
9B4B4
330
9B34D
100
AcDbEntity
  8
SIZE
100
AcDbLine
 10
-1978.76311818508
 20
-238.6207204673702
 30
0.0
 11
-1978.76311818508
 21
-271.6207204673702
 31
0.0
  0
LINE
  5
9B4B5
330
9B34D
100
AcDbEntity
  8
SIZE
100
AcDbLine
 10
-1978.76311818508
 20
-255.1207204673702
 30
0.0
 11
-1939.884460643174
 21
-282.8914604611643
 31
0.0
  0
LINE
  5
9B4B6
330
9B34D
100
AcDbEntity
  8
SIZE
100
AcDbLine
 10
-1939.884460643174
 20
-282.8914604611643
 30
0.0
 11
-1939.884460643174
 21
-356.60574617545
 31
0.0
  0
TEXT
  5
9B4B7
330
9B34D
100
AcDbEntity
  8
SIZE
100
AcDbText
 10
-1954.884460643174
 20
-341.6057461754493
 30
0.0
 40
30.0
  1
33
 50
90.0
 41
0.9
100
AcDbText
  0
CIRCLE
  5
9B4B8
330
9B34D
100
AcDbEntity
  8
SIZE
100
AcDbCircle
 10
-1978.76311818508
 20
-238.6207204673702
 30
0.0
 40
5.0
  0
CIRCLE
  5
9B4B9
330
9B34D
100
AcDbEntity
  8
SIZE
100
AcDbCircle
 10
-1978.76311818508
 20
-271.6207204673702
 30
0.0
 40
5.0
  0
TEXT
  5
9B4BA
330
9B34D
100
AcDbEntity
  8
NOTE
100
AcDbText
 10
-2442.581722171193
 20
-24.03875908221153
 30
0.0
 40
30.0
  1
Flare connection
 50
359.9999974955248
 41
0.7
  7
STANDARD1
100
AcDbText
  0
TEXT
  5
9B4BB
330
9B34D
100
AcDbEntity
  8
NOTE
100
AcDbText
 10
-2442.0637392199
 20
14.36776565191258
 30
0.0
 40
30.0
  1
Refrigerant piping
 50
359.9999974955248
 41
0.7
  7
STANDARD1
100
AcDbText
  0
TEXT
  5
9B4BC
330
9B34D
100
AcDbEntity
  8
NOTE
100
AcDbText
 10
-2440.447867828925
 20
-64.1703104409753
 30
0.0
 40
30.0
  1
(liquid) %%C6.35
 50
359.9999974955248
 41
0.7
  7
STANDARD1
100
AcDbText
  0
TEXT
  5
9B4BD
330
9B34D
100
AcDbEntity
  8
NOTE
100
AcDbText
 10
-2565.68262847316
 20
-477.9408361579116
 30
0.0
 40
30.0
  1
Flare connection
 50
359.9999974955248
 41
0.7
  7
STANDARD1
100
AcDbText
  0
TEXT
  5
9B4BE
330
9B34D
100
AcDbEntity
  8
NOTE
100
AcDbText
 10
-2562.605014163905
 20
-436.1921758974994
 30
0.0
 40
30.0
  1
Refrigerant piping
 50
359.9999974955248
 41
0.7
  7
STANDARD1
100
AcDbText
  0
TEXT
  5
9B4BF
330
9B34D
100
AcDbEntity
  8
NOTE
100
AcDbText
 10
-2556.958567712127
 20
-517.6094933513972
 30
0.0
 40
30.0
  1
(gas) %%C12.7
 50
359.9999974955248
 41
0.7
  7
STANDARD1
100
AcDbText
  0
LINE
  5
9B4C0
330
9B34D
100
AcDbEntity
  8
NOTE
100
AcDbLine
 10
-2126.08829058902
 20
-296.8226008935422
 30
0.0
 11
-2107.936642879668
 21
-271.62072046737
 31
0.0
  0
LINE
  5
9B4C1
330
9B34D
100
AcDbEntity
  8
NOTE
100
AcDbLine
 10
-2107.936642879668
 20
-271.62072046737
 30
0.0
 11
-2111.055490843611
 21
-302.5220129801
 31
0.0
  0
LINE
  5
9B4C2
330
9B34D
100
AcDbEntity
  8
NOTE
100
AcDbLine
 10
-2107.936642879668
 20
-271.62072046737
 30
0.0
 11
-2118.571890716315
 21
-299.6723069368211
 31
0.0
  0
LINE
  5
9B4C3
330
9B34D
100
AcDbEntity
  8
NOTE
100
AcDbLine
 10
-2118.571890716315
 20
-299.6723069368211
 30
0.0
 11
-2208.643014393776
 21
-537.2443835867443
 31
0.0
1001
ACAD
1000
DSTYLE
1002
{
1070
    41
1040
30.0
1070
   147
1040
15.0
1070
    77
1070
     0
1070
    90
1070
     1
1070
   345
1005
12
1070
   346
1005
12
1070
   347
1005
12
1002
}
  0
LINE
  5
9B4C4
330
9B34D
100
AcDbEntity
  8
NOTE
100
AcDbLine
 10
-2208.643014393776
 20
-537.2443835867443
 30
0.0
 11
-2583.002804298958
 21
-537.2443835867443
 31
0.0
1001
ACAD
1000
DSTYLE
1002
{
1070
    41
1040
30.0
1070
   147
1040
15.0
1070
    77
1070
     0
1070
    90
1070
     1
1070
   345
1005
12
1070
   346
1005
12
1070
   347
1005
12
1002
}
  0
LINE
  5
9B4C5
330
9B34D
100
AcDbEntity
  8
NOTE
100
AcDbLine
 10
-2040.457120879226
 20
-207.5661370660333
 30
0.0
 11
-2040.936642879668
 21
-238.6207204673701
 31
0.0
  0
LINE
  5
9B4C6
330
9B34D
100
AcDbEntity
  8
NOTE
100
AcDbLine
 10
-2040.936642879668
 20
-238.6207204673701
 30
0.0
 11
-2056.048656223187
 21
-211.4869012690931
 31
0.0
  0
LINE
  5
9B4C7
330
9B34D
100
AcDbEntity
  8
NOTE
100
AcDbLine
 10
-2040.936642879668
 20
-238.6207204673701
 30
0.0
 11
-2048.252888551207
 21
-209.5265191675632
 31
0.0
  0
LINE
  5
9B4C8
330
9B34D
100
AcDbEntity
  8
NOTE
100
AcDbLine
 10
-2048.252888551207
 20
-209.5265191675632
 30
0.0
 11
-2079.573610371648
 21
-84.9747440619167
 31
0.0
1001
ACAD
1000
DSTYLE
1002
{
1070
    41
1040
30.0
1070
   147
1040
15.0
1070
    77
1070
     0
1070
    90
1070
     1
1070
   345
1005
12
1070
   346
1005
12
1070
   347
1005
12
1002
}
  0
LINE
  5
9B4C9
330
9B34D
100
AcDbEntity
  8
NOTE
100
AcDbLine
 10
-2079.573610371648
 20
-84.9747440619167
 30
0.0
 11
-2443.414917712107
 21
-84.9747440619167
 31
0.0
1001
ACAD
1000
DSTYLE
1002
{
1070
    41
1040
30.0
1070
   147
1040
15.0
1070
    77
1070
     0
1070
    90
1070
     1
1070
   345
1005
12
1070
   346
1005
12
1070
   347
1005
12
1002
}
  0
LINE
  5
9B4CA
330
9B34D
100
AcDbEntity
  8
SERVICESPACE
100
AcDbLine
 10
-2904.936642879667
 20
-106.6207204673701
 30
0.0
 11
-1904.936642879667
 21
-106.6207204673701
 31
0.0
  0
LINE
  5
9B4CB
330
9B34D
100
AcDbEntity
  8
SERVICESPACE
100
AcDbLine
 10
-1927.936642378305
 20
-106.6207204673701
 30
0.0
 11
-1963.291981437632
 21
-71.26538140804269
 31
0.0
  0
LINE
  5
9B4CC
330
9B34D
100
AcDbEntity
  8
SERVICESPACE
100
AcDbLine
 10
-1977.936642378305
 20
-106.6207204673701
 30
0.0
 11
-2013.291981437632
 21
-71.26538140804269
 31
0.0
  0
LINE
  5
9B4CD
330
9B34D
100
AcDbEntity
  8
SERVICESPACE
100
AcDbLine
 10
-2027.936642378305
 20
-106.6207204673701
 30
0.0
 11
-2063.291981437632
 21
-71.26538140804269
 31
0.0
  0
LINE
  5
9B4CE
330
9B34D
100
AcDbEntity
  8
SERVICESPACE
100
AcDbLine
 10
-2077.936642378305
 20
-106.6207204673701
 30
0.0
 11
-2113.291981437632
 21
-71.26538140804269
 31
0.0
  0
LINE
  5
9B4CF
330
9B34D
100
AcDbEntity
  8
SERVICESPACE
100
AcDbLine
 10
-2127.936642378305
 20
-106.6207204673701
 30
0.0
 11
-2163.291981437632
 21
-71.26538140804269
 31
0.0
  0
LINE
  5
9B4D0
330
9B34D
100
AcDbEntity
  8
SERVICESPACE
100
AcDbLine
 10
-2177.936642378305
 20
-106.6207204673701
 30
0.0
 11
-2213.291981437632
 21
-71.26538140804269
 31
0.0
  0
LINE
  5
9B4D1
330
9B34D
100
AcDbEntity
  8
SERVICESPACE
100
AcDbLine
 10
-2227.936642378305
 20
-106.6207204673701
 30
0.0
 11
-2263.291981437632
 21
-71.26538140804269
 31
0.0
  0
LINE
  5
9B4D2
330
9B34D
100
AcDbEntity
  8
SERVICESPACE
100
AcDbLine
 10
-2277.936642378305
 20
-106.6207204673701
 30
0.0
 11
-2313.291981437632
 21
-71.26538140804269
 31
0.0
  0
LINE
  5
9B4D3
330
9B34D
100
AcDbEntity
  8
SERVICESPACE
100
AcDbLine
 10
-2327.936642378305
 20
-106.6207204673701
 30
0.0
 11
-2363.291981437632
 21
-71.26538140804269
 31
0.0
  0
LINE
  5
9B4D4
330
9B34D
100
AcDbEntity
  8
SERVICESPACE
100
AcDbLine
 10
-2377.936642378305
 20
-106.6207204673701
 30
0.0
 11
-2413.291981437633
 21
-71.26538140804269
 31
0.0
  0
LINE
  5
9B4D5
330
9B34D
100
AcDbEntity
  8
SERVICESPACE
100
AcDbLine
 10
-2427.936642378305
 20
-106.6207204673701
 30
0.0
 11
-2463.291981437632
 21
-71.26538140804269
 31
0.0
  0
LINE
  5
9B4D6
330
9B34D
100
AcDbEntity
  8
SERVICESPACE
100
AcDbLine
 10
-2477.936642378305
 20
-106.6207204673701
 30
0.0
 11
-2513.291981437632
 21
-71.26538140804269
 31
0.0
  0
LINE
  5
9B4D7
330
9B34D
100
AcDbEntity
  8
SERVICESPACE
100
AcDbLine
 10
-2527.936642378305
 20
-106.6207204673701
 30
0.0
 11
-2563.291981437632
 21
-71.26538140804269
 31
0.0
  0
LINE
  5
9B4D8
330
9B34D
100
AcDbEntity
  8
SERVICESPACE
100
AcDbLine
 10
-2577.936642378305
 20
-106.6207204673701
 30
0.0
 11
-2613.291981437632
 21
-71.26538140804269
 31
0.0
  0
LINE
  5
9B4D9
330
9B34D
100
AcDbEntity
  8
SERVICESPACE
100
AcDbLine
 10
-2627.936642378305
 20
-106.6207204673701
 30
0.0
 11
-2663.291981437633
 21
-71.26538140804269
 31
0.0
  0
LINE
  5
9B4DA
330
9B34D
100
AcDbEntity
  8
SERVICESPACE
100
AcDbLine
 10
-2677.936642378305
 20
-106.6207204673701
 30
0.0
 11
-2713.291981437632
 21
-71.26538140804269
 31
0.0
  0
LINE
  5
9B4DB
330
9B34D
100
AcDbEntity
  8
SERVICESPACE
100
AcDbLine
 10
-2727.936642378305
 20
-106.6207204673701
 30
0.0
 11
-2763.291981437632
 21
-71.26538140804269
 31
0.0
  0
LINE
  5
9B4DC
330
9B34D
100
AcDbEntity
  8
SERVICESPACE
100
AcDbLine
 10
-2777.936642378305
 20
-106.6207204673701
 30
0.0
 11
-2813.291981437632
 21
-71.26538140804269
 31
0.0
  0
LINE
  5
9B4DD
330
9B34D
100
AcDbEntity
  8
SERVICESPACE
100
AcDbLine
 10
-2827.936642378305
 20
-106.6207204673701
 30
0.0
 11
-2863.291981437632
 21
-71.26538140804269
 31
0.0
  0
LINE
  5
9B4DE
330
9B34D
100
AcDbEntity
  8
SERVICESPACE
100
AcDbLine
 10
-2877.936642378305
 20
-106.6207204673701
 30
0.0
 11
-2913.291981437632
 21
-71.26538140804269
 31
0.0
  0
LINE
  5
9B4DF
330
9B34D
100
AcDbEntity
  8
SIZE
100
AcDbLine
 10
-2619.936642879669
 20
-116.6207204673856
 30
0.0
 11
-3156.797556465283
 21
-116.6207204673857
 31
0.0
  0
LINE
  5
9B4E0
330
9B34D
100
AcDbEntity
  8
SIZE
100
AcDbLine
 10
-2919.936642879669
 20
-106.6207204673702
 30
0.0
 11
-3156.797556465283
 21
-106.6207204673702
 31
0.0
  0
LINE
  5
9B4E1
330
9B34D
100
AcDbEntity
  8
SIZE
100
AcDbLine
 10
-3151.797556465283
 20
-116.6207204673857
 30
0.0
 11
-3151.797556465283
 21
-136.6207204673857
 31
0.0
  0
LINE
  5
9B4E2
330
9B34D
100
AcDbEntity
  8
SIZE
100
AcDbLine
 10
-3151.797556465283
 20
-106.6207204673702
 30
0.0
 11
-3151.797556465283
 21
154.9507081040585
 31
0.0
  0
LINE
  5
9B4E3
330
9B34D
100
AcDbEntity
  8
SIZE
100
AcDbLine
 10
-3151.797556465283
 20
-116.6207204673857
 30
0.0
 11
-3151.797556465283
 21
-106.6207204673702
 31
0.0
  0
CIRCLE
  5
9B4E4
330
9B34D
100
AcDbEntity
  8
SIZE
100
AcDbCircle
 10
-3151.797556465283
 20
-116.6207204673857
 30
0.0
 40
5.0
  0
CIRCLE
  5
9B4E5
330
9B34D
100
AcDbEntity
  8
SIZE
100
AcDbCircle
 10
-3151.797556465283
 20
-106.6207204673702
 30
0.0
 40
5.0
  0
TEXT
  5
9B4E6
330
9B34D
100
AcDbEntity
  8
SIZE
100
AcDbText
 10
-3166.797556465282
 20
-51.62072046736929
 30
0.0
 40
30.0
  1
Min.10mm
 50
90.0
 41
0.9
100
AcDbText
  0
ENDBLK
  5
9B4EA
330
9B34D
100
AcDbEntity
  8
0
100
AcDbBlockEnd
  0
ENDSEC
  0
SECTION
  2
ENTITIES
  0
TEXT
  5
9B4ED
330
18
100
AcDbEntity
  8
ETC
100
AcDbText
 10
-1167.944348272665
 20
650.8540204673753
 30
0.0
 40
60.0
  1
PEAD-M35_50JA2_5
 50
0.0000030783246592
 41
0.8
100
AcDbText
  0
LINE
  5
9B4EE
330
18
100
AcDbEntity
  8
BASIS
100
AcDbLine
 10
0.0
 20
29.41240878974706
 30
0.0
 11
0.0
 21
-282.6696284795144
 31
0.0
  0
CIRCLE
  5
9B4EF
330
18
100
AcDbEntity
  8
ARRANGE
100
AcDbCircle
 10
0.0
 20
0.0
 30
0.0
 40
19.125
  0
LINE
  5
9B4F0
330
18
100
AcDbEntity
  8
DETAIL
100
AcDbLine
 10
242.9981402002932
 20
-239.9856938483491
 30
0.0
 11
350.0000000000032
 21
-239.9856938483491
 31
0.0
  0
LINE
  5
9B4F1
330
18
100
AcDbEntity
  8
DETAIL
100
AcDbLine
 10
340.9871244635133
 20
-65.0929899857047
 30
0.0
 11
340.9871244635133
 21
-43.56223175966629
 31
0.0
  0
LINE
  5
9B4F2
330
18
100
AcDbEntity
  8
DETAIL
100
AcDbLine
 10
308.9413447782563
 20
-43.56223175966629
 30
0.0
 11
308.9413447782563
 21
-65.0929899857047
 31
0.0
  0
LINE
  5
9B4F3
330
18
100
AcDbEntity
  8
DETAIL
100
AcDbLine
 10
333.9771101573672
 20
-36.55221745351359
 30
0.0
 11
315.9513590844022
 21
-36.55221745351359
 31
0.0
  0
LINE
  5
9B4F4
330
18
100
AcDbEntity
  8
DETAIL
100
AcDbLine
 10
-308.9871244635219
 20
-36.55221745351359
 30
0.0
 11
-327.012875536474
 21
-36.55221745351359
 31
0.0
  0
LINE
  5
9B4F5
330
18
100
AcDbEntity
  8
DETAIL
100
AcDbLine
 10
-301.9771101573619
 20
-65.0929899857047
 30
0.0
 11
-301.9771101573619
 21
-43.56223175966629
 31
0.0
  0
LINE
  5
9B4F6
330
18
100
AcDbEntity
  8
DETAIL
100
AcDbLine
 10
-334.022889842634
 20
-43.56223175966629
 30
0.0
 11
-334.022889842634
 21
-65.0929899857047
 31
0.0
  0
ARC
  5
9B4F7
330
18
100
AcDbEntity
  8
DETAIL
100
AcDbCircle
 10
337.9828326180293
 20
-65.0929899857047
 30
0.0
 40
3.0042918454936
100
AcDbArc
 50
180.0
 51
0.0
  0
ARC
  5
9B4F8
330
18
100
AcDbEntity
  8
DETAIL
100
AcDbCircle
 10
311.9456366237673
 20
-65.0929899857047
 30
0.0
 40
3.0042918454936
100
AcDbArc
 50
180.0
 51
0.0
  0
ARC
  5
9B4F9
330
18
100
AcDbEntity
  8
DETAIL
100
AcDbCircle
 10
333.9771101573672
 20
-43.56223175966629
 30
0.0
 40
7.010014306151662
100
AcDbArc
 50
0.0
 51
90.0
  0
ARC
  5
9B4FA
330
18
100
AcDbEntity
  8
DETAIL
100
AcDbCircle
 10
315.9513590844022
 20
-43.56223175966629
 30
0.0
 40
7.010014306151662
100
AcDbArc
 50
90.0
 51
180.0
  0
ARC
  5
9B4FB
330
18
100
AcDbEntity
  8
DETAIL
100
AcDbCircle
 10
-304.9814020028598
 20
-65.0929899857047
 30
0.0
 40
3.004291845493577
100
AcDbArc
 50
180.0
 51
0.0
  0
ARC
  5
9B4FC
330
18
100
AcDbEntity
  8
DETAIL
100
AcDbCircle
 10
-331.0185979971216
 20
-65.0929899857047
 30
0.0
 40
3.0042918454936
100
AcDbArc
 50
180.0
 51
0.0
  0
ARC
  5
9B4FD
330
18
100
AcDbEntity
  8
DETAIL
100
AcDbCircle
 10
-308.9871244635219
 20
-43.56223175966629
 30
0.0
 40
7.010014306151662
100
AcDbArc
 50
0.0
 51
90.0
  0
ARC
  5
9B4FE
330
18
100
AcDbEntity
  8
DETAIL
100
AcDbCircle
 10
-327.012875536474
 20
-43.56223175966629
 30
0.0
 40
7.010014306151715
100
AcDbArc
 50
90.0
 51
180.0
  0
LINE
  5
9B4FF
330
18
100
AcDbEntity
  8
DETAIL
100
AcDbLine
 10
381.9999999999923
 20
-22.99999999999459
 30
0.0
 11
381.9999999999923
 21
-200.9999999999946
 31
0.0
  0
LINE
  5
9B500
330
18
100
AcDbEntity
  8
DETAIL
100
AcDbLine
 10
350.0000000000032
 20
-72.10300429185288
 30
0.0
 11
350.0000000000032
 21
-24.03433476395459
 31
0.0
  0
LINE
  5
9B501
330
18
100
AcDbEntity
  8
DETAIL
100
AcDbLine
 10
350.0000000000032
 20
0.0000000000054001
 30
0.0
 11
350.0000000000032
 21
-24.03433476395459
 31
0.0
  0
LINE
  5
9B502
330
18
100
AcDbEntity
  8
DETAIL
100
AcDbLine
 10
334.9785407725492
 20
-60.0933060445732
 30
0.0
 11
334.9785407725492
 21
-65.0929899857047
 31
0.0
  0
LINE
  5
9B503
330
18
100
AcDbEntity
  8
DETAIL
100
AcDbLine
 10
330.9728183118852
 20
-15.02145922747879
 30
0.0
 11
330.9728183118852
 21
-24.03433476395459
 31
0.0
  0
LINE
  5
9B504
330
18
100
AcDbEntity
  8
DETAIL
100
AcDbLine
 10
318.9556509299143
 20
-15.02145922747879
 30
0.0
 11
318.9556509299143
 21
-24.03433476395459
 31
0.0
  0
LINE
  5
9B505
330
18
100
AcDbEntity
  8
DETAIL
100
AcDbLine
 10
314.9499284692492
 20
-65.0929899857047
 30
0.0
 11
314.9499284692492
 21
-60.0933060445732
 31
0.0
  0
LINE
  5
9B506
330
18
100
AcDbEntity
  8
DETAIL
100
AcDbLine
 10
299.9284692417812
 20
-72.10300429185288
 30
0.0
 11
299.9284692417812
 21
-24.03433476395459
 31
0.0
  0
LINE
  5
9B507
330
18
100
AcDbEntity
  8
DETAIL
100
AcDbLine
 10
299.9284692417812
 20
-15.02145922747879
 30
0.0
 11
299.9284692417812
 21
-24.03433476395459
 31
0.0
  0
LINE
  5
9B508
330
18
100
AcDbEntity
  8
DETAIL
100
AcDbLine
 10
194.0772532188962
 20
-9.012875536489489
 30
0.0
 11
194.0772532188962
 21
-0.0000000000090949
 31
0.0
  0
LINE
  5
9B509
330
18
100
AcDbEntity
  8
DETAIL
100
AcDbLine
 10
-73.27330530052359
 20
-249.9999999999946
 30
0.0
 11
350.0000000000032
 21
-249.9999999999946
 31
0.0
  0
LINE
  5
9B50A
330
18
100
AcDbEntity
  8
DETAIL
100
AcDbLine
 10
242.9981402002932
 20
-239.9856938483491
 30
0.0
 11
-349.9999999999977
 21
-239.9856938483491
 31
0.0
  0
LINE
  5
9B50B
330
18
100
AcDbEntity
  8
DETAIL
100
AcDbLine
 10
382.0000000000023
 20
-200.9999999999946
 30
0.0
 11
350.0000000000032
 21
-200.9999999999946
 31
0.0
  0
LINE
  5
9B50C
330
18
100
AcDbEntity
  8
DETAIL
100
AcDbLine
 10
346.9957081545213
 20
-75.10729613734928
 30
0.0
 11
302.9327610872922
 21
-75.10729613734928
 31
0.0
  0
LINE
  5
9B50D
330
18
100
AcDbEntity
  8
DETAIL
100
AcDbLine
 10
-296.9241773962776
 20
-75.10729613734928
 30
0.0
 11
-340.9871244635078
 21
-75.10729613734928
 31
0.0
  0
LINE
  5
9B50E
330
18
100
AcDbEntity
  8
DETAIL
100
AcDbLine
 10
-328.014306151641
 20
-60.0858369098806
 30
0.0
 11
-307.9856938483417
 21
-60.0858369098806
 31
0.0
  0
LINE
  5
9B50F
330
18
100
AcDbEntity
  8
DETAIL
100
AcDbLine
 10
314.9499284692492
 20
-60.0858369098806
 30
0.0
 11
334.9785407725492
 21
-60.0858369098806
 31
0.0
  0
LINE
  5
9B510
330
18
100
AcDbEntity
  8
DETAIL
100
AcDbLine
 10
346.9957081545213
 20
-27.03862660945198
 30
0.0
 11
333.9771101573672
 21
-27.03862660945198
 31
0.0
  0
LINE
  5
9B511
330
18
100
AcDbEntity
  8
DETAIL
100
AcDbLine
 10
315.9513590844022
 20
-27.03862660945198
 30
0.0
 11
302.9327610872922
 21
-27.03862660945198
 31
0.0
  0
LINE
  5
9B512
330
18
100
AcDbEntity
  8
DETAIL
100
AcDbLine
 10
-296.9241773962776
 20
-27.03862660945198
 30
0.0
 11
-309.9427753934319
 21
-27.03862660945198
 31
0.0
  0
LINE
  5
9B513
330
18
100
AcDbEntity
  8
DETAIL
100
AcDbLine
 10
-327.968526466384
 20
-27.03862660945198
 30
0.0
 11
-340.9871244635078
 21
-27.03862660945198
 31
0.0
  0
LINE
  5
9B514
330
18
100
AcDbEntity
  8
DETAIL
100
AcDbLine
 10
382.0000000000023
 20
-22.99999999999459
 30
0.0
 11
350.0000000000032
 21
-22.99999999999459
 31
0.0
  0
LINE
  5
9B515
330
18
100
AcDbEntity
  8
DETAIL
100
AcDbLine
 10
-324.9642346208716
 20
-17.52503576538591
 30
0.0
 11
-312.9470672389139
 21
-17.52503576538591
 31
0.0
  0
LINE
  5
9B516
330
18
100
AcDbEntity
  8
DETAIL
100
AcDbLine
 10
318.9556509299143
 20
-17.52503576538591
 30
0.0
 11
330.9728183118852
 21
-17.52503576538591
 31
0.0
  0
LINE
  5
9B517
330
18
100
AcDbEntity
  8
DETAIL
100
AcDbLine
 10
350.0000000000032
 20
-14.99999999999459
 30
0.0
 11
299.9284692417812
 21
-14.99999999999459
 31
0.0
  0
LINE
  5
9B518
330
18
100
AcDbEntity
  8
DETAIL
100
AcDbLine
 10
-293.919885550798
 20
-14.99999999999459
 30
0.0
 11
-343.9914163090189
 21
-14.99999999999459
 31
0.0
  0
LINE
  5
9B519
330
18
100
AcDbEntity
  8
DETAIL
100
AcDbLine
 10
197.0815450643772
 20
-12.01716738198239
 30
0.0
 11
350.0000000000032
 21
-12.01716738197509
 31
0.0
  0
LINE
  5
9B51A
330
18
100
AcDbEntity
  8
DETAIL
100
AcDbLine
 10
350.0000000000032
 20
0.0000000000054001
 30
0.0
 11
-349.9999999999977
 21
0.0000000000054001
 31
0.0
  0
LINE
  5
9B51B
330
18
100
AcDbEntity
  8
DETAIL
100
AcDbLine
 10
-293.919885550798
 20
-72.10300429185288
 30
0.0
 11
-293.919885550798
 21
-24.03433476395459
 31
0.0
  0
LINE
  5
9B51C
330
18
100
AcDbEntity
  8
DETAIL
100
AcDbLine
 10
-293.919885550798
 20
-15.02145922747879
 30
0.0
 11
-293.919885550798
 21
-24.03433476395459
 31
0.0
  0
LINE
  5
9B51D
330
18
100
AcDbEntity
  8
DETAIL
100
AcDbLine
 10
-307.9856938483417
 20
-60.0933060445732
 30
0.0
 11
-307.9856938483417
 21
-65.0929899857047
 31
0.0
  0
LINE
  5
9B51E
330
18
100
AcDbEntity
  8
DETAIL
100
AcDbLine
 10
-312.9470672389139
 20
-15.02145922747879
 30
0.0
 11
-312.9470672389139
 21
-24.03433476395459
 31
0.0
  0
LINE
  5
9B51F
330
18
100
AcDbEntity
  8
DETAIL
100
AcDbLine
 10
-324.9642346208716
 20
-15.02145922747879
 30
0.0
 11
-324.9642346208716
 21
-24.03433476395459
 31
0.0
  0
LINE
  5
9B520
330
18
100
AcDbEntity
  8
DETAIL
100
AcDbLine
 10
-328.014306151641
 20
-65.0929899857047
 30
0.0
 11
-328.014306151641
 21
-60.0933060445732
 31
0.0
  0
LINE
  5
9B521
330
18
100
AcDbEntity
  8
DETAIL
100
AcDbLine
 10
-343.9914163090189
 20
-72.10300429185288
 30
0.0
 11
-343.9914163090189
 21
-24.03433476395459
 31
0.0
  0
LINE
  5
9B522
330
18
100
AcDbEntity
  8
DETAIL
100
AcDbLine
 10
-343.9914163090189
 20
-15.02145922747879
 30
0.0
 11
-343.9914163090189
 21
-24.03433476395459
 31
0.0
  0
LINE
  5
9B523
330
18
100
AcDbEntity
  8
DETAIL
100
AcDbLine
 10
-349.9999999999977
 20
-247.9971387696633
 30
0.0
 11
-349.9999999999977
 21
-236.7811158798223
 31
0.0
  0
LINE
  5
9B524
330
18
100
AcDbEntity
  8
DETAIL
100
AcDbLine
 10
-349.9999999999977
 20
-234.1344778254753
 30
0.0
 11
-349.9999999999977
 21
-0.0000000000100897
 31
0.0
  0
LINE
  5
9B525
330
18
100
AcDbEntity
  8
DETAIL
100
AcDbLine
 10
-349.9999999999977
 20
-122.9756795422136
 30
0.0
 11
-349.9999999999977
 21
-12.01716738198239
 31
0.0
  0
ARC
  5
9B526
330
18
100
AcDbEntity
  8
DETAIL
100
AcDbCircle
 10
346.9957081545213
 20
-72.10300429185288
 30
0.0
 40
3.0042918454936
100
AcDbArc
 50
270.0
 51
0.0
  0
ARC
  5
9B527
330
18
100
AcDbEntity
  8
DETAIL
100
AcDbCircle
 10
302.9327610872922
 20
-72.10300429185288
 30
0.0
 40
3.004291845493496
100
AcDbArc
 50
180.0
 51
270.0
  0
CIRCLE
  5
9B528
330
18
100
AcDbEntity
  8
DETAIL
100
AcDbCircle
 10
324.9642346208923
 20
-55.0786838340555
 30
0.0
 40
3.505007153075836
  0
ARC
  5
9B529
330
18
100
AcDbEntity
  8
DETAIL
100
AcDbCircle
 10
346.9957081545213
 20
-24.03433476395459
 30
0.0
 40
3.0042918454936
100
AcDbArc
 50
270.0
 51
0.0
  0
ARC
  5
9B52A
330
18
100
AcDbEntity
  8
DETAIL
100
AcDbCircle
 10
333.9771101573672
 20
-24.03433476395459
 30
0.0
 40
3.0042918454936
100
AcDbArc
 50
180.0
 51
270.0
  0
ARC
  5
9B52B
330
18
100
AcDbEntity
  8
DETAIL
100
AcDbCircle
 10
315.9513590844022
 20
-24.03433476395459
 30
0.0
 40
3.0042918454936
100
AcDbArc
 50
270.0
 51
0.0
  0
ARC
  5
9B52C
330
18
100
AcDbEntity
  8
DETAIL
100
AcDbCircle
 10
302.9327610872922
 20
-24.03433476395459
 30
0.0
 40
3.0042918454936
100
AcDbArc
 50
180.0
 51
270.0
  0
ARC
  5
9B52D
330
18
100
AcDbEntity
  8
DETAIL
100
AcDbCircle
 10
197.0815450643772
 20
-9.012875536489489
 30
0.0
 40
3.0042918454936
100
AcDbArc
 50
180.0
 51
270.0
  0
ARC
  5
9B52E
330
18
100
AcDbEntity
  8
DETAIL
100
AcDbCircle
 10
-296.9241773962776
 20
-72.10300429185288
 30
0.0
 40
3.0042918454936
100
AcDbArc
 50
270.0
 51
0.0
  0
ARC
  5
9B52F
330
18
100
AcDbEntity
  8
DETAIL
100
AcDbCircle
 10
-340.9871244635078
 20
-72.10300429185288
 30
0.0
 40
3.004291845493496
100
AcDbArc
 50
180.0
 51
270.0
  0
CIRCLE
  5
9B530
330
18
100
AcDbEntity
  8
DETAIL
100
AcDbCircle
 10
-317.9999999999977
 20
-55.0786838340555
 30
0.0
 40
3.505007153075836
  0
ARC
  5
9B531
330
18
100
AcDbEntity
  8
DETAIL
100
AcDbCircle
 10
-296.9241773962776
 20
-24.03433476395459
 30
0.0
 40
3.0042918454936
100
AcDbArc
 50
270.0
 51
0.0
  0
ARC
  5
9B532
330
18
100
AcDbEntity
  8
DETAIL
100
AcDbCircle
 10
-309.9427753934319
 20
-24.03433476395459
 30
0.0
 40
3.0042918454936
100
AcDbArc
 50
180.0
 51
270.0
  0
ARC
  5
9B533
330
18
100
AcDbEntity
  8
DETAIL
100
AcDbCircle
 10
-327.968526466384
 20
-24.03433476395459
 30
0.0
 40
3.0042918454936
100
AcDbArc
 50
270.0
 51
0.0
  0
ARC
  5
9B534
330
18
100
AcDbEntity
  8
DETAIL
100
AcDbCircle
 10
-340.9871244635078
 20
-24.03433476395459
 30
0.0
 40
3.0042918454936
100
AcDbArc
 50
180.0
 51
270.0
  0
LINE
  5
9B535
330
18
100
AcDbEntity
  8
NOTE
100
AcDbLine
 10
371.9999999999923
 20
-59.36348759543399
 30
0.0
 11
371.9999999999923
 21
-66.6365124045543
 31
0.0
  0
LINE
  5
9B536
330
18
100
AcDbEntity
  8
NOTE
100
AcDbLine
 10
375.6365124045501
 20
-62.99999999999459
 30
0.0
 11
368.3634875954292
 21
-62.99999999999459
 31
0.0
  0
LINE
  5
9B537
330
18
100
AcDbEntity
  8
NOTE
100
AcDbLine
 10
371.9999999999923
 20
-159.3634875954341
 30
0.0
 11
371.9999999999923
 21
-166.6365124045543
 31
0.0
  0
LINE
  5
9B538
330
18
100
AcDbEntity
  8
NOTE
100
AcDbLine
 10
375.6365124045501
 20
-162.9999999999946
 30
0.0
 11
368.3634875954292
 21
-162.9999999999946
 31
0.0
  0
CIRCLE
  5
9B539
330
18
100
AcDbEntity
  8
DETAIL
100
AcDbCircle
 10
371.9999999999923
 20
-162.9999999999946
 30
0.0
 40
1.45
  0
CIRCLE
  5
9B53A
330
18
100
AcDbEntity
  8
DETAIL
100
AcDbCircle
 10
371.9999999999923
 20
-62.99999999999459
 30
0.0
 40
1.45
  0
LINE
  5
9B53B
330
18
100
AcDbEntity
  8
DETAIL
100
AcDbLine
 10
-349.9999999999977
 20
-249.9999999999946
 30
0.0
 11
-349.9999999999977
 21
0.0000000000054001
 31
0.0
  0
LINE
  5
9B53C
330
18
100
AcDbEntity
  8
DETAIL
100
AcDbLine
 10
-349.9999999999977
 20
0.0000000000054001
 30
0.0
 11
350.0000000000032
 21
0.0000000000054001
 31
0.0
  0
LINE
  5
9B53D
330
18
100
AcDbEntity
  8
DETAIL
100
AcDbLine
 10
350.0000000000032
 20
0.0000000000054001
 30
0.0
 11
350.0000000000032
 21
-249.9999999999946
 31
0.0
  0
LINE
  5
9B53E
330
18
100
AcDbEntity
  8
DETAIL
100
AcDbLine
 10
350.0000000000032
 20
-249.9999999999946
 30
0.0
 11
-349.9999999999977
 21
-249.9999999999946
 31
0.0
  0
LINE
  5
9B53F
330
18
100
AcDbEntity
  8
NOTE
100
AcDbLine
 10
371.9999999999923
 20
-19.36348759543399
 30
0.0
 11
371.9999999999923
 21
-26.63651240455418
 31
0.0
  0
LINE
  5
9B540
330
18
100
AcDbEntity
  8
NOTE
100
AcDbLine
 10
375.6365124045501
 20
-22.99999999999459
 30
0.0
 11
368.3634875954292
 21
-22.99999999999459
 31
0.0
  0
LINE
  5
9B541
330
18
100
AcDbEntity
  8
NOTE
100
AcDbLine
 10
371.9999999999923
 20
-197.363487595434
 30
0.0
 11
371.9999999999923
 21
-204.6365124045543
 31
0.0
  0
LINE
  5
9B542
330
18
100
AcDbEntity
  8
NOTE
100
AcDbLine
 10
375.6365124045501
 20
-200.9999999999946
 30
0.0
 11
368.3634875954292
 21
-200.9999999999946
 31
0.0
  0
LINE
  5
9B543
330
18
100
AcDbEntity
  8
NOTE
100
AcDbLine
 10
325.0000000000032
 20
-4.13372808800159
 30
0.0
 11
325.0000000000032
 21
-25.8662719119876
 31
0.0
  0
LINE
  5
9B544
330
18
100
AcDbEntity
  8
NOTE
100
AcDbLine
 10
335.8662719119952
 20
-14.99999999999459
 30
0.0
 11
314.1337280880102
 21
-14.99999999999459
 31
0.0
  0
LINE
  5
9B545
330
18
100
AcDbEntity
  8
NOTE
100
AcDbLine
 10
-317.9999999999977
 20
-4.13372808800159
 30
0.0
 11
-317.9999999999977
 21
-25.8662719119876
 31
0.0
  0
LINE
  5
9B546
330
18
100
AcDbEntity
  8
NOTE
100
AcDbLine
 10
-307.1337280880048
 20
-14.99999999999459
 30
0.0
 11
-328.8662719119907
 21
-14.99999999999459
 31
0.0
  0
CIRCLE
  5
9B547
330
18
100
AcDbEntity
  8
FIX
100
AcDbCircle
 10
325.0000000000032
 20
-14.99999999999459
 30
0.0
 40
9.947006128806798
  0
CIRCLE
  5
9B548
330
18
100
AcDbEntity
  8
FIX
100
AcDbCircle
 10
-317.9999999999977
 20
-14.99999999999459
 30
0.0
 40
9.947006128806798
  0
LINE
  5
9B549
330
18
100
AcDbEntity
  8
OUTLINE
100
AcDbLine
 10
382.0000000000023
 20
-22.99999999999459
 30
0.0
 11
350.0000000000032
 21
-22.99999999999459
 31
0.0
  0
LINE
  5
9B54A
330
18
100
AcDbEntity
  8
OUTLINE
100
AcDbLine
 10
381.9999999999923
 20
-22.99999999999459
 30
0.0
 11
382.0000000000023
 21
-200.9999999999946
 31
0.0
  0
LINE
  5
9B54B
330
18
100
AcDbEntity
  8
OUTLINE
100
AcDbLine
 10
382.0000000000023
 20
-200.9999999999946
 30
0.0
 11
350.0000000000032
 21
-200.9999999999946
 31
0.0
  0
LINE
  5
9B54C
330
18
100
AcDbEntity
  8
OUTLINE
100
AcDbLine
 10
350.0000000000032
 20
0.0000000000054001
 30
0.0
 11
-349.9999999999977
 21
-0.0000000000100897
 31
0.0
  0
LINE
  5
9B54D
330
18
100
AcDbEntity
  8
OUTLINE
100
AcDbLine
 10
-349.9999999999977
 20
-0.0000000000100897
 30
0.0
 11
-349.9999999999977
 21
-249.9999999999946
 31
0.0
  0
LINE
  5
9B54E
330
18
100
AcDbEntity
  8
OUTLINE
100
AcDbLine
 10
-349.9999999999977
 20
-249.9999999999946
 30
0.0
 11
350.0000000000032
 21
-249.9999999999946
 31
0.0
  0
LINE
  5
9B54F
330
18
100
AcDbEntity
  8
OUTLINE
100
AcDbLine
 10
350.0000000000032
 20
-249.9999999999946
 30
0.0
 11
350.0000000000032
 21
0.0000000000054001
 31
0.0
  0
LINE
  5
9B550
330
18
100
AcDbEntity
  8
SIZE
100
AcDbLine
 10
382.0000000000023
 20
-7.9999999999946
 30
0.0
 11
382.0000000000023
 21
63.59264465957852
 31
0.0
  0
LINE
  5
9B551
330
18
100
AcDbEntity
  8
SIZE
100
AcDbLine
 10
371.9999999999923
 20
-44.36348759543399
 30
0.0
 11
371.9999999999923
 21
63.59264465957852
 31
0.0
  0
LINE
  5
9B552
330
18
100
AcDbEntity
  8
SIZE
100
AcDbLine
 10
371.9999999999923
 20
58.59264465957852
 30
0.0
 11
351.9999999999923
 21
58.59264465957852
 31
0.0
  0
LINE
  5
9B553
330
18
100
AcDbEntity
  8
SIZE
100
AcDbLine
 10
382.0000000000023
 20
58.59264465957852
 30
0.0
 11
436.2857142857172
 21
58.59264465957852
 31
0.0
  0
LINE
  5
9B554
330
18
100
AcDbEntity
  8
SIZE
100
AcDbLine
 10
371.9999999999923
 20
58.59264465957852
 30
0.0
 11
382.0000000000023
 21
58.59264465957852
 31
0.0
  0
CIRCLE
  5
9B555
330
18
100
AcDbEntity
  8
SIZE
100
AcDbCircle
 10
371.9999999999923
 20
58.59264465957852
 30
0.0
 40
5.0
  0
CIRCLE
  5
9B556
330
18
100
AcDbEntity
  8
SIZE
100
AcDbCircle
 10
382.0000000000023
 20
58.59264465957852
 30
0.0
 40
5.0
  0
TEXT
  5
9B557
330
18
100
AcDbEntity
  8
SIZE
100
AcDbText
 10
403.4648668981451
 20
73.59264465957853
 30
0.0
 40
30.0
  1
10
 41
0.9
100
AcDbText
  0
LINE
  5
9B558
330
18
100
AcDbEntity
  8
SIZE
100
AcDbLine
 10
381.9999999999923
 20
-7.9999999999946
 30
0.0
 11
381.9999999999923
 21
183.7609916711171
 31
0.0
  0
LINE
  5
9B559
330
18
100
AcDbEntity
  8
SIZE
100
AcDbLine
 10
325.0000000000032
 20
10.86627191199841
 30
0.0
 11
325.0000000000032
 21
183.7609916711171
 31
0.0
  0
LINE
  5
9B55A
330
18
100
AcDbEntity
  8
SIZE
100
AcDbLine
 10
325.0000000000032
 20
178.7609916711171
 30
0.0
 11
381.9999999999923
 21
178.7609916711171
 31
0.0
  0
LINE
  5
9B55B
330
18
100
AcDbEntity
  8
SIZE
100
AcDbLine
 10
381.9999999999923
 20
178.7609916711171
 30
0.0
 11
475.7142857142783
 21
178.7609916711171
 31
0.0
  0
CIRCLE
  5
9B55C
330
18
100
AcDbEntity
  8
SIZE
100
AcDbCircle
 10
325.0000000000032
 20
178.7609916711171
 30
0.0
 40
5.0
  0
CIRCLE
  5
9B55D
330
18
100
AcDbEntity
  8
SIZE
100
AcDbCircle
 10
381.9999999999923
 20
178.7609916711171
 30
0.0
 40
5.0
  0
TEXT
  5
9B55E
330
18
100
AcDbEntity
  8
SIZE
100
AcDbText
 10
416.9999999999923
 20
193.7609916711171
 30
0.0
 40
30.0
  1
57
 41
0.9
100
AcDbText
  0
LINE
  5
9B55F
330
18
100
AcDbEntity
  8
SIZE
100
AcDbLine
 10
325.0000000000032
 20
10.86627191199841
 30
0.0
 11
325.0000000000032
 21
183.7609916711171
 31
0.0
  0
LINE
  5
9B560
330
18
100
AcDbEntity
  8
SIZE
100
AcDbLine
 10
-317.9999999999977
 20
10.86627191199841
 30
0.0
 11
-317.9999999999977
 21
183.7609916711171
 31
0.0
  0
LINE
  5
9B561
330
18
100
AcDbEntity
  8
SIZE
100
AcDbLine
 10
325.0000000000032
 20
178.7609916711171
 30
0.0
 11
-317.9999999999977
 21
178.7609916711171
 31
0.0
  0
CIRCLE
  5
9B562
330
18
100
AcDbEntity
  8
SIZE
100
AcDbCircle
 10
325.0000000000032
 20
178.7609916711171
 30
0.0
 40
5.0
  0
CIRCLE
  5
9B563
330
18
100
AcDbEntity
  8
SIZE
100
AcDbCircle
 10
-317.9999999999977
 20
178.7609916711171
 30
0.0
 40
5.0
  0
TEXT
  5
9B564
330
18
100
AcDbEntity
  8
SIZE
100
AcDbText
 10
-265.9857142857118
 20
196.6181345282599
 30
0.0
 40
30.0
  1
643(Suspension bolt pitch)
 41
0.9
100
AcDbText
  0
LINE
  5
9B565
330
18
100
AcDbEntity
  8
SIZE
100
AcDbLine
 10
382.0000000000023
 20
-7.9999999999946
 30
0.0
 11
382.0000000000023
 21
278.9522955905208
 31
0.0
  0
LINE
  5
9B566
330
18
100
AcDbEntity
  8
SIZE
100
AcDbLine
 10
350.0000000000032
 20
20.00000000000539
 30
0.0
 11
350.0000000000032
 21
278.9522955905208
 31
0.0
  0
LINE
  5
9B567
330
18
100
AcDbEntity
  8
SIZE
100
AcDbLine
 10
350.0000000000032
 20
273.9522955905208
 30
0.0
 11
382.0000000000023
 21
273.9522955905208
 31
0.0
  0
LINE
  5
9B568
330
18
100
AcDbEntity
  8
SIZE
100
AcDbLine
 10
382.0000000000023
 20
273.9522955905208
 30
0.0
 11
475.7142857142892
 21
273.9522955905208
 31
0.0
  0
CIRCLE
  5
9B569
330
18
100
AcDbEntity
  8
SIZE
100
AcDbCircle
 10
350.0000000000032
 20
273.9522955905208
 30
0.0
 40
5.0
  0
CIRCLE
  5
9B56A
330
18
100
AcDbEntity
  8
SIZE
100
AcDbCircle
 10
382.0000000000023
 20
273.9522955905208
 30
0.0
 40
5.0
  0
TEXT
  5
9B56B
330
18
100
AcDbEntity
  8
SIZE
100
AcDbText
 10
417.0000000000032
 20
288.9522955905208
 30
0.0
 40
30.0
  1
32
 41
0.9
100
AcDbText
  0
LINE
  5
9B56C
330
18
100
AcDbEntity
  8
SIZE
100
AcDbLine
 10
350.0000000000032
 20
20.00000000000539
 30
0.0
 11
350.0000000000032
 21
278.9522955905208
 31
0.0
  0
LINE
  5
9B56D
330
18
100
AcDbEntity
  8
SIZE
100
AcDbLine
 10
-349.9999999999977
 20
14.99999999999001
 30
0.0
 11
-349.9999999999977
 21
278.9522955905208
 31
0.0
  0
LINE
  5
9B56E
330
18
100
AcDbEntity
  8
SIZE
100
AcDbLine
 10
350.0000000000032
 20
273.9522955905208
 30
0.0
 11
-349.9999999999977
 21
273.9522955905208
 31
0.0
  0
CIRCLE
  5
9B56F
330
18
100
AcDbEntity
  8
SIZE
100
AcDbCircle
 10
350.0000000000032
 20
273.9522955905208
 30
0.0
 40
5.0
  0
CIRCLE
  5
9B570
330
18
100
AcDbEntity
  8
SIZE
100
AcDbCircle
 10
-349.9999999999977
 20
273.9522955905208
 30
0.0
 40
5.0
  0
TEXT
  5
9B571
330
18
100
AcDbEntity
  8
SIZE
100
AcDbText
 10
-34.7142857142826
 20
288.9522955905208
 30
0.0
 40
30.0
  1
700
 41
0.9
100
AcDbText
  0
LINE
  5
9B572
330
18
100
AcDbEntity
  8
SIZE
100
AcDbLine
 10
381.9999999999923
 20
-7.9999999999946
 30
0.0
 11
381.9999999999923
 21
377.6597002103857
 31
0.0
  0
LINE
  5
9B573
330
18
100
AcDbEntity
  8
SIZE
100
AcDbLine
 10
-349.9999999999977
 20
11.19456366236591
 30
0.0
 11
-349.9999999999977
 21
377.6597002103857
 31
0.0
  0
LINE
  5
9B574
330
18
100
AcDbEntity
  8
SIZE
100
AcDbLine
 10
381.9999999999923
 20
372.6597002103858
 30
0.0
 11
-349.9999999999977
 21
372.6597002103858
 31
0.0
  0
CIRCLE
  5
9B575
330
18
100
AcDbEntity
  8
SIZE
100
AcDbCircle
 10
381.9999999999923
 20
372.6597002103858
 30
0.0
 40
5.0
  0
CIRCLE
  5
9B576
330
18
100
AcDbEntity
  8
SIZE
100
AcDbCircle
 10
-349.9999999999977
 20
372.6597002103858
 30
0.0
 40
5.0
  0
TEXT
  5
9B577
330
18
100
AcDbEntity
  8
SIZE
100
AcDbText
 10
-18.71428571428896
 20
387.6597002103857
 30
0.0
 40
30.0
  1
732
 41
0.9
100
AcDbText
  0
LINE
  5
9B578
330
18
100
AcDbEntity
  8
NOTE
100
AcDbLine
 10
-317.9999999999977
 20
-14.99999999999459
 30
0.0
 11
-340.0886666512338
 21
11.35223853037401
 31
0.0
  0
LINE
  5
9B579
330
18
100
AcDbEntity
  8
NOTE
100
AcDbLine
 10
-317.9999999999977
 20
-14.99999999999459
 30
0.0
 11
-323.9532266970868
 21
18.86604142622029
 31
0.0
  0
LINE
  5
9B57A
330
18
100
AcDbEntity
  8
NOTE
100
AcDbLine
 10
-398.0665045668638
 20
153.7546129431557
 30
0.0
 11
-317.9999999999977
 21
-14.99999999999459
 31
0.0
  0
LINE
  5
9B57B
330
18
100
AcDbEntity
  8
NOTE
100
AcDbLine
 10
692.3460825807992
 20
149.0041951115117
 30
0.0
 11
564.7905433691071
 21
149.0041951115117
 31
0.0
  0
TEXT
  5
9B57C
330
18
100
AcDbEntity
  8
NOTE
100
AcDbText
 10
504.5127492474653
 20
156.411612828459
 30
0.0
 40
30.0
  1
2X2-%%c2.9
 50
359.999997438679
 41
0.7
  7
STANDARD1
100
AcDbText
  0
LINE
  5
9B57D
330
18
100
AcDbEntity
  8
NOTE
100
AcDbLine
 10
692.3460825807992
 20
149.0041951115117
 30
0.0
 11
493.0523796859372
 21
149.0041951115117
 31
0.0
  0
LINE
  5
9B57E
330
18
100
AcDbEntity
  8
NOTE
100
AcDbLine
 10
371.9999999999923
 20
-62.99999999999459
 30
0.0
 11
380.9796492276323
 21
-29.80789898575681
 31
0.0
  0
LINE
  5
9B57F
330
18
100
AcDbEntity
  8
NOTE
100
AcDbLine
 10
371.9999999999923
 20
-62.99999999999459
 30
0.0
 11
396.3726552086982
 21
-38.7446222856298
 31
0.0
  0
LINE
  5
9B580
330
18
100
AcDbEntity
  8
NOTE
100
AcDbLine
 10
493.0523796859372
 20
149.0041951115117
 30
0.0
 11
371.9999999999923
 21
-62.99999999999459
 31
0.0
  0
LINE
  5
9B581
330
18
100
AcDbEntity
  8
SIZE
100
AcDbLine
 10
-364.9999999999986
 20
-0.0000000000100897
 30
0.0
 11
-901.8609135856109
 21
-0.0000000000101892
 31
0.0
  0
LINE
  5
9B582
330
18
100
AcDbEntity
  8
SIZE
100
AcDbLine
 10
-364.9999999999986
 20
-249.9999999999947
 30
0.0
 11
-901.8609135856109
 21
-249.9999999999948
 31
0.0
  0
LINE
  5
9B583
330
18
100
AcDbEntity
  8
SIZE
100
AcDbLine
 10
-896.8609135856109
 20
-0.0000000000101892
 30
0.0
 11
-896.8609135856109
 21
-249.9999999999948
 31
0.0
  0
CIRCLE
  5
9B584
330
18
100
AcDbEntity
  8
SIZE
100
AcDbCircle
 10
-896.8609135856109
 20
-0.0000000000101892
 30
0.0
 40
5.0
  0
CIRCLE
  5
9B585
330
18
100
AcDbEntity
  8
SIZE
100
AcDbCircle
 10
-896.8609135856109
 20
-249.9999999999948
 30
0.0
 40
5.0
  0
TEXT
  5
9B586
330
18
100
AcDbEntity
  8
SIZE
100
AcDbText
 10
-911.86091358561
 20
-159.7142857142873
 30
0.0
 40
30.0
  1
250
 50
90.0
 41
0.9
100
AcDbText
  0
LINE
  5
9B587
330
18
100
AcDbEntity
  8
ARRANGE
100
AcDbLine
 10
-21.26587376331281
 20
-21.0470000888909
 30
0.0
 11
21.26587376331827
 21
21.04700008888531
 31
0.0
  0
LINE
  5
9B588
330
18
100
AcDbEntity
  8
ARRANGE
100
AcDbLine
 10
-21.23459940696057
 20
21.07855278914114
 30
0.0
 11
21.23459940696603
 21
-21.0785527891458
 31
0.0
  0
TEXT
  5
9B589
330
18
100
AcDbEntity
  8
SIZE
100
AcDbText
 10
733.4078869036302
 20
-168.1230673228226
 30
0.0
 40
30.0
  1
(Duct)
 50
90.0
 41
0.9
100
AcDbText
  0
LINE
  5
9B58A
330
18
100
AcDbEntity
  8
SIZE
100
AcDbLine
 10
-364.9999999999986
 20
-0.0000000000100897
 30
0.0
 11
-430.3565702247779
 21
-0.0000000000100897
 31
0.0
  0
LINE
  5
9B58B
330
18
100
AcDbEntity
  8
SIZE
100
AcDbLine
 10
-342.9470061288048
 20
-14.9999999999947
 30
0.0
 11
-430.3565702247779
 21
-14.9999999999947
 31
0.0
  0
LINE
  5
9B58C
330
18
100
AcDbEntity
  8
SIZE
100
AcDbLine
 10
-425.3565702247779
 20
-14.9999999999947
 30
0.0
 11
-425.3565702247779
 21
-34.9999999999947
 31
0.0
  0
LINE
  5
9B58D
330
18
100
AcDbEntity
  8
SIZE
100
AcDbLine
 10
-425.3565702247779
 20
-0.0000000000100897
 30
0.0
 11
-425.3565702247779
 21
108.5714285714199
 31
0.0
  0
LINE
  5
9B58E
330
18
100
AcDbEntity
  8
SIZE
100
AcDbLine
 10
-425.3565702247779
 20
-14.9999999999947
 30
0.0
 11
-425.3565702247779
 21
-0.0000000000100897
 31
0.0
  0
CIRCLE
  5
9B58F
330
18
100
AcDbEntity
  8
SIZE
100
AcDbCircle
 10
-425.3565702247779
 20
-14.9999999999947
 30
0.0
 40
5.0
  0
CIRCLE
  5
9B590
330
18
100
AcDbEntity
  8
SIZE
100
AcDbCircle
 10
-425.3565702247779
 20
-0.0000000000100897
 30
0.0
 40
5.0
  0
TEXT
  5
9B591
330
18
100
AcDbEntity
  8
SIZE
100
AcDbText
 10
-440.356570224777
 20
54.99999999999213
 30
0.0
 40
30.0
  1
15
 50
90.0
 41
0.9
100
AcDbText
  0
LINE
  5
9B592
330
18
100
AcDbEntity
  8
NOTE
100
AcDbLine
 10
-379.1450921450278
 20
-96.58566227049418
 30
0.0
 11
-407.1868543751889
 21
-76.7017109356094
 31
0.0
  0
LINE
  5
9B593
330
18
100
AcDbEntity
  8
NOTE
100
AcDbLine
 10
-407.1868543751889
 20
-88.90776018599
 30
0.0
 11
-407.1868543751889
 21
-76.7017109356094
 31
0.0
  0
LINE
  5
9B594
330
18
100
AcDbEntity
  8
NOTE
100
AcDbLine
 10
-430.2205606286998
 20
-88.90776018599
 30
0.0
 11
-407.1868543751889
 21
-88.90776018599
 31
0.0
  0
LINE
  5
9B595
330
18
100
AcDbEntity
  8
NOTE
100
AcDbLine
 10
-430.2205606286998
 20
-104.2635643550021
 30
0.0
 11
-430.2205606286998
 21
-88.90776018599
 31
0.0
  0
LINE
  5
9B596
330
18
100
AcDbEntity
  8
NOTE
100
AcDbLine
 10
-430.2205606286998
 20
-104.2635643550021
 30
0.0
 11
-407.1868543751889
 21
-104.2635643550021
 31
0.0
  0
LINE
  5
9B597
330
18
100
AcDbEntity
  8
NOTE
100
AcDbLine
 10
-379.1450921450278
 20
-96.58566227049418
 30
0.0
 11
-407.1868543751889
 21
-116.46961360538
 31
0.0
  0
LINE
  5
9B598
330
18
100
AcDbEntity
  8
NOTE
100
AcDbLine
 10
-407.1868543751889
 20
-104.2635643550021
 30
0.0
 11
-407.1868543751889
 21
-116.46961360538
 31
0.0
  0
TEXT
  5
9B599
330
18
100
AcDbEntity
  8
NOTE
100
AcDbText
 10
-502.1505464931497
 20
-176.4654136806113
 30
0.0
 40
23.69722882067107
  1
Air inlet
 50
359.999997438679
 41
0.6
  7
STANDARD1
100
AcDbText
  0
LINE
  5
9B59A
330
18
100
AcDbEntity
  8
NOTE
100
AcDbLine
 10
485.2276113631992
 20
-96.58566227049418
 30
0.0
 11
457.1858491330381
 21
-76.7017109356094
 31
0.0
  0
LINE
  5
9B59B
330
18
100
AcDbEntity
  8
NOTE
100
AcDbLine
 10
457.1858491330381
 20
-88.90776018599
 30
0.0
 11
457.1858491330381
 21
-76.7017109356094
 31
0.0
  0
LINE
  5
9B59C
330
18
100
AcDbEntity
  8
NOTE
100
AcDbLine
 10
434.1521428795272
 20
-88.90776018599
 30
0.0
 11
457.1858491330381
 21
-88.90776018599
 31
0.0
  0
LINE
  5
9B59D
330
18
100
AcDbEntity
  8
NOTE
100
AcDbLine
 10
434.1521428795272
 20
-104.2635643550021
 30
0.0
 11
434.1521428795272
 21
-88.90776018599
 31
0.0
  0
LINE
  5
9B59E
330
18
100
AcDbEntity
  8
NOTE
100
AcDbLine
 10
434.1521428795272
 20
-104.2635643550021
 30
0.0
 11
457.1858491330381
 21
-104.2635643550021
 31
0.0
  0
LINE
  5
9B59F
330
18
100
AcDbEntity
  8
NOTE
100
AcDbLine
 10
485.2276113631992
 20
-96.58566227049418
 30
0.0
 11
457.1858491330381
 21
-116.46961360538
 31
0.0
  0
LINE
  5
9B5A0
330
18
100
AcDbEntity
  8
NOTE
100
AcDbLine
 10
457.1858491330381
 20
-104.2635643550021
 30
0.0
 11
457.1858491330381
 21
-116.46961360538
 31
0.0
  0
TEXT
  5
9B5A1
330
18
100
AcDbEntity
  8
NOTE
100
AcDbText
 10
388.5273505553841
 20
-155.2128015550444
 30
0.0
 40
23.69722882067107
  1
 outlet
 50
359.999997438679
 41
0.6
  7
STANDARD1
100
AcDbText
  0
TEXT
  5
9B5A2
330
18
100
AcDbEntity
  8
NOTE
100
AcDbText
 10
-746.2418726080787
 20
250.915445644538
 30
0.0
 40
30.0
  1
Suspension bolt hole
 50
359.999997438679
 41
0.6
  7
STANDARD1
100
AcDbText
  0
LINE
  5
9B5A3
330
18
100
AcDbEntity
  8
NOTE
100
AcDbLine
 10
-398.0665045668638
 20
153.7546129431557
 30
0.0
 11
-753.5074268669568
 21
153.7546449903074
 31
0.0
  0
TEXT
  5
9B5A4
330
18
100
AcDbEntity
  8
NOTE
100
AcDbText
 10
-755.2002466013496
 20
202.4914028163366
 30
0.0
 40
30.0
  1
 4-14X30 Slot
 50
359.999997438679
 41
0.6
  7
STANDARD1
100
AcDbText
  0
TEXT
  5
9B5A5
330
18
100
AcDbEntity
  8
NOTE
100
AcDbText
 10
-745.2094486139058
 20
163.657783018832
 30
0.0
 40
30.0
  1
(Use M10 screw)
 50
359.999997438679
 41
0.6
  7
STANDARD1
100
AcDbText
  0
LINE
  5
9B5A6
330
18
100
AcDbEntity
  8
SIZE
100
AcDbLine
 10
396.9999999999911
 20
-22.99999999999459
 30
0.0
 11
550.6035421003933
 21
-22.99999999999459
 31
0.0
  0
LINE
  5
9B5A7
330
18
100
AcDbEntity
  8
SIZE
100
AcDbLine
 10
390.6365124045501
 20
-62.9999999999947
 30
0.0
 11
550.6035421003933
 21
-62.99999999999459
 31
0.0
  0
LINE
  5
9B5A8
330
18
100
AcDbEntity
  8
SIZE
100
AcDbLine
 10
545.6035421003933
 20
-62.99999999999459
 30
0.0
 11
545.6035421003933
 21
-22.99999999999459
 31
0.0
  0
LINE
  5
9B5A9
330
18
100
AcDbEntity
  8
SIZE
100
AcDbLine
 10
545.6035421003933
 20
-22.99999999999459
 30
0.0
 11
545.6035421003933
 21
70.71428571429269
 31
0.0
  0
CIRCLE
  5
9B5AA
330
18
100
AcDbEntity
  8
SIZE
100
AcDbCircle
 10
545.6035421003933
 20
-62.99999999999459
 30
0.0
 40
5.0
  0
CIRCLE
  5
9B5AB
330
18
100
AcDbEntity
  8
SIZE
100
AcDbCircle
 10
545.6035421003933
 20
-22.99999999999459
 30
0.0
 40
5.0
  0
TEXT
  5
9B5AC
330
18
100
AcDbEntity
  8
SIZE
100
AcDbText
 10
530.6035421003933
 20
12.0000000000075
 30
0.0
 40
30.0
  1
40
 50
90.0
 41
0.9
100
AcDbText
  0
LINE
  5
9B5AD
330
18
100
AcDbEntity
  8
SIZE
100
AcDbLine
 10
390.6365124045501
 20
-62.9999999999947
 30
0.0
 11
550.6035421003942
 21
-62.99999999999459
 31
0.0
  0
LINE
  5
9B5AE
330
18
100
AcDbEntity
  8
SIZE
100
AcDbLine
 10
390.6365124045501
 20
-162.9999999999947
 30
0.0
 11
550.6035421003942
 21
-162.9999999999947
 31
0.0
  0
LINE
  5
9B5AF
330
18
100
AcDbEntity
  8
SIZE
100
AcDbLine
 10
545.6035421003942
 20
-62.99999999999459
 30
0.0
 11
545.6035421003942
 21
-162.9999999999947
 31
0.0
  0
CIRCLE
  5
9B5B0
330
18
100
AcDbEntity
  8
SIZE
100
AcDbCircle
 10
545.6035421003942
 20
-62.99999999999459
 30
0.0
 40
5.0
  0
CIRCLE
  5
9B5B1
330
18
100
AcDbEntity
  8
SIZE
100
AcDbCircle
 10
545.6035421003942
 20
-162.9999999999947
 30
0.0
 40
5.0
  0
TEXT
  5
9B5B2
330
18
100
AcDbEntity
  8
SIZE
100
AcDbText
 10
530.6035421003942
 20
-145.1428571428513
 30
0.0
 40
30.0
  1
100
 50
90.0
 41
0.9
100
AcDbText
  0
TEXT
  5
9B5B3
330
18
100
AcDbEntity
  8
NOTE
100
AcDbText
 10
398.7285061907091
 20
-126.2192495777927
 30
0.0
 40
23.69722882067107
  1
Air
 50
359.999997438679
 41
0.6
  7
STANDARD1
100
AcDbText
  0
LINE
  5
9B5B4
330
18
100
AcDbEntity
  8
SIZE
100
AcDbLine
 10
365.0000000000023
 20
0.0000000000054001
 30
0.0
 11
682.6478616420231
 21
0.0000000000054001
 31
0.0
  0
LINE
  5
9B5B5
330
18
100
AcDbEntity
  8
SIZE
100
AcDbLine
 10
396.9999999999911
 20
-22.99999999999459
 30
0.0
 11
682.6478616420231
 21
-22.99999999999459
 31
0.0
  0
LINE
  5
9B5B6
330
18
100
AcDbEntity
  8
SIZE
100
AcDbLine
 10
677.6478616420231
 20
-22.99999999999459
 30
0.0
 11
677.6478616420231
 21
-42.99999999999459
 31
0.0
  0
LINE
  5
9B5B7
330
18
100
AcDbEntity
  8
SIZE
100
AcDbLine
 10
677.6478616420231
 20
0.0000000000054001
 30
0.0
 11
677.6478616420231
 21
113.7142857142927
 31
0.0
  0
LINE
  5
9B5B8
330
18
100
AcDbEntity
  8
SIZE
100
AcDbLine
 10
677.6478616420231
 20
-22.99999999999459
 30
0.0
 11
677.6478616420231
 21
0.0000000000054001
 31
0.0
  0
CIRCLE
  5
9B5B9
330
18
100
AcDbEntity
  8
SIZE
100
AcDbCircle
 10
677.6478616420231
 20
-22.99999999999459
 30
0.0
 40
5.0
  0
CIRCLE
  5
9B5BA
330
18
100
AcDbEntity
  8
SIZE
100
AcDbCircle
 10
677.6478616420231
 20
0.0000000000054001
 30
0.0
 40
5.0
  0
TEXT
  5
9B5BB
330
18
100
AcDbEntity
  8
SIZE
100
AcDbText
 10
662.6478616420243
 20
55.00000000000747
 30
0.0
 40
30.0
  1
23
 50
90.0
 41
0.9
100
AcDbText
  0
LINE
  5
9B5BC
330
18
100
AcDbEntity
  8
SIZE
100
AcDbLine
 10
396.9999999999911
 20
-22.99999999999459
 30
0.0
 11
682.6478616420243
 21
-22.99999999999459
 31
0.0
  0
LINE
  5
9B5BD
330
18
100
AcDbEntity
  8
SIZE
100
AcDbLine
 10
397.0000000000023
 20
-200.9999999999947
 30
0.0
 11
682.6478616420243
 21
-200.9999999999947
 31
0.0
  0
LINE
  5
9B5BE
330
18
100
AcDbEntity
  8
SIZE
100
AcDbLine
 10
677.6478616420231
 20
-22.99999999999459
 30
0.0
 11
677.6478616420231
 21
-200.9999999999947
 31
0.0
  0
CIRCLE
  5
9B5BF
330
18
100
AcDbEntity
  8
SIZE
100
AcDbCircle
 10
677.6478616420231
 20
-22.99999999999459
 30
0.0
 40
5.0
  0
CIRCLE
  5
9B5C0
330
18
100
AcDbEntity
  8
SIZE
100
AcDbCircle
 10
677.6478616420231
 20
-200.9999999999947
 30
0.0
 40
5.0
  0
TEXT
  5
9B5C1
330
18
100
AcDbEntity
  8
SIZE
100
AcDbText
 10
662.6478616420243
 20
-144.1428571428513
 30
0.0
 40
30.0
  1
178
 50
90.0
 41
0.9
100
AcDbText
  0
LINE
  5
9B5C2
330
18
100
AcDbEntity
  8
DETAIL
100
AcDbLine
 10
-194.0772532188948
 20
-9.012875536489489
 30
0.0
 11
-194.0772532188948
 21
-0.0000000000090949
 31
0.0
  0
LINE
  5
9B5C3
330
18
100
AcDbEntity
  8
DETAIL
100
AcDbLine
 10
-197.0815450643759
 20
-12.01716738198239
 30
0.0
 11
-350.0000000000018
 21
-12.01716738197509
 31
0.0
  0
ARC
  5
9B5C4
330
18
100
AcDbEntity
  8
DETAIL
100
AcDbCircle
 10
-197.0815450643759
 20
-9.012875536489489
 30
0.0
 40
3.0042918454936
100
AcDbArc
 50
270.0
 51
0.0
  0
LINE
  5
9B5C5
330
18
100
AcDbEntity
  8
DETAIL
100
AcDbLine
 10
-349.9999999999977
 20
-249.1988555078625
 30
0.0
 11
-350.801144492119
 21
-249.1988555078625
 31
0.0
  0
LINE
  5
9B5C6
330
18
100
AcDbEntity
  8
DETAIL
100
AcDbLine
 10
-353.0042918455088
 20
-246.7954220314669
 30
0.0
 11
-351.0014306151779
 21
-246.7954220314669
 31
0.0
  0
LINE
  5
9B5C7
330
18
100
AcDbEntity
  8
DETAIL
100
AcDbLine
 10
-356.5092989985737
 20
-240.2861230328982
 30
0.0
 11
-353.0042918455088
 21
-240.2861230328982
 31
0.0
  0
LINE
  5
9B5C8
330
18
100
AcDbEntity
  8
DETAIL
100
AcDbLine
 10
-349.9999999999977
 20
-228.0000000000101
 30
0.0
 11
-353.0042918455088
 21
-228.0000000000101
 31
0.0
  0
LINE
  5
9B5C9
330
18
100
AcDbEntity
  8
DETAIL
100
AcDbLine
 10
-356.5092989985737
 20
-10.3147353362038
 30
0.0
 11
-353.0042918455088
 21
-10.3147353362038
 31
0.0
  0
LINE
  5
9B5CA
330
18
100
AcDbEntity
  8
DETAIL
100
AcDbLine
 10
-357.0100143061418
 20
-4.306151645217199
 30
0.0
 11
-355.6080114449169
 21
-4.306151645217199
 31
0.0
  0
LINE
  5
9B5CB
330
18
100
AcDbEntity
  8
DETAIL
100
AcDbLine
 10
-353.0042918455088
 20
-3.805436337634092
 30
0.0
 11
-349.9999999999977
 21
-3.805436337634092
 31
0.0
  0
LINE
  5
9B5CC
330
18
100
AcDbEntity
  8
DETAIL
100
AcDbLine
 10
-355.6080114449169
 20
-4.306151645217199
 30
0.0
 11
-354.9279977358706
 21
-6.572864008634497
 31
0.0
  0
LINE
  5
9B5CD
330
18
100
AcDbEntity
  8
DETAIL
100
AcDbLine
 10
-343.9914163090179
 20
-72.10300429185288
 30
0.0
 11
-343.9914163090179
 21
-24.03433476395459
 31
0.0
  0
LINE
  5
9B5CE
330
18
100
AcDbEntity
  8
DETAIL
100
AcDbLine
 10
-343.9914163090179
 20
-15.02145922747879
 30
0.0
 11
-343.9914163090179
 21
-24.03433476395459
 31
0.0
  0
LINE
  5
9B5CF
330
18
100
AcDbEntity
  8
DETAIL
100
AcDbLine
 10
-349.9999999999977
 20
-247.9971387696633
 30
0.0
 11
-349.9999999999977
 21
-236.7811158798223
 31
0.0
  0
LINE
  5
9B5D0
330
18
100
AcDbEntity
  8
DETAIL
100
AcDbLine
 10
-349.9999999999977
 20
-234.1344778254753
 30
0.0
 11
-349.9999999999977
 21
-0.0000000000100897
 31
0.0
  0
LINE
  5
9B5D1
330
18
100
AcDbEntity
  8
DETAIL
100
AcDbLine
 10
-349.9999999999977
 20
-122.9756795422136
 30
0.0
 11
-349.9999999999977
 21
-12.01716738198239
 31
0.0
  0
LINE
  5
9B5D2
330
18
100
AcDbEntity
  8
DETAIL
100
AcDbLine
 10
-351.0014306151779
 20
-247.9971387696633
 30
0.0
 11
-351.0014306151779
 21
-228.0000000000101
 31
0.0
  0
LINE
  5
9B5D3
330
18
100
AcDbEntity
  8
DETAIL
100
AcDbLine
 10
-351.0014306151779
 20
-247.9971387696633
 30
0.0
 11
-351.0014306151779
 21
-248.9985693848285
 31
0.0
  0
LINE
  5
9B5D4
330
18
100
AcDbEntity
  8
DETAIL
100
AcDbLine
 10
-353.0042918455088
 20
-3.805436337634092
 30
0.0
 11
-353.0042918455088
 21
-18.0000000000101
 31
0.0
  0
LINE
  5
9B5D5
330
18
100
AcDbEntity
  8
DETAIL
100
AcDbLine
 10
-353.0042918455088
 20
-228.0000000000101
 30
0.0
 11
-353.0042918455088
 21
-246.7954220314669
 31
0.0
  0
LINE
  5
9B5D6
330
18
100
AcDbEntity
  8
DETAIL
100
AcDbLine
 10
-354.8142038431588
 20
-9.831494740797098
 30
0.0
 11
-354.9279977358706
 21
-6.572864008634497
 31
0.0
  0
ARC
  5
9B5D7
330
18
100
AcDbEntity
  8
DETAIL
100
AcDbCircle
 10
-356.5092989985737
 20
-239.7854077253151
 30
0.0
 40
0.5007153075822283
100
AcDbArc
 50
180.0
 51
270.0
  0
ARC
  5
9B5D8
330
18
100
AcDbEntity
  8
DETAIL
100
AcDbCircle
 10
-350.801144492119
 20
-248.9985693848285
 30
0.0
 40
0.2002861230327059
100
AcDbArc
 50
180.0
 51
270.0
  0
ARC
  5
9B5D9
330
18
100
AcDbEntity
  8
DETAIL
100
AcDbCircle
 10
-356.5092989985737
 20
-10.81545064378589
 30
0.0
 40
0.500715307582258
100
AcDbArc
 50
90.0
 51
180.0
  0
ARC
  5
9B5DA
330
18
100
AcDbEntity
  8
DETAIL
100
AcDbCircle
 10
-354.3137935578338
 20
-9.814020028620789
 30
0.0
 40
0.5007153075822283
100
AcDbArc
 50
182.000000000003
 51
270.0
  0
LINE
  5
9B5DB
330
18
100
AcDbEntity
  8
DETAIL
100
AcDbLine
 10
-357.0100143061568
 20
-239.7854077253151
 30
0.0
 11
-357.0100143061568
 21
-4.306151645217199
 31
0.0
  0
LINE
  5
9B5DC
330
18
100
AcDbEntity
  8
DETAIL
100
AcDbLine
 10
-349.9999999999977
 20
-249.9999999999946
 30
0.0
 11
-349.9999999999977
 21
0.0000000000054001
 31
0.0
  0
LINE
  5
9B5DD
330
18
100
AcDbEntity
  8
OUTLINE
100
AcDbLine
 10
-349.9999999999977
 20
-0.0000000000100897
 30
0.0
 11
-349.9999999999977
 21
-249.9999999999946
 31
0.0
  0
LINE
  5
9B5DE
330
18
100
AcDbEntity
  8
DETAIL
100
AcDbLine
 10
-353.0042918455088
 20
-18.0000000000101
 30
0.0
 11
-349.9999999999977
 21
-18.0000000000101
 31
0.0
  0
LINE
  5
9B5DF
330
18
100
AcDbEntity
  8
NOTE
100
AcDbLine
 10
-349.9999999999977
 20
-7.363487595450394
 30
0.0
 11
-349.9999999999977
 21
-14.6365124045697
 31
0.0
  0
LINE
  5
9B5E0
330
18
100
AcDbEntity
  8
NOTE
100
AcDbLine
 10
-353.6365124045578
 20
-11.00000000000999
 30
0.0
 11
-346.3634875954367
 21
-11.00000000000999
 31
0.0
  0
LINE
  5
9B5E1
330
18
100
AcDbEntity
  8
NOTE
100
AcDbLine
 10
-349.9999999999977
 20
-119.3634875954495
 30
0.0
 11
-349.9999999999977
 21
-126.6365124045697
 31
0.0
  0
LINE
  5
9B5E2
330
18
100
AcDbEntity
  8
NOTE
100
AcDbLine
 10
-353.6365124045578
 20
-123.0000000000101
 30
0.0
 11
-346.3634875954367
 21
-123.0000000000101
 31
0.0
  0
LINE
  5
9B5E3
330
18
100
AcDbEntity
  8
NOTE
100
AcDbLine
 10
-349.9999999999977
 20
-231.3634875954495
 30
0.0
 11
-349.9999999999977
 21
-238.6365124045698
 31
0.0
  0
LINE
  5
9B5E4
330
18
100
AcDbEntity
  8
NOTE
100
AcDbLine
 10
-353.6365124045578
 20
-235.0000000000101
 30
0.0
 11
-346.3634875954367
 21
-235.0000000000101
 31
0.0
  0
LINE
  5
9B5E5
330
18
100
AcDbEntity
  8
SERVICESPACE
100
AcDbLine
 10
-649.9999999999968
 20
-669.9999999999947
 30
0.0
 11
350.0000000000032
 21
-669.9999999999947
 31
0.0
  0
LINE
  5
9B5E6
330
18
100
AcDbEntity
  8
SERVICESPACE
100
AcDbLine
 10
350.0000000000032
 20
-649.9999999999947
 30
0.0
 11
-649.9999999999968
 21
-649.9999999999947
 31
0.0
  0
LINE
  5
9B5E7
330
18
100
AcDbEntity
  8
SERVICESPACE
100
AcDbLine
 10
-124.9999999999968
 20
-669.9999999999947
 30
0.0
 11
-124.9999999999968
 21
-649.9999999999947
 31
0.0
  0
LINE
  5
9B5E8
330
18
100
AcDbEntity
  8
SERVICESPACE
100
AcDbLine
 10
-124.9999999999968
 20
-649.9999999999947
 30
0.0
 11
-574.9999999999977
 21
-669.9999999999947
 31
0.0
  0
LINE
  5
9B5E9
330
18
100
AcDbEntity
  8
SERVICESPACE
100
AcDbLine
 10
-574.9999999999977
 20
-669.9999999999947
 30
0.0
 11
-574.9999999999977
 21
-649.9999999999947
 31
0.0
  0
LINE
  5
9B5EA
330
18
100
AcDbEntity
  8
SERVICESPACE
100
AcDbLine
 10
-574.9999999999977
 20
-649.9999999999947
 30
0.0
 11
-124.9999999999968
 21
-669.9999999999947
 31
0.0
  0
LINE
  5
9B5EB
330
18
100
AcDbEntity
  8
SERVICESPACE
100
AcDbLine
 10
-649.9999999999968
 20
-649.9999999999947
 30
0.0
 11
-649.9999999999968
 21
-669.9999999999947
 31
0.0
  0
LINE
  5
9B5EC
330
18
100
AcDbEntity
  8
SERVICESPACE
100
AcDbLine
 10
-200.000000501359
 20
-669.9999999999947
 30
0.0
 11
-200.000000501359
 21
-649.9999999999947
 31
0.0
  0
LINE
  5
9B5ED
330
18
100
AcDbEntity
  8
SERVICESPACE
100
AcDbLine
 10
-200.000000501359
 20
-649.9999999999947
 30
0.0
 11
249.9999994986413
 21
-669.9999999999947
 31
0.0
  0
LINE
  5
9B5EE
330
18
100
AcDbEntity
  8
SERVICESPACE
100
AcDbLine
 10
249.9999994986413
 20
-669.9999999999947
 30
0.0
 11
249.9999994986413
 21
-649.9999999999947
 31
0.0
  0
LINE
  5
9B5EF
330
18
100
AcDbEntity
  8
SERVICESPACE
100
AcDbLine
 10
249.9999994986413
 20
-649.9999999999947
 30
0.0
 11
-200.000000501359
 21
-669.9999999999947
 31
0.0
  0
LINE
  5
9B5F0
330
18
100
AcDbEntity
  8
SERVICESPACE
100
AcDbLine
 10
350.0000000000032
 20
-649.9999999999947
 30
0.0
 11
350.0000000000032
 21
-669.9999999999947
 31
0.0
  0
LINE
  5
9B5F1
330
18
100
AcDbEntity
  8
SIZE
100
AcDbLine
 10
-574.9999999999977
 20
-684.9999999999947
 30
0.0
 11
-574.9999999999977
 21
-844.1450960678168
 31
0.0
  0
LINE
  5
9B5F2
330
18
100
AcDbEntity
  8
SIZE
100
AcDbLine
 10
-124.9999999999968
 20
-684.9999999999947
 30
0.0
 11
-124.9999999999968
 21
-844.1450960678168
 31
0.0
  0
LINE
  5
9B5F3
330
18
100
AcDbEntity
  8
SIZE
100
AcDbLine
 10
-574.9999999999977
 20
-839.1450960678168
 30
0.0
 11
-124.9999999999968
 21
-839.1450960678168
 31
0.0
  0
TEXT
  5
9B5F4
330
18
100
AcDbEntity
  8
SIZE
100
AcDbText
 10
-451.1117228908029
 20
-824.1450960678168
 30
0.0
 40
30.0
  1
450
 41
0.9
100
AcDbText
  0
CIRCLE
  5
9B5F5
330
18
100
AcDbEntity
  8
SIZE
100
AcDbCircle
 10
-574.9999999999977
 20
-839.1450960678168
 30
0.0
 40
5.0
  0
CIRCLE
  5
9B5F6
330
18
100
AcDbEntity
  8
SIZE
100
AcDbCircle
 10
-124.9999999999968
 20
-839.1450960678168
 30
0.0
 40
5.0
  0
LINE
  5
9B5F7
330
18
100
AcDbEntity
  8
SIZE
100
AcDbLine
 10
-350.0
 20
-264.9999999999946
 30
0.0
 11
-350.0
 21
-941.7857547905295
 31
0.0
  0
LINE
  5
9B5F8
330
18
100
AcDbEntity
  8
SIZE
100
AcDbLine
 10
-649.9999999999968
 20
-684.9999999999947
 30
0.0
 11
-649.9999999999968
 21
-941.7857547905295
 31
0.0
  0
LINE
  5
9B5F9
330
18
100
AcDbEntity
  8
SIZE
100
AcDbLine
 10
-350.0
 20
-936.7857547905295
 30
0.0
 11
-649.9999999999968
 21
-936.7857547905295
 31
0.0
  0
CIRCLE
  5
9B5FA
330
18
100
AcDbEntity
  8
SIZE
100
AcDbCircle
 10
-350.0
 20
-936.7857547905295
 30
0.0
 40
5.0
  0
CIRCLE
  5
9B5FB
330
18
100
AcDbEntity
  8
SIZE
100
AcDbCircle
 10
-649.9999999999968
 20
-936.7857547905295
 30
0.0
 40
5.0
  0
TEXT
  5
9B5FC
330
18
100
AcDbEntity
  8
SIZE
100
AcDbText
 10
-611.214285714284
 20
-921.7857547905295
 30
0.0
 40
30.0
  1
Min.300mm
 41
0.9
100
AcDbText
  0
LINE
  5
9B5FD
330
18
100
AcDbEntity
  8
SIZE
100
AcDbLine
 10
-315.51465808888
 20
-549.9999999999949
 30
0.0
 11
-901.8609135856109
 21
-549.9999999999949
 31
0.0
  0
LINE
  5
9B5FE
330
18
100
AcDbEntity
  8
SIZE
100
AcDbLine
 10
-364.9999999999986
 20
-249.9999999999947
 30
0.0
 11
-901.8609135856109
 21
-249.9999999999948
 31
0.0
  0
LINE
  5
9B5FF
330
18
100
AcDbEntity
  8
SIZE
100
AcDbLine
 10
-896.8609135856109
 20
-549.9999999999949
 30
0.0
 11
-896.8609135856109
 21
-249.9999999999948
 31
0.0
  0
CIRCLE
  5
9B600
330
18
100
AcDbEntity
  8
SIZE
100
AcDbCircle
 10
-896.8609135856109
 20
-549.9999999999949
 30
0.0
 40
5.0
  0
CIRCLE
  5
9B601
330
18
100
AcDbEntity
  8
SIZE
100
AcDbCircle
 10
-896.8609135856109
 20
-249.9999999999948
 30
0.0
 40
5.0
  0
TEXT
  5
9B602
330
18
100
AcDbEntity
  8
SIZE
100
AcDbText
 10
-911.86091358561
 20
-511.2142857142797
 30
0.0
 40
30.0
  1
Min.300mm
 50
90.0
 41
0.9
100
AcDbText
  0
LINE
  5
9B603
330
18
100
AcDbEntity
  8
SIZE
100
AcDbLine
 10
-200.000000501359
 20
-684.9999999999947
 30
0.0
 11
-200.000000501359
 21
-765.6339397340753
 31
0.0
  0
LINE
  5
9B604
330
18
100
AcDbEntity
  8
SIZE
100
AcDbLine
 10
249.9999994986413
 20
-684.9999999999947
 30
0.0
 11
249.9999994986413
 21
-765.6339397340753
 31
0.0
  0
LINE
  5
9B605
330
18
100
AcDbEntity
  8
SIZE
100
AcDbLine
 10
-200.000000501359
 20
-760.6339397340754
 30
0.0
 11
249.9999994986413
 21
-760.6339397340754
 31
0.0
  0
TEXT
  5
9B606
330
18
100
AcDbEntity
  8
SIZE
100
AcDbText
 10
-4.231304077175992
 20
-745.6339397340754
 30
0.0
 40
30.0
  1
450
 41
0.9
100
AcDbText
  0
CIRCLE
  5
9B607
330
18
100
AcDbEntity
  8
SIZE
100
AcDbCircle
 10
-200.000000501359
 20
-760.6339397340754
 30
0.0
 40
5.0
  0
CIRCLE
  5
9B608
330
18
100
AcDbEntity
  8
SIZE
100
AcDbCircle
 10
249.9999994986413
 20
-760.6339397340754
 30
0.0
 40
5.0
  0
LINE
  5
9B609
330
18
100
AcDbEntity
  8
OUTLINE
100
AcDbLine
 10
290.7302558517631
 20
-549.9999999999947
 30
0.0
 11
290.7302558517631
 21
-589.9999999999947
 31
0.0
  0
LINE
  5
9B60A
330
18
100
AcDbEntity
  8
OUTLINE
100
AcDbLine
 10
290.7302558517631
 20
-589.9999999999947
 30
0.0
 11
330.7302558517631
 21
-589.9999999999947
 31
0.0
  0
LINE
  5
9B60B
330
18
100
AcDbEntity
  8
OUTLINE
100
AcDbLine
 10
330.7302558517631
 20
-589.9999999999947
 30
0.0
 11
330.7302558517631
 21
-549.9999999999947
 31
0.0
  0
LINE
  5
9B60C
330
18
100
AcDbEntity
  8
OUTLINE
100
AcDbLine
 10
330.7302558517631
 20
-549.9999999999947
 30
0.0
 11
290.7302558517631
 21
-549.9999999999947
 31
0.0
  0
LINE
  5
9B60D
330
18
100
AcDbEntity
  8
OUTLINE
100
AcDbLine
 10
330.7302558517631
 20
-589.9999999999947
 30
0.0
 11
290.7302558517631
 21
-549.9999999999947
 31
0.0
  0
LINE
  5
9B60E
330
18
100
AcDbEntity
  8
OUTLINE
100
AcDbLine
 10
290.7302558517631
 20
-589.9999999999947
 30
0.0
 11
330.7302558517631
 21
-549.9999999999947
 31
0.0
  0
LINE
  5
9B60F
330
18
100
AcDbEntity
  8
OUTLINE
100
AcDbLine
 10
-300.5146580888786
 20
-549.9999999999947
 30
0.0
 11
-300.5146580888786
 21
-589.9999999999947
 31
0.0
  0
LINE
  5
9B610
330
18
100
AcDbEntity
  8
OUTLINE
100
AcDbLine
 10
-300.5146580888786
 20
-589.9999999999947
 30
0.0
 11
-260.5146580888786
 21
-589.9999999999947
 31
0.0
  0
LINE
  5
9B611
330
18
100
AcDbEntity
  8
OUTLINE
100
AcDbLine
 10
-260.5146580888786
 20
-589.9999999999947
 30
0.0
 11
-260.5146580888786
 21
-549.9999999999947
 31
0.0
  0
LINE
  5
9B612
330
18
100
AcDbEntity
  8
OUTLINE
100
AcDbLine
 10
-260.5146580888786
 20
-549.9999999999947
 30
0.0
 11
-300.5146580888786
 21
-549.9999999999947
 31
0.0
  0
LINE
  5
9B613
330
18
100
AcDbEntity
  8
OUTLINE
100
AcDbLine
 10
-260.5146580888786
 20
-589.9999999999947
 30
0.0
 11
-300.5146580888786
 21
-549.9999999999947
 31
0.0
  0
LINE
  5
9B614
330
18
100
AcDbEntity
  8
OUTLINE
100
AcDbLine
 10
-300.5146580888786
 20
-589.9999999999947
 30
0.0
 11
-260.5146580888786
 21
-549.9999999999947
 31
0.0
  0
TEXT
  5
9B615
330
18
100
AcDbEntity
  8
NOTE
100
AcDbText
 10
-1089.086640866727
 20
-746.0521428028379
 30
0.0
 40
34.99999999999999
  1
Ceiling surface
 50
360.0
 41
0.7000000000000001
  7
STANDARD1
100
AcDbText
  0
LINE
  5
9B616
330
18
100
AcDbEntity
  8
NOTE
100
AcDbLine
 10
-649.9999999999968
 20
-669.9999999999947
 30
0.0
 11
-677.1998267911317
 21
-691.0361377758119
 31
0.0
  0
LINE
  5
9B617
330
18
100
AcDbEntity
  8
NOTE
100
AcDbLine
 10
-649.9999999999968
 20
-669.9999999999947
 30
0.0
 11
-663.0376716281589
 21
-701.8177432968596
 31
0.0
  0
LINE
  5
9B618
330
18
100
AcDbEntity
  8
NOTE
100
AcDbLine
 10
-723.5272598283996
 20
-765.153295065592
 30
0.0
 11
-649.9999999999968
 21
-669.9999999999947
 31
0.0
  0
LINE
  5
9B619
330
18
100
AcDbEntity
  8
NOTE
100
AcDbLine
 10
-723.5272598283996
 20
-765.153295065592
 30
0.0
 11
-1096.55925895119
 21
-765.153295065592
 31
0.0
  0
LINE
  5
9B61A
330
18
100
AcDbEntity
  8
NOTE
100
AcDbLine
 10
219.0140091018031
 20
-617.9654970105586
 30
0.0
 11
235.9474570536042
 21
-649.9999999999947
 31
0.0
  0
LINE
  5
9B61B
330
18
100
AcDbEntity
  8
NOTE
100
AcDbLine
 10
235.9474570536042
 20
-649.9999999999947
 30
0.0
 11
205.2654095464113
 21
-630.7240304502458
 31
0.0
  0
LINE
  5
9B61C
330
18
100
AcDbEntity
  8
NOTE
100
AcDbLine
 10
235.9474570536042
 20
-649.9999999999947
 30
0.0
 11
212.1397093241071
 21
-624.3447637304016
 31
0.0
  0
LINE
  5
9B61D
330
18
100
AcDbEntity
  8
NOTE
100
AcDbLine
 10
212.1397093241071
 20
-624.3447637304016
 30
0.0
 11
161.2884518921942
 21
-569.54743309483
 31
0.0
1001
ACAD
1000
DSTYLE
1002
{
1070
   341
1005
4C0C3
1070
    41
1040
35.0
1070
   271
1070
     0
1002
}
  0
LINE
  5
9B61E
330
18
100
AcDbEntity
  8
NOTE
100
AcDbLine
 10
161.2884518921942
 20
-569.54743309483
 30
0.0
 11
-151.4828396025978
 21
-569.54743309483
 31
0.0
1001
ACAD
1000
DSTYLE
1002
{
1070
   341
1005
4C0C3
1070
    41
1040
35.0
1070
   271
1070
     0
1002
}
  0
TEXT
  5
9B61F
330
18
100
AcDbEntity
  8
NOTE
100
AcDbText
 10
-146.8359479098367
 20
-559.661192578169
 30
0.0
 40
34.99999999999999
  1
Access door 2
 50
360.0
 41
0.7000000000000001
  7
STANDARD1
100
AcDbText
  0
TEXT
  5
9B620
330
18
100
AcDbEntity
  8
NOTE
100
AcDbText
 10
-27.499547211356
 20
-626.5682210271972
 30
0.0
 40
34.99999999999999
  1
(450X450)
 50
0.0000024148365395
 41
0.5500000000000002
  7
STANDARD1
100
AcDbText
  0
TEXT
  5
9B621
330
18
100
AcDbEntity
  8
NOTE
100
AcDbText
 10
481.6392243927212
 20
-657.9195818044718
 30
0.0
 40
34.99999999999999
  1
Ceiling beam
 50
360.0
 41
0.7000000000000001
  7
STANDARD1
100
AcDbText
  0
LINE
  5
9B622
330
18
100
AcDbEntity
  8
NOTE
100
AcDbLine
 10
-421.4742037096466
 20
-614.8382118253868
 30
0.0
 11
-412.7220786145326
 21
-649.9999999999947
 31
0.0
  0
LINE
  5
9B623
330
18
100
AcDbEntity
  8
NOTE
100
AcDbLine
 10
-412.7220786145326
 20
-649.9999999999947
 30
0.0
 11
-437.8825352530157
 21
-623.9250606317129
 31
0.0
  0
LINE
  5
9B624
330
18
100
AcDbEntity
  8
NOTE
100
AcDbLine
 10
-412.7220786145326
 20
-649.9999999999947
 30
0.0
 11
-429.6783694813316
 21
-619.3816362285497
 31
0.0
  0
LINE
  5
9B625
330
18
100
AcDbEntity
  8
NOTE
100
AcDbLine
 10
-429.6783694813316
 20
-619.3816362285497
 30
0.0
 11
-529.4177067186529
 21
-439.2800247473052
 31
0.0
1001
ACAD
1000
DSTYLE
1002
{
1070
   341
1005
4C0C3
1070
    41
1040
35.0
1070
   271
1070
     0
1002
}
  0
LINE
  5
9B626
330
18
100
AcDbEntity
  8
NOTE
100
AcDbLine
 10
-529.4177067186529
 20
-439.2800247473052
 30
0.0
 11
-844.165691730821
 21
-439.2800247473052
 31
0.0
1001
ACAD
1000
DSTYLE
1002
{
1070
   341
1005
4C0C3
1070
    41
1040
35.0
1070
   271
1070
     0
1002
}
  0
TEXT
  5
9B627
330
18
100
AcDbEntity
  8
NOTE
100
AcDbText
 10
-838.5332375548887
 20
-423.2846601016982
 30
0.0
 40
34.99999999999999
  1
Access door 1
 50
360.0
 41
0.7000000000000001
  7
STANDARD1
100
AcDbText
  0
TEXT
  5
9B628
330
18
100
AcDbEntity
  8
NOTE
100
AcDbText
 10
-719.1968368564076
 20
-490.1916885507263
 30
0.0
 40
34.99999999999999
  1
(450X450)
 50
0.0000024148365395
 41
0.5500000000000002
  7
STANDARD1
100
AcDbText
  0
LINE
  5
9B629
330
18
100
AcDbEntity
  8
SIZE
100
AcDbLine
 10
-124.9999999999968
 20
-684.9999999999947
 30
0.0
 11
-124.9999999999968
 21
-844.1450960678168
 31
0.0
  0
LINE
  5
9B62A
330
18
100
AcDbEntity
  8
SIZE
100
AcDbLine
 10
350.0000000000032
 20
-684.9999999999947
 30
0.0
 11
350.0000000000032
 21
-844.1450960678168
 31
0.0
  0
LINE
  5
9B62B
330
18
100
AcDbEntity
  8
SIZE
100
AcDbLine
 10
-124.9999999999968
 20
-839.1450960678168
 30
0.0
 11
350.0000000000032
 21
-839.1450960678168
 31
0.0
  0
CIRCLE
  5
9B62C
330
18
100
AcDbEntity
  8
SIZE
100
AcDbCircle
 10
-124.9999999999968
 20
-839.1450960678168
 30
0.0
 40
5.0
  0
CIRCLE
  5
9B62D
330
18
100
AcDbEntity
  8
SIZE
100
AcDbCircle
 10
350.0000000000032
 20
-839.1450960678168
 30
0.0
 40
5.0
  0
TEXT
  5
9B62E
330
18
100
AcDbEntity
  8
SIZE
100
AcDbText
 10
77.7857142857174
 20
-824.1450960678168
 30
0.0
 40
30.0
  1
475
 41
0.9
100
AcDbText
  0
LINE
  5
9B62F
330
18
100
AcDbEntity
  8
SIZE
100
AcDbLine
 10
249.9999994986413
 20
-684.9999999999947
 30
0.0
 11
249.9999994986413
 21
-765.6339397340753
 31
0.0
  0
LINE
  5
9B630
330
18
100
AcDbEntity
  8
SIZE
100
AcDbLine
 10
350.0000000000032
 20
-264.9999999999946
 30
0.0
 11
350.0000000000032
 21
-765.6339397340753
 31
0.0
  0
LINE
  5
9B631
330
18
100
AcDbEntity
  8
SIZE
100
AcDbLine
 10
249.9999994986413
 20
-760.6339397340754
 30
0.0
 11
350.0000000000032
 21
-760.6339397340754
 31
0.0
  0
LINE
  5
9B632
330
18
100
AcDbEntity
  8
SIZE
100
AcDbLine
 10
350.0000000000032
 20
-760.6339397340754
 30
0.0
 11
549.1428571428603
 21
-760.6339397340754
 31
0.0
  0
CIRCLE
  5
9B633
330
18
100
AcDbEntity
  8
SIZE
100
AcDbCircle
 10
249.9999994986413
 20
-760.6339397340754
 30
0.0
 40
5.0
  0
CIRCLE
  5
9B634
330
18
100
AcDbEntity
  8
SIZE
100
AcDbCircle
 10
350.0000000000032
 20
-760.6339397340754
 30
0.0
 40
5.0
  0
TEXT
  5
9B635
330
18
100
AcDbEntity
  8
SIZE
100
AcDbText
 10
385.0000000000032
 20
-745.6339397340754
 30
0.0
 40
30.0
  1
50~150
 41
0.9
100
AcDbText
  0
LINE
  5
9B636
330
18
100
AcDbEntity
  8
NOTE
100
AcDbLine
 10
353.9318442712363
 20
-610.6471156918501
 30
0.0
 11
330.7302558517631
 21
-589.9999999999947
 31
0.0
  0
LINE
  5
9B637
330
18
100
AcDbEntity
  8
NOTE
100
AcDbLine
 10
330.7302558517631
 20
-589.9999999999947
 30
0.0
 11
361.1469786486152
 21
-596.280132632268
 31
0.0
  0
LINE
  5
9B638
330
18
100
AcDbEntity
  8
NOTE
100
AcDbLine
 10
330.7302558517631
 20
-589.9999999999947
 30
0.0
 11
357.5394114599253
 21
-603.4636241620591
 31
0.0
  0
LINE
  5
9B639
330
18
100
AcDbEntity
  8
NOTE
100
AcDbLine
 10
357.5394114599253
 20
-603.4636241620591
 30
0.0
 11
481.6392243927212
 21
-665.7868567297029
 31
0.0
1001
ACAD
1000
DSTYLE
1002
{
1070
    41
1040
30.0
1070
    90
1070
     1
1070
   345
1005
12
1070
   346
1005
12
1070
   347
1005
12
1002
}
  0
LINE
  5
9B63A
330
18
100
AcDbEntity
  8
NOTE
100
AcDbLine
 10
481.6392243927212
 20
-665.7868567297029
 30
0.0
 11
769.6423474889773
 21
-665.7868567297029
 31
0.0
1001
ACAD
1000
DSTYLE
1002
{
1070
    41
1040
30.0
1070
    90
1070
     1
1070
   345
1005
12
1070
   346
1005
12
1070
   347
1005
12
1002
}
  0
LINE
  5
9B63B
330
18
100
AcDbEntity
  8
NOTE
100
AcDbLine
 10
214.0000000000023
 20
-111.1337280880014
 30
0.0
 11
214.0000000000023
 21
-132.8662719119878
 31
0.0
  0
LINE
  5
9B63C
330
18
100
AcDbEntity
  8
NOTE
100
AcDbLine
 10
224.8662719119952
 20
-121.9999999999946
 30
0.0
 11
203.1337280880102
 21
-121.9999999999946
 31
0.0
  0
LINE
  5
9B63D
330
18
100
AcDbEntity
  8
NOTE
100
AcDbLine
 10
147.0000000000023
 20
-144.1337280880014
 30
0.0
 11
147.0000000000023
 21
-165.8662719119878
 31
0.0
  0
LINE
  5
9B63E
330
18
100
AcDbEntity
  8
NOTE
100
AcDbLine
 10
157.8662719119961
 20
-154.9999999999946
 30
0.0
 11
136.1337280880093
 21
-154.9999999999946
 31
0.0
  0
LINE
  5
9B63F
330
18
100
AcDbEntity
  8
SIZE
100
AcDbLine
 10
350.0000000000032
 20
-264.9999999999946
 30
0.0
 11
350.0000000000032
 21
-359.763899403692
 31
0.0
  0
LINE
  5
9B640
330
18
100
AcDbEntity
  8
SIZE
100
AcDbLine
 10
214.0000000000023
 20
-147.8662719119878
 30
0.0
 11
214.0000000000023
 21
-359.763899403692
 31
0.0
  0
LINE
  5
9B641
330
18
100
AcDbEntity
  8
SIZE
100
AcDbLine
 10
350.0000000000032
 20
-354.763899403692
 30
0.0
 11
214.0000000000023
 21
-354.763899403692
 31
0.0
  0
CIRCLE
  5
9B642
330
18
100
AcDbEntity
  8
SIZE
100
AcDbCircle
 10
350.0000000000032
 20
-354.763899403692
 30
0.0
 40
5.0
  0
CIRCLE
  5
9B643
330
18
100
AcDbEntity
  8
SIZE
100
AcDbCircle
 10
214.0000000000023
 20
-354.763899403692
 30
0.0
 40
5.0
  0
TEXT
  5
9B644
330
18
100
AcDbEntity
  8
SIZE
100
AcDbText
 10
250.5000000000032
 20
-339.7638994036921
 30
0.0
 40
30.0
  1
136
 41
0.9
100
AcDbText
  0
LINE
  5
9B645
330
18
100
AcDbEntity
  8
SIZE
100
AcDbLine
 10
214.0000000000023
 20
-147.8662719119878
 30
0.0
 11
214.0000000000023
 21
-359.763899403692
 31
0.0
  0
LINE
  5
9B646
330
18
100
AcDbEntity
  8
SIZE
100
AcDbLine
 10
147.0000000000023
 20
-180.8662719119878
 30
0.0
 11
147.0000000000023
 21
-359.763899403692
 31
0.0
  0
LINE
  5
9B647
330
18
100
AcDbEntity
  8
SIZE
100
AcDbLine
 10
214.0000000000023
 20
-354.763899403692
 30
0.0
 11
147.0000000000023
 21
-354.763899403692
 31
0.0
  0
TEXT
  5
9B648
330
18
100
AcDbEntity
  8
SIZE
100
AcDbText
 10
158.6428571428601
 20
-339.7638994036921
 30
0.0
 40
30.0
  1
67
 41
0.9
100
AcDbText
  0
CIRCLE
  5
9B649
330
18
100
AcDbEntity
  8
SIZE
100
AcDbCircle
 10
214.0000000000023
 20
-354.763899403692
 30
0.0
 40
5.0
  0
CIRCLE
  5
9B64A
330
18
100
AcDbEntity
  8
SIZE
100
AcDbCircle
 10
147.0000000000023
 20
-354.763899403692
 30
0.0
 40
5.0
  0
LINE
  5
9B64B
330
18
100
AcDbEntity
  8
SIZE
100
AcDbLine
 10
-334.9999999999986
 20
0.0000000000054001
 30
0.0
 11
281.1735246945932
 21
0.0000000000054001
 31
0.0
  0
LINE
  5
9B64C
330
18
100
AcDbEntity
  8
SIZE
100
AcDbLine
 10
239.8662719119952
 20
-121.9999999999947
 30
0.0
 11
281.1735246945932
 21
-121.9999999999947
 31
0.0
  0
LINE
  5
9B64D
330
18
100
AcDbEntity
  8
SIZE
100
AcDbLine
 10
276.1735246945932
 20
0.0000000000054001
 30
0.0
 11
276.1735246945932
 21
-121.9999999999947
 31
0.0
  0
CIRCLE
  5
9B64E
330
18
100
AcDbEntity
  8
SIZE
100
AcDbCircle
 10
276.1735246945932
 20
0.0000000000054001
 30
0.0
 40
5.0
  0
CIRCLE
  5
9B64F
330
18
100
AcDbEntity
  8
SIZE
100
AcDbCircle
 10
276.1735246945932
 20
-121.9999999999947
 30
0.0
 40
5.0
  0
TEXT
  5
9B650
330
18
100
AcDbEntity
  8
SIZE
100
AcDbText
 10
261.1735246945932
 20
-93.14285714285118
 30
0.0
 40
30.0
  1
122
 50
90.0
 41
0.9
100
AcDbText
  0
LINE
  5
9B651
330
18
100
AcDbEntity
  8
SIZE
100
AcDbLine
 10
239.8662719119952
 20
-121.9999999999947
 30
0.0
 11
281.1735246945902
 21
-121.9999999999947
 31
0.0
  0
LINE
  5
9B652
330
18
100
AcDbEntity
  8
SIZE
100
AcDbLine
 10
172.8662719119952
 20
-154.9999999999947
 30
0.0
 11
281.1735246945902
 21
-154.9999999999947
 31
0.0
  0
LINE
  5
9B653
330
18
100
AcDbEntity
  8
SIZE
100
AcDbLine
 10
276.1735246945902
 20
-121.9999999999947
 30
0.0
 11
276.1735246945902
 21
-154.9999999999947
 31
0.0
  0
LINE
  5
9B654
330
18
100
AcDbEntity
  8
SIZE
100
AcDbLine
 10
276.1735246945902
 20
-138.4999999999947
 30
0.0
 11
315.0521822364963
 21
-166.2707399937888
 31
0.0
  0
LINE
  5
9B655
330
18
100
AcDbEntity
  8
SIZE
100
AcDbLine
 10
315.0521822364963
 20
-166.2707399937888
 30
0.0
 11
315.0521822364963
 21
-239.9850257080745
 31
0.0
  0
TEXT
  5
9B656
330
18
100
AcDbEntity
  8
SIZE
100
AcDbText
 10
300.0521822364963
 20
-224.9850257080738
 30
0.0
 40
30.0
  1
33
 50
90.0
 41
0.9
100
AcDbText
  0
CIRCLE
  5
9B657
330
18
100
AcDbEntity
  8
SIZE
100
AcDbCircle
 10
276.1735246945902
 20
-121.9999999999947
 30
0.0
 40
5.0
  0
CIRCLE
  5
9B658
330
18
100
AcDbEntity
  8
SIZE
100
AcDbCircle
 10
276.1735246945902
 20
-154.9999999999947
 30
0.0
 40
5.0
  0
TEXT
  5
9B659
330
18
100
AcDbEntity
  8
NOTE
100
AcDbText
 10
-187.645079291523
 20
92.58196138516398
 30
0.0
 40
30.0
  1
Flare connection
 50
359.999997438679
 41
0.7
  7
STANDARD1
100
AcDbText
  0
TEXT
  5
9B65A
330
18
100
AcDbEntity
  8
NOTE
100
AcDbText
 10
-187.1270963402299
 20
130.9884861192881
 30
0.0
 40
30.0
  1
Refrigerant piping
 50
359.999997438679
 41
0.7
  7
STANDARD1
100
AcDbText
  0
TEXT
  5
9B65B
330
18
100
AcDbEntity
  8
NOTE
100
AcDbText
 10
-185.5112249492549
 20
52.45041002640021
 30
0.0
 40
30.0
  1
(liquid) %%C6.35
 50
359.999997438679
 41
0.7
  7
STANDARD1
100
AcDbText
  0
TEXT
  5
9B65C
330
18
100
AcDbEntity
  8
NOTE
100
AcDbText
 10
-310.7459855934899
 20
-361.3201156905361
 30
0.0
 40
30.0
  1
Flare connection
 50
359.999997438679
 41
0.7
  7
STANDARD1
100
AcDbText
  0
TEXT
  5
9B65D
330
18
100
AcDbEntity
  8
NOTE
100
AcDbText
 10
-307.6683712842346
 20
-319.5714554301239
 30
0.0
 40
30.0
  1
Refrigerant piping
 50
359.999997438679
 41
0.7
  7
STANDARD1
100
AcDbText
  0
TEXT
  5
9B65E
330
18
100
AcDbEntity
  8
NOTE
100
AcDbText
 10
-302.021924832457
 20
-400.9887728840217
 30
0.0
 40
30.0
  1
(gas) %%C12.7
 50
359.999997438679
 41
0.7
  7
STANDARD1
100
AcDbText
  0
LINE
  5
9B65F
330
18
100
AcDbEntity
  8
NOTE
100
AcDbLine
 10
128.8483522906504
 20
-180.2018804261667
 30
0.0
 11
147.0000000000023
 21
-154.9999999999945
 31
0.0
  0
LINE
  5
9B660
330
18
100
AcDbEntity
  8
NOTE
100
AcDbLine
 10
147.0000000000023
 20
-154.9999999999945
 30
0.0
 11
143.8811520360591
 21
-185.9012925127245
 31
0.0
  0
LINE
  5
9B661
330
18
100
AcDbEntity
  8
NOTE
100
AcDbLine
 10
147.0000000000023
 20
-154.9999999999945
 30
0.0
 11
136.3647521633552
 21
-183.0515864694456
 31
0.0
  0
LINE
  5
9B662
330
18
100
AcDbEntity
  8
NOTE
100
AcDbLine
 10
136.3647521633552
 20
-183.0515864694456
 30
0.0
 11
46.29362848589426
 21
-420.6236631193688
 31
0.0
1001
ACAD
1000
DSTYLE
1002
{
1070
    41
1040
30.0
1070
   147
1040
15.0
1070
    77
1070
     0
1070
    90
1070
     1
1070
   345
1005
12
1070
   346
1005
12
1070
   347
1005
12
1002
}
  0
LINE
  5
9B663
330
18
100
AcDbEntity
  8
NOTE
100
AcDbLine
 10
46.29362848589426
 20
-420.6236631193688
 30
0.0
 11
-328.0661614192877
 21
-420.6236631193688
 31
0.0
1001
ACAD
1000
DSTYLE
1002
{
1070
    41
1040
30.0
1070
   147
1040
15.0
1070
    77
1070
     0
1070
    90
1070
     1
1070
   345
1005
12
1070
   346
1005
12
1070
   347
1005
12
1002
}
  0
LINE
  5
9B664
330
18
100
AcDbEntity
  8
NOTE
100
AcDbLine
 10
214.4795220004441
 20
-90.94541659865779
 30
0.0
 11
214.0000000000023
 21
-121.9999999999946
 31
0.0
  0
LINE
  5
9B665
330
18
100
AcDbEntity
  8
NOTE
100
AcDbLine
 10
214.0000000000023
 20
-121.9999999999946
 30
0.0
 11
198.887986656483
 21
-94.86618080171759
 31
0.0
  0
LINE
  5
9B666
330
18
100
AcDbEntity
  8
NOTE
100
AcDbLine
 10
214.0000000000023
 20
-121.9999999999946
 30
0.0
 11
206.6837543284632
 21
-92.9057987001877
 31
0.0
  0
LINE
  5
9B667
330
18
100
AcDbEntity
  8
NOTE
100
AcDbLine
 10
206.6837543284632
 20
-92.9057987001877
 30
0.0
 11
175.3630325080221
 21
31.64597640545881
 31
0.0
1001
ACAD
1000
DSTYLE
1002
{
1070
    41
1040
30.0
1070
   147
1040
15.0
1070
    77
1070
     0
1070
    90
1070
     1
1070
   345
1005
12
1070
   346
1005
12
1070
   347
1005
12
1002
}
  0
LINE
  5
9B668
330
18
100
AcDbEntity
  8
NOTE
100
AcDbLine
 10
175.3630325080221
 20
31.64597640545881
 30
0.0
 11
-188.4782748324369
 21
31.64597640545881
 31
0.0
1001
ACAD
1000
DSTYLE
1002
{
1070
    41
1040
30.0
1070
   147
1040
15.0
1070
    77
1070
     0
1070
    90
1070
     1
1070
   345
1005
12
1070
   346
1005
12
1070
   347
1005
12
1002
}
  0
LINE
  5
9B669
330
18
100
AcDbEntity
  8
SERVICESPACE
100
AcDbLine
 10
-649.9999999999968
 20
10.0000000000054
 30
0.0
 11
350.0000000000032
 21
10.0000000000054
 31
0.0
  0
LINE
  5
9B66A
330
18
100
AcDbEntity
  8
SERVICESPACE
100
AcDbLine
 10
327.0000005013653
 20
10.0000000000054
 30
0.0
 11
291.6446614420381
 21
45.35533905933282
 31
0.0
  0
LINE
  5
9B66B
330
18
100
AcDbEntity
  8
SERVICESPACE
100
AcDbLine
 10
277.0000005013653
 20
10.0000000000054
 30
0.0
 11
241.6446614420381
 21
45.35533905933282
 31
0.0
  0
LINE
  5
9B66C
330
18
100
AcDbEntity
  8
SERVICESPACE
100
AcDbLine
 10
227.0000005013653
 20
10.0000000000054
 30
0.0
 11
191.6446614420383
 21
45.35533905933282
 31
0.0
  0
LINE
  5
9B66D
330
18
100
AcDbEntity
  8
SERVICESPACE
100
AcDbLine
 10
177.0000005013653
 20
10.0000000000054
 30
0.0
 11
141.6446614420383
 21
45.35533905933282
 31
0.0
  0
LINE
  5
9B66E
330
18
100
AcDbEntity
  8
SERVICESPACE
100
AcDbLine
 10
127.0000005013653
 20
10.0000000000054
 30
0.0
 11
91.64466144203834
 21
45.35533905933282
 31
0.0
  0
LINE
  5
9B66F
330
18
100
AcDbEntity
  8
SERVICESPACE
100
AcDbLine
 10
77.00000050136532
 20
10.0000000000054
 30
0.0
 11
41.64466144203834
 21
45.35533905933282
 31
0.0
  0
LINE
  5
9B670
330
18
100
AcDbEntity
  8
SERVICESPACE
100
AcDbLine
 10
27.00000050136532
 20
10.0000000000054
 30
0.0
 11
-8.355338557961659
 21
45.35533905933282
 31
0.0
  0
LINE
  5
9B671
330
18
100
AcDbEntity
  8
SERVICESPACE
100
AcDbLine
 10
-22.99999949863468
 20
10.0000000000054
 30
0.0
 11
-58.35533855796166
 21
45.35533905933282
 31
0.0
  0
LINE
  5
9B672
330
18
100
AcDbEntity
  8
SERVICESPACE
100
AcDbLine
 10
-72.99999949863468
 20
10.0000000000054
 30
0.0
 11
-108.3553385579617
 21
45.35533905933282
 31
0.0
  0
LINE
  5
9B673
330
18
100
AcDbEntity
  8
SERVICESPACE
100
AcDbLine
 10
-122.9999994986347
 20
10.0000000000054
 30
0.0
 11
-158.3553385579626
 21
45.35533905933282
 31
0.0
  0
LINE
  5
9B674
330
18
100
AcDbEntity
  8
SERVICESPACE
100
AcDbLine
 10
-172.9999994986347
 20
10.0000000000054
 30
0.0
 11
-208.3553385579617
 21
45.35533905933282
 31
0.0
  0
LINE
  5
9B675
330
18
100
AcDbEntity
  8
SERVICESPACE
100
AcDbLine
 10
-222.9999994986347
 20
10.0000000000054
 30
0.0
 11
-258.3553385579617
 21
45.35533905933282
 31
0.0
  0
LINE
  5
9B676
330
18
100
AcDbEntity
  8
SERVICESPACE
100
AcDbLine
 10
-272.9999994986347
 20
10.0000000000054
 30
0.0
 11
-308.3553385579617
 21
45.35533905933282
 31
0.0
  0
LINE
  5
9B677
330
18
100
AcDbEntity
  8
SERVICESPACE
100
AcDbLine
 10
-322.9999994986347
 20
10.0000000000054
 30
0.0
 11
-358.3553385579617
 21
45.35533905933282
 31
0.0
  0
LINE
  5
9B678
330
18
100
AcDbEntity
  8
SERVICESPACE
100
AcDbLine
 10
-372.9999994986347
 20
10.0000000000054
 30
0.0
 11
-408.3553385579626
 21
45.35533905933282
 31
0.0
  0
LINE
  5
9B679
330
18
100
AcDbEntity
  8
SERVICESPACE
100
AcDbLine
 10
-422.9999994986347
 20
10.0000000000054
 30
0.0
 11
-458.3553385579617
 21
45.35533905933282
 31
0.0
  0
LINE
  5
9B67A
330
18
100
AcDbEntity
  8
SERVICESPACE
100
AcDbLine
 10
-472.9999994986347
 20
10.0000000000054
 30
0.0
 11
-508.3553385579617
 21
45.35533905933282
 31
0.0
  0
LINE
  5
9B67B
330
18
100
AcDbEntity
  8
SERVICESPACE
100
AcDbLine
 10
-522.9999994986347
 20
10.0000000000054
 30
0.0
 11
-558.3553385579617
 21
45.35533905933282
 31
0.0
  0
LINE
  5
9B67C
330
18
100
AcDbEntity
  8
SERVICESPACE
100
AcDbLine
 10
-572.9999994986347
 20
10.0000000000054
 30
0.0
 11
-608.3553385579617
 21
45.35533905933282
 31
0.0
  0
LINE
  5
9B67D
330
18
100
AcDbEntity
  8
SERVICESPACE
100
AcDbLine
 10
-622.9999994986347
 20
10.0000000000054
 30
0.0
 11
-658.3553385579617
 21
45.35533905933282
 31
0.0
  0
LINE
  5
9B67E
330
18
100
AcDbEntity
  8
SIZE
100
AcDbLine
 10
-364.9999999999986
 20
-0.0000000000100897
 30
0.0
 11
-901.8609135856127
 21
-0.0000000000101892
 31
0.0
  0
LINE
  5
9B67F
330
18
100
AcDbEntity
  8
SIZE
100
AcDbLine
 10
-664.9999999999986
 20
10.0000000000053
 30
0.0
 11
-901.8609135856127
 21
10.0000000000053
 31
0.0
  0
LINE
  5
9B680
330
18
100
AcDbEntity
  8
SIZE
100
AcDbLine
 10
-896.8609135856127
 20
-0.0000000000101892
 30
0.0
 11
-896.8609135856127
 21
-20.00000000001019
 31
0.0
  0
LINE
  5
9B681
330
18
100
AcDbEntity
  8
SIZE
100
AcDbLine
 10
-896.8609135856127
 20
10.0000000000053
 30
0.0
 11
-896.8609135856127
 21
271.571428571434
 31
0.0
  0
LINE
  5
9B682
330
18
100
AcDbEntity
  8
SIZE
100
AcDbLine
 10
-896.8609135856127
 20
-0.0000000000101892
 30
0.0
 11
-896.8609135856127
 21
10.0000000000053
 31
0.0
  0
CIRCLE
  5
9B683
330
18
100
AcDbEntity
  8
SIZE
100
AcDbCircle
 10
-896.8609135856127
 20
-0.0000000000101892
 30
0.0
 40
5.0
  0
CIRCLE
  5
9B684
330
18
100
AcDbEntity
  8
SIZE
100
AcDbCircle
 10
-896.8609135856127
 20
10.0000000000053
 30
0.0
 40
5.0
  0
TEXT
  5
9B685
330
18
100
AcDbEntity
  8
SIZE
100
AcDbText
 10
-911.8609135856118
 20
65.00000000000622
 30
0.0
 40
30.0
  1
Min.10mm
 50
90.0
 41
0.9
100
AcDbText
  0
ENDSEC
  0
SECTION
  2
OBJECTS
  0
DICTIONARY
  5
C
330
0
100
AcDbDictionary
281
     1
  3
ACAD_CIP_PREVIOUS_PRODUCT_INFO
350
70D0E
  3
ACAD_COLOR
350
513F9
  3
ACAD_DETAILVIEWSTYLE
350
9B345
  3
ACAD_GROUP
350
D
  3
ACAD_LAYOUT
350
21F1
  3
ACAD_MATERIAL
350
513CF
  3
ACAD_MLEADERSTYLE
350
5141E
  3
ACAD_MLINESTYLE
350
1B
  3
ACAD_PLOTSETTINGS
350
21F2
  3
ACAD_PLOTSTYLENAME
350
21EF
  3
ACAD_SCALELIST
350
513FC
  3
ACAD_SECTIONVIEWSTYLE
350
9B343
  3
ACAD_TABLESTYLE
350
513FA
  3
ACAD_VISUALSTYLE
350
513E8
  3
AcadDim
350
956CE
  3
ACDBHEADERROUNDTRIPXREC
350
9B6D1
  3
AcDbVariableDictionary
350
28B1
  3
DWGPROPS
350
9B6D4
  0
DICTIONARY
  5
70D15
330
8
100
AcDbDictionary
280
     1
281
     1
  3
ACAD_XREC_ROUNDTRIP
360
9B6D5
  0
DICTIONARY
  5
5148D
330
2
100
AcDbDictionary
280
     1
281
     1
  3
ACAD_LAYERFILTERS
360
6ADDC
  3
ACAD_LAYERSTATES
360
6B6C9
  3
ACLYDICTIONARY
360
6ADDB
  0
DICTIONARY
  5
5144C
330
E
100
AcDbDictionary
280
     1
281
     1
  3
ADSK_XREC_LAYER_RECONCILED
360
5144D
  0
DICTIONARY
  5
5144E
330
25
100
AcDbDictionary
280
     1
281
     1
  3
ADSK_XREC_LAYER_RECONCILED
360
5144F
  0
DICTIONARY
  5
51450
330
26
100
AcDbDictionary
280
     1
281
     1
  3
ADSK_XREC_LAYER_RECONCILED
360
51451
  0
DICTIONARY
  5
51452
330
27
100
AcDbDictionary
280
     1
281
     1
  3
ADSK_XREC_LAYER_RECONCILED
360
51453
  0
DICTIONARY
  5
51454
330
28
100
AcDbDictionary
280
     1
281
     1
  3
ADSK_XREC_LAYER_RECONCILED
360
51455
  0
DICTIONARY
  5
51456
330
29
100
AcDbDictionary
280
     1
281
     1
  3
ADSK_XREC_LAYER_RECONCILED
360
51457
  0
DICTIONARY
  5
51458
330
2B
100
AcDbDictionary
280
     1
281
     1
  3
ADSK_XREC_LAYER_RECONCILED
360
51459
  0
DICTIONARY
  5
5145A
330
2C
100
AcDbDictionary
280
     1
281
     1
  3
ADSK_XREC_LAYER_RECONCILED
360
5145B
  0
DICTIONARY
  5
5145C
330
2D
100
AcDbDictionary
280
     1
281
     1
  3
ADSK_XREC_LAYER_RECONCILED
360
5145D
  0
DICTIONARY
  5
28B3
330
18
100
AcDbDictionary
280
     1
281
     1
  3
ACAD_SORTENTS
360
28B4
  0
DICTIONARY
  5
9B4E7
330
9B34D
100
AcDbDictionary
280
     1
281
     1
  3
ACAD_SORTENTS
360
9B4E8
  0
XRECORD
  5
70D0E
102
{ACAD_REACTORS
330
C
102
}
330
C
100
AcDbXrecord
280
     1
300
ACDLT
300
2018
300
86831ACDLT_2018_0F
  0
DICTIONARY
  5
513F9
102
{ACAD_REACTORS
330
C
102
}
330
C
100
AcDbDictionary
281
     1
  0
DICTIONARY
  5
9B345
102
{ACAD_REACTORS
330
C
102
}
330
C
100
AcDbDictionary
281
     1
  3
Imperial24
350
9B346
  0
DICTIONARY
  5
D
102
{ACAD_REACTORS
330
C
102
}
330
C
100
AcDbDictionary
281
     1
  0
DICTIONARY
  5
21F1
102
{ACAD_REACTORS
330
C
102
}
330
C
100
AcDbDictionary
281
     1
  3
Model
350
21F3
  3
ﾚｲｱｳﾄ1
350
21F4
  0
DICTIONARY
  5
513CF
102
{ACAD_REACTORS
330
C
102
}
330
C
100
AcDbDictionary
281
     1
  3
ByBlock
350
513D8
  3
ByLayer
350
513D0
  3
Global
350
513E0
  0
DICTIONARY
  5
5141E
102
{ACAD_REACTORS
330
C
102
}
330
C
100
AcDbDictionary
281
     1
  3
Standard
350
5141F
  0
DICTIONARY
  5
1B
102
{ACAD_REACTORS
330
C
102
}
330
C
100
AcDbDictionary
281
     1
  3
STANDARD
350
1C
  0
DICTIONARY
  5
21F2
102
{ACAD_REACTORS
330
C
102
}
330
C
100
AcDbDictionary
281
     1
  0
ACDBDICTIONARYWDFLT
  5
21EF
102
{ACAD_REACTORS
330
C
102
}
330
C
100
AcDbDictionary
281
     1
  3
Normal
350
21F0
100
AcDbDictionaryWithDefault
340
21F0
  0
DICTIONARY
  5
513FC
102
{ACAD_REACTORS
330
C
102
}
330
C
100
AcDbDictionary
281
     1
  3
A0
350
513FD
  3
A1
350
513FE
  3
A2
350
513FF
  3
A3
350
51400
  3
A4
350
51401
  3
A5
350
51402
  3
A6
350
51403
  3
A7
350
51404
  3
A8
350
51405
  3
A9
350
51406
  3
B0
350
51407
  3
B1
350
51408
  3
B2
350
51409
  3
B3
350
5140A
  3
B4
350
5140B
  3
B5
350
5140C
  3
B6
350
5140D
  3
B7
350
5140E
  3
B8
350
5140F
  3
B9
350
51410
  3
C0
350
51411
  3
C1
350
51412
  3
C2
350
51413
  3
C3
350
51414
  3
C4
350
51415
  3
C5
350
51416
  3
C6
350
51417
  3
C7
350
51418
  3
C8
350
51419
  3
C9
350
5141A
  3
D0
350
5141B
  3
D1
350
5141C
  3
D2
350
5141D
  0
DICTIONARY
  5
9B343
102
{ACAD_REACTORS
330
C
102
}
330
C
100
AcDbDictionary
281
     1
  3
Imperial24
350
9B344
  0
DICTIONARY
  5
513FA
102
{ACAD_REACTORS
330
C
102
}
330
C
100
AcDbDictionary
281
     1
  3
Standard
350
513FB
  0
DICTIONARY
  5
513E8
102
{ACAD_REACTORS
330
C
102
}
330
C
100
AcDbDictionary
281
     1
  3
2dWireframe
350
513EE
  3
3D Hidden
350
513F0
  3
3dWireframe
350
513EF
  3
Basic
350
513ED
  3
Brighten
350
513F4
  3
ColorChange
350
513F8
  3
Conceptual
350
513F1
  3
Dim
350
513F3
  3
EdgeColorOff
350
70D09
  3
Facepattern
350
513F7
  3
Flat
350
513E9
  3
FlatWithEdges
350
513EA
  3
Gouraud
350
513EB
  3
GouraudWithEdges
350
513EC
  3
Hidden
350
70D01
  3
JitterOff
350
70D07
  3
Linepattern
350
513F6
  3
OverhangOff
350
70D08
  3
Realistic
350
513F2
  3
Shaded
350
70D06
  3
Shaded with edges
350
70D05
  3
Shades of Gray
350
70D02
  3
Sketchy
350
70D03
  3
Thicken
350
513F5
  3
Wireframe
350
70D00
  3
X-Ray
350
70D04
  0
XRECORD
  5
956CE
102
{ACAD_REACTORS
330
C
102
}
330
C
100
AcDbXrecord
280
     1
 90
   990106
  3

 60
     0
 61
     0
 62
     1
 63
     3
 64
     0
 65
     0
 66
     0
 67
     3
 68
     1
 69
     0
 70
     0
 71
     0
 72
     0
 40
0.0
170
     0
  0
DICTIONARY
  5
9B6D1
102
{ACAD_REACTORS
330
C
102
}
330
C
100
AcDbDictionary
281
     1
  3
COLORDICT
350
9B6D2
  3
MATERIALDICT
350
9B6D3
  0
DICTIONARY
  5
28B1
102
{ACAD_REACTORS
330
C
102
}
330
C
100
AcDbDictionary
281
     1
  3
CANNOSCALE
350
9B6D6
  3
CMLEADERSTYLE
350
5147E
  3
CTABLESTYLE
350
5147D
  3
CVIEWDETAILSTYLE
350
9B686
  3
CVIEWSECTIONSTYLE
350
9B687
  3
DIMASSOC
350
5135B
  3
HIDETEXT
350
9B6D0
  3
INDEXCTL
350
70D55
  3
LIGHTINGUNITS
350
51481
  3
MSLTSCALE
350
5147F
  3
SOLIDHIST
350
70D57
  3
SORTENTS
350
28B2
  3
XCLIPFRAME
350
9B688
  0
XRECORD
  5
9B6D4
102
{ACAD_REACTORS
330
C
102
}
330
C
100
AcDbXrecord
280
     1
  1
DWGPROPS COOKIE
  2

  3

  4

  6

  7

  8
prohiokamot
  9

300
=
301
=
302
=
303
=
304
=
305
=
306
=
307
=
308
=
309
=
 40
0.0
 41
2455902.232169062
 42
2459459.141768634
  1

 90
        0
  0
XRECORD
  5
9B6D5
102
{ACAD_REACTORS
330
70D15
102
}
330
70D15
100
AcDbXrecord
280
     1
102
VTR_0.000_0.000_1.000_1.000_VISUALSTYLE
340
513EE
102
VTR_0.000_0.000_1.000_1.000_GRIDDISPLAY
 70
     3
102
VTR_0.000_0.000_1.000_1.000_GRIDMAJOR
 70
     5
102
VTR_0.000_0.000_1.000_1.000_DEFAULTLIGHTING
280
     1
102
VTR_0.000_0.000_1.000_1.000_DEFAULTLIGHTINGTYPE
 70
     1
102
VTR_0.000_0.000_1.000_1.000_BRIGHTNESS
141
0.0
102
VTR_0.000_0.000_1.000_1.000_CONTRAST
142
0.0
  0
DICTIONARY
  5
6ADDC
102
{ACAD_REACTORS
330
5148D
102
}
330
5148D
100
AcDbDictionary
281
     1
  0
DICTIONARY
  5
6B6C9
102
{ACAD_REACTORS
330
5148D
102
}
330
5148D
100
AcDbDictionary
281
     1
  0
DICTIONARY
  5
6ADDB
102
{ACAD_REACTORS
330
5148D
102
}
330
5148D
100
AcDbDictionary
281
     1
1001
ACAD
1000
<All
  0
XRECORD
  5
5144D
102
{ACAD_REACTORS
330
5144C
102
}
330
5144C
100
AcDbXrecord
280
     1
290
     1
  0
XRECORD
  5
5144F
102
{ACAD_REACTORS
330
5144E
102
}
330
5144E
100
AcDbXrecord
280
     1
290
     1
  0
XRECORD
  5
51451
102
{ACAD_REACTORS
330
51450
102
}
330
51450
100
AcDbXrecord
280
     1
290
     1
  0
XRECORD
  5
51453
102
{ACAD_REACTORS
330
51452
102
}
330
51452
100
AcDbXrecord
280
     1
290
     1
  0
XRECORD
  5
51455
102
{ACAD_REACTORS
330
51454
102
}
330
51454
100
AcDbXrecord
280
     1
290
     1
  0
XRECORD
  5
51457
102
{ACAD_REACTORS
330
51456
102
}
330
51456
100
AcDbXrecord
280
     1
290
     1
  0
XRECORD
  5
51459
102
{ACAD_REACTORS
330
51458
102
}
330
51458
100
AcDbXrecord
280
     1
290
     1
  0
XRECORD
  5
5145B
102
{ACAD_REACTORS
330
5145A
102
}
330
5145A
100
AcDbXrecord
280
     1
290
     1
  0
XRECORD
  5
5145D
102
{ACAD_REACTORS
330
5145C
102
}
330
5145C
100
AcDbXrecord
280
     1
290
     1
  0
SORTENTSTABLE
  5
28B4
102
{ACAD_REACTORS
330
28B3
102
}
330
28B3
100
AcDbSortentsTable
330
18
331
9B4ED
  5
9B4ED
331
9B4EE
  5
9B4EE
331
9B4EF
  5
9B4EF
331
9B4F0
  5
9B4F0
331
9B4F1
  5
9B4F1
331
9B4F2
  5
9B4F2
331
9B4F3
  5
9B4F3
331
9B4F4
  5
9B4F4
331
9B4F5
  5
9B4F5
331
9B4F6
  5
9B4F6
331
9B4F7
  5
9B4F7
331
9B4F8
  5
9B4F8
331
9B4F9
  5
9B4F9
331
9B4FA
  5
9B4FA
331
9B4FB
  5
9B4FB
331
9B4FC
  5
9B4FC
331
9B4FD
  5
9B4FD
331
9B4FE
  5
9B4FE
331
9B4FF
  5
9B4FF
331
9B500
  5
9B500
331
9B501
  5
9B501
331
9B502
  5
9B502
331
9B503
  5
9B503
331
9B504
  5
9B504
331
9B505
  5
9B505
331
9B506
  5
9B506
331
9B507
  5
9B507
331
9B508
  5
9B508
331
9B509
  5
9B509
331
9B50A
  5
9B50A
331
9B50B
  5
9B50B
331
9B50C
  5
9B50C
331
9B50D
  5
9B50D
331
9B50E
  5
9B50E
331
9B50F
  5
9B50F
331
9B510
  5
9B510
331
9B511
  5
9B511
331
9B512
  5
9B512
331
9B513
  5
9B513
331
9B514
  5
9B514
331
9B515
  5
9B515
331
9B516
  5
9B516
331
9B517
  5
9B517
331
9B518
  5
9B518
331
9B519
  5
9B519
331
9B51A
  5
9B51A
331
9B51B
  5
9B51B
331
9B51C
  5
9B51C
331
9B51D
  5
9B51D
331
9B51E
  5
9B51E
331
9B51F
  5
9B51F
331
9B520
  5
9B520
331
9B521
  5
9B521
331
9B522
  5
9B522
331
9B523
  5
9B523
331
9B524
  5
9B524
331
9B525
  5
9B525
331
9B526
  5
9B526
331
9B527
  5
9B527
331
9B528
  5
9B528
331
9B529
  5
9B529
331
9B52A
  5
9B52A
331
9B52B
  5
9B52B
331
9B52C
  5
9B52C
331
9B52D
  5
9B52D
331
9B52E
  5
9B52E
331
9B52F
  5
9B52F
331
9B530
  5
9B530
331
9B531
  5
9B531
331
9B532
  5
9B532
331
9B533
  5
9B533
331
9B534
  5
9B534
331
9B535
  5
9B535
331
9B536
  5
9B536
331
9B537
  5
9B537
331
9B538
  5
9B538
331
9B539
  5
9B539
331
9B53A
  5
9B53A
331
9B53B
  5
9B53B
331
9B53C
  5
9B53C
331
9B53D
  5
9B53D
331
9B53E
  5
9B53E
331
9B53F
  5
9B53F
331
9B540
  5
9B540
331
9B541
  5
9B541
331
9B542
  5
9B542
331
9B543
  5
9B543
331
9B544
  5
9B544
331
9B545
  5
9B545
331
9B546
  5
9B546
331
9B547
  5
9B547
331
9B548
  5
9B548
331
9B549
  5
9B549
331
9B54A
  5
9B54A
331
9B54B
  5
9B54B
331
9B54C
  5
9B54C
331
9B54D
  5
9B54D
331
9B54E
  5
9B54E
331
9B54F
  5
9B54F
331
9B550
  5
9B550
331
9B551
  5
9B551
331
9B552
  5
9B552
331
9B553
  5
9B553
331
9B554
  5
9B554
331
9B555
  5
9B555
331
9B556
  5
9B556
331
9B557
  5
9B557
331
9B558
  5
9B558
331
9B559
  5
9B559
331
9B55A
  5
9B55A
331
9B55B
  5
9B55B
331
9B55C
  5
9B55C
331
9B55D
  5
9B55D
331
9B55E
  5
9B55E
331
9B55F
  5
9B55F
331
9B560
  5
9B560
331
9B561
  5
9B561
331
9B562
  5
9B562
331
9B563
  5
9B563
331
9B564
  5
9B564
331
9B565
  5
9B565
331
9B566
  5
9B566
331
9B567
  5
9B567
331
9B568
  5
9B568
331
9B569
  5
9B569
331
9B56A
  5
9B56A
331
9B56B
  5
9B56B
331
9B56C
  5
9B56C
331
9B56D
  5
9B56D
331
9B56E
  5
9B56E
331
9B56F
  5
9B56F
331
9B570
  5
9B570
331
9B571
  5
9B571
331
9B572
  5
9B572
331
9B573
  5
9B573
331
9B574
  5
9B574
331
9B575
  5
9B575
331
9B576
  5
9B576
331
9B577
  5
9B577
331
9B578
  5
9B578
331
9B579
  5
9B579
331
9B57A
  5
9B57A
331
9B57B
  5
9B57B
331
9B57C
  5
9B57C
331
9B57D
  5
9B57D
331
9B57E
  5
9B57E
331
9B57F
  5
9B57F
331
9B580
  5
9B580
331
9B581
  5
9B581
331
9B582
  5
9B582
331
9B583
  5
9B583
331
9B584
  5
9B584
331
9B585
  5
9B585
331
9B586
  5
9B586
331
9B587
  5
9B587
331
9B588
  5
9B588
331
9B589
  5
9B589
331
9B58A
  5
9B58A
331
9B58B
  5
9B58B
331
9B58C
  5
9B58C
331
9B58D
  5
9B58D
331
9B58E
  5
9B58E
331
9B58F
  5
9B58F
331
9B590
  5
9B590
331
9B591
  5
9B591
331
9B592
  5
9B592
331
9B593
  5
9B593
331
9B594
  5
9B594
331
9B595
  5
9B595
331
9B596
  5
9B596
331
9B597
  5
9B597
331
9B598
  5
9B598
331
9B599
  5
9B599
331
9B59A
  5
9B59A
331
9B59B
  5
9B59B
331
9B59C
  5
9B59C
331
9B59D
  5
9B59D
331
9B59E
  5
9B59E
331
9B59F
  5
9B59F
331
9B5A0
  5
9B5A0
331
9B5A1
  5
9B5A1
331
9B5A2
  5
9B5A2
331
9B5A3
  5
9B5A3
331
9B5A4
  5
9B5A4
331
9B5A5
  5
9B5A5
331
9B5A6
  5
9B5A6
331
9B5A7
  5
9B5A7
331
9B5A8
  5
9B5A8
331
9B5A9
  5
9B5A9
331
9B5AA
  5
9B5AA
331
9B5AB
  5
9B5AB
331
9B5AC
  5
9B5AC
331
9B5AD
  5
9B5AD
331
9B5AE
  5
9B5AE
331
9B5AF
  5
9B5AF
331
9B5B0
  5
9B5B0
331
9B5B1
  5
9B5B1
331
9B5B2
  5
9B5B2
331
9B5B3
  5
9B5B3
331
9B5B4
  5
9B5B4
331
9B5B5
  5
9B5B5
331
9B5B6
  5
9B5B6
331
9B5B7
  5
9B5B7
331
9B5B8
  5
9B5B8
331
9B5B9
  5
9B5B9
331
9B5BA
  5
9B5BA
331
9B5BB
  5
9B5BB
331
9B5BC
  5
9B5BC
331
9B5BD
  5
9B5BD
331
9B5BE
  5
9B5BE
331
9B5BF
  5
9B5BF
331
9B5C0
  5
9B5C0
331
9B5C1
  5
9B5C1
331
9B5C2
  5
9B5C2
331
9B5C3
  5
9B5C3
331
9B5C4
  5
9B5C4
331
9B5C5
  5
9B5C5
331
9B5C6
  5
9B5C6
331
9B5C7
  5
9B5C7
331
9B5C8
  5
9B5C8
331
9B5C9
  5
9B5C9
331
9B5CA
  5
9B5CA
331
9B5CB
  5
9B5CB
331
9B5CC
  5
9B5CC
331
9B5CD
  5
9B5CD
331
9B5CE
  5
9B5CE
331
9B5CF
  5
9B5CF
331
9B5D0
  5
9B5D0
331
9B5D1
  5
9B5D1
331
9B5D2
  5
9B5D2
331
9B5D3
  5
9B5D3
331
9B5D4
  5
9B5D4
331
9B5D5
  5
9B5D5
331
9B5D6
  5
9B5D6
331
9B5D7
  5
9B5D7
331
9B5D8
  5
9B5D8
331
9B5D9
  5
9B5D9
331
9B5DA
  5
9B5DA
331
9B5DB
  5
9B5DB
331
9B5DC
  5
9B5DC
331
9B5DD
  5
9B5DD
331
9B5DE
  5
9B5DE
331
9B5DF
  5
9B5DF
331
9B5E0
  5
9B5E0
331
9B5E1
  5
9B5E1
331
9B5E2
  5
9B5E2
331
9B5E3
  5
9B5E3
331
9B5E4
  5
9B5E4
331
9B5E5
  5
9B5E5
331
9B5E6
  5
9B5E6
331
9B5E7
  5
9B5E7
331
9B5E8
  5
9B5E8
331
9B5E9
  5
9B5E9
331
9B5EA
  5
9B5EA
331
9B5EB
  5
9B5EB
331
9B5EC
  5
9B5EC
331
9B5ED
  5
9B5ED
331
9B5EE
  5
9B5EE
331
9B5EF
  5
9B5EF
331
9B5F0
  5
9B5F0
331
9B5F1
  5
9B5F1
331
9B5F2
  5
9B5F2
331
9B5F3
  5
9B5F3
331
9B5F4
  5
9B5F4
331
9B5F5
  5
9B5F5
331
9B5F6
  5
9B5F6
331
9B5F7
  5
9B5F7
331
9B5F8
  5
9B5F8
331
9B5F9
  5
9B5F9
331
9B5FA
  5
9B5FA
331
9B5FB
  5
9B5FB
331
9B5FC
  5
9B5FC
331
9B5FD
  5
9B5FD
331
9B5FE
  5
9B5FE
331
9B5FF
  5
9B5FF
331
9B600
  5
9B600
331
9B601
  5
9B601
331
9B602
  5
9B602
331
9B603
  5
9B603
331
9B604
  5
9B604
331
9B605
  5
9B605
331
9B606
  5
9B606
331
9B607
  5
9B607
331
9B608
  5
9B608
331
9B609
  5
9B609
331
9B60A
  5
9B60A
331
9B60B
  5
9B60B
331
9B60C
  5
9B60C
331
9B60D
  5
9B60D
331
9B60E
  5
9B60E
331
9B60F
  5
9B60F
331
9B610
  5
9B610
331
9B611
  5
9B611
331
9B612
  5
9B612
331
9B613
  5
9B613
331
9B614
  5
9B614
331
9B615
  5
9B615
331
9B616
  5
9B616
331
9B617
  5
9B617
331
9B618
  5
9B618
331
9B619
  5
9B619
331
9B61A
  5
9B61A
331
9B61B
  5
9B61B
331
9B61C
  5
9B61C
331
9B61D
  5
9B61D
331
9B61E
  5
9B61E
331
9B61F
  5
9B61F
331
9B620
  5
9B620
331
9B621
  5
9B621
331
9B622
  5
9B622
331
9B623
  5
9B623
331
9B624
  5
9B624
331
9B625
  5
9B625
331
9B626
  5
9B626
331
9B627
  5
9B627
331
9B628
  5
9B628
331
9B629
  5
9B629
331
9B62A
  5
9B62A
331
9B62B
  5
9B62B
331
9B62C
  5
9B62C
331
9B62D
  5
9B62D
331
9B62E
  5
9B62E
331
9B62F
  5
9B62F
331
9B630
  5
9B630
331
9B631
  5
9B631
331
9B632
  5
9B632
331
9B633
  5
9B633
331
9B634
  5
9B634
331
9B635
  5
9B635
331
9B636
  5
9B636
331
9B637
  5
9B637
331
9B638
  5
9B638
331
9B639
  5
9B639
331
9B63A
  5
9B63A
331
9B63B
  5
9B63B
331
9B63C
  5
9B63C
331
9B63D
  5
9B63D
331
9B63E
  5
9B63E
331
9B63F
  5
9B63F
331
9B640
  5
9B640
331
9B641
  5
9B641
331
9B642
  5
9B642
331
9B643
  5
9B643
331
9B644
  5
9B644
331
9B645
  5
9B645
331
9B646
  5
9B646
331
9B647
  5
9B647
331
9B648
  5
9B648
331
9B649
  5
9B649
331
9B64A
  5
9B64A
331
9B64B
  5
9B64B
331
9B64C
  5
9B64C
331
9B64D
  5
9B64D
331
9B64E
  5
9B64E
331
9B64F
  5
9B64F
331
9B650
  5
9B650
331
9B651
  5
9B651
331
9B652
  5
9B652
331
9B653
  5
9B653
331
9B654
  5
9B654
331
9B655
  5
9B655
331
9B656
  5
9B656
331
9B657
  5
9B657
331
9B658
  5
9B658
331
9B659
  5
9B659
331
9B65A
  5
9B65A
331
9B65B
  5
9B65B
331
9B65C
  5
9B65C
331
9B65D
  5
9B65D
331
9B65E
  5
9B65E
331
9B65F
  5
9B65F
331
9B660
  5
9B660
331
9B661
  5
9B661
331
9B662
  5
9B662
331
9B663
  5
9B663
331
9B664
  5
9B664
331
9B665
  5
9B665
331
9B666
  5
9B666
331
9B667
  5
9B667
331
9B668
  5
9B668
331
9B669
  5
9B669
331
9B66A
  5
9B66A
331
9B66B
  5
9B66B
331
9B66C
  5
9B66C
331
9B66D
  5
9B66D
331
9B66E
  5
9B66E
331
9B66F
  5
9B66F
331
9B670
  5
9B670
331
9B671
  5
9B671
331
9B672
  5
9B672
331
9B673
  5
9B673
331
9B674
  5
9B674
331
9B675
  5
9B675
331
9B676
  5
9B676
331
9B677
  5
9B677
331
9B678
  5
9B678
331
9B679
  5
9B679
331
9B67A
  5
9B67A
331
9B67B
  5
9B67B
331
9B67C
  5
9B67C
331
9B67D
  5
9B67D
331
9B67E
  5
9B67E
331
9B67F
  5
9B67F
331
9B680
  5
9B680
331
9B681
  5
9B681
331
9B682
  5
9B682
331
9B683
  5
9B683
331
9B684
  5
9B684
331
9B685
  5
9B685
  0
SORTENTSTABLE
  5
9B4E8
102
{ACAD_REACTORS
330
9B4E7
102
}
330
9B4E7
100
AcDbSortentsTable
330
9B34D
  0
ACDBDETAILVIEWSTYLE
  5
9B346
102
{ACAD_REACTORS
330
9B345
102
}
102
{ACAD_XDICTIONARY
360
9B6CA
102
}
330
9B345
100
AcDbModelDocViewStyle
 70
     0
  3
Imperial24
290
     0
100
AcDbDetailViewStyle
 70
     0
 71
     0
 90
        3
 71
     1
340
F
 40
0.24
340
0
 40
0.24
300

 40
0.36
280
     3
 71
     2
340
14
 90
       25
 71
     3
340
F
 40
0.24
 90
        1
 40
0.75
 90
        1
300
%<\AcVar ViewType \f "%tc1">% %<\AcVar ViewDetailId>%\PSCALE %<\AcVar ViewScale \f "%sn">%
 71
     4
340
14
 90
       25
340
14
 90
       25
280
     0
  0
LAYOUT
  5
21F3
102
{ACAD_REACTORS
330
21F1
102
}
330
21F1
100
AcDbPlotSettings
  1

  2
OKI MICROLINE Pro 930PS-X(PS)
  4
A3
  6
ALL
 40
5.365749835968017
 41
5.70440673828125
 42
5.4080810546875
 43
5.74676513671875
 44
297.0530090332031
 45
420.1583251953125
 46
3.360748538846422
 47
0.0
 48
0.0
 49
0.0
140
0.0
141
0.0
142
1.0
143
28.03442403824817
 70
 28340
 72
     1
 73
     1
 74
     2
  7
monochrome.ctb
 75
     0
147
0.0356704314180192
148
4267.152221060482
149
2696.083210198413
100
AcDbLayout
  1
Model
 70
     1
 71
     0
 10
0.0
 20
0.0
 11
12.0
 21
9.0
 12
0.0
 22
0.0
 32
0.0
 14
0.0
 24
0.0
 34
0.0
 15
0.0
 25
0.0
 35
0.0
146
0.0
 13
0.0
 23
0.0
 33
0.0
 16
1.0
 26
0.0
 36
0.0
 17
0.0
 27
1.0
 37
0.0
 76
     0
330
18
331
513CD
1001
ACAD_PSEXT
1000
OKI MICROLINE Pro 930PS-X(PS)
1000
OKI MICROLINE Pro 930PS-X(PS)
1000
IP_10.130.24.50コピー1
1000

1070
     0
  0
LAYOUT
  5
21F4
102
{ACAD_REACTORS
330
21F1
102
}
330
21F1
100
AcDbPlotSettings
  1

  2
DocuCentre 505
  4

  6

 40
0.0
 41
0.0
 42
0.0
 43
0.0
 44
0.0
 45
0.0
 46
0.0
 47
0.0
 48
0.0
 49
0.0
140
0.0
141
0.0
142
1.0
143
1.0
 70
   688
 72
     0
 73
     0
 74
     5
  7
monochrome.ctb
 75
    16
147
1.0
148
0.0
149
0.0
100
AcDbLayout
  1
ﾚｲｱｳﾄ1
 70
     1
 71
     1
 10
0.0
 20
0.0
 11
12.0
 21
9.0
 12
0.0
 22
0.0
 32
0.0
 14
1.000000000000000E+20
 24
1.000000000000000E+20
 34
1.000000000000000E+20
 15
-1.000000000000000E+20
 25
-1.000000000000000E+20
 35
-1.000000000000000E+20
146
0.0
 13
0.0
 23
0.0
 33
0.0
 16
1.0
 26
0.0
 36
0.0
 17
0.0
 27
1.0
 37
0.0
 76
     0
330
15
  0
MATERIAL
  5
513D8
102
{ACAD_REACTORS
330
513CF
102
}
102
{ACAD_XDICTIONARY
360
9B6D8
102
}
330
513CF
100
AcDbMaterial
  1
ByBlock
 72
     0
 43
0.0208333333333333
 43
0.0
 43
0.0
 43
0.0
 43
0.0
 43
0.0208333333333333
 43
0.0
 43
0.0
 43
0.0
 43
0.0
 43
1.0
 43
0.0
 43
0.0
 43
0.0
 43
0.0
 43
1.0
 77
     0
 47
0.0208333333333333
 47
0.0
 47
0.0
 47
0.0
 47
0.0
 47
0.0208333333333333
 47
0.0
 47
0.0
 47
0.0
 47
0.0
 47
1.0
 47
0.0
 47
0.0
 47
0.0
 47
0.0
 47
1.0
171
     0
 49
0.0208333333333333
 49
0.0
 49
0.0
 49
0.0
 49
0.0
 49
0.0208333333333333
 49
0.0
 49
0.0
 49
0.0
 49
0.0
 49
1.0
 49
0.0
 49
0.0
 49
0.0
 49
0.0
 49
1.0
175
     0
142
0.0208333333333333
142
0.0
142
0.0
142
0.0
142
0.0
142
0.0208333333333333
142
0.0
142
0.0
142
0.0
142
0.0
142
1.0
142
0.0
142
0.0
142
0.0
142
0.0
142
1.0
179
     0
144
0.0208333333333333
144
0.0
144
0.0
144
0.0
144
0.0
144
0.0208333333333333
144
0.0
144
0.0
144
0.0
144
0.0
144
1.0
144
0.0
144
0.0
144
0.0
144
0.0
144
1.0
147
0.0208333333333333
147
0.0
147
0.0
147
0.0
147
0.0
147
0.0208333333333333
147
0.0
147
0.0
147
0.0
147
0.0
147
1.0
147
0.0
147
0.0
147
0.0
147
0.0
147
1.0
  0
MATERIAL
  5
513D0
102
{ACAD_REACTORS
330
513CF
102
}
102
{ACAD_XDICTIONARY
360
9B6DA
102
}
330
513CF
100
AcDbMaterial
  1
ByLayer
 72
     0
 43
0.0208333333333333
 43
0.0
 43
0.0
 43
0.0
 43
0.0
 43
0.0208333333333333
 43
0.0
 43
0.0
 43
0.0
 43
0.0
 43
1.0
 43
0.0
 43
0.0
 43
0.0
 43
0.0
 43
1.0
 77
     0
 47
0.0208333333333333
 47
0.0
 47
0.0
 47
0.0
 47
0.0
 47
0.0208333333333333
 47
0.0
 47
0.0
 47
0.0
 47
0.0
 47
1.0
 47
0.0
 47
0.0
 47
0.0
 47
0.0
 47
1.0
171
     0
 49
0.0208333333333333
 49
0.0
 49
0.0
 49
0.0
 49
0.0
 49
0.0208333333333333
 49
0.0
 49
0.0
 49
0.0
 49
0.0
 49
1.0
 49
0.0
 49
0.0
 49
0.0
 49
0.0
 49
1.0
175
     0
142
0.0208333333333333
142
0.0
142
0.0
142
0.0
142
0.0
142
0.0208333333333333
142
0.0
142
0.0
142
0.0
142
0.0
142
1.0
142
0.0
142
0.0
142
0.0
142
0.0
142
1.0
179
     0
144
0.0208333333333333
144
0.0
144
0.0
144
0.0
144
0.0
144
0.0208333333333333
144
0.0
144
0.0
144
0.0
144
0.0
144
1.0
144
0.0
144
0.0
144
0.0
144
0.0
144
1.0
147
0.0208333333333333
147
0.0
147
0.0
147
0.0
147
0.0
147
0.0208333333333333
147
0.0
147
0.0
147
0.0
147
0.0
147
1.0
147
0.0
147
0.0
147
0.0
147
0.0
147
1.0
  0
MATERIAL
  5
513E0
102
{ACAD_REACTORS
330
513CF
102
}
102
{ACAD_XDICTIONARY
360
9B6DC
102
}
330
513CF
100
AcDbMaterial
  1
Global
 72
     0
 43
0.0208333333333333
 43
0.0
 43
0.0
 43
0.0
 43
0.0
 43
0.0208333333333333
 43
0.0
 43
0.0
 43
0.0
 43
0.0
 43
1.0
 43
0.0
 43
0.0
 43
0.0
 43
0.0
 43
1.0
 77
     0
 47
0.0208333333333333
 47
0.0
 47
0.0
 47
0.0
 47
0.0
 47
0.0208333333333333
 47
0.0
 47
0.0
 47
0.0
 47
0.0
 47
1.0
 47
0.0
 47
0.0
 47
0.0
 47
0.0
 47
1.0
171
     0
 49
0.0208333333333333
 49
0.0
 49
0.0
 49
0.0
 49
0.0
 49
0.0208333333333333
 49
0.0
 49
0.0
 49
0.0
 49
0.0
 49
1.0
 49
0.0
 49
0.0
 49
0.0
 49
0.0
 49
1.0
175
     0
142
0.0208333333333333
142
0.0
142
0.0
142
0.0
142
0.0
142
0.0208333333333333
142
0.0
142
0.0
142
0.0
142
0.0
142
1.0
142
0.0
142
0.0
142
0.0
142
0.0
142
1.0
179
     0
144
0.0208333333333333
144
0.0
144
0.0
144
0.0
144
0.0
144
0.0208333333333333
144
0.0
144
0.0
144
0.0
144
0.0
144
1.0
144
0.0
144
0.0
144
0.0
144
0.0
144
1.0
147
0.0208333333333333
147
0.0
147
0.0
147
0.0
147
0.0
147
0.0208333333333333
147
0.0
147
0.0
147
0.0
147
0.0
147
1.0
147
0.0
147
0.0
147
0.0
147
0.0
147
1.0
  0
MLEADERSTYLE
  5
5141F
102
{ACAD_REACTORS
330
5141E
102
}
102
{ACAD_XDICTIONARY
360
9B6DE
102
}
330
5141E
100
AcDbMLeaderStyle
170
     2
171
     1
172
     0
 90
        2
 40
0.0
 41
0.0
173
     1
 91
-1056964608
340
12
 92
       -2
290
     1
 42
0.09
291
     1
 43
0.36
  3
Standard
341
0
 44
0.18
300

342
F
174
     1
178
     6
175
     1
176
     0
 93
-1056964608
 45
0.18
292
     0
297
     0
 46
0.18
343
0
 94
-1056964608
 47
1.0
 49
1.0
140
1.0
293
     1
141
0.0
294
     1
177
     0
142
1.0
295
     0
296
     0
143
0.125
1001
ACAD_MLEADERVER
1070
     2
  0
MLINESTYLE
  5
1C
102
{ACAD_REACTORS
330
1B
102
}
330
1B
100
AcDbMlineStyle
  2
STANDARD
 70
     0
  3

 62
   256
 51
90.0
 52
90.0
 71
     2
 49
0.5
 62
   256
  6
BYLAYER
 49
-0.5
 62
   256
  6
BYLAYER
  0
ACDBPLACEHOLDER
  5
21F0
102
{ACAD_REACTORS
330
21EF
102
}
330
21EF
  0
SCALE
  5
513FD
102
{ACAD_REACTORS
330
513FC
102
}
330
513FC
100
AcDbScale
 70
     0
300
1:1
140
1.0
141
1.0
290
     1
  0
SCALE
  5
513FE
102
{ACAD_REACTORS
330
513FC
102
}
330
513FC
100
AcDbScale
 70
     0
300
1:2
140
1.0
141
2.0
290
     0
  0
SCALE
  5
513FF
102
{ACAD_REACTORS
330
513FC
102
}
330
513FC
100
AcDbScale
 70
     0
300
1:4
140
1.0
141
4.0
290
     0
  0
SCALE
  5
51400
102
{ACAD_REACTORS
330
513FC
102
}
330
513FC
100
AcDbScale
 70
     0
300
1:5
140
1.0
141
5.0
290
     0
  0
SCALE
  5
51401
102
{ACAD_REACTORS
330
513FC
102
}
330
513FC
100
AcDbScale
 70
     0
300
1:8
140
1.0
141
8.0
290
     0
  0
SCALE
  5
51402
102
{ACAD_REACTORS
330
513FC
102
}
330
513FC
100
AcDbScale
 70
     0
300
1:10
140
1.0
141
10.0
290
     0
  0
SCALE
  5
51403
102
{ACAD_REACTORS
330
513FC
102
}
330
513FC
100
AcDbScale
 70
     0
300
1:16
140
1.0
141
16.0
290
     0
  0
SCALE
  5
51404
102
{ACAD_REACTORS
330
513FC
102
}
330
513FC
100
AcDbScale
 70
     0
300
1:20
140
1.0
141
20.0
290
     0
  0
SCALE
  5
51405
102
{ACAD_REACTORS
330
513FC
102
}
330
513FC
100
AcDbScale
 70
     0
300
1:30
140
1.0
141
30.0
290
     0
  0
SCALE
  5
51406
102
{ACAD_REACTORS
330
513FC
102
}
330
513FC
100
AcDbScale
 70
     0
300
1:40
140
1.0
141
40.0
290
     0
  0
SCALE
  5
51407
102
{ACAD_REACTORS
330
513FC
102
}
330
513FC
100
AcDbScale
 70
     0
300
1:50
140
1.0
141
50.0
290
     0
  0
SCALE
  5
51408
102
{ACAD_REACTORS
330
513FC
102
}
330
513FC
100
AcDbScale
 70
     0
300
1:100
140
1.0
141
100.0
290
     0
  0
SCALE
  5
51409
102
{ACAD_REACTORS
330
513FC
102
}
330
513FC
100
AcDbScale
 70
     0
300
2:1
140
2.0
141
1.0
290
     0
  0
SCALE
  5
5140A
102
{ACAD_REACTORS
330
513FC
102
}
330
513FC
100
AcDbScale
 70
     0
300
4:1
140
4.0
141
1.0
290
     0
  0
SCALE
  5
5140B
102
{ACAD_REACTORS
330
513FC
102
}
330
513FC
100
AcDbScale
 70
     0
300
8:1
140
8.0
141
1.0
290
     0
  0
SCALE
  5
5140C
102
{ACAD_REACTORS
330
513FC
102
}
330
513FC
100
AcDbScale
 70
     0
300
10:1
140
10.0
141
1.0
290
     0
  0
SCALE
  5
5140D
102
{ACAD_REACTORS
330
513FC
102
}
330
513FC
100
AcDbScale
 70
     0
300
100:1
140
100.0
141
1.0
290
     0
  0
SCALE
  5
5140E
102
{ACAD_REACTORS
330
513FC
102
}
330
513FC
100
AcDbScale
 70
     0
300
1/128" = 1'-0"
140
0.0078125
141
12.0
290
     0
  0
SCALE
  5
5140F
102
{ACAD_REACTORS
330
513FC
102
}
330
513FC
100
AcDbScale
 70
     0
300
1/64" = 1'-0"
140
0.015625
141
12.0
290
     0
  0
SCALE
  5
51410
102
{ACAD_REACTORS
330
513FC
102
}
330
513FC
100
AcDbScale
 70
     0
300
1/32" = 1'-0"
140
0.03125
141
12.0
290
     0
  0
SCALE
  5
51411
102
{ACAD_REACTORS
330
513FC
102
}
330
513FC
100
AcDbScale
 70
     0
300
1/16" = 1'-0"
140
0.0625
141
12.0
290
     0
  0
SCALE
  5
51412
102
{ACAD_REACTORS
330
513FC
102
}
330
513FC
100
AcDbScale
 70
     0
300
3/32" = 1'-0"
140
0.09375
141
12.0
290
     0
  0
SCALE
  5
51413
102
{ACAD_REACTORS
330
513FC
102
}
330
513FC
100
AcDbScale
 70
     0
300
1/8" = 1'-0"
140
0.125
141
12.0
290
     0
  0
SCALE
  5
51414
102
{ACAD_REACTORS
330
513FC
102
}
330
513FC
100
AcDbScale
 70
     0
300
3/16" = 1'-0"
140
0.1875
141
12.0
290
     0
  0
SCALE
  5
51415
102
{ACAD_REACTORS
330
513FC
102
}
330
513FC
100
AcDbScale
 70
     0
300
1/4" = 1'-0"
140
0.25
141
12.0
290
     0
  0
SCALE
  5
51416
102
{ACAD_REACTORS
330
513FC
102
}
330
513FC
100
AcDbScale
 70
     0
300
3/8" = 1'-0"
140
0.375
141
12.0
290
     0
  0
SCALE
  5
51417
102
{ACAD_REACTORS
330
513FC
102
}
330
513FC
100
AcDbScale
 70
     0
300
1/2" = 1'-0"
140
0.5
141
12.0
290
     0
  0
SCALE
  5
51418
102
{ACAD_REACTORS
330
513FC
102
}
330
513FC
100
AcDbScale
 70
     0
300
3/4" = 1'-0"
140
0.75
141
12.0
290
     0
  0
SCALE
  5
51419
102
{ACAD_REACTORS
330
513FC
102
}
330
513FC
100
AcDbScale
 70
     0
300
1" = 1'-0"
140
1.0
141
12.0
290
     0
  0
SCALE
  5
5141A
102
{ACAD_REACTORS
330
513FC
102
}
330
513FC
100
AcDbScale
 70
     0
300
1-1/2" = 1'-0"
140
1.5
141
12.0
290
     0
  0
SCALE
  5
5141B
102
{ACAD_REACTORS
330
513FC
102
}
330
513FC
100
AcDbScale
 70
     0
300
3" = 1'-0"
140
3.0
141
12.0
290
     0
  0
SCALE
  5
5141C
102
{ACAD_REACTORS
330
513FC
102
}
330
513FC
100
AcDbScale
 70
     0
300
6" = 1'-0"
140
6.0
141
12.0
290
     0
  0
SCALE
  5
5141D
102
{ACAD_REACTORS
330
513FC
102
}
330
513FC
100
AcDbScale
 70
     0
300
1'-0" = 1'-0"
140
12.0
141
12.0
290
     0
  0
ACDBSECTIONVIEWSTYLE
  5
9B344
102
{ACAD_REACTORS
330
9B343
102
}
102
{ACAD_XDICTIONARY
360
9B6C8
102
}
330
9B343
100
AcDbModelDocViewStyle
 70
     0
  3
Imperial24
290
     0
100
AcDbSectionViewStyle
 70
     0
 71
     0
 90
       78
 71
     1
340
F
 40
0.24
340
0
340
0
 40
0.24
300
I, O, Q, S, X, Z
 40
0.48
 90
        3
 40
0.18
 90
        1
 71
     2
340
14
 90
       25
340
14
 90
       50
 40
0.24
 40
0.0
 40
0.24
 71
     3
340
F
 40
0.24
 90
        1
 40
0.75
 90
        1
300
%<\AcVar ViewType \f "%tc1">% %<\AcVar ViewSectionStartId>%-%<\AcVar ViewSectionEndId>%\PSCALE %<\AcVar ViewScale \f "%sn">%
 71
     4
300
ANSI31
 40
1.0
 90
        0
290
     0
290
     0
 90
        6
 40
0.0
 40
1.570796326794896
 40
0.2617993877991494
 40
1.308996938995747
 40
-0.2617993877991494
 40
1.832595714594046
  0
TABLESTYLE
  5
513FB
102
{ACAD_REACTORS
330
513FA
102
}
330
513FA
100
AcDbTableStyle
  3
Standard
 70
     0
 71
     0
 40
0.06
 41
0.06
280
     0
281
     0
  7
STANDARD
140
0.18
170
     2
 62
     0
 63
   257
283
     0
274
    -2
284
     1
 64
     0
275
    -2
285
     1
 65
     0
276
    -2
286
     1
 66
     0
277
    -2
287
     1
 67
     0
278
    -2
288
     1
 68
     0
279
    -2
289
     1
 69
     0
  7
STANDARD
140
0.25
170
     5
 62
     0
 63
   257
283
     0
274
    -2
284
     1
 64
     0
275
    -2
285
     1
 65
     0
276
    -2
286
     1
 66
     0
277
    -2
287
     1
 67
     0
278
    -2
288
     1
 68
     0
279
    -2
289
     1
 69
     0
  7
STANDARD
140
0.18
170
     5
 62
     0
 63
   257
283
     0
274
    -2
284
     1
 64
     0
275
    -2
285
     1
 65
     0
276
    -2
286
     1
 66
     0
277
    -2
287
     1
 67
     0
278
    -2
288
     1
 68
     0
279
    -2
289
     1
 69
     0
  0
VISUALSTYLE
  5
513EE
102
{ACAD_REACTORS
330
513E8
102
}
102
{ACAD_XDICTIONARY
360
9B6E1
102
}
330
513E8
100
AcDbVisualStyle
  2
2dWireframe
 70
     4
 71
     0
 72
     2
 73
     0
 90
        0
 40
-0.6
 41
-30.0
 62
     5
 63
     7
 74
     1
 91
        4
 64
     7
 65
   257
 75
     1
175
     1
 42
1.0
 92
        0
 66
   257
 43
1.0
 76
     1
 77
     6
 78
     2
 67
     7
 79
     5
170
     0
171
     0
290
     0
174
     0
 93
        1
 44
0.0
173
     0
291
     0
 45
0.0
1001
ACAD
1000
AcDbSavedByObjectVersion
1070
     0
  0
VISUALSTYLE
  5
513F0
102
{ACAD_REACTORS
330
513E8
102
}
102
{ACAD_XDICTIONARY
360
9B6E3
102
}
330
513E8
100
AcDbVisualStyle
  2
3D Hidden
 70
     6
 71
     1
 72
     2
 73
     2
 90
        0
 40
-0.6
 41
-30.0
 62
     5
 63
     7
 74
     2
 91
        2
 64
     7
 65
   257
 75
     2
175
     1
 42
40.0
 92
        0
 66
   257
 43
1.0
 76
     1
 77
     6
 78
     2
 67
     7
 79
     3
170
     0
171
     0
290
     0
174
     0
 93
        1
 44
0.0
173
     0
291
     0
 45
0.0
1001
ACAD
1000
AcDbSavedByObjectVersion
1070
     0
  0
VISUALSTYLE
  5
513EF
102
{ACAD_REACTORS
330
513E8
102
}
102
{ACAD_XDICTIONARY
360
9B6E5
102
}
330
513E8
100
AcDbVisualStyle
  2
3dWireframe
 70
     5
 71
     0
 72
     2
 73
     0
 90
        0
 40
-0.6
 41
-30.0
 62
     5
 63
     7
 74
     1
 91
        4
 64
     7
 65
   257
 75
     1
175
     1
 42
1.0
 92
        0
 66
   257
 43
1.0
 76
     1
 77
     6
 78
     2
 67
     7
 79
     5
170
     0
171
     0
290
     0
174
     0
 93
        1
 44
0.0
173
     0
291
     0
 45
0.0
1001
ACAD
1000
AcDbSavedByObjectVersion
1070
     0
  0
VISUALSTYLE
  5
513ED
102
{ACAD_REACTORS
330
513E8
102
}
102
{ACAD_XDICTIONARY
360
9B6E7
102
}
330
513E8
100
AcDbVisualStyle
  2
Basic
 70
     7
 71
     1
 72
     0
 73
     1
 90
        0
 40
-0.6
 41
-30.0
 62
     5
 63
     7
 74
     0
 91
        4
 64
     7
 65
   257
 75
     1
175
     1
 42
1.0
 92
        8
 66
     7
 43
1.0
 76
     1
 77
     6
 78
     2
 67
     7
 79
     5
170
     0
171
     0
290
     0
174
     0
 93
        1
 44
0.0
173
     0
291
     1
 45
0.0
1001
ACAD
1000
AcDbSavedByObjectVersion
1070
     0
  0
VISUALSTYLE
  5
513F4
102
{ACAD_REACTORS
330
513E8
102
}
102
{ACAD_XDICTIONARY
360
9B6E9
102
}
330
513E8
100
AcDbVisualStyle
  2
Brighten
 70
    12
 71
     2
 72
     2
 73
     0
 90
        0
 40
-0.6
 41
-30.0
 62
     5
 63
     7
 74
     1
 91
        4
 64
     7
 65
   257
 75
     1
175
     1
 42
1.0
 92
        8
 66
     7
 43
1.0
 76
     1
 77
     6
 78
     2
 67
     7
 79
     5
170
     0
171
     0
290
     0
174
     0
 93
        1
 44
50.0
173
     0
291
     1
 45
0.0
1001
ACAD
1000
AcDbSavedByObjectVersion
1070
     0
  0
VISUALSTYLE
  5
513F8
102
{ACAD_REACTORS
330
513E8
102
}
102
{ACAD_XDICTIONARY
360
9B6EB
102
}
330
513E8
100
AcDbVisualStyle
  2
ColorChange
 70
    16
 71
     2
 72
     2
 73
     3
 90
        0
 40
-0.6
 41
-30.0
 62
     5
 63
     8
 74
     1
 91
        4
 64
     7
 65
   257
 75
     1
175
     1
 42
1.0
 92
        8
 66
     8
 43
1.0
 76
     1
 77
     6
 78
     2
 67
     7
 79
     5
170
     0
171
     0
290
     0
174
     0
 93
        1
 44
0.0
173
     0
291
     1
 45
0.0
1001
ACAD
1000
AcDbSavedByObjectVersion
1070
     0
  0
VISUALSTYLE
  5
513F1
102
{ACAD_REACTORS
330
513E8
102
}
102
{ACAD_XDICTIONARY
360
9B6ED
102
}
330
513E8
100
AcDbVisualStyle
  2
Conceptual
 70
     9
 71
     3
 72
     2
 73
     0
 90
        0
 40
-0.6
 41
-30.0
 62
     5
 63
     7
 74
     2
 91
        2
 64
     7
 65
   257
 75
     1
175
     1
 42
40.0
 92
        8
 66
     7
 43
1.0
 76
     1
 77
     6
 78
     2
 67
     7
 79
     3
170
     0
171
     0
290
     0
174
     0
 93
        1
 44
0.0
173
     0
291
     0
 45
0.0
1001
ACAD
1000
AcDbSavedByObjectVersion
1070
     0
  0
VISUALSTYLE
  5
513F3
102
{ACAD_REACTORS
330
513E8
102
}
102
{ACAD_XDICTIONARY
360
9B6EF
102
}
330
513E8
100
AcDbVisualStyle
  2
Dim
 70
    11
 71
     2
 72
     2
 73
     0
 90
        0
 40
-0.6
 41
-30.0
 62
     5
 63
     7
 74
     1
 91
        4
 64
     7
 65
   257
 75
     1
175
     1
 42
1.0
 92
        8
 66
     7
 43
1.0
 76
     1
 77
     6
 78
     2
 67
     7
 79
     5
170
     0
171
     0
290
     0
174
     0
 93
        1
 44
-50.0
173
     0
291
     1
 45
0.0
1001
ACAD
1000
AcDbSavedByObjectVersion
1070
     0
  0
VISUALSTYLE
  5
70D09
102
{ACAD_REACTORS
330
513E8
102
}
102
{ACAD_XDICTIONARY
360
9B6F1
102
}
330
513E8
100
AcDbVisualStyle
  2
EdgeColorOff
 70
    22
 71
     2
 72
     2
 73
     0
 90
        0
 40
-0.6
 41
-30.0
 62
     5
 63
     7
 74
     1
 91
        4
 64
     7
 65
   257
 75
     1
175
     1
 42
1.0
 92
        8
 66
     7
 43
1.0
 76
     1
 77
     6
 78
     2
 67
     7
 79
     5
170
     0
171
     0
290
     0
174
     0
 93
        1
 44
0.0
173
     0
291
     1
 45
0.0
1001
ACAD
1000
AcDbSavedByObjectVersion
1070
     0
  0
VISUALSTYLE
  5
513F7
102
{ACAD_REACTORS
330
513E8
102
}
102
{ACAD_XDICTIONARY
360
9B6F3
102
}
330
513E8
100
AcDbVisualStyle
  2
Facepattern
 70
    15
 71
     2
 72
     2
 73
     0
 90
        0
 40
-0.6
 41
-30.0
 62
     5
 63
     7
 74
     1
 91
        4
 64
     7
 65
   257
 75
     1
175
     1
 42
1.0
 92
        8
 66
     7
 43
1.0
 76
     1
 77
     6
 78
     2
 67
     7
 79
     5
170
     0
171
     0
290
     0
174
     0
 93
        1
 44
0.0
173
     0
291
     1
 45
0.0
1001
ACAD
1000
AcDbSavedByObjectVersion
1070
     0
  0
VISUALSTYLE
  5
513E9
102
{ACAD_REACTORS
330
513E8
102
}
102
{ACAD_XDICTIONARY
360
9B6F5
102
}
330
513E8
100
AcDbVisualStyle
  2
Flat
 70
     0
 71
     2
 72
     1
 73
     1
 90
        2
 40
-0.6
 41
30.0
 62
     5
 63
     7
 74
     0
 91
        4
 64
     7
 65
   257
 75
     1
175
     1
 42
1.0
 92
        8
 66
     7
 43
1.0
 76
     1
 77
     6
 78
     2
 67
     7
 79
     5
170
     0
171
     0
290
     0
174
     0
 93
       13
 44
0.0
173
     0
291
     1
 45
0.0
1001
ACAD
1000
AcDbSavedByObjectVersion
1070
     0
  0
VISUALSTYLE
  5
513EA
102
{ACAD_REACTORS
330
513E8
102
}
102
{ACAD_XDICTIONARY
360
9B6F7
102
}
330
513E8
100
AcDbVisualStyle
  2
FlatWithEdges
 70
     1
 71
     2
 72
     1
 73
     1
 90
        2
 40
-0.6
 41
30.0
 62
     5
 63
     7
 74
     1
 91
        4
 64
     7
 65
   257
 75
     1
175
     1
 42
1.0
 92
        0
 66
   257
 43
1.0
 76
     1
 77
     6
 78
     2
 67
     7
 79
     5
170
     0
171
     0
290
     0
174
     0
 93
       13
 44
0.0
173
     0
291
     1
 45
0.0
1001
ACAD
1000
AcDbSavedByObjectVersion
1070
     0
  0
VISUALSTYLE
  5
513EB
102
{ACAD_REACTORS
330
513E8
102
}
102
{ACAD_XDICTIONARY
360
9B6F9
102
}
330
513E8
100
AcDbVisualStyle
  2
Gouraud
 70
     2
 71
     2
 72
     2
 73
     1
 90
        2
 40
-0.6
 41
30.0
 62
     5
 63
     7
 74
     0
 91
        4
 64
     7
 65
   257
 75
     1
175
     1
 42
1.0
 92
        0
 66
     7
 43
1.0
 76
     1
 77
     6
 78
     2
 67
     7
 79
     5
170
     0
171
     0
290
     0
174
     0
 93
       13
 44
0.0
173
     0
291
     1
 45
0.0
1001
ACAD
1000
AcDbSavedByObjectVersion
1070
     0
  0
VISUALSTYLE
  5
513EC
102
{ACAD_REACTORS
330
513E8
102
}
102
{ACAD_XDICTIONARY
360
9B6FB
102
}
330
513E8
100
AcDbVisualStyle
  2
GouraudWithEdges
 70
     3
 71
     2
 72
     2
 73
     1
 90
        2
 40
-0.6
 41
30.0
 62
     5
 63
     7
 74
     1
 91
        4
 64
     7
 65
   257
 75
     1
175
     1
 42
1.0
 92
        0
 66
   257
 43
1.0
 76
     1
 77
     6
 78
     2
 67
     7
 79
     5
170
     0
171
     0
290
     0
174
     0
 93
       13
 44
0.0
173
     0
291
     1
 45
0.0
1001
ACAD
1000
AcDbSavedByObjectVersion
1070
     0
  0
VISUALSTYLE
  5
70D01
102
{ACAD_REACTORS
330
513E8
102
}
102
{ACAD_XDICTIONARY
360
9B6FD
102
}
330
513E8
100
AcDbVisualStyle
  2
Hidden
 70
     6
 71
     1
 72
     2
 73
     2
 90
        0
 40
-0.6
 41
-30.0
 62
     5
 63
     7
 74
     2
 91
        2
 64
     7
 65
   257
 75
     2
175
     1
 42
40.0
 92
        0
 66
   257
 43
1.0
 76
     1
 77
     6
 78
     2
 67
     7
 79
     3
170
     0
171
     0
290
     0
174
     0
 93
        1
 44
0.0
173
     0
291
     0
 45
0.0
1001
ACAD
1000
AcDbSavedByObjectVersion
1070
     0
  0
VISUALSTYLE
  5
70D07
102
{ACAD_REACTORS
330
513E8
102
}
102
{ACAD_XDICTIONARY
360
9B6FF
102
}
330
513E8
100
AcDbVisualStyle
  2
JitterOff
 70
    20
 71
     2
 72
     2
 73
     0
 90
        0
 40
-0.6
 41
-30.0
 62
     5
 63
     7
 74
     1
 91
        4
 64
     7
 65
   257
 75
     1
175
     1
 42
1.0
 92
       10
 66
     7
 43
1.0
 76
     1
 77
     6
 78
     2
 67
     7
 79
     5
170
     0
171
     0
290
     0
174
     0
 93
        1
 44
0.0
173
     0
291
     1
 45
0.0
1001
ACAD
1000
AcDbSavedByObjectVersion
1070
     0
  0
VISUALSTYLE
  5
513F6
102
{ACAD_REACTORS
330
513E8
102
}
102
{ACAD_XDICTIONARY
360
9B701
102
}
330
513E8
100
AcDbVisualStyle
  2
Linepattern
 70
    14
 71
     2
 72
     2
 73
     0
 90
        0
 40
-0.6
 41
-30.0
 62
     5
 63
     7
 74
     1
 91
        4
 64
     7
 65
   257
 75
     7
175
     7
 42
1.0
 92
        8
 66
     7
 43
1.0
 76
     1
 77
     6
 78
     2
 67
     7
 79
     5
170
     0
171
     0
290
     0
174
     0
 93
        1
 44
0.0
173
     0
291
     1
 45
0.0
1001
ACAD
1000
AcDbSavedByObjectVersion
1070
     0
  0
VISUALSTYLE
  5
70D08
102
{ACAD_REACTORS
330
513E8
102
}
102
{ACAD_XDICTIONARY
360
9B703
102
}
330
513E8
100
AcDbVisualStyle
  2
OverhangOff
 70
    21
 71
     2
 72
     2
 73
     0
 90
        0
 40
-0.6
 41
-30.0
 62
     5
 63
     7
 74
     1
 91
        4
 64
     7
 65
   257
 75
     1
175
     1
 42
1.0
 92
        9
 66
     7
 43
1.0
 76
     1
 77
     6
 78
     2
 67
     7
 79
     5
170
     0
171
     0
290
     0
174
     0
 93
        1
 44
0.0
173
     0
291
     1
 45
0.0
1001
ACAD
1000
AcDbSavedByObjectVersion
1070
     0
  0
VISUALSTYLE
  5
513F2
102
{ACAD_REACTORS
330
513E8
102
}
102
{ACAD_XDICTIONARY
360
9B705
102
}
330
513E8
100
AcDbVisualStyle
  2
Realistic
 70
     8
 71
     2
 72
     2
 73
     0
 90
        0
 40
-0.6
 41
-30.0
 62
     5
 63
     7
 74
     1
 91
        0
 64
     7
 65
   257
 75
     1
175
     1
 42
1.0
 92
        8
 66
     8
 43
1.0
 76
     1
 77
     6
 78
     2
 67
     7
 79
     5
170
     0
171
     0
290
     0
174
     0
 93
       13
 44
0.0
173
     0
291
     0
 45
0.0
1001
ACAD
1000
AcDbSavedByObjectVersion
1070
     0
  0
VISUALSTYLE
  5
70D06
102
{ACAD_REACTORS
330
513E8
102
}
102
{ACAD_XDICTIONARY
360
9B707
102
}
330
513E8
100
AcDbVisualStyle
  2
Shaded
 70
    27
 71
     2
 72
     2
 73
     1
 90
        2
 40
-0.6
 41
30.0
 62
     5
 63
     7
 74
     0
 91
        4
 64
     7
 65
   257
 75
     1
175
     1
 42
1.0
 92
        8
 66
   257
 43
1.0
 76
     1
 77
     6
 78
     2
 67
     8
 79
     3
170
     0
171
     0
290
     0
174
     0
 93
        5
 44
0.0
173
     0
291
     0
 45
0.0
1001
ACAD
1000
AcDbSavedByObjectVersion
1070
     0
  0
VISUALSTYLE
  5
70D05
102
{ACAD_REACTORS
330
513E8
102
}
102
{ACAD_XDICTIONARY
360
9B709
102
}
330
513E8
100
AcDbVisualStyle
  2
Shaded with edges
 70
    26
 71
     2
 72
     2
 73
     1
 90
        2
 40
-0.6
 41
30.0
 62
     5
 63
     7
 74
     1
 91
        2
 64
     7
 65
   257
 75
     2
175
     1
 42
1.0
 92
        8
 66
   257
 43
1.0
 76
     1
 77
     6
 78
     2
 67
     7
 79
     3
170
     0
171
     0
290
     0
174
     0
 93
        5
 44
0.0
173
     0
291
     0
 45
0.0
1001
ACAD
1000
AcDbSavedByObjectVersion
1070
     0
  0
VISUALSTYLE
  5
70D02
102
{ACAD_REACTORS
330
513E8
102
}
102
{ACAD_XDICTIONARY
360
9B70B
102
}
330
513E8
100
AcDbVisualStyle
  2
Shades of Gray
 70
    23
 71
     2
 72
     2
 73
     3
 90
        0
 40
-0.6
 41
-30.0
 62
     5
 63
     7
 74
     2
 91
        2
 64
     7
 65
     7
 75
     1
175
     1
 42
40.0
 92
        8
 66
     7
 43
1.0
 76
     1
 77
     6
 78
     2
 67
     7
 79
     3
170
     0
171
     0
290
     0
174
     0
 93
        1
 44
0.0
173
     0
291
     0
 45
0.0
1001
ACAD
1000
AcDbSavedByObjectVersion
1070
     0
  0
VISUALSTYLE
  5
70D03
102
{ACAD_REACTORS
330
513E8
102
}
102
{ACAD_XDICTIONARY
360
9B70D
102
}
330
513E8
100
AcDbVisualStyle
  2
Sketchy
 70
    24
 71
     1
 72
     2
 73
     2
 90
        0
 40
-0.6
 41
-30.0
 62
     5
 63
     7
 74
     2
 91
        2
 64
     7
 65
     7
 75
     1
175
     1
 42
40.0
 92
       11
 66
     7
 43
1.0
 76
     1
 77
     6
 78
     2
 67
     7
 79
     6
170
     0
171
     0
290
     0
174
     0
 93
        1
 44
0.0
173
     0
291
     0
 45
0.0
1001
ACAD
1000
AcDbSavedByObjectVersion
1070
     0
  0
VISUALSTYLE
  5
513F5
102
{ACAD_REACTORS
330
513E8
102
}
102
{ACAD_XDICTIONARY
360
9B70F
102
}
330
513E8
100
AcDbVisualStyle
  2
Thicken
 70
    13
 71
     2
 72
     2
 73
     0
 90
        0
 40
-0.6
 41
-30.0
 62
     5
 63
     7
 74
     1
 91
        4
 64
     7
 65
   257
 75
     1
175
     1
 42
1.0
 92
       12
 66
     7
 43
1.0
 76
     1
 77
     6
 78
     2
 67
     7
 79
     5
170
     0
171
     0
290
     0
174
     0
 93
        1
 44
0.0
173
     0
291
     1
 45
0.0
1001
ACAD
1000
AcDbSavedByObjectVersion
1070
     0
  0
VISUALSTYLE
  5
70D00
102
{ACAD_REACTORS
330
513E8
102
}
102
{ACAD_XDICTIONARY
360
9B711
102
}
330
513E8
100
AcDbVisualStyle
  2
Wireframe
 70
     5
 71
     0
 72
     2
 73
     0
 90
        0
 40
-0.6
 41
-30.0
 62
     5
 63
     7
 74
     1
 91
        4
 64
     7
 65
   257
 75
     1
175
     1
 42
1.0
 92
        0
 66
   257
 43
1.0
 76
     1
 77
     6
 78
     2
 67
     7
 79
     3
170
     0
171
     0
290
     0
174
     0
 93
        1
 44
0.0
173
     0
291
     0
 45
0.0
1001
ACAD
1000
AcDbSavedByObjectVersion
1070
     0
  0
VISUALSTYLE
  5
70D04
102
{ACAD_REACTORS
330
513E8
102
}
102
{ACAD_XDICTIONARY
360
9B713
102
}
330
513E8
100
AcDbVisualStyle
  2
X-Ray
 70
    25
 71
     2
 72
     2
 73
     1
 90
        1
 40
0.5
 41
-30.0
 62
     5
 63
     7
 74
     1
 91
        0
 64
     7
 65
   257
 75
     1
175
     1
 42
1.0
 92
        8
 66
     7
 43
1.0
 76
     1
 77
     6
 78
     2
 67
     7
 79
     3
170
     0
171
     0
290
     0
174
     0
 93
       13
 44
0.0
173
     0
291
     0
 45
0.0
1001
ACAD
1000
AcDbSavedByObjectVersion
1070
     0
  0
XRECORD
  5
9B6D2
102
{ACAD_REACTORS
330
9B6D1
102
}
330
9B6D1
100
AcDbXrecord
280
     1
340
513F9
  0
XRECORD
  5
9B6D3
102
{ACAD_REACTORS
330
9B6D1
102
}
330
9B6D1
100
AcDbXrecord
280
     1
340
513CF
  0
DICTIONARYVAR
  5
9B6D6
102
{ACAD_REACTORS
330
28B1
102
}
330
28B1
100
DictionaryVariables
280
     0
  1
1:1
  0
DICTIONARYVAR
  5
5147E
102
{ACAD_REACTORS
330
28B1
102
}
330
28B1
100
DictionaryVariables
280
     0
  1
Standard
  0
DICTIONARYVAR
  5
5147D
102
{ACAD_REACTORS
330
28B1
102
}
330
28B1
100
DictionaryVariables
280
     0
  1
Standard
  0
DICTIONARYVAR
  5
9B686
102
{ACAD_REACTORS
330
28B1
102
}
330
28B1
100
DictionaryVariables
280
     0
  1
Imperial24
  0
DICTIONARYVAR
  5
9B687
102
{ACAD_REACTORS
330
28B1
102
}
330
28B1
100
DictionaryVariables
280
     0
  1
Imperial24
  0
DICTIONARYVAR
  5
5135B
102
{ACAD_REACTORS
330
28B1
102
}
330
28B1
100
DictionaryVariables
280
     0
  1
1
  0
DICTIONARYVAR
  5
9B6D0
102
{ACAD_REACTORS
330
28B1
102
}
330
28B1
100
DictionaryVariables
280
     0
  1
1
  0
DICTIONARYVAR
  5
70D55
102
{ACAD_REACTORS
330
28B1
102
}
330
28B1
100
DictionaryVariables
280
     0
  1
0
  0
DICTIONARYVAR
  5
51481
102
{ACAD_REACTORS
330
28B1
102
}
330
28B1
100
DictionaryVariables
280
     0
  1
0
  0
DICTIONARYVAR
  5
5147F
102
{ACAD_REACTORS
330
28B1
102
}
330
28B1
100
DictionaryVariables
280
     0
  1
0
  0
DICTIONARYVAR
  5
70D57
102
{ACAD_REACTORS
330
28B1
102
}
330
28B1
100
DictionaryVariables
280
     0
  1
1
  0
DICTIONARYVAR
  5
28B2
102
{ACAD_REACTORS
330
28B1
102
}
330
28B1
100
DictionaryVariables
280
     0
  1
127
  0
DICTIONARYVAR
  5
9B688
102
{ACAD_REACTORS
330
28B1
102
}
330
28B1
100
DictionaryVariables
280
     0
  1
2
  0
DICTIONARY
  5
9B6CA
330
9B346
100
AcDbDictionary
280
     1
281
     1
  3
ACAD_XREC_ROUNDTRIP
360
9B6D7
  0
DICTIONARY
  5
9B6D8
330
513D8
100
AcDbDictionary
280
     1
281
     1
  3
ACAD_XREC_ROUNDTRIP
360
9B6D9
  0
DICTIONARY
  5
9B6DA
330
513D0
100
AcDbDictionary
280
     1
281
     1
  3
ACAD_XREC_ROUNDTRIP
360
9B6DB
  0
DICTIONARY
  5
9B6DC
330
513E0
100
AcDbDictionary
280
     1
281
     1
  3
ACAD_XREC_ROUNDTRIP
360
9B6DD
  0
DICTIONARY
  5
9B6DE
330
5141F
100
AcDbDictionary
280
     1
281
     1
  3
ACAD_XREC_ROUNDTRIP
360
9B6DF
  0
DICTIONARY
  5
9B6C8
330
9B344
100
AcDbDictionary
280
     1
281
     1
  3
ACAD_XREC_ROUNDTRIP
360
9B6E0
  0
DICTIONARY
  5
9B6E1
330
513EE
100
AcDbDictionary
280
     1
281
     1
  3
ACAD_XREC_ROUNDTRIP
360
9B6E2
  0
DICTIONARY
  5
9B6E3
330
513F0
100
AcDbDictionary
280
     1
281
     1
  3
ACAD_XREC_ROUNDTRIP
360
9B6E4
  0
DICTIONARY
  5
9B6E5
330
513EF
100
AcDbDictionary
280
     1
281
     1
  3
ACAD_XREC_ROUNDTRIP
360
9B6E6
  0
DICTIONARY
  5
9B6E7
330
513ED
100
AcDbDictionary
280
     1
281
     1
  3
ACAD_XREC_ROUNDTRIP
360
9B6E8
  0
DICTIONARY
  5
9B6E9
330
513F4
100
AcDbDictionary
280
     1
281
     1
  3
ACAD_XREC_ROUNDTRIP
360
9B6EA
  0
DICTIONARY
  5
9B6EB
330
513F8
100
AcDbDictionary
280
     1
281
     1
  3
ACAD_XREC_ROUNDTRIP
360
9B6EC
  0
DICTIONARY
  5
9B6ED
330
513F1
100
AcDbDictionary
280
     1
281
     1
  3
ACAD_XREC_ROUNDTRIP
360
9B6EE
  0
DICTIONARY
  5
9B6EF
330
513F3
100
AcDbDictionary
280
     1
281
     1
  3
ACAD_XREC_ROUNDTRIP
360
9B6F0
  0
DICTIONARY
  5
9B6F1
330
70D09
100
AcDbDictionary
280
     1
281
     1
  3
ACAD_XREC_ROUNDTRIP
360
9B6F2
  0
DICTIONARY
  5
9B6F3
330
513F7
100
AcDbDictionary
280
     1
281
     1
  3
ACAD_XREC_ROUNDTRIP
360
9B6F4
  0
DICTIONARY
  5
9B6F5
330
513E9
100
AcDbDictionary
280
     1
281
     1
  3
ACAD_XREC_ROUNDTRIP
360
9B6F6
  0
DICTIONARY
  5
9B6F7
330
513EA
100
AcDbDictionary
280
     1
281
     1
  3
ACAD_XREC_ROUNDTRIP
360
9B6F8
  0
DICTIONARY
  5
9B6F9
330
513EB
100
AcDbDictionary
280
     1
281
     1
  3
ACAD_XREC_ROUNDTRIP
360
9B6FA
  0
DICTIONARY
  5
9B6FB
330
513EC
100
AcDbDictionary
280
     1
281
     1
  3
ACAD_XREC_ROUNDTRIP
360
9B6FC
  0
DICTIONARY
  5
9B6FD
330
70D01
100
AcDbDictionary
280
     1
281
     1
  3
ACAD_XREC_ROUNDTRIP
360
9B6FE
  0
DICTIONARY
  5
9B6FF
330
70D07
100
AcDbDictionary
280
     1
281
     1
  3
ACAD_XREC_ROUNDTRIP
360
9B700
  0
DICTIONARY
  5
9B701
330
513F6
100
AcDbDictionary
280
     1
281
     1
  3
ACAD_XREC_ROUNDTRIP
360
9B702
  0
DICTIONARY
  5
9B703
330
70D08
100
AcDbDictionary
280
     1
281
     1
  3
ACAD_XREC_ROUNDTRIP
360
9B704
  0
DICTIONARY
  5
9B705
330
513F2
100
AcDbDictionary
280
     1
281
     1
  3
ACAD_XREC_ROUNDTRIP
360
9B706
  0
DICTIONARY
  5
9B707
330
70D06
100
AcDbDictionary
280
     1
281
     1
  3
ACAD_XREC_ROUNDTRIP
360
9B708
  0
DICTIONARY
  5
9B709
330
70D05
100
AcDbDictionary
280
     1
281
     1
  3
ACAD_XREC_ROUNDTRIP
360
9B70A
  0
DICTIONARY
  5
9B70B
330
70D02
100
AcDbDictionary
280
     1
281
     1
  3
ACAD_XREC_ROUNDTRIP
360
9B70C
  0
DICTIONARY
  5
9B70D
330
70D03
100
AcDbDictionary
280
     1
281
     1
  3
ACAD_XREC_ROUNDTRIP
360
9B70E
  0
DICTIONARY
  5
9B70F
330
513F5
100
AcDbDictionary
280
     1
281
     1
  3
ACAD_XREC_ROUNDTRIP
360
9B710
  0
DICTIONARY
  5
9B711
330
70D00
100
AcDbDictionary
280
     1
281
     1
  3
ACAD_XREC_ROUNDTRIP
360
9B712
  0
DICTIONARY
  5
9B713
330
70D04
100
AcDbDictionary
280
     1
281
     1
  3
ACAD_XREC_ROUNDTRIP
360
9B714
  0
XRECORD
  5
9B6D7
102
{ACAD_REACTORS
330
9B6CA
102
}
330
9B6CA
100
AcDbXrecord
280
     1
102
DISPLAYNAME
  1
Imperial24
102
FLAGS
 90
        0
  0
XRECORD
  5
9B6D9
102
{ACAD_REACTORS
330
9B6D8
102
}
330
9B6D8
100
AcDbXrecord
280
     1
102
MATERIAL
148
0.0
149
0.0
149
0.0
 93
        0
 94
      127
282
     0
 72
     0
 77
     0
171
     0
175
     0
179
     0
273
     0
  0
XRECORD
  5
9B6DB
102
{ACAD_REACTORS
330
9B6DA
102
}
330
9B6DA
100
AcDbXrecord
280
     1
102
MATERIAL
148
0.0
149
0.0
149
0.0
 93
        0
 94
      127
282
     0
 72
     0
 77
     0
171
     0
175
     0
179
     0
273
     0
  0
XRECORD
  5
9B6DD
102
{ACAD_REACTORS
330
9B6DC
102
}
330
9B6DC
100
AcDbXrecord
280
     1
102
MATERIAL
148
0.0
149
0.0
149
0.0
 93
        0
 94
      127
282
     0
 72
     0
 77
     0
171
     0
175
     0
179
     0
273
     0
  0
XRECORD
  5
9B6DF
102
{ACAD_REACTORS
330
9B6DE
102
}
330
9B6DE
100
AcDbXrecord
280
     1
102
ACAD_ROUNDTRIP_2010_MLEADER_STYLE
  0
XRECORD
  5
9B6E0
102
{ACAD_REACTORS
330
9B6C8
102
}
330
9B6C8
100
AcDbXrecord
280
     1
102
DISPLAYNAME
  1
Imperial24
102
FLAGS
 90
        0
  0
XRECORD
  5
9B6E2
102
{ACAD_REACTORS
330
9B6E1
102
}
330
9B6E1
100
AcDbXrecord
280
     1
102
RTVSPropertyOp0
 70
     1
102
RTVSPropertyOp1
 70
     1
102
RTVSPropertyOp2
 70
     1
102
RTVSPropertyOp3
 70
     1
102
RTVSPropertyOp4
 70
     1
102
RTVSPropertyOp5
 70
     1
102
RTVSPropertyOp6
 70
     1
102
RTVSPropertyOp7
 70
     1
102
RTVSPropertyOp8
 70
     1
102
RTVSPropertyOp9
 70
     1
102
RTVSPropertyOp10
 70
     1
102
RTVSPropertyOp11
 70
     1
102
RTVSPropertyOp12
 70
     1
102
RTVSPropertyOp13
 70
     1
102
RTVSPropertyOp14
 70
     1
102
RTVSPropertyOp15
 70
     1
102
RTVSPropertyOp16
 70
     1
102
RTVSPropertyOp17
 70
     1
102
RTVSPropertyOp18
 70
     1
102
RTVSPropertyOp19
 70
     1
102
RTVSPropertyOp20
 70
     1
102
RTVSPropertyOp21
 70
     1
102
RTVSPropertyOp22
 70
     1
102
RTVSPropertyOp23
 70
     1
102
RTVSPropertyOp24
 70
     1
102
RTVSPropertyOp25
 70
     1
102
RTVSPropertyOp26
 70
     1
102
RTVSPropertyOp27
 70
     1
102
RTVSPropertyOp28
 70
     1
102
RTVSPropertyOp29
 70
     1
102
RTVSPropertyOp30
 70
     1
102
RTVSPropertyOp31
 70
     1
102
RTVSPropertyOp32
 70
     1
102
RTVSPropertyOp33
 70
     1
102
RTVSPropertyOp34
 70
     1
102
RTVSPropertyOp35
 70
     1
102
RTVSPropertyOp36
 70
     1
102
RTVSPropertyOp37
 70
     1
102
RTVSPropertyOp38
 70
     1
102
RTVSPropertyOp39
 70
     1
102
RTVSPropertyOp40
 70
     1
102
RTVSPropertyOp41
 70
     1
102
RTVSPropertyOp42
 70
     1
102
RTVSPropertyOp43
 70
     1
102
RTVSPropertyOp44
 70
     1
102
RTVSPropertyOp45
 70
     1
102
RTVSPropertyOp46
 70
     1
102
RTVSPropertyOp47
 70
     1
102
RTVSPropertyOp48
 70
     1
102
RTVSPropertyOp49
 70
     1
102
RTVSPropertyOp50
 70
     1
102
RTVSPropertyOp51
 70
     0
102
RTVSPropertyOp52
 70
     0
102
RTVSPropertyOp53
 70
     1
102
RTVSPropertyOp54
 70
     1
102
RTVSPropertyOp55
 70
     1
102
RTVSPropertyOp56
 70
     1
102
RTVSPropertyOp57
 70
     1
102
RTVSPost2010Prop28
280
     1
102
RTVSPost2010PropOp28
 70
     1
102
RTVSPost2010Prop29
280
     1
102
RTVSPost2010PropOp29
 70
     1
102
RTVSPost2010Prop30
280
     0
102
RTVSPost2010PropOp30
 70
     1
102
RTVSPost2010Prop31
280
     0
102
RTVSPost2010PropOp31
 70
     1
102
RTVSPost2010Prop32
280
     0
102
RTVSPost2010PropOp32
 70
     1
102
RTVSPost2010Prop33
280
     0
102
RTVSPost2010PropOp33
 70
     1
102
RTVSPost2010Prop34
280
     0
102
RTVSPost2010PropOp34
 70
     1
102
RTVSPost2010Prop35
280
     0
102
RTVSPost2010PropOp35
 70
     1
102
RTVSPost2010Prop36
280
     0
102
RTVSPost2010PropOp36
 70
     1
102
RTVSPost2010Prop37
 90
       50
102
RTVSPost2010PropOp37
 70
     1
102
RTVSPost2010Prop38
140
0.0
102
RTVSPost2010PropOp38
 70
     1
102
RTVSPost2010Prop39
140
1.0
102
RTVSPost2010PropOp39
 70
     1
102
RTVSPost2010Prop40
 90
        0
102
RTVSPost2010PropOp40
 70
     1
102
RTVSPost2010Prop41ColorIndex
 90
       18
102
RTVSPost2010Prop41ColorRGB
 90
        0
102
RTVSPost2010PropOp41
 70
     1
102
RTVSPost2010Prop42
 90
       50
102
RTVSPost2010PropOp42
 70
     1
102
RTVSPost2010Prop43
 90
        3
102
RTVSPost2010PropOp43
 70
     1
102
RTVSPost2010Prop44ColorIndex
 90
        5
102
RTVSPost2010Prop44ColorRGB
 90
      255
102
RTVSPost2010PropOp44
 70
     1
102
RTVSPost2010Prop45
280
     0
102
RTVSPost2010PropOp45
 70
     1
102
RTVSPost2010Prop46
 90
       50
102
RTVSPost2010PropOp46
 70
     1
102
RTVSPost2010Prop47
 90
       50
102
RTVSPost2010PropOp47
 70
     1
102
RTVSPost2010Prop48
 90
       50
102
RTVSPost2010PropOp48
 70
     1
102
RTVSPost2010Prop49
280
     0
102
RTVSPost2010PropOp49
 70
     1
102
RTVSPost2010Prop50
 90
       50
102
RTVSPost2010PropOp50
 70
     1
102
RTVSPost2010Prop51ColorIndex
 90
      256
102
RTVSPost2010Prop51ColorRGB
 90
-16777216
102
RTVSPost2010PropOp51
 70
     0
102
RTVSPost2010Prop52
140
1.0
102
RTVSPost2010PropOp52
 70
     0
102
RTVSPost2010Prop53
 90
        2
102
RTVSPost2010PropOp53
 70
     1
102
RTVSPost2010Prop54
  1
strokes_ogs.tif
102
RTVSPost2010PropOp54
 70
     1
102
RTVSPost2010Prop55
280
     0
102
RTVSPost2010PropOp55
 70
     1
102
RTVSPost2010Prop56
140
1.0
102
RTVSPost2010PropOp56
 70
     1
102
RTVSPost2010Prop57
140
1.0
102
RTVSPost2010PropOp57
 70
     1
  0
XRECORD
  5
9B6E4
102
{ACAD_REACTORS
330
9B6E3
102
}
330
9B6E3
100
AcDbXrecord
280
     1
102
RTVSPropertyOp0
 70
     1
102
RTVSPropertyOp1
 70
     1
102
RTVSPropertyOp2
 70
     1
102
RTVSPropertyOp3
 70
     1
102
RTVSPropertyOp4
 70
     1
102
RTVSPropertyOp5
 70
     1
102
RTVSPropertyOp6
 70
     1
102
RTVSPropertyOp7
 70
     1
102
RTVSPropertyOp8
 70
     1
102
RTVSPropertyOp9
 70
     1
102
RTVSPropertyOp10
 70
     1
102
RTVSPropertyOp11
 70
     1
102
RTVSPropertyOp12
 70
     1
102
RTVSPropertyOp13
 70
     1
102
RTVSPropertyOp14
 70
     1
102
RTVSPropertyOp15
 70
     1
102
RTVSPropertyOp16
 70
     1
102
RTVSPropertyOp17
 70
     1
102
RTVSPropertyOp18
 70
     1
102
RTVSPropertyOp19
 70
     1
102
RTVSPropertyOp20
 70
     1
102
RTVSPropertyOp21
 70
     1
102
RTVSPropertyOp22
 70
     1
102
RTVSPropertyOp23
 70
     1
102
RTVSPropertyOp24
 70
     1
102
RTVSPropertyOp25
 70
     1
102
RTVSPropertyOp26
 70
     1
102
RTVSPropertyOp27
 70
     1
102
RTVSPropertyOp28
 70
     1
102
RTVSPropertyOp29
 70
     1
102
RTVSPropertyOp30
 70
     1
102
RTVSPropertyOp31
 70
     1
102
RTVSPropertyOp32
 70
     1
102
RTVSPropertyOp33
 70
     1
102
RTVSPropertyOp34
 70
     1
102
RTVSPropertyOp35
 70
     1
102
RTVSPropertyOp36
 70
     1
102
RTVSPropertyOp37
 70
     1
102
RTVSPropertyOp38
 70
     1
102
RTVSPropertyOp39
 70
     1
102
RTVSPropertyOp40
 70
     1
102
RTVSPropertyOp41
 70
     1
102
RTVSPropertyOp42
 70
     1
102
RTVSPropertyOp43
 70
     1
102
RTVSPropertyOp44
 70
     1
102
RTVSPropertyOp45
 70
     1
102
RTVSPropertyOp46
 70
     1
102
RTVSPropertyOp47
 70
     1
102
RTVSPropertyOp48
 70
     1
102
RTVSPropertyOp49
 70
     1
102
RTVSPropertyOp50
 70
     1
102
RTVSPropertyOp51
 70
     0
102
RTVSPropertyOp52
 70
     0
102
RTVSPropertyOp53
 70
     1
102
RTVSPropertyOp54
 70
     1
102
RTVSPropertyOp55
 70
     1
102
RTVSPropertyOp56
 70
     1
102
RTVSPropertyOp57
 70
     1
102
RTVSPost2010Prop28
280
     0
102
RTVSPost2010PropOp28
 70
     1
102
RTVSPost2010Prop29
280
     1
102
RTVSPost2010PropOp29
 70
     1
102
RTVSPost2010Prop30
280
     1
102
RTVSPost2010PropOp30
 70
     1
102
RTVSPost2010Prop31
280
     0
102
RTVSPost2010PropOp31
 70
     1
102
RTVSPost2010Prop32
280
     0
102
RTVSPost2010PropOp32
 70
     1
102
RTVSPost2010Prop33
280
     0
102
RTVSPost2010PropOp33
 70
     1
102
RTVSPost2010Prop34
280
     0
102
RTVSPost2010PropOp34
 70
     1
102
RTVSPost2010Prop35
280
     0
102
RTVSPost2010PropOp35
 70
     1
102
RTVSPost2010Prop36
280
     0
102
RTVSPost2010PropOp36
 70
     1
102
RTVSPost2010Prop37
 90
       50
102
RTVSPost2010PropOp37
 70
     1
102
RTVSPost2010Prop38
140
0.0
102
RTVSPost2010PropOp38
 70
     1
102
RTVSPost2010Prop39
140
1.0
102
RTVSPost2010PropOp39
 70
     1
102
RTVSPost2010Prop40
 90
        0
102
RTVSPost2010PropOp40
 70
     1
102
RTVSPost2010Prop41ColorIndex
 90
       18
102
RTVSPost2010Prop41ColorRGB
 90
        0
102
RTVSPost2010PropOp41
 70
     1
102
RTVSPost2010Prop42
 90
       50
102
RTVSPost2010PropOp42
 70
     1
102
RTVSPost2010Prop43
 90
        3
102
RTVSPost2010PropOp43
 70
     1
102
RTVSPost2010Prop44ColorIndex
 90
        5
102
RTVSPost2010Prop44ColorRGB
 90
      255
102
RTVSPost2010PropOp44
 70
     1
102
RTVSPost2010Prop45
280
     0
102
RTVSPost2010PropOp45
 70
     1
102
RTVSPost2010Prop46
 90
       50
102
RTVSPost2010PropOp46
 70
     1
102
RTVSPost2010Prop47
 90
       50
102
RTVSPost2010PropOp47
 70
     1
102
RTVSPost2010Prop48
 90
       50
102
RTVSPost2010PropOp48
 70
     1
102
RTVSPost2010Prop49
280
     0
102
RTVSPost2010PropOp49
 70
     1
102
RTVSPost2010Prop50
 90
       50
102
RTVSPost2010PropOp50
 70
     1
102
RTVSPost2010Prop51ColorIndex
 90
      256
102
RTVSPost2010Prop51ColorRGB
 90
-16777216
102
RTVSPost2010PropOp51
 70
     0
102
RTVSPost2010Prop52
140
1.0
102
RTVSPost2010PropOp52
 70
     0
102
RTVSPost2010Prop53
 90
        2
102
RTVSPost2010PropOp53
 70
     1
102
RTVSPost2010Prop54
  1
strokes_ogs.tif
102
RTVSPost2010PropOp54
 70
     1
102
RTVSPost2010Prop55
280
     0
102
RTVSPost2010PropOp55
 70
     1
102
RTVSPost2010Prop56
140
1.0
102
RTVSPost2010PropOp56
 70
     1
102
RTVSPost2010Prop57
140
1.0
102
RTVSPost2010PropOp57
 70
     1
  0
XRECORD
  5
9B6E6
102
{ACAD_REACTORS
330
9B6E5
102
}
330
9B6E5
100
AcDbXrecord
280
     1
102
RTVSPropertyOp0
 70
     1
102
RTVSPropertyOp1
 70
     1
102
RTVSPropertyOp2
 70
     1
102
RTVSPropertyOp3
 70
     1
102
RTVSPropertyOp4
 70
     1
102
RTVSPropertyOp5
 70
     1
102
RTVSPropertyOp6
 70
     1
102
RTVSPropertyOp7
 70
     1
102
RTVSPropertyOp8
 70
     1
102
RTVSPropertyOp9
 70
     1
102
RTVSPropertyOp10
 70
     1
102
RTVSPropertyOp11
 70
     1
102
RTVSPropertyOp12
 70
     1
102
RTVSPropertyOp13
 70
     1
102
RTVSPropertyOp14
 70
     1
102
RTVSPropertyOp15
 70
     1
102
RTVSPropertyOp16
 70
     1
102
RTVSPropertyOp17
 70
     1
102
RTVSPropertyOp18
 70
     1
102
RTVSPropertyOp19
 70
     1
102
RTVSPropertyOp20
 70
     1
102
RTVSPropertyOp21
 70
     1
102
RTVSPropertyOp22
 70
     1
102
RTVSPropertyOp23
 70
     1
102
RTVSPropertyOp24
 70
     1
102
RTVSPropertyOp25
 70
     1
102
RTVSPropertyOp26
 70
     1
102
RTVSPropertyOp27
 70
     1
102
RTVSPropertyOp28
 70
     1
102
RTVSPropertyOp29
 70
     1
102
RTVSPropertyOp30
 70
     1
102
RTVSPropertyOp31
 70
     1
102
RTVSPropertyOp32
 70
     1
102
RTVSPropertyOp33
 70
     1
102
RTVSPropertyOp34
 70
     1
102
RTVSPropertyOp35
 70
     1
102
RTVSPropertyOp36
 70
     1
102
RTVSPropertyOp37
 70
     1
102
RTVSPropertyOp38
 70
     1
102
RTVSPropertyOp39
 70
     1
102
RTVSPropertyOp40
 70
     1
102
RTVSPropertyOp41
 70
     1
102
RTVSPropertyOp42
 70
     1
102
RTVSPropertyOp43
 70
     1
102
RTVSPropertyOp44
 70
     1
102
RTVSPropertyOp45
 70
     1
102
RTVSPropertyOp46
 70
     1
102
RTVSPropertyOp47
 70
     1
102
RTVSPropertyOp48
 70
     1
102
RTVSPropertyOp49
 70
     1
102
RTVSPropertyOp50
 70
     1
102
RTVSPropertyOp51
 70
     0
102
RTVSPropertyOp52
 70
     0
102
RTVSPropertyOp53
 70
     1
102
RTVSPropertyOp54
 70
     1
102
RTVSPropertyOp55
 70
     1
102
RTVSPropertyOp56
 70
     1
102
RTVSPropertyOp57
 70
     1
102
RTVSPost2010Prop28
280
     0
102
RTVSPost2010PropOp28
 70
     1
102
RTVSPost2010Prop29
280
     1
102
RTVSPost2010PropOp29
 70
     1
102
RTVSPost2010Prop30
280
     1
102
RTVSPost2010PropOp30
 70
     1
102
RTVSPost2010Prop31
280
     0
102
RTVSPost2010PropOp31
 70
     1
102
RTVSPost2010Prop32
280
     0
102
RTVSPost2010PropOp32
 70
     1
102
RTVSPost2010Prop33
280
     0
102
RTVSPost2010PropOp33
 70
     1
102
RTVSPost2010Prop34
280
     0
102
RTVSPost2010PropOp34
 70
     1
102
RTVSPost2010Prop35
280
     0
102
RTVSPost2010PropOp35
 70
     1
102
RTVSPost2010Prop36
280
     0
102
RTVSPost2010PropOp36
 70
     1
102
RTVSPost2010Prop37
 90
       50
102
RTVSPost2010PropOp37
 70
     1
102
RTVSPost2010Prop38
140
0.0
102
RTVSPost2010PropOp38
 70
     1
102
RTVSPost2010Prop39
140
1.0
102
RTVSPost2010PropOp39
 70
     1
102
RTVSPost2010Prop40
 90
        0
102
RTVSPost2010PropOp40
 70
     1
102
RTVSPost2010Prop41ColorIndex
 90
       18
102
RTVSPost2010Prop41ColorRGB
 90
        0
102
RTVSPost2010PropOp41
 70
     1
102
RTVSPost2010Prop42
 90
       50
102
RTVSPost2010PropOp42
 70
     1
102
RTVSPost2010Prop43
 90
        3
102
RTVSPost2010PropOp43
 70
     1
102
RTVSPost2010Prop44ColorIndex
 90
        5
102
RTVSPost2010Prop44ColorRGB
 90
      255
102
RTVSPost2010PropOp44
 70
     1
102
RTVSPost2010Prop45
280
     0
102
RTVSPost2010PropOp45
 70
     1
102
RTVSPost2010Prop46
 90
       50
102
RTVSPost2010PropOp46
 70
     1
102
RTVSPost2010Prop47
 90
       50
102
RTVSPost2010PropOp47
 70
     1
102
RTVSPost2010Prop48
 90
       50
102
RTVSPost2010PropOp48
 70
     1
102
RTVSPost2010Prop49
280
     0
102
RTVSPost2010PropOp49
 70
     1
102
RTVSPost2010Prop50
 90
       50
102
RTVSPost2010PropOp50
 70
     1
102
RTVSPost2010Prop51ColorIndex
 90
      256
102
RTVSPost2010Prop51ColorRGB
 90
-16777216
102
RTVSPost2010PropOp51
 70
     0
102
RTVSPost2010Prop52
140
1.0
102
RTVSPost2010PropOp52
 70
     0
102
RTVSPost2010Prop53
 90
        2
102
RTVSPost2010PropOp53
 70
     1
102
RTVSPost2010Prop54
  1
strokes_ogs.tif
102
RTVSPost2010PropOp54
 70
     1
102
RTVSPost2010Prop55
280
     0
102
RTVSPost2010PropOp55
 70
     1
102
RTVSPost2010Prop56
140
1.0
102
RTVSPost2010PropOp56
 70
     1
102
RTVSPost2010Prop57
140
1.0
102
RTVSPost2010PropOp57
 70
     1
  0
XRECORD
  5
9B6E8
102
{ACAD_REACTORS
330
9B6E7
102
}
330
9B6E7
100
AcDbXrecord
280
     1
102
RTVSPropertyOp0
 70
     1
102
RTVSPropertyOp1
 70
     1
102
RTVSPropertyOp2
 70
     1
102
RTVSPropertyOp3
 70
     1
102
RTVSPropertyOp4
 70
     1
102
RTVSPropertyOp5
 70
     1
102
RTVSPropertyOp6
 70
     1
102
RTVSPropertyOp7
 70
     1
102
RTVSPropertyOp8
 70
     1
102
RTVSPropertyOp9
 70
     1
102
RTVSPropertyOp10
 70
     1
102
RTVSPropertyOp11
 70
     1
102
RTVSPropertyOp12
 70
     1
102
RTVSPropertyOp13
 70
     1
102
RTVSPropertyOp14
 70
     1
102
RTVSPropertyOp15
 70
     1
102
RTVSPropertyOp16
 70
     1
102
RTVSPropertyOp17
 70
     1
102
RTVSPropertyOp18
 70
     1
102
RTVSPropertyOp19
 70
     1
102
RTVSPropertyOp20
 70
     1
102
RTVSPropertyOp21
 70
     1
102
RTVSPropertyOp22
 70
     1
102
RTVSPropertyOp23
 70
     1
102
RTVSPropertyOp24
 70
     1
102
RTVSPropertyOp25
 70
     1
102
RTVSPropertyOp26
 70
     1
102
RTVSPropertyOp27
 70
     1
102
RTVSPropertyOp28
 70
     1
102
RTVSPropertyOp29
 70
     1
102
RTVSPropertyOp30
 70
     1
102
RTVSPropertyOp31
 70
     1
102
RTVSPropertyOp32
 70
     1
102
RTVSPropertyOp33
 70
     1
102
RTVSPropertyOp34
 70
     1
102
RTVSPropertyOp35
 70
     1
102
RTVSPropertyOp36
 70
     1
102
RTVSPropertyOp37
 70
     1
102
RTVSPropertyOp38
 70
     1
102
RTVSPropertyOp39
 70
     1
102
RTVSPropertyOp40
 70
     1
102
RTVSPropertyOp41
 70
     1
102
RTVSPropertyOp42
 70
     1
102
RTVSPropertyOp43
 70
     1
102
RTVSPropertyOp44
 70
     1
102
RTVSPropertyOp45
 70
     1
102
RTVSPropertyOp46
 70
     1
102
RTVSPropertyOp47
 70
     1
102
RTVSPropertyOp48
 70
     1
102
RTVSPropertyOp49
 70
     1
102
RTVSPropertyOp50
 70
     1
102
RTVSPropertyOp51
 70
     0
102
RTVSPropertyOp52
 70
     0
102
RTVSPropertyOp53
 70
     1
102
RTVSPropertyOp54
 70
     1
102
RTVSPropertyOp55
 70
     1
102
RTVSPropertyOp56
 70
     1
102
RTVSPropertyOp57
 70
     1
102
RTVSPost2010Prop28
280
     0
102
RTVSPost2010PropOp28
 70
     1
102
RTVSPost2010Prop29
280
     1
102
RTVSPost2010PropOp29
 70
     1
102
RTVSPost2010Prop30
280
     1
102
RTVSPost2010PropOp30
 70
     1
102
RTVSPost2010Prop31
280
     0
102
RTVSPost2010PropOp31
 70
     1
102
RTVSPost2010Prop32
280
     0
102
RTVSPost2010PropOp32
 70
     1
102
RTVSPost2010Prop33
280
     0
102
RTVSPost2010PropOp33
 70
     1
102
RTVSPost2010Prop34
280
     0
102
RTVSPost2010PropOp34
 70
     1
102
RTVSPost2010Prop35
280
     0
102
RTVSPost2010PropOp35
 70
     1
102
RTVSPost2010Prop36
280
     0
102
RTVSPost2010PropOp36
 70
     1
102
RTVSPost2010Prop37
 90
       50
102
RTVSPost2010PropOp37
 70
     1
102
RTVSPost2010Prop38
140
0.0
102
RTVSPost2010PropOp38
 70
     1
102
RTVSPost2010Prop39
140
1.0
102
RTVSPost2010PropOp39
 70
     1
102
RTVSPost2010Prop40
 90
        0
102
RTVSPost2010PropOp40
 70
     1
102
RTVSPost2010Prop41ColorIndex
 90
       18
102
RTVSPost2010Prop41ColorRGB
 90
        0
102
RTVSPost2010PropOp41
 70
     1
102
RTVSPost2010Prop42
 90
       50
102
RTVSPost2010PropOp42
 70
     1
102
RTVSPost2010Prop43
 90
        3
102
RTVSPost2010PropOp43
 70
     1
102
RTVSPost2010Prop44ColorIndex
 90
        5
102
RTVSPost2010Prop44ColorRGB
 90
      255
102
RTVSPost2010PropOp44
 70
     1
102
RTVSPost2010Prop45
280
     0
102
RTVSPost2010PropOp45
 70
     1
102
RTVSPost2010Prop46
 90
       50
102
RTVSPost2010PropOp46
 70
     1
102
RTVSPost2010Prop47
 90
       50
102
RTVSPost2010PropOp47
 70
     1
102
RTVSPost2010Prop48
 90
       50
102
RTVSPost2010PropOp48
 70
     1
102
RTVSPost2010Prop49
280
     0
102
RTVSPost2010PropOp49
 70
     1
102
RTVSPost2010Prop50
 90
       50
102
RTVSPost2010PropOp50
 70
     1
102
RTVSPost2010Prop51ColorIndex
 90
      256
102
RTVSPost2010Prop51ColorRGB
 90
-16777216
102
RTVSPost2010PropOp51
 70
     0
102
RTVSPost2010Prop52
140
1.0
102
RTVSPost2010PropOp52
 70
     0
102
RTVSPost2010Prop53
 90
        2
102
RTVSPost2010PropOp53
 70
     1
102
RTVSPost2010Prop54
  1
strokes_ogs.tif
102
RTVSPost2010PropOp54
 70
     1
102
RTVSPost2010Prop55
280
     0
102
RTVSPost2010PropOp55
 70
     1
102
RTVSPost2010Prop56
140
1.0
102
RTVSPost2010PropOp56
 70
     1
102
RTVSPost2010Prop57
140
1.0
102
RTVSPost2010PropOp57
 70
     1
  0
XRECORD
  5
9B6EA
102
{ACAD_REACTORS
330
9B6E9
102
}
330
9B6E9
100
AcDbXrecord
280
     1
102
RTVSPropertyOp0
 70
     1
102
RTVSPropertyOp1
 70
     1
102
RTVSPropertyOp2
 70
     1
102
RTVSPropertyOp3
 70
     1
102
RTVSPropertyOp4
 70
     1
102
RTVSPropertyOp5
 70
     1
102
RTVSPropertyOp6
 70
     1
102
RTVSPropertyOp7
 70
     1
102
RTVSPropertyOp8
 70
     1
102
RTVSPropertyOp9
 70
     1
102
RTVSPropertyOp10
 70
     1
102
RTVSPropertyOp11
 70
     1
102
RTVSPropertyOp12
 70
     1
102
RTVSPropertyOp13
 70
     1
102
RTVSPropertyOp14
 70
     1
102
RTVSPropertyOp15
 70
     1
102
RTVSPropertyOp16
 70
     1
102
RTVSPropertyOp17
 70
     1
102
RTVSPropertyOp18
 70
     1
102
RTVSPropertyOp19
 70
     1
102
RTVSPropertyOp20
 70
     1
102
RTVSPropertyOp21
 70
     1
102
RTVSPropertyOp22
 70
     1
102
RTVSPropertyOp23
 70
     1
102
RTVSPropertyOp24
 70
     1
102
RTVSPropertyOp25
 70
     1
102
RTVSPropertyOp26
 70
     1
102
RTVSPropertyOp27
 70
     1
102
RTVSPropertyOp28
 70
     1
102
RTVSPropertyOp29
 70
     1
102
RTVSPropertyOp30
 70
     1
102
RTVSPropertyOp31
 70
     1
102
RTVSPropertyOp32
 70
     1
102
RTVSPropertyOp33
 70
     1
102
RTVSPropertyOp34
 70
     1
102
RTVSPropertyOp35
 70
     1
102
RTVSPropertyOp36
 70
     1
102
RTVSPropertyOp37
 70
     1
102
RTVSPropertyOp38
 70
     1
102
RTVSPropertyOp39
 70
     1
102
RTVSPropertyOp40
 70
     1
102
RTVSPropertyOp41
 70
     1
102
RTVSPropertyOp42
 70
     1
102
RTVSPropertyOp43
 70
     1
102
RTVSPropertyOp44
 70
     1
102
RTVSPropertyOp45
 70
     1
102
RTVSPropertyOp46
 70
     1
102
RTVSPropertyOp47
 70
     1
102
RTVSPropertyOp48
 70
     1
102
RTVSPropertyOp49
 70
     1
102
RTVSPropertyOp50
 70
     1
102
RTVSPropertyOp51
 70
     0
102
RTVSPropertyOp52
 70
     0
102
RTVSPropertyOp53
 70
     1
102
RTVSPropertyOp54
 70
     1
102
RTVSPropertyOp55
 70
     1
102
RTVSPropertyOp56
 70
     1
102
RTVSPropertyOp57
 70
     1
102
RTVSPost2010Prop28
280
     0
102
RTVSPost2010PropOp28
 70
     1
102
RTVSPost2010Prop29
280
     1
102
RTVSPost2010PropOp29
 70
     1
102
RTVSPost2010Prop30
280
     1
102
RTVSPost2010PropOp30
 70
     1
102
RTVSPost2010Prop31
280
     0
102
RTVSPost2010PropOp31
 70
     1
102
RTVSPost2010Prop32
280
     0
102
RTVSPost2010PropOp32
 70
     1
102
RTVSPost2010Prop33
280
     0
102
RTVSPost2010PropOp33
 70
     1
102
RTVSPost2010Prop34
280
     0
102
RTVSPost2010PropOp34
 70
     1
102
RTVSPost2010Prop35
280
     0
102
RTVSPost2010PropOp35
 70
     1
102
RTVSPost2010Prop36
280
     0
102
RTVSPost2010PropOp36
 70
     1
102
RTVSPost2010Prop37
 90
       50
102
RTVSPost2010PropOp37
 70
     1
102
RTVSPost2010Prop38
140
0.0
102
RTVSPost2010PropOp38
 70
     1
102
RTVSPost2010Prop39
140
1.0
102
RTVSPost2010PropOp39
 70
     1
102
RTVSPost2010Prop40
 90
        0
102
RTVSPost2010PropOp40
 70
     1
102
RTVSPost2010Prop41ColorIndex
 90
       18
102
RTVSPost2010Prop41ColorRGB
 90
        0
102
RTVSPost2010PropOp41
 70
     1
102
RTVSPost2010Prop42
 90
       50
102
RTVSPost2010PropOp42
 70
     1
102
RTVSPost2010Prop43
 90
        3
102
RTVSPost2010PropOp43
 70
     1
102
RTVSPost2010Prop44ColorIndex
 90
        5
102
RTVSPost2010Prop44ColorRGB
 90
      255
102
RTVSPost2010PropOp44
 70
     1
102
RTVSPost2010Prop45
280
     0
102
RTVSPost2010PropOp45
 70
     1
102
RTVSPost2010Prop46
 90
       50
102
RTVSPost2010PropOp46
 70
     1
102
RTVSPost2010Prop47
 90
       50
102
RTVSPost2010PropOp47
 70
     1
102
RTVSPost2010Prop48
 90
       50
102
RTVSPost2010PropOp48
 70
     1
102
RTVSPost2010Prop49
280
     0
102
RTVSPost2010PropOp49
 70
     1
102
RTVSPost2010Prop50
 90
       50
102
RTVSPost2010PropOp50
 70
     1
102
RTVSPost2010Prop51ColorIndex
 90
      256
102
RTVSPost2010Prop51ColorRGB
 90
-16777216
102
RTVSPost2010PropOp51
 70
     0
102
RTVSPost2010Prop52
140
1.0
102
RTVSPost2010PropOp52
 70
     0
102
RTVSPost2010Prop53
 90
        2
102
RTVSPost2010PropOp53
 70
     1
102
RTVSPost2010Prop54
  1
strokes_ogs.tif
102
RTVSPost2010PropOp54
 70
     1
102
RTVSPost2010Prop55
280
     0
102
RTVSPost2010PropOp55
 70
     1
102
RTVSPost2010Prop56
140
1.0
102
RTVSPost2010PropOp56
 70
     1
102
RTVSPost2010Prop57
140
1.0
102
RTVSPost2010PropOp57
 70
     1
  0
XRECORD
  5
9B6EC
102
{ACAD_REACTORS
330
9B6EB
102
}
330
9B6EB
100
AcDbXrecord
280
     1
102
RTVSPropertyOp0
 70
     1
102
RTVSPropertyOp1
 70
     1
102
RTVSPropertyOp2
 70
     1
102
RTVSPropertyOp3
 70
     1
102
RTVSPropertyOp4
 70
     1
102
RTVSPropertyOp5
 70
     1
102
RTVSPropertyOp6
 70
     1
102
RTVSPropertyOp7
 70
     1
102
RTVSPropertyOp8
 70
     1
102
RTVSPropertyOp9
 70
     1
102
RTVSPropertyOp10
 70
     1
102
RTVSPropertyOp11
 70
     1
102
RTVSPropertyOp12
 70
     1
102
RTVSPropertyOp13
 70
     1
102
RTVSPropertyOp14
 70
     1
102
RTVSPropertyOp15
 70
     1
102
RTVSPropertyOp16
 70
     1
102
RTVSPropertyOp17
 70
     1
102
RTVSPropertyOp18
 70
     1
102
RTVSPropertyOp19
 70
     1
102
RTVSPropertyOp20
 70
     1
102
RTVSPropertyOp21
 70
     1
102
RTVSPropertyOp22
 70
     1
102
RTVSPropertyOp23
 70
     1
102
RTVSPropertyOp24
 70
     1
102
RTVSPropertyOp25
 70
     1
102
RTVSPropertyOp26
 70
     1
102
RTVSPropertyOp27
 70
     1
102
RTVSPropertyOp28
 70
     1
102
RTVSPropertyOp29
 70
     1
102
RTVSPropertyOp30
 70
     1
102
RTVSPropertyOp31
 70
     1
102
RTVSPropertyOp32
 70
     1
102
RTVSPropertyOp33
 70
     1
102
RTVSPropertyOp34
 70
     1
102
RTVSPropertyOp35
 70
     1
102
RTVSPropertyOp36
 70
     1
102
RTVSPropertyOp37
 70
     1
102
RTVSPropertyOp38
 70
     1
102
RTVSPropertyOp39
 70
     1
102
RTVSPropertyOp40
 70
     1
102
RTVSPropertyOp41
 70
     1
102
RTVSPropertyOp42
 70
     1
102
RTVSPropertyOp43
 70
     1
102
RTVSPropertyOp44
 70
     1
102
RTVSPropertyOp45
 70
     1
102
RTVSPropertyOp46
 70
     1
102
RTVSPropertyOp47
 70
     1
102
RTVSPropertyOp48
 70
     1
102
RTVSPropertyOp49
 70
     1
102
RTVSPropertyOp50
 70
     1
102
RTVSPropertyOp51
 70
     0
102
RTVSPropertyOp52
 70
     0
102
RTVSPropertyOp53
 70
     1
102
RTVSPropertyOp54
 70
     1
102
RTVSPropertyOp55
 70
     1
102
RTVSPropertyOp56
 70
     1
102
RTVSPropertyOp57
 70
     1
102
RTVSPost2010Prop28
280
     0
102
RTVSPost2010PropOp28
 70
     1
102
RTVSPost2010Prop29
280
     1
102
RTVSPost2010PropOp29
 70
     1
102
RTVSPost2010Prop30
280
     1
102
RTVSPost2010PropOp30
 70
     1
102
RTVSPost2010Prop31
280
     0
102
RTVSPost2010PropOp31
 70
     1
102
RTVSPost2010Prop32
280
     0
102
RTVSPost2010PropOp32
 70
     1
102
RTVSPost2010Prop33
280
     0
102
RTVSPost2010PropOp33
 70
     1
102
RTVSPost2010Prop34
280
     0
102
RTVSPost2010PropOp34
 70
     1
102
RTVSPost2010Prop35
280
     0
102
RTVSPost2010PropOp35
 70
     1
102
RTVSPost2010Prop36
280
     0
102
RTVSPost2010PropOp36
 70
     1
102
RTVSPost2010Prop37
 90
       50
102
RTVSPost2010PropOp37
 70
     1
102
RTVSPost2010Prop38
140
0.0
102
RTVSPost2010PropOp38
 70
     1
102
RTVSPost2010Prop39
140
1.0
102
RTVSPost2010PropOp39
 70
     1
102
RTVSPost2010Prop40
 90
        0
102
RTVSPost2010PropOp40
 70
     1
102
RTVSPost2010Prop41ColorIndex
 90
       18
102
RTVSPost2010Prop41ColorRGB
 90
        0
102
RTVSPost2010PropOp41
 70
     1
102
RTVSPost2010Prop42
 90
       50
102
RTVSPost2010PropOp42
 70
     1
102
RTVSPost2010Prop43
 90
        3
102
RTVSPost2010PropOp43
 70
     1
102
RTVSPost2010Prop44ColorIndex
 90
        5
102
RTVSPost2010Prop44ColorRGB
 90
      255
102
RTVSPost2010PropOp44
 70
     1
102
RTVSPost2010Prop45
280
     0
102
RTVSPost2010PropOp45
 70
     1
102
RTVSPost2010Prop46
 90
       50
102
RTVSPost2010PropOp46
 70
     1
102
RTVSPost2010Prop47
 90
       50
102
RTVSPost2010PropOp47
 70
     1
102
RTVSPost2010Prop48
 90
       50
102
RTVSPost2010PropOp48
 70
     1
102
RTVSPost2010Prop49
280
     0
102
RTVSPost2010PropOp49
 70
     1
102
RTVSPost2010Prop50
 90
       50
102
RTVSPost2010PropOp50
 70
     1
102
RTVSPost2010Prop51ColorIndex
 90
      256
102
RTVSPost2010Prop51ColorRGB
 90
-16777216
102
RTVSPost2010PropOp51
 70
     0
102
RTVSPost2010Prop52
140
1.0
102
RTVSPost2010PropOp52
 70
     0
102
RTVSPost2010Prop53
 90
        2
102
RTVSPost2010PropOp53
 70
     1
102
RTVSPost2010Prop54
  1
strokes_ogs.tif
102
RTVSPost2010PropOp54
 70
     1
102
RTVSPost2010Prop55
280
     0
102
RTVSPost2010PropOp55
 70
     1
102
RTVSPost2010Prop56
140
1.0
102
RTVSPost2010PropOp56
 70
     1
102
RTVSPost2010Prop57
140
1.0
102
RTVSPost2010PropOp57
 70
     1
  0
XRECORD
  5
9B6EE
102
{ACAD_REACTORS
330
9B6ED
102
}
330
9B6ED
100
AcDbXrecord
280
     1
102
RTVSPropertyOp0
 70
     1
102
RTVSPropertyOp1
 70
     1
102
RTVSPropertyOp2
 70
     1
102
RTVSPropertyOp3
 70
     1
102
RTVSPropertyOp4
 70
     1
102
RTVSPropertyOp5
 70
     1
102
RTVSPropertyOp6
 70
     1
102
RTVSPropertyOp7
 70
     1
102
RTVSPropertyOp8
 70
     1
102
RTVSPropertyOp9
 70
     1
102
RTVSPropertyOp10
 70
     1
102
RTVSPropertyOp11
 70
     1
102
RTVSPropertyOp12
 70
     1
102
RTVSPropertyOp13
 70
     1
102
RTVSPropertyOp14
 70
     1
102
RTVSPropertyOp15
 70
     1
102
RTVSPropertyOp16
 70
     1
102
RTVSPropertyOp17
 70
     1
102
RTVSPropertyOp18
 70
     1
102
RTVSPropertyOp19
 70
     1
102
RTVSPropertyOp20
 70
     1
102
RTVSPropertyOp21
 70
     1
102
RTVSPropertyOp22
 70
     1
102
RTVSPropertyOp23
 70
     1
102
RTVSPropertyOp24
 70
     1
102
RTVSPropertyOp25
 70
     1
102
RTVSPropertyOp26
 70
     1
102
RTVSPropertyOp27
 70
     1
102
RTVSPropertyOp28
 70
     1
102
RTVSPropertyOp29
 70
     1
102
RTVSPropertyOp30
 70
     1
102
RTVSPropertyOp31
 70
     1
102
RTVSPropertyOp32
 70
     1
102
RTVSPropertyOp33
 70
     1
102
RTVSPropertyOp34
 70
     1
102
RTVSPropertyOp35
 70
     1
102
RTVSPropertyOp36
 70
     1
102
RTVSPropertyOp37
 70
     1
102
RTVSPropertyOp38
 70
     1
102
RTVSPropertyOp39
 70
     1
102
RTVSPropertyOp40
 70
     1
102
RTVSPropertyOp41
 70
     1
102
RTVSPropertyOp42
 70
     1
102
RTVSPropertyOp43
 70
     1
102
RTVSPropertyOp44
 70
     1
102
RTVSPropertyOp45
 70
     1
102
RTVSPropertyOp46
 70
     1
102
RTVSPropertyOp47
 70
     1
102
RTVSPropertyOp48
 70
     1
102
RTVSPropertyOp49
 70
     1
102
RTVSPropertyOp50
 70
     1
102
RTVSPropertyOp51
 70
     0
102
RTVSPropertyOp52
 70
     0
102
RTVSPropertyOp53
 70
     1
102
RTVSPropertyOp54
 70
     1
102
RTVSPropertyOp55
 70
     1
102
RTVSPropertyOp56
 70
     1
102
RTVSPropertyOp57
 70
     1
102
RTVSPost2010Prop28
280
     0
102
RTVSPost2010PropOp28
 70
     1
102
RTVSPost2010Prop29
280
     1
102
RTVSPost2010PropOp29
 70
     1
102
RTVSPost2010Prop30
280
     1
102
RTVSPost2010PropOp30
 70
     1
102
RTVSPost2010Prop31
280
     0
102
RTVSPost2010PropOp31
 70
     1
102
RTVSPost2010Prop32
280
     0
102
RTVSPost2010PropOp32
 70
     1
102
RTVSPost2010Prop33
280
     0
102
RTVSPost2010PropOp33
 70
     1
102
RTVSPost2010Prop34
280
     0
102
RTVSPost2010PropOp34
 70
     1
102
RTVSPost2010Prop35
280
     0
102
RTVSPost2010PropOp35
 70
     1
102
RTVSPost2010Prop36
280
     0
102
RTVSPost2010PropOp36
 70
     1
102
RTVSPost2010Prop37
 90
       50
102
RTVSPost2010PropOp37
 70
     1
102
RTVSPost2010Prop38
140
0.0
102
RTVSPost2010PropOp38
 70
     1
102
RTVSPost2010Prop39
140
1.0
102
RTVSPost2010PropOp39
 70
     1
102
RTVSPost2010Prop40
 90
        0
102
RTVSPost2010PropOp40
 70
     1
102
RTVSPost2010Prop41ColorIndex
 90
       18
102
RTVSPost2010Prop41ColorRGB
 90
        0
102
RTVSPost2010PropOp41
 70
     1
102
RTVSPost2010Prop42
 90
       50
102
RTVSPost2010PropOp42
 70
     1
102
RTVSPost2010Prop43
 90
        3
102
RTVSPost2010PropOp43
 70
     1
102
RTVSPost2010Prop44ColorIndex
 90
        5
102
RTVSPost2010Prop44ColorRGB
 90
      255
102
RTVSPost2010PropOp44
 70
     1
102
RTVSPost2010Prop45
280
     0
102
RTVSPost2010PropOp45
 70
     1
102
RTVSPost2010Prop46
 90
       50
102
RTVSPost2010PropOp46
 70
     1
102
RTVSPost2010Prop47
 90
       50
102
RTVSPost2010PropOp47
 70
     1
102
RTVSPost2010Prop48
 90
       50
102
RTVSPost2010PropOp48
 70
     1
102
RTVSPost2010Prop49
280
     0
102
RTVSPost2010PropOp49
 70
     1
102
RTVSPost2010Prop50
 90
       50
102
RTVSPost2010PropOp50
 70
     1
102
RTVSPost2010Prop51ColorIndex
 90
      256
102
RTVSPost2010Prop51ColorRGB
 90
-16777216
102
RTVSPost2010PropOp51
 70
     0
102
RTVSPost2010Prop52
140
1.0
102
RTVSPost2010PropOp52
 70
     0
102
RTVSPost2010Prop53
 90
        2
102
RTVSPost2010PropOp53
 70
     1
102
RTVSPost2010Prop54
  1
strokes_ogs.tif
102
RTVSPost2010PropOp54
 70
     1
102
RTVSPost2010Prop55
280
     0
102
RTVSPost2010PropOp55
 70
     1
102
RTVSPost2010Prop56
140
1.0
102
RTVSPost2010PropOp56
 70
     1
102
RTVSPost2010Prop57
140
1.0
102
RTVSPost2010PropOp57
 70
     1
  0
XRECORD
  5
9B6F0
102
{ACAD_REACTORS
330
9B6EF
102
}
330
9B6EF
100
AcDbXrecord
280
     1
102
RTVSPropertyOp0
 70
     1
102
RTVSPropertyOp1
 70
     1
102
RTVSPropertyOp2
 70
     1
102
RTVSPropertyOp3
 70
     1
102
RTVSPropertyOp4
 70
     1
102
RTVSPropertyOp5
 70
     1
102
RTVSPropertyOp6
 70
     1
102
RTVSPropertyOp7
 70
     1
102
RTVSPropertyOp8
 70
     1
102
RTVSPropertyOp9
 70
     1
102
RTVSPropertyOp10
 70
     1
102
RTVSPropertyOp11
 70
     1
102
RTVSPropertyOp12
 70
     1
102
RTVSPropertyOp13
 70
     1
102
RTVSPropertyOp14
 70
     1
102
RTVSPropertyOp15
 70
     1
102
RTVSPropertyOp16
 70
     1
102
RTVSPropertyOp17
 70
     1
102
RTVSPropertyOp18
 70
     1
102
RTVSPropertyOp19
 70
     1
102
RTVSPropertyOp20
 70
     1
102
RTVSPropertyOp21
 70
     1
102
RTVSPropertyOp22
 70
     1
102
RTVSPropertyOp23
 70
     1
102
RTVSPropertyOp24
 70
     1
102
RTVSPropertyOp25
 70
     1
102
RTVSPropertyOp26
 70
     1
102
RTVSPropertyOp27
 70
     1
102
RTVSPropertyOp28
 70
     1
102
RTVSPropertyOp29
 70
     1
102
RTVSPropertyOp30
 70
     1
102
RTVSPropertyOp31
 70
     1
102
RTVSPropertyOp32
 70
     1
102
RTVSPropertyOp33
 70
     1
102
RTVSPropertyOp34
 70
     1
102
RTVSPropertyOp35
 70
     1
102
RTVSPropertyOp36
 70
     1
102
RTVSPropertyOp37
 70
     1
102
RTVSPropertyOp38
 70
     1
102
RTVSPropertyOp39
 70
     1
102
RTVSPropertyOp40
 70
     1
102
RTVSPropertyOp41
 70
     1
102
RTVSPropertyOp42
 70
     1
102
RTVSPropertyOp43
 70
     1
102
RTVSPropertyOp44
 70
     1
102
RTVSPropertyOp45
 70
     1
102
RTVSPropertyOp46
 70
     1
102
RTVSPropertyOp47
 70
     1
102
RTVSPropertyOp48
 70
     1
102
RTVSPropertyOp49
 70
     1
102
RTVSPropertyOp50
 70
     1
102
RTVSPropertyOp51
 70
     0
102
RTVSPropertyOp52
 70
     0
102
RTVSPropertyOp53
 70
     1
102
RTVSPropertyOp54
 70
     1
102
RTVSPropertyOp55
 70
     1
102
RTVSPropertyOp56
 70
     1
102
RTVSPropertyOp57
 70
     1
102
RTVSPost2010Prop28
280
     0
102
RTVSPost2010PropOp28
 70
     1
102
RTVSPost2010Prop29
280
     1
102
RTVSPost2010PropOp29
 70
     1
102
RTVSPost2010Prop30
280
     1
102
RTVSPost2010PropOp30
 70
     1
102
RTVSPost2010Prop31
280
     0
102
RTVSPost2010PropOp31
 70
     1
102
RTVSPost2010Prop32
280
     0
102
RTVSPost2010PropOp32
 70
     1
102
RTVSPost2010Prop33
280
     0
102
RTVSPost2010PropOp33
 70
     1
102
RTVSPost2010Prop34
280
     0
102
RTVSPost2010PropOp34
 70
     1
102
RTVSPost2010Prop35
280
     0
102
RTVSPost2010PropOp35
 70
     1
102
RTVSPost2010Prop36
280
     0
102
RTVSPost2010PropOp36
 70
     1
102
RTVSPost2010Prop37
 90
       50
102
RTVSPost2010PropOp37
 70
     1
102
RTVSPost2010Prop38
140
0.0
102
RTVSPost2010PropOp38
 70
     1
102
RTVSPost2010Prop39
140
1.0
102
RTVSPost2010PropOp39
 70
     1
102
RTVSPost2010Prop40
 90
        0
102
RTVSPost2010PropOp40
 70
     1
102
RTVSPost2010Prop41ColorIndex
 90
       18
102
RTVSPost2010Prop41ColorRGB
 90
        0
102
RTVSPost2010PropOp41
 70
     1
102
RTVSPost2010Prop42
 90
       50
102
RTVSPost2010PropOp42
 70
     1
102
RTVSPost2010Prop43
 90
        3
102
RTVSPost2010PropOp43
 70
     1
102
RTVSPost2010Prop44ColorIndex
 90
        5
102
RTVSPost2010Prop44ColorRGB
 90
      255
102
RTVSPost2010PropOp44
 70
     1
102
RTVSPost2010Prop45
280
     0
102
RTVSPost2010PropOp45
 70
     1
102
RTVSPost2010Prop46
 90
       50
102
RTVSPost2010PropOp46
 70
     1
102
RTVSPost2010Prop47
 90
       50
102
RTVSPost2010PropOp47
 70
     1
102
RTVSPost2010Prop48
 90
       50
102
RTVSPost2010PropOp48
 70
     1
102
RTVSPost2010Prop49
280
     0
102
RTVSPost2010PropOp49
 70
     1
102
RTVSPost2010Prop50
 90
       50
102
RTVSPost2010PropOp50
 70
     1
102
RTVSPost2010Prop51ColorIndex
 90
      256
102
RTVSPost2010Prop51ColorRGB
 90
-16777216
102
RTVSPost2010PropOp51
 70
     0
102
RTVSPost2010Prop52
140
1.0
102
RTVSPost2010PropOp52
 70
     0
102
RTVSPost2010Prop53
 90
        2
102
RTVSPost2010PropOp53
 70
     1
102
RTVSPost2010Prop54
  1
strokes_ogs.tif
102
RTVSPost2010PropOp54
 70
     1
102
RTVSPost2010Prop55
280
     0
102
RTVSPost2010PropOp55
 70
     1
102
RTVSPost2010Prop56
140
1.0
102
RTVSPost2010PropOp56
 70
     1
102
RTVSPost2010Prop57
140
1.0
102
RTVSPost2010PropOp57
 70
     1
  0
XRECORD
  5
9B6F2
102
{ACAD_REACTORS
330
9B6F1
102
}
330
9B6F1
100
AcDbXrecord
280
     1
102
RTVSPropertyOp0
 70
     0
102
RTVSPropertyOp1
 70
     0
102
RTVSPropertyOp2
 70
     0
102
RTVSPropertyOp3
 70
     0
102
RTVSPropertyOp4
 70
     0
102
RTVSPropertyOp5
 70
     0
102
RTVSPropertyOp6
 70
     0
102
RTVSPropertyOp7
 70
     0
102
RTVSPropertyOp8
 70
     0
102
RTVSPropertyOp9
 70
     0
102
RTVSPropertyOp10
 70
     0
102
RTVSPropertyOp11
 70
     0
102
RTVSPropertyOp12
 70
     0
102
RTVSPropertyOp13
 70
     0
102
RTVSPropertyOp14
 70
     2
102
RTVSPropertyOp15
 70
     0
102
RTVSPropertyOp16
 70
     0
102
RTVSPropertyOp17
 70
     0
102
RTVSPropertyOp18
 70
     0
102
RTVSPropertyOp19
 70
     0
102
RTVSPropertyOp20
 70
     0
102
RTVSPropertyOp21
 70
     0
102
RTVSPropertyOp22
 70
     0
102
RTVSPropertyOp23
 70
     0
102
RTVSPropertyOp24
 70
     0
102
RTVSPropertyOp25
 70
     0
102
RTVSPropertyOp26
 70
     0
102
RTVSPropertyOp27
 70
     0
102
RTVSPropertyOp28
 70
     0
102
RTVSPropertyOp29
 70
     0
102
RTVSPropertyOp30
 70
     0
102
RTVSPropertyOp31
 70
     0
102
RTVSPropertyOp32
 70
     0
102
RTVSPropertyOp33
 70
     1
102
RTVSPropertyOp34
 70
     1
102
RTVSPropertyOp35
 70
     1
102
RTVSPropertyOp36
 70
     1
102
RTVSPropertyOp37
 70
     1
102
RTVSPropertyOp38
 70
     1
102
RTVSPropertyOp39
 70
     1
102
RTVSPropertyOp40
 70
     1
102
RTVSPropertyOp41
 70
     1
102
RTVSPropertyOp42
 70
     1
102
RTVSPropertyOp43
 70
     1
102
RTVSPropertyOp44
 70
     1
102
RTVSPropertyOp45
 70
     1
102
RTVSPropertyOp46
 70
     1
102
RTVSPropertyOp47
 70
     1
102
RTVSPropertyOp48
 70
     1
102
RTVSPropertyOp49
 70
     1
102
RTVSPropertyOp50
 70
     1
102
RTVSPropertyOp51
 70
     0
102
RTVSPropertyOp52
 70
     0
102
RTVSPropertyOp53
 70
     1
102
RTVSPropertyOp54
 70
     1
102
RTVSPropertyOp55
 70
     1
102
RTVSPropertyOp56
 70
     1
102
RTVSPropertyOp57
 70
     1
102
RTVSPost2010Prop28
280
     0
102
RTVSPost2010PropOp28
 70
     0
102
RTVSPost2010Prop29
280
     1
102
RTVSPost2010PropOp29
 70
     0
102
RTVSPost2010Prop30
280
     1
102
RTVSPost2010PropOp30
 70
     0
102
RTVSPost2010Prop31
280
     0
102
RTVSPost2010PropOp31
 70
     0
102
RTVSPost2010Prop32
280
     0
102
RTVSPost2010PropOp32
 70
     0
102
RTVSPost2010Prop33
280
     0
102
RTVSPost2010PropOp33
 70
     1
102
RTVSPost2010Prop34
280
     0
102
RTVSPost2010PropOp34
 70
     1
102
RTVSPost2010Prop35
280
     0
102
RTVSPost2010PropOp35
 70
     1
102
RTVSPost2010Prop36
280
     0
102
RTVSPost2010PropOp36
 70
     1
102
RTVSPost2010Prop37
 90
       50
102
RTVSPost2010PropOp37
 70
     1
102
RTVSPost2010Prop38
140
0.0
102
RTVSPost2010PropOp38
 70
     1
102
RTVSPost2010Prop39
140
1.0
102
RTVSPost2010PropOp39
 70
     1
102
RTVSPost2010Prop40
 90
        0
102
RTVSPost2010PropOp40
 70
     1
102
RTVSPost2010Prop41ColorIndex
 90
       18
102
RTVSPost2010Prop41ColorRGB
 90
        0
102
RTVSPost2010PropOp41
 70
     1
102
RTVSPost2010Prop42
 90
       50
102
RTVSPost2010PropOp42
 70
     1
102
RTVSPost2010Prop43
 90
        3
102
RTVSPost2010PropOp43
 70
     1
102
RTVSPost2010Prop44ColorIndex
 90
        5
102
RTVSPost2010Prop44ColorRGB
 90
      255
102
RTVSPost2010PropOp44
 70
     1
102
RTVSPost2010Prop45
280
     0
102
RTVSPost2010PropOp45
 70
     1
102
RTVSPost2010Prop46
 90
       50
102
RTVSPost2010PropOp46
 70
     1
102
RTVSPost2010Prop47
 90
       50
102
RTVSPost2010PropOp47
 70
     1
102
RTVSPost2010Prop48
 90
       50
102
RTVSPost2010PropOp48
 70
     1
102
RTVSPost2010Prop49
280
     0
102
RTVSPost2010PropOp49
 70
     1
102
RTVSPost2010Prop50
 90
       50
102
RTVSPost2010PropOp50
 70
     1
102
RTVSPost2010Prop51ColorIndex
 90
      256
102
RTVSPost2010Prop51ColorRGB
 90
-16777216
102
RTVSPost2010PropOp51
 70
     0
102
RTVSPost2010Prop52
140
1.0
102
RTVSPost2010PropOp52
 70
     0
102
RTVSPost2010Prop53
 90
        2
102
RTVSPost2010PropOp53
 70
     1
102
RTVSPost2010Prop54
  1
strokes_ogs.tif
102
RTVSPost2010PropOp54
 70
     1
102
RTVSPost2010Prop55
280
     0
102
RTVSPost2010PropOp55
 70
     1
102
RTVSPost2010Prop56
140
1.0
102
RTVSPost2010PropOp56
 70
     1
102
RTVSPost2010Prop57
140
1.0
102
RTVSPost2010PropOp57
 70
     1
  0
XRECORD
  5
9B6F4
102
{ACAD_REACTORS
330
9B6F3
102
}
330
9B6F3
100
AcDbXrecord
280
     1
102
RTVSPropertyOp0
 70
     1
102
RTVSPropertyOp1
 70
     1
102
RTVSPropertyOp2
 70
     1
102
RTVSPropertyOp3
 70
     1
102
RTVSPropertyOp4
 70
     1
102
RTVSPropertyOp5
 70
     1
102
RTVSPropertyOp6
 70
     1
102
RTVSPropertyOp7
 70
     1
102
RTVSPropertyOp8
 70
     1
102
RTVSPropertyOp9
 70
     1
102
RTVSPropertyOp10
 70
     1
102
RTVSPropertyOp11
 70
     1
102
RTVSPropertyOp12
 70
     1
102
RTVSPropertyOp13
 70
     1
102
RTVSPropertyOp14
 70
     1
102
RTVSPropertyOp15
 70
     1
102
RTVSPropertyOp16
 70
     1
102
RTVSPropertyOp17
 70
     1
102
RTVSPropertyOp18
 70
     1
102
RTVSPropertyOp19
 70
     1
102
RTVSPropertyOp20
 70
     1
102
RTVSPropertyOp21
 70
     1
102
RTVSPropertyOp22
 70
     1
102
RTVSPropertyOp23
 70
     1
102
RTVSPropertyOp24
 70
     1
102
RTVSPropertyOp25
 70
     1
102
RTVSPropertyOp26
 70
     1
102
RTVSPropertyOp27
 70
     1
102
RTVSPropertyOp28
 70
     1
102
RTVSPropertyOp29
 70
     1
102
RTVSPropertyOp30
 70
     1
102
RTVSPropertyOp31
 70
     1
102
RTVSPropertyOp32
 70
     1
102
RTVSPropertyOp33
 70
     1
102
RTVSPropertyOp34
 70
     1
102
RTVSPropertyOp35
 70
     1
102
RTVSPropertyOp36
 70
     1
102
RTVSPropertyOp37
 70
     1
102
RTVSPropertyOp38
 70
     1
102
RTVSPropertyOp39
 70
     1
102
RTVSPropertyOp40
 70
     1
102
RTVSPropertyOp41
 70
     1
102
RTVSPropertyOp42
 70
     1
102
RTVSPropertyOp43
 70
     1
102
RTVSPropertyOp44
 70
     1
102
RTVSPropertyOp45
 70
     1
102
RTVSPropertyOp46
 70
     1
102
RTVSPropertyOp47
 70
     1
102
RTVSPropertyOp48
 70
     1
102
RTVSPropertyOp49
 70
     1
102
RTVSPropertyOp50
 70
     1
102
RTVSPropertyOp51
 70
     0
102
RTVSPropertyOp52
 70
     0
102
RTVSPropertyOp53
 70
     1
102
RTVSPropertyOp54
 70
     1
102
RTVSPropertyOp55
 70
     1
102
RTVSPropertyOp56
 70
     1
102
RTVSPropertyOp57
 70
     1
102
RTVSPost2010Prop28
280
     0
102
RTVSPost2010PropOp28
 70
     1
102
RTVSPost2010Prop29
280
     1
102
RTVSPost2010PropOp29
 70
     1
102
RTVSPost2010Prop30
280
     1
102
RTVSPost2010PropOp30
 70
     1
102
RTVSPost2010Prop31
280
     0
102
RTVSPost2010PropOp31
 70
     1
102
RTVSPost2010Prop32
280
     0
102
RTVSPost2010PropOp32
 70
     1
102
RTVSPost2010Prop33
280
     0
102
RTVSPost2010PropOp33
 70
     1
102
RTVSPost2010Prop34
280
     0
102
RTVSPost2010PropOp34
 70
     1
102
RTVSPost2010Prop35
280
     0
102
RTVSPost2010PropOp35
 70
     1
102
RTVSPost2010Prop36
280
     0
102
RTVSPost2010PropOp36
 70
     1
102
RTVSPost2010Prop37
 90
       50
102
RTVSPost2010PropOp37
 70
     1
102
RTVSPost2010Prop38
140
0.0
102
RTVSPost2010PropOp38
 70
     1
102
RTVSPost2010Prop39
140
1.0
102
RTVSPost2010PropOp39
 70
     1
102
RTVSPost2010Prop40
 90
        0
102
RTVSPost2010PropOp40
 70
     1
102
RTVSPost2010Prop41ColorIndex
 90
       18
102
RTVSPost2010Prop41ColorRGB
 90
        0
102
RTVSPost2010PropOp41
 70
     1
102
RTVSPost2010Prop42
 90
       50
102
RTVSPost2010PropOp42
 70
     1
102
RTVSPost2010Prop43
 90
        3
102
RTVSPost2010PropOp43
 70
     1
102
RTVSPost2010Prop44ColorIndex
 90
        5
102
RTVSPost2010Prop44ColorRGB
 90
      255
102
RTVSPost2010PropOp44
 70
     1
102
RTVSPost2010Prop45
280
     0
102
RTVSPost2010PropOp45
 70
     1
102
RTVSPost2010Prop46
 90
       50
102
RTVSPost2010PropOp46
 70
     1
102
RTVSPost2010Prop47
 90
       50
102
RTVSPost2010PropOp47
 70
     1
102
RTVSPost2010Prop48
 90
       50
102
RTVSPost2010PropOp48
 70
     1
102
RTVSPost2010Prop49
280
     0
102
RTVSPost2010PropOp49
 70
     1
102
RTVSPost2010Prop50
 90
       50
102
RTVSPost2010PropOp50
 70
     1
102
RTVSPost2010Prop51ColorIndex
 90
      256
102
RTVSPost2010Prop51ColorRGB
 90
-16777216
102
RTVSPost2010PropOp51
 70
     0
102
RTVSPost2010Prop52
140
1.0
102
RTVSPost2010PropOp52
 70
     0
102
RTVSPost2010Prop53
 90
        2
102
RTVSPost2010PropOp53
 70
     1
102
RTVSPost2010Prop54
  1
strokes_ogs.tif
102
RTVSPost2010PropOp54
 70
     1
102
RTVSPost2010Prop55
280
     0
102
RTVSPost2010PropOp55
 70
     1
102
RTVSPost2010Prop56
140
1.0
102
RTVSPost2010PropOp56
 70
     1
102
RTVSPost2010Prop57
140
1.0
102
RTVSPost2010PropOp57
 70
     1
  0
XRECORD
  5
9B6F6
102
{ACAD_REACTORS
330
9B6F5
102
}
330
9B6F5
100
AcDbXrecord
280
     1
102
RTVSPropertyOp0
 70
     1
102
RTVSPropertyOp1
 70
     1
102
RTVSPropertyOp2
 70
     1
102
RTVSPropertyOp3
 70
     1
102
RTVSPropertyOp4
 70
     1
102
RTVSPropertyOp5
 70
     1
102
RTVSPropertyOp6
 70
     1
102
RTVSPropertyOp7
 70
     1
102
RTVSPropertyOp8
 70
     1
102
RTVSPropertyOp9
 70
     1
102
RTVSPropertyOp10
 70
     1
102
RTVSPropertyOp11
 70
     1
102
RTVSPropertyOp12
 70
     1
102
RTVSPropertyOp13
 70
     1
102
RTVSPropertyOp14
 70
     1
102
RTVSPropertyOp15
 70
     1
102
RTVSPropertyOp16
 70
     1
102
RTVSPropertyOp17
 70
     1
102
RTVSPropertyOp18
 70
     1
102
RTVSPropertyOp19
 70
     1
102
RTVSPropertyOp20
 70
     1
102
RTVSPropertyOp21
 70
     1
102
RTVSPropertyOp22
 70
     1
102
RTVSPropertyOp23
 70
     1
102
RTVSPropertyOp24
 70
     1
102
RTVSPropertyOp25
 70
     1
102
RTVSPropertyOp26
 70
     1
102
RTVSPropertyOp27
 70
     1
102
RTVSPropertyOp28
 70
     1
102
RTVSPropertyOp29
 70
     1
102
RTVSPropertyOp30
 70
     1
102
RTVSPropertyOp31
 70
     1
102
RTVSPropertyOp32
 70
     1
102
RTVSPropertyOp33
 70
     1
102
RTVSPropertyOp34
 70
     1
102
RTVSPropertyOp35
 70
     1
102
RTVSPropertyOp36
 70
     1
102
RTVSPropertyOp37
 70
     1
102
RTVSPropertyOp38
 70
     1
102
RTVSPropertyOp39
 70
     1
102
RTVSPropertyOp40
 70
     1
102
RTVSPropertyOp41
 70
     1
102
RTVSPropertyOp42
 70
     1
102
RTVSPropertyOp43
 70
     1
102
RTVSPropertyOp44
 70
     1
102
RTVSPropertyOp45
 70
     1
102
RTVSPropertyOp46
 70
     1
102
RTVSPropertyOp47
 70
     1
102
RTVSPropertyOp48
 70
     1
102
RTVSPropertyOp49
 70
     1
102
RTVSPropertyOp50
 70
     1
102
RTVSPropertyOp51
 70
     0
102
RTVSPropertyOp52
 70
     0
102
RTVSPropertyOp53
 70
     1
102
RTVSPropertyOp54
 70
     1
102
RTVSPropertyOp55
 70
     1
102
RTVSPropertyOp56
 70
     1
102
RTVSPropertyOp57
 70
     1
102
RTVSPost2010Prop28
280
     0
102
RTVSPost2010PropOp28
 70
     1
102
RTVSPost2010Prop29
280
     1
102
RTVSPost2010PropOp29
 70
     1
102
RTVSPost2010Prop30
280
     1
102
RTVSPost2010PropOp30
 70
     1
102
RTVSPost2010Prop31
280
     0
102
RTVSPost2010PropOp31
 70
     1
102
RTVSPost2010Prop32
280
     0
102
RTVSPost2010PropOp32
 70
     1
102
RTVSPost2010Prop33
280
     0
102
RTVSPost2010PropOp33
 70
     1
102
RTVSPost2010Prop34
280
     0
102
RTVSPost2010PropOp34
 70
     1
102
RTVSPost2010Prop35
280
     0
102
RTVSPost2010PropOp35
 70
     1
102
RTVSPost2010Prop36
280
     0
102
RTVSPost2010PropOp36
 70
     1
102
RTVSPost2010Prop37
 90
       50
102
RTVSPost2010PropOp37
 70
     1
102
RTVSPost2010Prop38
140
0.0
102
RTVSPost2010PropOp38
 70
     1
102
RTVSPost2010Prop39
140
1.0
102
RTVSPost2010PropOp39
 70
     1
102
RTVSPost2010Prop40
 90
        0
102
RTVSPost2010PropOp40
 70
     1
102
RTVSPost2010Prop41ColorIndex
 90
       18
102
RTVSPost2010Prop41ColorRGB
 90
        0
102
RTVSPost2010PropOp41
 70
     1
102
RTVSPost2010Prop42
 90
       50
102
RTVSPost2010PropOp42
 70
     1
102
RTVSPost2010Prop43
 90
        3
102
RTVSPost2010PropOp43
 70
     1
102
RTVSPost2010Prop44ColorIndex
 90
        5
102
RTVSPost2010Prop44ColorRGB
 90
      255
102
RTVSPost2010PropOp44
 70
     1
102
RTVSPost2010Prop45
280
     0
102
RTVSPost2010PropOp45
 70
     1
102
RTVSPost2010Prop46
 90
       50
102
RTVSPost2010PropOp46
 70
     1
102
RTVSPost2010Prop47
 90
       50
102
RTVSPost2010PropOp47
 70
     1
102
RTVSPost2010Prop48
 90
       50
102
RTVSPost2010PropOp48
 70
     1
102
RTVSPost2010Prop49
280
     0
102
RTVSPost2010PropOp49
 70
     1
102
RTVSPost2010Prop50
 90
       50
102
RTVSPost2010PropOp50
 70
     1
102
RTVSPost2010Prop51ColorIndex
 90
      256
102
RTVSPost2010Prop51ColorRGB
 90
-16777216
102
RTVSPost2010PropOp51
 70
     0
102
RTVSPost2010Prop52
140
1.0
102
RTVSPost2010PropOp52
 70
     0
102
RTVSPost2010Prop53
 90
        2
102
RTVSPost2010PropOp53
 70
     1
102
RTVSPost2010Prop54
  1
strokes_ogs.tif
102
RTVSPost2010PropOp54
 70
     1
102
RTVSPost2010Prop55
280
     0
102
RTVSPost2010PropOp55
 70
     1
102
RTVSPost2010Prop56
140
1.0
102
RTVSPost2010PropOp56
 70
     1
102
RTVSPost2010Prop57
140
1.0
102
RTVSPost2010PropOp57
 70
     1
  0
XRECORD
  5
9B6F8
102
{ACAD_REACTORS
330
9B6F7
102
}
330
9B6F7
100
AcDbXrecord
280
     1
102
RTVSPropertyOp0
 70
     1
102
RTVSPropertyOp1
 70
     1
102
RTVSPropertyOp2
 70
     1
102
RTVSPropertyOp3
 70
     1
102
RTVSPropertyOp4
 70
     1
102
RTVSPropertyOp5
 70
     1
102
RTVSPropertyOp6
 70
     1
102
RTVSPropertyOp7
 70
     1
102
RTVSPropertyOp8
 70
     1
102
RTVSPropertyOp9
 70
     1
102
RTVSPropertyOp10
 70
     1
102
RTVSPropertyOp11
 70
     1
102
RTVSPropertyOp12
 70
     1
102
RTVSPropertyOp13
 70
     1
102
RTVSPropertyOp14
 70
     1
102
RTVSPropertyOp15
 70
     1
102
RTVSPropertyOp16
 70
     1
102
RTVSPropertyOp17
 70
     1
102
RTVSPropertyOp18
 70
     1
102
RTVSPropertyOp19
 70
     1
102
RTVSPropertyOp20
 70
     1
102
RTVSPropertyOp21
 70
     1
102
RTVSPropertyOp22
 70
     1
102
RTVSPropertyOp23
 70
     1
102
RTVSPropertyOp24
 70
     1
102
RTVSPropertyOp25
 70
     1
102
RTVSPropertyOp26
 70
     1
102
RTVSPropertyOp27
 70
     1
102
RTVSPropertyOp28
 70
     1
102
RTVSPropertyOp29
 70
     1
102
RTVSPropertyOp30
 70
     1
102
RTVSPropertyOp31
 70
     1
102
RTVSPropertyOp32
 70
     1
102
RTVSPropertyOp33
 70
     1
102
RTVSPropertyOp34
 70
     1
102
RTVSPropertyOp35
 70
     1
102
RTVSPropertyOp36
 70
     1
102
RTVSPropertyOp37
 70
     1
102
RTVSPropertyOp38
 70
     1
102
RTVSPropertyOp39
 70
     1
102
RTVSPropertyOp40
 70
     1
102
RTVSPropertyOp41
 70
     1
102
RTVSPropertyOp42
 70
     1
102
RTVSPropertyOp43
 70
     1
102
RTVSPropertyOp44
 70
     1
102
RTVSPropertyOp45
 70
     1
102
RTVSPropertyOp46
 70
     1
102
RTVSPropertyOp47
 70
     1
102
RTVSPropertyOp48
 70
     1
102
RTVSPropertyOp49
 70
     1
102
RTVSPropertyOp50
 70
     1
102
RTVSPropertyOp51
 70
     0
102
RTVSPropertyOp52
 70
     0
102
RTVSPropertyOp53
 70
     1
102
RTVSPropertyOp54
 70
     1
102
RTVSPropertyOp55
 70
     1
102
RTVSPropertyOp56
 70
     1
102
RTVSPropertyOp57
 70
     1
102
RTVSPost2010Prop28
280
     0
102
RTVSPost2010PropOp28
 70
     1
102
RTVSPost2010Prop29
280
     1
102
RTVSPost2010PropOp29
 70
     1
102
RTVSPost2010Prop30
280
     1
102
RTVSPost2010PropOp30
 70
     1
102
RTVSPost2010Prop31
280
     0
102
RTVSPost2010PropOp31
 70
     1
102
RTVSPost2010Prop32
280
     0
102
RTVSPost2010PropOp32
 70
     1
102
RTVSPost2010Prop33
280
     0
102
RTVSPost2010PropOp33
 70
     1
102
RTVSPost2010Prop34
280
     0
102
RTVSPost2010PropOp34
 70
     1
102
RTVSPost2010Prop35
280
     0
102
RTVSPost2010PropOp35
 70
     1
102
RTVSPost2010Prop36
280
     0
102
RTVSPost2010PropOp36
 70
     1
102
RTVSPost2010Prop37
 90
       50
102
RTVSPost2010PropOp37
 70
     1
102
RTVSPost2010Prop38
140
0.0
102
RTVSPost2010PropOp38
 70
     1
102
RTVSPost2010Prop39
140
1.0
102
RTVSPost2010PropOp39
 70
     1
102
RTVSPost2010Prop40
 90
        0
102
RTVSPost2010PropOp40
 70
     1
102
RTVSPost2010Prop41ColorIndex
 90
       18
102
RTVSPost2010Prop41ColorRGB
 90
        0
102
RTVSPost2010PropOp41
 70
     1
102
RTVSPost2010Prop42
 90
       50
102
RTVSPost2010PropOp42
 70
     1
102
RTVSPost2010Prop43
 90
        3
102
RTVSPost2010PropOp43
 70
     1
102
RTVSPost2010Prop44ColorIndex
 90
        5
102
RTVSPost2010Prop44ColorRGB
 90
      255
102
RTVSPost2010PropOp44
 70
     1
102
RTVSPost2010Prop45
280
     0
102
RTVSPost2010PropOp45
 70
     1
102
RTVSPost2010Prop46
 90
       50
102
RTVSPost2010PropOp46
 70
     1
102
RTVSPost2010Prop47
 90
       50
102
RTVSPost2010PropOp47
 70
     1
102
RTVSPost2010Prop48
 90
       50
102
RTVSPost2010PropOp48
 70
     1
102
RTVSPost2010Prop49
280
     0
102
RTVSPost2010PropOp49
 70
     1
102
RTVSPost2010Prop50
 90
       50
102
RTVSPost2010PropOp50
 70
     1
102
RTVSPost2010Prop51ColorIndex
 90
      256
102
RTVSPost2010Prop51ColorRGB
 90
-16777216
102
RTVSPost2010PropOp51
 70
     0
102
RTVSPost2010Prop52
140
1.0
102
RTVSPost2010PropOp52
 70
     0
102
RTVSPost2010Prop53
 90
        2
102
RTVSPost2010PropOp53
 70
     1
102
RTVSPost2010Prop54
  1
strokes_ogs.tif
102
RTVSPost2010PropOp54
 70
     1
102
RTVSPost2010Prop55
280
     0
102
RTVSPost2010PropOp55
 70
     1
102
RTVSPost2010Prop56
140
1.0
102
RTVSPost2010PropOp56
 70
     1
102
RTVSPost2010Prop57
140
1.0
102
RTVSPost2010PropOp57
 70
     1
  0
XRECORD
  5
9B6FA
102
{ACAD_REACTORS
330
9B6F9
102
}
330
9B6F9
100
AcDbXrecord
280
     1
102
RTVSPropertyOp0
 70
     1
102
RTVSPropertyOp1
 70
     1
102
RTVSPropertyOp2
 70
     1
102
RTVSPropertyOp3
 70
     1
102
RTVSPropertyOp4
 70
     1
102
RTVSPropertyOp5
 70
     1
102
RTVSPropertyOp6
 70
     1
102
RTVSPropertyOp7
 70
     1
102
RTVSPropertyOp8
 70
     1
102
RTVSPropertyOp9
 70
     1
102
RTVSPropertyOp10
 70
     1
102
RTVSPropertyOp11
 70
     1
102
RTVSPropertyOp12
 70
     1
102
RTVSPropertyOp13
 70
     1
102
RTVSPropertyOp14
 70
     1
102
RTVSPropertyOp15
 70
     1
102
RTVSPropertyOp16
 70
     1
102
RTVSPropertyOp17
 70
     1
102
RTVSPropertyOp18
 70
     1
102
RTVSPropertyOp19
 70
     1
102
RTVSPropertyOp20
 70
     1
102
RTVSPropertyOp21
 70
     1
102
RTVSPropertyOp22
 70
     1
102
RTVSPropertyOp23
 70
     1
102
RTVSPropertyOp24
 70
     1
102
RTVSPropertyOp25
 70
     1
102
RTVSPropertyOp26
 70
     1
102
RTVSPropertyOp27
 70
     1
102
RTVSPropertyOp28
 70
     1
102
RTVSPropertyOp29
 70
     1
102
RTVSPropertyOp30
 70
     1
102
RTVSPropertyOp31
 70
     1
102
RTVSPropertyOp32
 70
     1
102
RTVSPropertyOp33
 70
     1
102
RTVSPropertyOp34
 70
     1
102
RTVSPropertyOp35
 70
     1
102
RTVSPropertyOp36
 70
     1
102
RTVSPropertyOp37
 70
     1
102
RTVSPropertyOp38
 70
     1
102
RTVSPropertyOp39
 70
     1
102
RTVSPropertyOp40
 70
     1
102
RTVSPropertyOp41
 70
     1
102
RTVSPropertyOp42
 70
     1
102
RTVSPropertyOp43
 70
     1
102
RTVSPropertyOp44
 70
     1
102
RTVSPropertyOp45
 70
     1
102
RTVSPropertyOp46
 70
     1
102
RTVSPropertyOp47
 70
     1
102
RTVSPropertyOp48
 70
     1
102
RTVSPropertyOp49
 70
     1
102
RTVSPropertyOp50
 70
     1
102
RTVSPropertyOp51
 70
     0
102
RTVSPropertyOp52
 70
     0
102
RTVSPropertyOp53
 70
     1
102
RTVSPropertyOp54
 70
     1
102
RTVSPropertyOp55
 70
     1
102
RTVSPropertyOp56
 70
     1
102
RTVSPropertyOp57
 70
     1
102
RTVSPost2010Prop28
280
     0
102
RTVSPost2010PropOp28
 70
     1
102
RTVSPost2010Prop29
280
     1
102
RTVSPost2010PropOp29
 70
     1
102
RTVSPost2010Prop30
280
     1
102
RTVSPost2010PropOp30
 70
     1
102
RTVSPost2010Prop31
280
     0
102
RTVSPost2010PropOp31
 70
     1
102
RTVSPost2010Prop32
280
     0
102
RTVSPost2010PropOp32
 70
     1
102
RTVSPost2010Prop33
280
     0
102
RTVSPost2010PropOp33
 70
     1
102
RTVSPost2010Prop34
280
     0
102
RTVSPost2010PropOp34
 70
     1
102
RTVSPost2010Prop35
280
     0
102
RTVSPost2010PropOp35
 70
     1
102
RTVSPost2010Prop36
280
     0
102
RTVSPost2010PropOp36
 70
     1
102
RTVSPost2010Prop37
 90
       50
102
RTVSPost2010PropOp37
 70
     1
102
RTVSPost2010Prop38
140
0.0
102
RTVSPost2010PropOp38
 70
     1
102
RTVSPost2010Prop39
140
1.0
102
RTVSPost2010PropOp39
 70
     1
102
RTVSPost2010Prop40
 90
        0
102
RTVSPost2010PropOp40
 70
     1
102
RTVSPost2010Prop41ColorIndex
 90
       18
102
RTVSPost2010Prop41ColorRGB
 90
        0
102
RTVSPost2010PropOp41
 70
     1
102
RTVSPost2010Prop42
 90
       50
102
RTVSPost2010PropOp42
 70
     1
102
RTVSPost2010Prop43
 90
        3
102
RTVSPost2010PropOp43
 70
     1
102
RTVSPost2010Prop44ColorIndex
 90
        5
102
RTVSPost2010Prop44ColorRGB
 90
      255
102
RTVSPost2010PropOp44
 70
     1
102
RTVSPost2010Prop45
280
     0
102
RTVSPost2010PropOp45
 70
     1
102
RTVSPost2010Prop46
 90
       50
102
RTVSPost2010PropOp46
 70
     1
102
RTVSPost2010Prop47
 90
       50
102
RTVSPost2010PropOp47
 70
     1
102
RTVSPost2010Prop48
 90
       50
102
RTVSPost2010PropOp48
 70
     1
102
RTVSPost2010Prop49
280
     0
102
RTVSPost2010PropOp49
 70
     1
102
RTVSPost2010Prop50
 90
       50
102
RTVSPost2010PropOp50
 70
     1
102
RTVSPost2010Prop51ColorIndex
 90
      256
102
RTVSPost2010Prop51ColorRGB
 90
-16777216
102
RTVSPost2010PropOp51
 70
     0
102
RTVSPost2010Prop52
140
1.0
102
RTVSPost2010PropOp52
 70
     0
102
RTVSPost2010Prop53
 90
        2
102
RTVSPost2010PropOp53
 70
     1
102
RTVSPost2010Prop54
  1
strokes_ogs.tif
102
RTVSPost2010PropOp54
 70
     1
102
RTVSPost2010Prop55
280
     0
102
RTVSPost2010PropOp55
 70
     1
102
RTVSPost2010Prop56
140
1.0
102
RTVSPost2010PropOp56
 70
     1
102
RTVSPost2010Prop57
140
1.0
102
RTVSPost2010PropOp57
 70
     1
  0
XRECORD
  5
9B6FC
102
{ACAD_REACTORS
330
9B6FB
102
}
330
9B6FB
100
AcDbXrecord
280
     1
102
RTVSPropertyOp0
 70
     1
102
RTVSPropertyOp1
 70
     1
102
RTVSPropertyOp2
 70
     1
102
RTVSPropertyOp3
 70
     1
102
RTVSPropertyOp4
 70
     1
102
RTVSPropertyOp5
 70
     1
102
RTVSPropertyOp6
 70
     1
102
RTVSPropertyOp7
 70
     1
102
RTVSPropertyOp8
 70
     1
102
RTVSPropertyOp9
 70
     1
102
RTVSPropertyOp10
 70
     1
102
RTVSPropertyOp11
 70
     1
102
RTVSPropertyOp12
 70
     1
102
RTVSPropertyOp13
 70
     1
102
RTVSPropertyOp14
 70
     1
102
RTVSPropertyOp15
 70
     1
102
RTVSPropertyOp16
 70
     1
102
RTVSPropertyOp17
 70
     1
102
RTVSPropertyOp18
 70
     1
102
RTVSPropertyOp19
 70
     1
102
RTVSPropertyOp20
 70
     1
102
RTVSPropertyOp21
 70
     1
102
RTVSPropertyOp22
 70
     1
102
RTVSPropertyOp23
 70
     1
102
RTVSPropertyOp24
 70
     1
102
RTVSPropertyOp25
 70
     1
102
RTVSPropertyOp26
 70
     1
102
RTVSPropertyOp27
 70
     1
102
RTVSPropertyOp28
 70
     1
102
RTVSPropertyOp29
 70
     1
102
RTVSPropertyOp30
 70
     1
102
RTVSPropertyOp31
 70
     1
102
RTVSPropertyOp32
 70
     1
102
RTVSPropertyOp33
 70
     1
102
RTVSPropertyOp34
 70
     1
102
RTVSPropertyOp35
 70
     1
102
RTVSPropertyOp36
 70
     1
102
RTVSPropertyOp37
 70
     1
102
RTVSPropertyOp38
 70
     1
102
RTVSPropertyOp39
 70
     1
102
RTVSPropertyOp40
 70
     1
102
RTVSPropertyOp41
 70
     1
102
RTVSPropertyOp42
 70
     1
102
RTVSPropertyOp43
 70
     1
102
RTVSPropertyOp44
 70
     1
102
RTVSPropertyOp45
 70
     1
102
RTVSPropertyOp46
 70
     1
102
RTVSPropertyOp47
 70
     1
102
RTVSPropertyOp48
 70
     1
102
RTVSPropertyOp49
 70
     1
102
RTVSPropertyOp50
 70
     1
102
RTVSPropertyOp51
 70
     0
102
RTVSPropertyOp52
 70
     0
102
RTVSPropertyOp53
 70
     1
102
RTVSPropertyOp54
 70
     1
102
RTVSPropertyOp55
 70
     1
102
RTVSPropertyOp56
 70
     1
102
RTVSPropertyOp57
 70
     1
102
RTVSPost2010Prop28
280
     0
102
RTVSPost2010PropOp28
 70
     1
102
RTVSPost2010Prop29
280
     1
102
RTVSPost2010PropOp29
 70
     1
102
RTVSPost2010Prop30
280
     1
102
RTVSPost2010PropOp30
 70
     1
102
RTVSPost2010Prop31
280
     0
102
RTVSPost2010PropOp31
 70
     1
102
RTVSPost2010Prop32
280
     0
102
RTVSPost2010PropOp32
 70
     1
102
RTVSPost2010Prop33
280
     0
102
RTVSPost2010PropOp33
 70
     1
102
RTVSPost2010Prop34
280
     0
102
RTVSPost2010PropOp34
 70
     1
102
RTVSPost2010Prop35
280
     0
102
RTVSPost2010PropOp35
 70
     1
102
RTVSPost2010Prop36
280
     0
102
RTVSPost2010PropOp36
 70
     1
102
RTVSPost2010Prop37
 90
       50
102
RTVSPost2010PropOp37
 70
     1
102
RTVSPost2010Prop38
140
0.0
102
RTVSPost2010PropOp38
 70
     1
102
RTVSPost2010Prop39
140
1.0
102
RTVSPost2010PropOp39
 70
     1
102
RTVSPost2010Prop40
 90
        0
102
RTVSPost2010PropOp40
 70
     1
102
RTVSPost2010Prop41ColorIndex
 90
       18
102
RTVSPost2010Prop41ColorRGB
 90
        0
102
RTVSPost2010PropOp41
 70
     1
102
RTVSPost2010Prop42
 90
       50
102
RTVSPost2010PropOp42
 70
     1
102
RTVSPost2010Prop43
 90
        3
102
RTVSPost2010PropOp43
 70
     1
102
RTVSPost2010Prop44ColorIndex
 90
        5
102
RTVSPost2010Prop44ColorRGB
 90
      255
102
RTVSPost2010PropOp44
 70
     1
102
RTVSPost2010Prop45
280
     0
102
RTVSPost2010PropOp45
 70
     1
102
RTVSPost2010Prop46
 90
       50
102
RTVSPost2010PropOp46
 70
     1
102
RTVSPost2010Prop47
 90
       50
102
RTVSPost2010PropOp47
 70
     1
102
RTVSPost2010Prop48
 90
       50
102
RTVSPost2010PropOp48
 70
     1
102
RTVSPost2010Prop49
280
     0
102
RTVSPost2010PropOp49
 70
     1
102
RTVSPost2010Prop50
 90
       50
102
RTVSPost2010PropOp50
 70
     1
102
RTVSPost2010Prop51ColorIndex
 90
      256
102
RTVSPost2010Prop51ColorRGB
 90
-16777216
102
RTVSPost2010PropOp51
 70
     0
102
RTVSPost2010Prop52
140
1.0
102
RTVSPost2010PropOp52
 70
     0
102
RTVSPost2010Prop53
 90
        2
102
RTVSPost2010PropOp53
 70
     1
102
RTVSPost2010Prop54
  1
strokes_ogs.tif
102
RTVSPost2010PropOp54
 70
     1
102
RTVSPost2010Prop55
280
     0
102
RTVSPost2010PropOp55
 70
     1
102
RTVSPost2010Prop56
140
1.0
102
RTVSPost2010PropOp56
 70
     1
102
RTVSPost2010Prop57
140
1.0
102
RTVSPost2010PropOp57
 70
     1
  0
XRECORD
  5
9B6FE
102
{ACAD_REACTORS
330
9B6FD
102
}
330
9B6FD
100
AcDbXrecord
280
     1
102
RTVSPropertyOp0
 70
     1
102
RTVSPropertyOp1
 70
     1
102
RTVSPropertyOp2
 70
     1
102
RTVSPropertyOp3
 70
     1
102
RTVSPropertyOp4
 70
     1
102
RTVSPropertyOp5
 70
     1
102
RTVSPropertyOp6
 70
     1
102
RTVSPropertyOp7
 70
     1
102
RTVSPropertyOp8
 70
     1
102
RTVSPropertyOp9
 70
     1
102
RTVSPropertyOp10
 70
     1
102
RTVSPropertyOp11
 70
     1
102
RTVSPropertyOp12
 70
     1
102
RTVSPropertyOp13
 70
     1
102
RTVSPropertyOp14
 70
     1
102
RTVSPropertyOp15
 70
     1
102
RTVSPropertyOp16
 70
     1
102
RTVSPropertyOp17
 70
     1
102
RTVSPropertyOp18
 70
     1
102
RTVSPropertyOp19
 70
     1
102
RTVSPropertyOp20
 70
     1
102
RTVSPropertyOp21
 70
     1
102
RTVSPropertyOp22
 70
     1
102
RTVSPropertyOp23
 70
     1
102
RTVSPropertyOp24
 70
     1
102
RTVSPropertyOp25
 70
     1
102
RTVSPropertyOp26
 70
     1
102
RTVSPropertyOp27
 70
     1
102
RTVSPropertyOp28
 70
     1
102
RTVSPropertyOp29
 70
     1
102
RTVSPropertyOp30
 70
     1
102
RTVSPropertyOp31
 70
     1
102
RTVSPropertyOp32
 70
     1
102
RTVSPropertyOp33
 70
     1
102
RTVSPropertyOp34
 70
     1
102
RTVSPropertyOp35
 70
     1
102
RTVSPropertyOp36
 70
     1
102
RTVSPropertyOp37
 70
     1
102
RTVSPropertyOp38
 70
     1
102
RTVSPropertyOp39
 70
     1
102
RTVSPropertyOp40
 70
     1
102
RTVSPropertyOp41
 70
     1
102
RTVSPropertyOp42
 70
     1
102
RTVSPropertyOp43
 70
     1
102
RTVSPropertyOp44
 70
     1
102
RTVSPropertyOp45
 70
     1
102
RTVSPropertyOp46
 70
     1
102
RTVSPropertyOp47
 70
     1
102
RTVSPropertyOp48
 70
     1
102
RTVSPropertyOp49
 70
     1
102
RTVSPropertyOp50
 70
     1
102
RTVSPropertyOp51
 70
     0
102
RTVSPropertyOp52
 70
     0
102
RTVSPropertyOp53
 70
     1
102
RTVSPropertyOp54
 70
     1
102
RTVSPropertyOp55
 70
     1
102
RTVSPropertyOp56
 70
     1
102
RTVSPropertyOp57
 70
     1
102
RTVSPost2010Prop28
280
     0
102
RTVSPost2010PropOp28
 70
     1
102
RTVSPost2010Prop29
280
     1
102
RTVSPost2010PropOp29
 70
     1
102
RTVSPost2010Prop30
280
     1
102
RTVSPost2010PropOp30
 70
     1
102
RTVSPost2010Prop31
280
     0
102
RTVSPost2010PropOp31
 70
     1
102
RTVSPost2010Prop32
280
     0
102
RTVSPost2010PropOp32
 70
     1
102
RTVSPost2010Prop33
280
     0
102
RTVSPost2010PropOp33
 70
     1
102
RTVSPost2010Prop34
280
     0
102
RTVSPost2010PropOp34
 70
     1
102
RTVSPost2010Prop35
280
     0
102
RTVSPost2010PropOp35
 70
     1
102
RTVSPost2010Prop36
280
     0
102
RTVSPost2010PropOp36
 70
     1
102
RTVSPost2010Prop37
 90
       50
102
RTVSPost2010PropOp37
 70
     1
102
RTVSPost2010Prop38
140
0.0
102
RTVSPost2010PropOp38
 70
     1
102
RTVSPost2010Prop39
140
1.0
102
RTVSPost2010PropOp39
 70
     1
102
RTVSPost2010Prop40
 90
        0
102
RTVSPost2010PropOp40
 70
     1
102
RTVSPost2010Prop41ColorIndex
 90
       18
102
RTVSPost2010Prop41ColorRGB
 90
        0
102
RTVSPost2010PropOp41
 70
     1
102
RTVSPost2010Prop42
 90
       50
102
RTVSPost2010PropOp42
 70
     1
102
RTVSPost2010Prop43
 90
        3
102
RTVSPost2010PropOp43
 70
     1
102
RTVSPost2010Prop44ColorIndex
 90
        5
102
RTVSPost2010Prop44ColorRGB
 90
      255
102
RTVSPost2010PropOp44
 70
     1
102
RTVSPost2010Prop45
280
     0
102
RTVSPost2010PropOp45
 70
     1
102
RTVSPost2010Prop46
 90
       50
102
RTVSPost2010PropOp46
 70
     1
102
RTVSPost2010Prop47
 90
       50
102
RTVSPost2010PropOp47
 70
     1
102
RTVSPost2010Prop48
 90
       50
102
RTVSPost2010PropOp48
 70
     1
102
RTVSPost2010Prop49
280
     0
102
RTVSPost2010PropOp49
 70
     1
102
RTVSPost2010Prop50
 90
       50
102
RTVSPost2010PropOp50
 70
     1
102
RTVSPost2010Prop51ColorIndex
 90
      256
102
RTVSPost2010Prop51ColorRGB
 90
-16777216
102
RTVSPost2010PropOp51
 70
     0
102
RTVSPost2010Prop52
140
1.0
102
RTVSPost2010PropOp52
 70
     0
102
RTVSPost2010Prop53
 90
        2
102
RTVSPost2010PropOp53
 70
     1
102
RTVSPost2010Prop54
  1
strokes_ogs.tif
102
RTVSPost2010PropOp54
 70
     1
102
RTVSPost2010Prop55
280
     0
102
RTVSPost2010PropOp55
 70
     1
102
RTVSPost2010Prop56
140
1.0
102
RTVSPost2010PropOp56
 70
     1
102
RTVSPost2010Prop57
140
1.0
102
RTVSPost2010PropOp57
 70
     1
  0
XRECORD
  5
9B700
102
{ACAD_REACTORS
330
9B6FF
102
}
330
9B6FF
100
AcDbXrecord
280
     1
102
RTVSPropertyOp0
 70
     0
102
RTVSPropertyOp1
 70
     0
102
RTVSPropertyOp2
 70
     0
102
RTVSPropertyOp3
 70
     0
102
RTVSPropertyOp4
 70
     0
102
RTVSPropertyOp5
 70
     0
102
RTVSPropertyOp6
 70
     0
102
RTVSPropertyOp7
 70
     0
102
RTVSPropertyOp8
 70
     0
102
RTVSPropertyOp9
 70
     0
102
RTVSPropertyOp10
 70
     0
102
RTVSPropertyOp11
 70
     0
102
RTVSPropertyOp12
 70
     0
102
RTVSPropertyOp13
 70
     0
102
RTVSPropertyOp14
 70
     2
102
RTVSPropertyOp15
 70
     0
102
RTVSPropertyOp16
 70
     0
102
RTVSPropertyOp17
 70
     0
102
RTVSPropertyOp18
 70
     0
102
RTVSPropertyOp19
 70
     0
102
RTVSPropertyOp20
 70
     0
102
RTVSPropertyOp21
 70
     0
102
RTVSPropertyOp22
 70
     0
102
RTVSPropertyOp23
 70
     0
102
RTVSPropertyOp24
 70
     0
102
RTVSPropertyOp25
 70
     0
102
RTVSPropertyOp26
 70
     0
102
RTVSPropertyOp27
 70
     0
102
RTVSPropertyOp28
 70
     0
102
RTVSPropertyOp29
 70
     0
102
RTVSPropertyOp30
 70
     0
102
RTVSPropertyOp31
 70
     0
102
RTVSPropertyOp32
 70
     0
102
RTVSPropertyOp33
 70
     1
102
RTVSPropertyOp34
 70
     1
102
RTVSPropertyOp35
 70
     1
102
RTVSPropertyOp36
 70
     1
102
RTVSPropertyOp37
 70
     1
102
RTVSPropertyOp38
 70
     1
102
RTVSPropertyOp39
 70
     1
102
RTVSPropertyOp40
 70
     1
102
RTVSPropertyOp41
 70
     1
102
RTVSPropertyOp42
 70
     1
102
RTVSPropertyOp43
 70
     1
102
RTVSPropertyOp44
 70
     1
102
RTVSPropertyOp45
 70
     1
102
RTVSPropertyOp46
 70
     1
102
RTVSPropertyOp47
 70
     1
102
RTVSPropertyOp48
 70
     1
102
RTVSPropertyOp49
 70
     1
102
RTVSPropertyOp50
 70
     1
102
RTVSPropertyOp51
 70
     0
102
RTVSPropertyOp52
 70
     0
102
RTVSPropertyOp53
 70
     1
102
RTVSPropertyOp54
 70
     1
102
RTVSPropertyOp55
 70
     1
102
RTVSPropertyOp56
 70
     1
102
RTVSPropertyOp57
 70
     1
102
RTVSPost2010Prop28
280
     0
102
RTVSPost2010PropOp28
 70
     0
102
RTVSPost2010Prop29
280
     1
102
RTVSPost2010PropOp29
 70
     0
102
RTVSPost2010Prop30
280
     1
102
RTVSPost2010PropOp30
 70
     0
102
RTVSPost2010Prop31
280
     0
102
RTVSPost2010PropOp31
 70
     0
102
RTVSPost2010Prop32
280
     0
102
RTVSPost2010PropOp32
 70
     0
102
RTVSPost2010Prop33
280
     0
102
RTVSPost2010PropOp33
 70
     1
102
RTVSPost2010Prop34
280
     0
102
RTVSPost2010PropOp34
 70
     1
102
RTVSPost2010Prop35
280
     0
102
RTVSPost2010PropOp35
 70
     1
102
RTVSPost2010Prop36
280
     0
102
RTVSPost2010PropOp36
 70
     1
102
RTVSPost2010Prop37
 90
       50
102
RTVSPost2010PropOp37
 70
     1
102
RTVSPost2010Prop38
140
0.0
102
RTVSPost2010PropOp38
 70
     1
102
RTVSPost2010Prop39
140
1.0
102
RTVSPost2010PropOp39
 70
     1
102
RTVSPost2010Prop40
 90
        0
102
RTVSPost2010PropOp40
 70
     1
102
RTVSPost2010Prop41ColorIndex
 90
       18
102
RTVSPost2010Prop41ColorRGB
 90
        0
102
RTVSPost2010PropOp41
 70
     1
102
RTVSPost2010Prop42
 90
       50
102
RTVSPost2010PropOp42
 70
     1
102
RTVSPost2010Prop43
 90
        3
102
RTVSPost2010PropOp43
 70
     1
102
RTVSPost2010Prop44ColorIndex
 90
        5
102
RTVSPost2010Prop44ColorRGB
 90
      255
102
RTVSPost2010PropOp44
 70
     1
102
RTVSPost2010Prop45
280
     0
102
RTVSPost2010PropOp45
 70
     1
102
RTVSPost2010Prop46
 90
       50
102
RTVSPost2010PropOp46
 70
     1
102
RTVSPost2010Prop47
 90
       50
102
RTVSPost2010PropOp47
 70
     1
102
RTVSPost2010Prop48
 90
       50
102
RTVSPost2010PropOp48
 70
     1
102
RTVSPost2010Prop49
280
     0
102
RTVSPost2010PropOp49
 70
     1
102
RTVSPost2010Prop50
 90
       50
102
RTVSPost2010PropOp50
 70
     1
102
RTVSPost2010Prop51ColorIndex
 90
      256
102
RTVSPost2010Prop51ColorRGB
 90
-16777216
102
RTVSPost2010PropOp51
 70
     0
102
RTVSPost2010Prop52
140
1.0
102
RTVSPost2010PropOp52
 70
     0
102
RTVSPost2010Prop53
 90
        2
102
RTVSPost2010PropOp53
 70
     1
102
RTVSPost2010Prop54
  1
strokes_ogs.tif
102
RTVSPost2010PropOp54
 70
     1
102
RTVSPost2010Prop55
280
     0
102
RTVSPost2010PropOp55
 70
     1
102
RTVSPost2010Prop56
140
1.0
102
RTVSPost2010PropOp56
 70
     1
102
RTVSPost2010Prop57
140
1.0
102
RTVSPost2010PropOp57
 70
     1
  0
XRECORD
  5
9B702
102
{ACAD_REACTORS
330
9B701
102
}
330
9B701
100
AcDbXrecord
280
     1
102
RTVSPropertyOp0
 70
     1
102
RTVSPropertyOp1
 70
     1
102
RTVSPropertyOp2
 70
     1
102
RTVSPropertyOp3
 70
     1
102
RTVSPropertyOp4
 70
     1
102
RTVSPropertyOp5
 70
     1
102
RTVSPropertyOp6
 70
     1
102
RTVSPropertyOp7
 70
     1
102
RTVSPropertyOp8
 70
     1
102
RTVSPropertyOp9
 70
     1
102
RTVSPropertyOp10
 70
     1
102
RTVSPropertyOp11
 70
     1
102
RTVSPropertyOp12
 70
     1
102
RTVSPropertyOp13
 70
     1
102
RTVSPropertyOp14
 70
     1
102
RTVSPropertyOp15
 70
     1
102
RTVSPropertyOp16
 70
     1
102
RTVSPropertyOp17
 70
     1
102
RTVSPropertyOp18
 70
     1
102
RTVSPropertyOp19
 70
     1
102
RTVSPropertyOp20
 70
     1
102
RTVSPropertyOp21
 70
     1
102
RTVSPropertyOp22
 70
     1
102
RTVSPropertyOp23
 70
     1
102
RTVSPropertyOp24
 70
     1
102
RTVSPropertyOp25
 70
     1
102
RTVSPropertyOp26
 70
     1
102
RTVSPropertyOp27
 70
     1
102
RTVSPropertyOp28
 70
     1
102
RTVSPropertyOp29
 70
     1
102
RTVSPropertyOp30
 70
     1
102
RTVSPropertyOp31
 70
     1
102
RTVSPropertyOp32
 70
     1
102
RTVSPropertyOp33
 70
     1
102
RTVSPropertyOp34
 70
     1
102
RTVSPropertyOp35
 70
     1
102
RTVSPropertyOp36
 70
     1
102
RTVSPropertyOp37
 70
     1
102
RTVSPropertyOp38
 70
     1
102
RTVSPropertyOp39
 70
     1
102
RTVSPropertyOp40
 70
     1
102
RTVSPropertyOp41
 70
     1
102
RTVSPropertyOp42
 70
     1
102
RTVSPropertyOp43
 70
     1
102
RTVSPropertyOp44
 70
     1
102
RTVSPropertyOp45
 70
     1
102
RTVSPropertyOp46
 70
     1
102
RTVSPropertyOp47
 70
     1
102
RTVSPropertyOp48
 70
     1
102
RTVSPropertyOp49
 70
     1
102
RTVSPropertyOp50
 70
     1
102
RTVSPropertyOp51
 70
     0
102
RTVSPropertyOp52
 70
     0
102
RTVSPropertyOp53
 70
     1
102
RTVSPropertyOp54
 70
     1
102
RTVSPropertyOp55
 70
     1
102
RTVSPropertyOp56
 70
     1
102
RTVSPropertyOp57
 70
     1
102
RTVSPost2010Prop28
280
     0
102
RTVSPost2010PropOp28
 70
     1
102
RTVSPost2010Prop29
280
     1
102
RTVSPost2010PropOp29
 70
     1
102
RTVSPost2010Prop30
280
     1
102
RTVSPost2010PropOp30
 70
     1
102
RTVSPost2010Prop31
280
     0
102
RTVSPost2010PropOp31
 70
     1
102
RTVSPost2010Prop32
280
     0
102
RTVSPost2010PropOp32
 70
     1
102
RTVSPost2010Prop33
280
     0
102
RTVSPost2010PropOp33
 70
     1
102
RTVSPost2010Prop34
280
     0
102
RTVSPost2010PropOp34
 70
     1
102
RTVSPost2010Prop35
280
     0
102
RTVSPost2010PropOp35
 70
     1
102
RTVSPost2010Prop36
280
     0
102
RTVSPost2010PropOp36
 70
     1
102
RTVSPost2010Prop37
 90
       50
102
RTVSPost2010PropOp37
 70
     1
102
RTVSPost2010Prop38
140
0.0
102
RTVSPost2010PropOp38
 70
     1
102
RTVSPost2010Prop39
140
1.0
102
RTVSPost2010PropOp39
 70
     1
102
RTVSPost2010Prop40
 90
        0
102
RTVSPost2010PropOp40
 70
     1
102
RTVSPost2010Prop41ColorIndex
 90
       18
102
RTVSPost2010Prop41ColorRGB
 90
        0
102
RTVSPost2010PropOp41
 70
     1
102
RTVSPost2010Prop42
 90
       50
102
RTVSPost2010PropOp42
 70
     1
102
RTVSPost2010Prop43
 90
        3
102
RTVSPost2010PropOp43
 70
     1
102
RTVSPost2010Prop44ColorIndex
 90
        5
102
RTVSPost2010Prop44ColorRGB
 90
      255
102
RTVSPost2010PropOp44
 70
     1
102
RTVSPost2010Prop45
280
     0
102
RTVSPost2010PropOp45
 70
     1
102
RTVSPost2010Prop46
 90
       50
102
RTVSPost2010PropOp46
 70
     1
102
RTVSPost2010Prop47
 90
       50
102
RTVSPost2010PropOp47
 70
     1
102
RTVSPost2010Prop48
 90
       50
102
RTVSPost2010PropOp48
 70
     1
102
RTVSPost2010Prop49
280
     0
102
RTVSPost2010PropOp49
 70
     1
102
RTVSPost2010Prop50
 90
       50
102
RTVSPost2010PropOp50
 70
     1
102
RTVSPost2010Prop51ColorIndex
 90
      256
102
RTVSPost2010Prop51ColorRGB
 90
-16777216
102
RTVSPost2010PropOp51
 70
     0
102
RTVSPost2010Prop52
140
1.0
102
RTVSPost2010PropOp52
 70
     0
102
RTVSPost2010Prop53
 90
        2
102
RTVSPost2010PropOp53
 70
     1
102
RTVSPost2010Prop54
  1
strokes_ogs.tif
102
RTVSPost2010PropOp54
 70
     1
102
RTVSPost2010Prop55
280
     0
102
RTVSPost2010PropOp55
 70
     1
102
RTVSPost2010Prop56
140
1.0
102
RTVSPost2010PropOp56
 70
     1
102
RTVSPost2010Prop57
140
1.0
102
RTVSPost2010PropOp57
 70
     1
  0
XRECORD
  5
9B704
102
{ACAD_REACTORS
330
9B703
102
}
330
9B703
100
AcDbXrecord
280
     1
102
RTVSPropertyOp0
 70
     0
102
RTVSPropertyOp1
 70
     0
102
RTVSPropertyOp2
 70
     0
102
RTVSPropertyOp3
 70
     0
102
RTVSPropertyOp4
 70
     0
102
RTVSPropertyOp5
 70
     0
102
RTVSPropertyOp6
 70
     0
102
RTVSPropertyOp7
 70
     0
102
RTVSPropertyOp8
 70
     0
102
RTVSPropertyOp9
 70
     0
102
RTVSPropertyOp10
 70
     0
102
RTVSPropertyOp11
 70
     0
102
RTVSPropertyOp12
 70
     0
102
RTVSPropertyOp13
 70
     0
102
RTVSPropertyOp14
 70
     2
102
RTVSPropertyOp15
 70
     0
102
RTVSPropertyOp16
 70
     0
102
RTVSPropertyOp17
 70
     0
102
RTVSPropertyOp18
 70
     0
102
RTVSPropertyOp19
 70
     0
102
RTVSPropertyOp20
 70
     0
102
RTVSPropertyOp21
 70
     0
102
RTVSPropertyOp22
 70
     0
102
RTVSPropertyOp23
 70
     0
102
RTVSPropertyOp24
 70
     0
102
RTVSPropertyOp25
 70
     0
102
RTVSPropertyOp26
 70
     0
102
RTVSPropertyOp27
 70
     0
102
RTVSPropertyOp28
 70
     0
102
RTVSPropertyOp29
 70
     0
102
RTVSPropertyOp30
 70
     0
102
RTVSPropertyOp31
 70
     0
102
RTVSPropertyOp32
 70
     0
102
RTVSPropertyOp33
 70
     1
102
RTVSPropertyOp34
 70
     1
102
RTVSPropertyOp35
 70
     1
102
RTVSPropertyOp36
 70
     1
102
RTVSPropertyOp37
 70
     1
102
RTVSPropertyOp38
 70
     1
102
RTVSPropertyOp39
 70
     1
102
RTVSPropertyOp40
 70
     1
102
RTVSPropertyOp41
 70
     1
102
RTVSPropertyOp42
 70
     1
102
RTVSPropertyOp43
 70
     1
102
RTVSPropertyOp44
 70
     1
102
RTVSPropertyOp45
 70
     1
102
RTVSPropertyOp46
 70
     1
102
RTVSPropertyOp47
 70
     1
102
RTVSPropertyOp48
 70
     1
102
RTVSPropertyOp49
 70
     1
102
RTVSPropertyOp50
 70
     1
102
RTVSPropertyOp51
 70
     0
102
RTVSPropertyOp52
 70
     0
102
RTVSPropertyOp53
 70
     1
102
RTVSPropertyOp54
 70
     1
102
RTVSPropertyOp55
 70
     1
102
RTVSPropertyOp56
 70
     1
102
RTVSPropertyOp57
 70
     1
102
RTVSPost2010Prop28
280
     0
102
RTVSPost2010PropOp28
 70
     0
102
RTVSPost2010Prop29
280
     1
102
RTVSPost2010PropOp29
 70
     0
102
RTVSPost2010Prop30
280
     1
102
RTVSPost2010PropOp30
 70
     0
102
RTVSPost2010Prop31
280
     0
102
RTVSPost2010PropOp31
 70
     0
102
RTVSPost2010Prop32
280
     0
102
RTVSPost2010PropOp32
 70
     0
102
RTVSPost2010Prop33
280
     0
102
RTVSPost2010PropOp33
 70
     1
102
RTVSPost2010Prop34
280
     0
102
RTVSPost2010PropOp34
 70
     1
102
RTVSPost2010Prop35
280
     0
102
RTVSPost2010PropOp35
 70
     1
102
RTVSPost2010Prop36
280
     0
102
RTVSPost2010PropOp36
 70
     1
102
RTVSPost2010Prop37
 90
       50
102
RTVSPost2010PropOp37
 70
     1
102
RTVSPost2010Prop38
140
0.0
102
RTVSPost2010PropOp38
 70
     1
102
RTVSPost2010Prop39
140
1.0
102
RTVSPost2010PropOp39
 70
     1
102
RTVSPost2010Prop40
 90
        0
102
RTVSPost2010PropOp40
 70
     1
102
RTVSPost2010Prop41ColorIndex
 90
       18
102
RTVSPost2010Prop41ColorRGB
 90
        0
102
RTVSPost2010PropOp41
 70
     1
102
RTVSPost2010Prop42
 90
       50
102
RTVSPost2010PropOp42
 70
     1
102
RTVSPost2010Prop43
 90
        3
102
RTVSPost2010PropOp43
 70
     1
102
RTVSPost2010Prop44ColorIndex
 90
        5
102
RTVSPost2010Prop44ColorRGB
 90
      255
102
RTVSPost2010PropOp44
 70
     1
102
RTVSPost2010Prop45
280
     0
102
RTVSPost2010PropOp45
 70
     1
102
RTVSPost2010Prop46
 90
       50
102
RTVSPost2010PropOp46
 70
     1
102
RTVSPost2010Prop47
 90
       50
102
RTVSPost2010PropOp47
 70
     1
102
RTVSPost2010Prop48
 90
       50
102
RTVSPost2010PropOp48
 70
     1
102
RTVSPost2010Prop49
280
     0
102
RTVSPost2010PropOp49
 70
     1
102
RTVSPost2010Prop50
 90
       50
102
RTVSPost2010PropOp50
 70
     1
102
RTVSPost2010Prop51ColorIndex
 90
      256
102
RTVSPost2010Prop51ColorRGB
 90
-16777216
102
RTVSPost2010PropOp51
 70
     0
102
RTVSPost2010Prop52
140
1.0
102
RTVSPost2010PropOp52
 70
     0
102
RTVSPost2010Prop53
 90
        2
102
RTVSPost2010PropOp53
 70
     1
102
RTVSPost2010Prop54
  1
strokes_ogs.tif
102
RTVSPost2010PropOp54
 70
     1
102
RTVSPost2010Prop55
280
     0
102
RTVSPost2010PropOp55
 70
     1
102
RTVSPost2010Prop56
140
1.0
102
RTVSPost2010PropOp56
 70
     1
102
RTVSPost2010Prop57
140
1.0
102
RTVSPost2010PropOp57
 70
     1
  0
XRECORD
  5
9B706
102
{ACAD_REACTORS
330
9B705
102
}
330
9B705
100
AcDbXrecord
280
     1
102
RTVSPropertyOp0
 70
     1
102
RTVSPropertyOp1
 70
     1
102
RTVSPropertyOp2
 70
     1
102
RTVSPropertyOp3
 70
     1
102
RTVSPropertyOp4
 70
     1
102
RTVSPropertyOp5
 70
     1
102
RTVSPropertyOp6
 70
     1
102
RTVSPropertyOp7
 70
     1
102
RTVSPropertyOp8
 70
     1
102
RTVSPropertyOp9
 70
     1
102
RTVSPropertyOp10
 70
     1
102
RTVSPropertyOp11
 70
     1
102
RTVSPropertyOp12
 70
     1
102
RTVSPropertyOp13
 70
     1
102
RTVSPropertyOp14
 70
     1
102
RTVSPropertyOp15
 70
     1
102
RTVSPropertyOp16
 70
     1
102
RTVSPropertyOp17
 70
     1
102
RTVSPropertyOp18
 70
     1
102
RTVSPropertyOp19
 70
     1
102
RTVSPropertyOp20
 70
     1
102
RTVSPropertyOp21
 70
     1
102
RTVSPropertyOp22
 70
     1
102
RTVSPropertyOp23
 70
     1
102
RTVSPropertyOp24
 70
     1
102
RTVSPropertyOp25
 70
     1
102
RTVSPropertyOp26
 70
     1
102
RTVSPropertyOp27
 70
     1
102
RTVSPropertyOp28
 70
     1
102
RTVSPropertyOp29
 70
     1
102
RTVSPropertyOp30
 70
     1
102
RTVSPropertyOp31
 70
     1
102
RTVSPropertyOp32
 70
     1
102
RTVSPropertyOp33
 70
     1
102
RTVSPropertyOp34
 70
     1
102
RTVSPropertyOp35
 70
     1
102
RTVSPropertyOp36
 70
     1
102
RTVSPropertyOp37
 70
     1
102
RTVSPropertyOp38
 70
     1
102
RTVSPropertyOp39
 70
     1
102
RTVSPropertyOp40
 70
     1
102
RTVSPropertyOp41
 70
     1
102
RTVSPropertyOp42
 70
     1
102
RTVSPropertyOp43
 70
     1
102
RTVSPropertyOp44
 70
     1
102
RTVSPropertyOp45
 70
     1
102
RTVSPropertyOp46
 70
     1
102
RTVSPropertyOp47
 70
     1
102
RTVSPropertyOp48
 70
     1
102
RTVSPropertyOp49
 70
     1
102
RTVSPropertyOp50
 70
     1
102
RTVSPropertyOp51
 70
     0
102
RTVSPropertyOp52
 70
     0
102
RTVSPropertyOp53
 70
     1
102
RTVSPropertyOp54
 70
     1
102
RTVSPropertyOp55
 70
     1
102
RTVSPropertyOp56
 70
     1
102
RTVSPropertyOp57
 70
     1
102
RTVSPost2010Prop28
280
     0
102
RTVSPost2010PropOp28
 70
     1
102
RTVSPost2010Prop29
280
     1
102
RTVSPost2010PropOp29
 70
     1
102
RTVSPost2010Prop30
280
     1
102
RTVSPost2010PropOp30
 70
     1
102
RTVSPost2010Prop31
280
     0
102
RTVSPost2010PropOp31
 70
     1
102
RTVSPost2010Prop32
280
     0
102
RTVSPost2010PropOp32
 70
     1
102
RTVSPost2010Prop33
280
     0
102
RTVSPost2010PropOp33
 70
     1
102
RTVSPost2010Prop34
280
     0
102
RTVSPost2010PropOp34
 70
     1
102
RTVSPost2010Prop35
280
     0
102
RTVSPost2010PropOp35
 70
     1
102
RTVSPost2010Prop36
280
     0
102
RTVSPost2010PropOp36
 70
     1
102
RTVSPost2010Prop37
 90
       50
102
RTVSPost2010PropOp37
 70
     1
102
RTVSPost2010Prop38
140
0.0
102
RTVSPost2010PropOp38
 70
     1
102
RTVSPost2010Prop39
140
1.0
102
RTVSPost2010PropOp39
 70
     1
102
RTVSPost2010Prop40
 90
        0
102
RTVSPost2010PropOp40
 70
     1
102
RTVSPost2010Prop41ColorIndex
 90
       18
102
RTVSPost2010Prop41ColorRGB
 90
        0
102
RTVSPost2010PropOp41
 70
     1
102
RTVSPost2010Prop42
 90
       50
102
RTVSPost2010PropOp42
 70
     1
102
RTVSPost2010Prop43
 90
        3
102
RTVSPost2010PropOp43
 70
     1
102
RTVSPost2010Prop44ColorIndex
 90
        5
102
RTVSPost2010Prop44ColorRGB
 90
      255
102
RTVSPost2010PropOp44
 70
     1
102
RTVSPost2010Prop45
280
     0
102
RTVSPost2010PropOp45
 70
     1
102
RTVSPost2010Prop46
 90
       50
102
RTVSPost2010PropOp46
 70
     1
102
RTVSPost2010Prop47
 90
       50
102
RTVSPost2010PropOp47
 70
     1
102
RTVSPost2010Prop48
 90
       50
102
RTVSPost2010PropOp48
 70
     1
102
RTVSPost2010Prop49
280
     0
102
RTVSPost2010PropOp49
 70
     1
102
RTVSPost2010Prop50
 90
       50
102
RTVSPost2010PropOp50
 70
     1
102
RTVSPost2010Prop51ColorIndex
 90
      256
102
RTVSPost2010Prop51ColorRGB
 90
-16777216
102
RTVSPost2010PropOp51
 70
     0
102
RTVSPost2010Prop52
140
1.0
102
RTVSPost2010PropOp52
 70
     0
102
RTVSPost2010Prop53
 90
        2
102
RTVSPost2010PropOp53
 70
     1
102
RTVSPost2010Prop54
  1
strokes_ogs.tif
102
RTVSPost2010PropOp54
 70
     1
102
RTVSPost2010Prop55
280
     0
102
RTVSPost2010PropOp55
 70
     1
102
RTVSPost2010Prop56
140
1.0
102
RTVSPost2010PropOp56
 70
     1
102
RTVSPost2010Prop57
140
1.0
102
RTVSPost2010PropOp57
 70
     1
  0
XRECORD
  5
9B708
102
{ACAD_REACTORS
330
9B707
102
}
330
9B707
100
AcDbXrecord
280
     1
102
RTVSPropertyOp0
 70
     1
102
RTVSPropertyOp1
 70
     1
102
RTVSPropertyOp2
 70
     1
102
RTVSPropertyOp3
 70
     1
102
RTVSPropertyOp4
 70
     1
102
RTVSPropertyOp5
 70
     1
102
RTVSPropertyOp6
 70
     1
102
RTVSPropertyOp7
 70
     1
102
RTVSPropertyOp8
 70
     1
102
RTVSPropertyOp9
 70
     1
102
RTVSPropertyOp10
 70
     1
102
RTVSPropertyOp11
 70
     1
102
RTVSPropertyOp12
 70
     1
102
RTVSPropertyOp13
 70
     1
102
RTVSPropertyOp14
 70
     1
102
RTVSPropertyOp15
 70
     1
102
RTVSPropertyOp16
 70
     1
102
RTVSPropertyOp17
 70
     1
102
RTVSPropertyOp18
 70
     1
102
RTVSPropertyOp19
 70
     1
102
RTVSPropertyOp20
 70
     1
102
RTVSPropertyOp21
 70
     1
102
RTVSPropertyOp22
 70
     1
102
RTVSPropertyOp23
 70
     1
102
RTVSPropertyOp24
 70
     1
102
RTVSPropertyOp25
 70
     1
102
RTVSPropertyOp26
 70
     1
102
RTVSPropertyOp27
 70
     1
102
RTVSPropertyOp28
 70
     1
102
RTVSPropertyOp29
 70
     1
102
RTVSPropertyOp30
 70
     1
102
RTVSPropertyOp31
 70
     1
102
RTVSPropertyOp32
 70
     1
102
RTVSPropertyOp33
 70
     1
102
RTVSPropertyOp34
 70
     1
102
RTVSPropertyOp35
 70
     1
102
RTVSPropertyOp36
 70
     1
102
RTVSPropertyOp37
 70
     1
102
RTVSPropertyOp38
 70
     1
102
RTVSPropertyOp39
 70
     1
102
RTVSPropertyOp40
 70
     1
102
RTVSPropertyOp41
 70
     1
102
RTVSPropertyOp42
 70
     1
102
RTVSPropertyOp43
 70
     1
102
RTVSPropertyOp44
 70
     1
102
RTVSPropertyOp45
 70
     1
102
RTVSPropertyOp46
 70
     1
102
RTVSPropertyOp47
 70
     1
102
RTVSPropertyOp48
 70
     1
102
RTVSPropertyOp49
 70
     1
102
RTVSPropertyOp50
 70
     1
102
RTVSPropertyOp51
 70
     0
102
RTVSPropertyOp52
 70
     0
102
RTVSPropertyOp53
 70
     1
102
RTVSPropertyOp54
 70
     1
102
RTVSPropertyOp55
 70
     1
102
RTVSPropertyOp56
 70
     1
102
RTVSPropertyOp57
 70
     1
102
RTVSPost2010Prop28
280
     0
102
RTVSPost2010PropOp28
 70
     1
102
RTVSPost2010Prop29
280
     1
102
RTVSPost2010PropOp29
 70
     1
102
RTVSPost2010Prop30
280
     1
102
RTVSPost2010PropOp30
 70
     1
102
RTVSPost2010Prop31
280
     0
102
RTVSPost2010PropOp31
 70
     1
102
RTVSPost2010Prop32
280
     0
102
RTVSPost2010PropOp32
 70
     1
102
RTVSPost2010Prop33
280
     0
102
RTVSPost2010PropOp33
 70
     1
102
RTVSPost2010Prop34
280
     0
102
RTVSPost2010PropOp34
 70
     1
102
RTVSPost2010Prop35
280
     0
102
RTVSPost2010PropOp35
 70
     1
102
RTVSPost2010Prop36
280
     0
102
RTVSPost2010PropOp36
 70
     1
102
RTVSPost2010Prop37
 90
       50
102
RTVSPost2010PropOp37
 70
     1
102
RTVSPost2010Prop38
140
0.0
102
RTVSPost2010PropOp38
 70
     1
102
RTVSPost2010Prop39
140
1.0
102
RTVSPost2010PropOp39
 70
     1
102
RTVSPost2010Prop40
 90
        0
102
RTVSPost2010PropOp40
 70
     1
102
RTVSPost2010Prop41ColorIndex
 90
       18
102
RTVSPost2010Prop41ColorRGB
 90
        0
102
RTVSPost2010PropOp41
 70
     1
102
RTVSPost2010Prop42
 90
       50
102
RTVSPost2010PropOp42
 70
     1
102
RTVSPost2010Prop43
 90
        3
102
RTVSPost2010PropOp43
 70
     1
102
RTVSPost2010Prop44ColorIndex
 90
        5
102
RTVSPost2010Prop44ColorRGB
 90
      255
102
RTVSPost2010PropOp44
 70
     1
102
RTVSPost2010Prop45
280
     0
102
RTVSPost2010PropOp45
 70
     1
102
RTVSPost2010Prop46
 90
       50
102
RTVSPost2010PropOp46
 70
     1
102
RTVSPost2010Prop47
 90
       50
102
RTVSPost2010PropOp47
 70
     1
102
RTVSPost2010Prop48
 90
       50
102
RTVSPost2010PropOp48
 70
     1
102
RTVSPost2010Prop49
280
     0
102
RTVSPost2010PropOp49
 70
     1
102
RTVSPost2010Prop50
 90
       50
102
RTVSPost2010PropOp50
 70
     1
102
RTVSPost2010Prop51ColorIndex
 90
      256
102
RTVSPost2010Prop51ColorRGB
 90
-16777216
102
RTVSPost2010PropOp51
 70
     0
102
RTVSPost2010Prop52
140
1.0
102
RTVSPost2010PropOp52
 70
     0
102
RTVSPost2010Prop53
 90
        2
102
RTVSPost2010PropOp53
 70
     1
102
RTVSPost2010Prop54
  1
strokes_ogs.tif
102
RTVSPost2010PropOp54
 70
     1
102
RTVSPost2010Prop55
280
     0
102
RTVSPost2010PropOp55
 70
     1
102
RTVSPost2010Prop56
140
1.0
102
RTVSPost2010PropOp56
 70
     1
102
RTVSPost2010Prop57
140
1.0
102
RTVSPost2010PropOp57
 70
     1
  0
XRECORD
  5
9B70A
102
{ACAD_REACTORS
330
9B709
102
}
330
9B709
100
AcDbXrecord
280
     1
102
RTVSPropertyOp0
 70
     1
102
RTVSPropertyOp1
 70
     1
102
RTVSPropertyOp2
 70
     1
102
RTVSPropertyOp3
 70
     1
102
RTVSPropertyOp4
 70
     1
102
RTVSPropertyOp5
 70
     1
102
RTVSPropertyOp6
 70
     1
102
RTVSPropertyOp7
 70
     1
102
RTVSPropertyOp8
 70
     1
102
RTVSPropertyOp9
 70
     1
102
RTVSPropertyOp10
 70
     1
102
RTVSPropertyOp11
 70
     1
102
RTVSPropertyOp12
 70
     1
102
RTVSPropertyOp13
 70
     1
102
RTVSPropertyOp14
 70
     1
102
RTVSPropertyOp15
 70
     1
102
RTVSPropertyOp16
 70
     1
102
RTVSPropertyOp17
 70
     1
102
RTVSPropertyOp18
 70
     1
102
RTVSPropertyOp19
 70
     1
102
RTVSPropertyOp20
 70
     1
102
RTVSPropertyOp21
 70
     1
102
RTVSPropertyOp22
 70
     1
102
RTVSPropertyOp23
 70
     1
102
RTVSPropertyOp24
 70
     1
102
RTVSPropertyOp25
 70
     1
102
RTVSPropertyOp26
 70
     1
102
RTVSPropertyOp27
 70
     1
102
RTVSPropertyOp28
 70
     1
102
RTVSPropertyOp29
 70
     1
102
RTVSPropertyOp30
 70
     1
102
RTVSPropertyOp31
 70
     1
102
RTVSPropertyOp32
 70
     1
102
RTVSPropertyOp33
 70
     1
102
RTVSPropertyOp34
 70
     1
102
RTVSPropertyOp35
 70
     1
102
RTVSPropertyOp36
 70
     1
102
RTVSPropertyOp37
 70
     1
102
RTVSPropertyOp38
 70
     1
102
RTVSPropertyOp39
 70
     1
102
RTVSPropertyOp40
 70
     1
102
RTVSPropertyOp41
 70
     1
102
RTVSPropertyOp42
 70
     1
102
RTVSPropertyOp43
 70
     1
102
RTVSPropertyOp44
 70
     1
102
RTVSPropertyOp45
 70
     1
102
RTVSPropertyOp46
 70
     1
102
RTVSPropertyOp47
 70
     1
102
RTVSPropertyOp48
 70
     1
102
RTVSPropertyOp49
 70
     1
102
RTVSPropertyOp50
 70
     1
102
RTVSPropertyOp51
 70
     0
102
RTVSPropertyOp52
 70
     0
102
RTVSPropertyOp53
 70
     1
102
RTVSPropertyOp54
 70
     1
102
RTVSPropertyOp55
 70
     1
102
RTVSPropertyOp56
 70
     1
102
RTVSPropertyOp57
 70
     1
102
RTVSPost2010Prop28
280
     0
102
RTVSPost2010PropOp28
 70
     1
102
RTVSPost2010Prop29
280
     1
102
RTVSPost2010PropOp29
 70
     1
102
RTVSPost2010Prop30
280
     1
102
RTVSPost2010PropOp30
 70
     1
102
RTVSPost2010Prop31
280
     0
102
RTVSPost2010PropOp31
 70
     1
102
RTVSPost2010Prop32
280
     0
102
RTVSPost2010PropOp32
 70
     1
102
RTVSPost2010Prop33
280
     0
102
RTVSPost2010PropOp33
 70
     1
102
RTVSPost2010Prop34
280
     0
102
RTVSPost2010PropOp34
 70
     1
102
RTVSPost2010Prop35
280
     0
102
RTVSPost2010PropOp35
 70
     1
102
RTVSPost2010Prop36
280
     0
102
RTVSPost2010PropOp36
 70
     1
102
RTVSPost2010Prop37
 90
       50
102
RTVSPost2010PropOp37
 70
     1
102
RTVSPost2010Prop38
140
0.0
102
RTVSPost2010PropOp38
 70
     1
102
RTVSPost2010Prop39
140
1.0
102
RTVSPost2010PropOp39
 70
     1
102
RTVSPost2010Prop40
 90
        0
102
RTVSPost2010PropOp40
 70
     1
102
RTVSPost2010Prop41ColorIndex
 90
       18
102
RTVSPost2010Prop41ColorRGB
 90
        0
102
RTVSPost2010PropOp41
 70
     1
102
RTVSPost2010Prop42
 90
       50
102
RTVSPost2010PropOp42
 70
     1
102
RTVSPost2010Prop43
 90
        3
102
RTVSPost2010PropOp43
 70
     1
102
RTVSPost2010Prop44ColorIndex
 90
        5
102
RTVSPost2010Prop44ColorRGB
 90
      255
102
RTVSPost2010PropOp44
 70
     1
102
RTVSPost2010Prop45
280
     0
102
RTVSPost2010PropOp45
 70
     1
102
RTVSPost2010Prop46
 90
       50
102
RTVSPost2010PropOp46
 70
     1
102
RTVSPost2010Prop47
 90
       50
102
RTVSPost2010PropOp47
 70
     1
102
RTVSPost2010Prop48
 90
       50
102
RTVSPost2010PropOp48
 70
     1
102
RTVSPost2010Prop49
280
     0
102
RTVSPost2010PropOp49
 70
     1
102
RTVSPost2010Prop50
 90
       50
102
RTVSPost2010PropOp50
 70
     1
102
RTVSPost2010Prop51ColorIndex
 90
      256
102
RTVSPost2010Prop51ColorRGB
 90
-16777216
102
RTVSPost2010PropOp51
 70
     0
102
RTVSPost2010Prop52
140
1.0
102
RTVSPost2010PropOp52
 70
     0
102
RTVSPost2010Prop53
 90
        2
102
RTVSPost2010PropOp53
 70
     1
102
RTVSPost2010Prop54
  1
strokes_ogs.tif
102
RTVSPost2010PropOp54
 70
     1
102
RTVSPost2010Prop55
280
     0
102
RTVSPost2010PropOp55
 70
     1
102
RTVSPost2010Prop56
140
1.0
102
RTVSPost2010PropOp56
 70
     1
102
RTVSPost2010Prop57
140
1.0
102
RTVSPost2010PropOp57
 70
     1
  0
XRECORD
  5
9B70C
102
{ACAD_REACTORS
330
9B70B
102
}
330
9B70B
100
AcDbXrecord
280
     1
102
RTVSPropertyOp0
 70
     1
102
RTVSPropertyOp1
 70
     1
102
RTVSPropertyOp2
 70
     1
102
RTVSPropertyOp3
 70
     1
102
RTVSPropertyOp4
 70
     1
102
RTVSPropertyOp5
 70
     1
102
RTVSPropertyOp6
 70
     1
102
RTVSPropertyOp7
 70
     1
102
RTVSPropertyOp8
 70
     1
102
RTVSPropertyOp9
 70
     1
102
RTVSPropertyOp10
 70
     1
102
RTVSPropertyOp11
 70
     1
102
RTVSPropertyOp12
 70
     1
102
RTVSPropertyOp13
 70
     1
102
RTVSPropertyOp14
 70
     1
102
RTVSPropertyOp15
 70
     1
102
RTVSPropertyOp16
 70
     1
102
RTVSPropertyOp17
 70
     1
102
RTVSPropertyOp18
 70
     1
102
RTVSPropertyOp19
 70
     1
102
RTVSPropertyOp20
 70
     1
102
RTVSPropertyOp21
 70
     1
102
RTVSPropertyOp22
 70
     1
102
RTVSPropertyOp23
 70
     1
102
RTVSPropertyOp24
 70
     1
102
RTVSPropertyOp25
 70
     1
102
RTVSPropertyOp26
 70
     1
102
RTVSPropertyOp27
 70
     1
102
RTVSPropertyOp28
 70
     1
102
RTVSPropertyOp29
 70
     1
102
RTVSPropertyOp30
 70
     1
102
RTVSPropertyOp31
 70
     1
102
RTVSPropertyOp32
 70
     1
102
RTVSPropertyOp33
 70
     1
102
RTVSPropertyOp34
 70
     1
102
RTVSPropertyOp35
 70
     1
102
RTVSPropertyOp36
 70
     1
102
RTVSPropertyOp37
 70
     1
102
RTVSPropertyOp38
 70
     1
102
RTVSPropertyOp39
 70
     1
102
RTVSPropertyOp40
 70
     1
102
RTVSPropertyOp41
 70
     1
102
RTVSPropertyOp42
 70
     1
102
RTVSPropertyOp43
 70
     1
102
RTVSPropertyOp44
 70
     1
102
RTVSPropertyOp45
 70
     1
102
RTVSPropertyOp46
 70
     1
102
RTVSPropertyOp47
 70
     1
102
RTVSPropertyOp48
 70
     1
102
RTVSPropertyOp49
 70
     1
102
RTVSPropertyOp50
 70
     1
102
RTVSPropertyOp51
 70
     0
102
RTVSPropertyOp52
 70
     0
102
RTVSPropertyOp53
 70
     1
102
RTVSPropertyOp54
 70
     1
102
RTVSPropertyOp55
 70
     1
102
RTVSPropertyOp56
 70
     1
102
RTVSPropertyOp57
 70
     1
102
RTVSPost2010Prop28
280
     0
102
RTVSPost2010PropOp28
 70
     1
102
RTVSPost2010Prop29
280
     1
102
RTVSPost2010PropOp29
 70
     1
102
RTVSPost2010Prop30
280
     1
102
RTVSPost2010PropOp30
 70
     1
102
RTVSPost2010Prop31
280
     0
102
RTVSPost2010PropOp31
 70
     1
102
RTVSPost2010Prop32
280
     0
102
RTVSPost2010PropOp32
 70
     1
102
RTVSPost2010Prop33
280
     0
102
RTVSPost2010PropOp33
 70
     1
102
RTVSPost2010Prop34
280
     0
102
RTVSPost2010PropOp34
 70
     1
102
RTVSPost2010Prop35
280
     0
102
RTVSPost2010PropOp35
 70
     1
102
RTVSPost2010Prop36
280
     0
102
RTVSPost2010PropOp36
 70
     1
102
RTVSPost2010Prop37
 90
       50
102
RTVSPost2010PropOp37
 70
     1
102
RTVSPost2010Prop38
140
0.0
102
RTVSPost2010PropOp38
 70
     1
102
RTVSPost2010Prop39
140
1.0
102
RTVSPost2010PropOp39
 70
     1
102
RTVSPost2010Prop40
 90
        0
102
RTVSPost2010PropOp40
 70
     1
102
RTVSPost2010Prop41ColorIndex
 90
       18
102
RTVSPost2010Prop41ColorRGB
 90
        0
102
RTVSPost2010PropOp41
 70
     1
102
RTVSPost2010Prop42
 90
       50
102
RTVSPost2010PropOp42
 70
     1
102
RTVSPost2010Prop43
 90
        3
102
RTVSPost2010PropOp43
 70
     1
102
RTVSPost2010Prop44ColorIndex
 90
        5
102
RTVSPost2010Prop44ColorRGB
 90
      255
102
RTVSPost2010PropOp44
 70
     1
102
RTVSPost2010Prop45
280
     0
102
RTVSPost2010PropOp45
 70
     1
102
RTVSPost2010Prop46
 90
       50
102
RTVSPost2010PropOp46
 70
     1
102
RTVSPost2010Prop47
 90
       50
102
RTVSPost2010PropOp47
 70
     1
102
RTVSPost2010Prop48
 90
       50
102
RTVSPost2010PropOp48
 70
     1
102
RTVSPost2010Prop49
280
     0
102
RTVSPost2010PropOp49
 70
     1
102
RTVSPost2010Prop50
 90
       50
102
RTVSPost2010PropOp50
 70
     1
102
RTVSPost2010Prop51ColorIndex
 90
      256
102
RTVSPost2010Prop51ColorRGB
 90
-16777216
102
RTVSPost2010PropOp51
 70
     0
102
RTVSPost2010Prop52
140
1.0
102
RTVSPost2010PropOp52
 70
     0
102
RTVSPost2010Prop53
 90
        2
102
RTVSPost2010PropOp53
 70
     1
102
RTVSPost2010Prop54
  1
strokes_ogs.tif
102
RTVSPost2010PropOp54
 70
     1
102
RTVSPost2010Prop55
280
     0
102
RTVSPost2010PropOp55
 70
     1
102
RTVSPost2010Prop56
140
1.0
102
RTVSPost2010PropOp56
 70
     1
102
RTVSPost2010Prop57
140
1.0
102
RTVSPost2010PropOp57
 70
     1
  0
XRECORD
  5
9B70E
102
{ACAD_REACTORS
330
9B70D
102
}
330
9B70D
100
AcDbXrecord
280
     1
102
RTVSPropertyOp0
 70
     1
102
RTVSPropertyOp1
 70
     1
102
RTVSPropertyOp2
 70
     1
102
RTVSPropertyOp3
 70
     1
102
RTVSPropertyOp4
 70
     1
102
RTVSPropertyOp5
 70
     1
102
RTVSPropertyOp6
 70
     1
102
RTVSPropertyOp7
 70
     1
102
RTVSPropertyOp8
 70
     1
102
RTVSPropertyOp9
 70
     1
102
RTVSPropertyOp10
 70
     1
102
RTVSPropertyOp11
 70
     1
102
RTVSPropertyOp12
 70
     1
102
RTVSPropertyOp13
 70
     1
102
RTVSPropertyOp14
 70
     1
102
RTVSPropertyOp15
 70
     1
102
RTVSPropertyOp16
 70
     1
102
RTVSPropertyOp17
 70
     1
102
RTVSPropertyOp18
 70
     1
102
RTVSPropertyOp19
 70
     1
102
RTVSPropertyOp20
 70
     1
102
RTVSPropertyOp21
 70
     1
102
RTVSPropertyOp22
 70
     1
102
RTVSPropertyOp23
 70
     1
102
RTVSPropertyOp24
 70
     1
102
RTVSPropertyOp25
 70
     1
102
RTVSPropertyOp26
 70
     1
102
RTVSPropertyOp27
 70
     1
102
RTVSPropertyOp28
 70
     1
102
RTVSPropertyOp29
 70
     1
102
RTVSPropertyOp30
 70
     1
102
RTVSPropertyOp31
 70
     1
102
RTVSPropertyOp32
 70
     1
102
RTVSPropertyOp33
 70
     1
102
RTVSPropertyOp34
 70
     1
102
RTVSPropertyOp35
 70
     1
102
RTVSPropertyOp36
 70
     1
102
RTVSPropertyOp37
 70
     1
102
RTVSPropertyOp38
 70
     1
102
RTVSPropertyOp39
 70
     1
102
RTVSPropertyOp40
 70
     1
102
RTVSPropertyOp41
 70
     1
102
RTVSPropertyOp42
 70
     1
102
RTVSPropertyOp43
 70
     1
102
RTVSPropertyOp44
 70
     1
102
RTVSPropertyOp45
 70
     1
102
RTVSPropertyOp46
 70
     1
102
RTVSPropertyOp47
 70
     1
102
RTVSPropertyOp48
 70
     1
102
RTVSPropertyOp49
 70
     1
102
RTVSPropertyOp50
 70
     1
102
RTVSPropertyOp51
 70
     0
102
RTVSPropertyOp52
 70
     0
102
RTVSPropertyOp53
 70
     1
102
RTVSPropertyOp54
 70
     1
102
RTVSPropertyOp55
 70
     1
102
RTVSPropertyOp56
 70
     1
102
RTVSPropertyOp57
 70
     1
102
RTVSPost2010Prop28
280
     0
102
RTVSPost2010PropOp28
 70
     1
102
RTVSPost2010Prop29
280
     1
102
RTVSPost2010PropOp29
 70
     1
102
RTVSPost2010Prop30
280
     1
102
RTVSPost2010PropOp30
 70
     1
102
RTVSPost2010Prop31
280
     0
102
RTVSPost2010PropOp31
 70
     1
102
RTVSPost2010Prop32
280
     0
102
RTVSPost2010PropOp32
 70
     1
102
RTVSPost2010Prop33
280
     0
102
RTVSPost2010PropOp33
 70
     1
102
RTVSPost2010Prop34
280
     0
102
RTVSPost2010PropOp34
 70
     1
102
RTVSPost2010Prop35
280
     0
102
RTVSPost2010PropOp35
 70
     1
102
RTVSPost2010Prop36
280
     0
102
RTVSPost2010PropOp36
 70
     1
102
RTVSPost2010Prop37
 90
       50
102
RTVSPost2010PropOp37
 70
     1
102
RTVSPost2010Prop38
140
0.0
102
RTVSPost2010PropOp38
 70
     1
102
RTVSPost2010Prop39
140
1.0
102
RTVSPost2010PropOp39
 70
     1
102
RTVSPost2010Prop40
 90
        0
102
RTVSPost2010PropOp40
 70
     1
102
RTVSPost2010Prop41ColorIndex
 90
       18
102
RTVSPost2010Prop41ColorRGB
 90
        0
102
RTVSPost2010PropOp41
 70
     1
102
RTVSPost2010Prop42
 90
       50
102
RTVSPost2010PropOp42
 70
     1
102
RTVSPost2010Prop43
 90
        3
102
RTVSPost2010PropOp43
 70
     1
102
RTVSPost2010Prop44ColorIndex
 90
        5
102
RTVSPost2010Prop44ColorRGB
 90
      255
102
RTVSPost2010PropOp44
 70
     1
102
RTVSPost2010Prop45
280
     0
102
RTVSPost2010PropOp45
 70
     1
102
RTVSPost2010Prop46
 90
       50
102
RTVSPost2010PropOp46
 70
     1
102
RTVSPost2010Prop47
 90
       50
102
RTVSPost2010PropOp47
 70
     1
102
RTVSPost2010Prop48
 90
       50
102
RTVSPost2010PropOp48
 70
     1
102
RTVSPost2010Prop49
280
     0
102
RTVSPost2010PropOp49
 70
     1
102
RTVSPost2010Prop50
 90
       50
102
RTVSPost2010PropOp50
 70
     1
102
RTVSPost2010Prop51ColorIndex
 90
      256
102
RTVSPost2010Prop51ColorRGB
 90
-16777216
102
RTVSPost2010PropOp51
 70
     0
102
RTVSPost2010Prop52
140
1.0
102
RTVSPost2010PropOp52
 70
     0
102
RTVSPost2010Prop53
 90
        2
102
RTVSPost2010PropOp53
 70
     1
102
RTVSPost2010Prop54
  1
strokes_ogs.tif
102
RTVSPost2010PropOp54
 70
     1
102
RTVSPost2010Prop55
280
     0
102
RTVSPost2010PropOp55
 70
     1
102
RTVSPost2010Prop56
140
1.0
102
RTVSPost2010PropOp56
 70
     1
102
RTVSPost2010Prop57
140
1.0
102
RTVSPost2010PropOp57
 70
     1
  0
XRECORD
  5
9B710
102
{ACAD_REACTORS
330
9B70F
102
}
330
9B70F
100
AcDbXrecord
280
     1
102
RTVSPropertyOp0
 70
     1
102
RTVSPropertyOp1
 70
     1
102
RTVSPropertyOp2
 70
     1
102
RTVSPropertyOp3
 70
     1
102
RTVSPropertyOp4
 70
     1
102
RTVSPropertyOp5
 70
     1
102
RTVSPropertyOp6
 70
     1
102
RTVSPropertyOp7
 70
     1
102
RTVSPropertyOp8
 70
     1
102
RTVSPropertyOp9
 70
     1
102
RTVSPropertyOp10
 70
     1
102
RTVSPropertyOp11
 70
     1
102
RTVSPropertyOp12
 70
     1
102
RTVSPropertyOp13
 70
     1
102
RTVSPropertyOp14
 70
     1
102
RTVSPropertyOp15
 70
     1
102
RTVSPropertyOp16
 70
     1
102
RTVSPropertyOp17
 70
     1
102
RTVSPropertyOp18
 70
     1
102
RTVSPropertyOp19
 70
     1
102
RTVSPropertyOp20
 70
     1
102
RTVSPropertyOp21
 70
     1
102
RTVSPropertyOp22
 70
     1
102
RTVSPropertyOp23
 70
     1
102
RTVSPropertyOp24
 70
     1
102
RTVSPropertyOp25
 70
     1
102
RTVSPropertyOp26
 70
     1
102
RTVSPropertyOp27
 70
     1
102
RTVSPropertyOp28
 70
     1
102
RTVSPropertyOp29
 70
     1
102
RTVSPropertyOp30
 70
     1
102
RTVSPropertyOp31
 70
     1
102
RTVSPropertyOp32
 70
     1
102
RTVSPropertyOp33
 70
     1
102
RTVSPropertyOp34
 70
     1
102
RTVSPropertyOp35
 70
     1
102
RTVSPropertyOp36
 70
     1
102
RTVSPropertyOp37
 70
     1
102
RTVSPropertyOp38
 70
     1
102
RTVSPropertyOp39
 70
     1
102
RTVSPropertyOp40
 70
     1
102
RTVSPropertyOp41
 70
     1
102
RTVSPropertyOp42
 70
     1
102
RTVSPropertyOp43
 70
     1
102
RTVSPropertyOp44
 70
     1
102
RTVSPropertyOp45
 70
     1
102
RTVSPropertyOp46
 70
     1
102
RTVSPropertyOp47
 70
     1
102
RTVSPropertyOp48
 70
     1
102
RTVSPropertyOp49
 70
     1
102
RTVSPropertyOp50
 70
     1
102
RTVSPropertyOp51
 70
     0
102
RTVSPropertyOp52
 70
     0
102
RTVSPropertyOp53
 70
     1
102
RTVSPropertyOp54
 70
     1
102
RTVSPropertyOp55
 70
     1
102
RTVSPropertyOp56
 70
     1
102
RTVSPropertyOp57
 70
     1
102
RTVSPost2010Prop28
280
     0
102
RTVSPost2010PropOp28
 70
     1
102
RTVSPost2010Prop29
280
     1
102
RTVSPost2010PropOp29
 70
     1
102
RTVSPost2010Prop30
280
     1
102
RTVSPost2010PropOp30
 70
     1
102
RTVSPost2010Prop31
280
     0
102
RTVSPost2010PropOp31
 70
     1
102
RTVSPost2010Prop32
280
     0
102
RTVSPost2010PropOp32
 70
     1
102
RTVSPost2010Prop33
280
     0
102
RTVSPost2010PropOp33
 70
     1
102
RTVSPost2010Prop34
280
     0
102
RTVSPost2010PropOp34
 70
     1
102
RTVSPost2010Prop35
280
     0
102
RTVSPost2010PropOp35
 70
     1
102
RTVSPost2010Prop36
280
     0
102
RTVSPost2010PropOp36
 70
     1
102
RTVSPost2010Prop37
 90
       50
102
RTVSPost2010PropOp37
 70
     1
102
RTVSPost2010Prop38
140
0.0
102
RTVSPost2010PropOp38
 70
     1
102
RTVSPost2010Prop39
140
1.0
102
RTVSPost2010PropOp39
 70
     1
102
RTVSPost2010Prop40
 90
        0
102
RTVSPost2010PropOp40
 70
     1
102
RTVSPost2010Prop41ColorIndex
 90
       18
102
RTVSPost2010Prop41ColorRGB
 90
        0
102
RTVSPost2010PropOp41
 70
     1
102
RTVSPost2010Prop42
 90
       50
102
RTVSPost2010PropOp42
 70
     1
102
RTVSPost2010Prop43
 90
        3
102
RTVSPost2010PropOp43
 70
     1
102
RTVSPost2010Prop44ColorIndex
 90
        5
102
RTVSPost2010Prop44ColorRGB
 90
      255
102
RTVSPost2010PropOp44
 70
     1
102
RTVSPost2010Prop45
280
     0
102
RTVSPost2010PropOp45
 70
     1
102
RTVSPost2010Prop46
 90
       50
102
RTVSPost2010PropOp46
 70
     1
102
RTVSPost2010Prop47
 90
       50
102
RTVSPost2010PropOp47
 70
     1
102
RTVSPost2010Prop48
 90
       50
102
RTVSPost2010PropOp48
 70
     1
102
RTVSPost2010Prop49
280
     0
102
RTVSPost2010PropOp49
 70
     1
102
RTVSPost2010Prop50
 90
       50
102
RTVSPost2010PropOp50
 70
     1
102
RTVSPost2010Prop51ColorIndex
 90
      256
102
RTVSPost2010Prop51ColorRGB
 90
-16777216
102
RTVSPost2010PropOp51
 70
     0
102
RTVSPost2010Prop52
140
1.0
102
RTVSPost2010PropOp52
 70
     0
102
RTVSPost2010Prop53
 90
        2
102
RTVSPost2010PropOp53
 70
     1
102
RTVSPost2010Prop54
  1
strokes_ogs.tif
102
RTVSPost2010PropOp54
 70
     1
102
RTVSPost2010Prop55
280
     0
102
RTVSPost2010PropOp55
 70
     1
102
RTVSPost2010Prop56
140
1.0
102
RTVSPost2010PropOp56
 70
     1
102
RTVSPost2010Prop57
140
1.0
102
RTVSPost2010PropOp57
 70
     1
  0
XRECORD
  5
9B712
102
{ACAD_REACTORS
330
9B711
102
}
330
9B711
100
AcDbXrecord
280
     1
102
RTVSPropertyOp0
 70
     1
102
RTVSPropertyOp1
 70
     1
102
RTVSPropertyOp2
 70
     1
102
RTVSPropertyOp3
 70
     1
102
RTVSPropertyOp4
 70
     1
102
RTVSPropertyOp5
 70
     1
102
RTVSPropertyOp6
 70
     1
102
RTVSPropertyOp7
 70
     1
102
RTVSPropertyOp8
 70
     1
102
RTVSPropertyOp9
 70
     1
102
RTVSPropertyOp10
 70
     1
102
RTVSPropertyOp11
 70
     1
102
RTVSPropertyOp12
 70
     1
102
RTVSPropertyOp13
 70
     1
102
RTVSPropertyOp14
 70
     1
102
RTVSPropertyOp15
 70
     1
102
RTVSPropertyOp16
 70
     1
102
RTVSPropertyOp17
 70
     1
102
RTVSPropertyOp18
 70
     1
102
RTVSPropertyOp19
 70
     1
102
RTVSPropertyOp20
 70
     1
102
RTVSPropertyOp21
 70
     1
102
RTVSPropertyOp22
 70
     1
102
RTVSPropertyOp23
 70
     1
102
RTVSPropertyOp24
 70
     1
102
RTVSPropertyOp25
 70
     1
102
RTVSPropertyOp26
 70
     1
102
RTVSPropertyOp27
 70
     1
102
RTVSPropertyOp28
 70
     1
102
RTVSPropertyOp29
 70
     1
102
RTVSPropertyOp30
 70
     1
102
RTVSPropertyOp31
 70
     1
102
RTVSPropertyOp32
 70
     1
102
RTVSPropertyOp33
 70
     1
102
RTVSPropertyOp34
 70
     1
102
RTVSPropertyOp35
 70
     1
102
RTVSPropertyOp36
 70
     1
102
RTVSPropertyOp37
 70
     1
102
RTVSPropertyOp38
 70
     1
102
RTVSPropertyOp39
 70
     1
102
RTVSPropertyOp40
 70
     1
102
RTVSPropertyOp41
 70
     1
102
RTVSPropertyOp42
 70
     1
102
RTVSPropertyOp43
 70
     1
102
RTVSPropertyOp44
 70
     1
102
RTVSPropertyOp45
 70
     1
102
RTVSPropertyOp46
 70
     1
102
RTVSPropertyOp47
 70
     1
102
RTVSPropertyOp48
 70
     1
102
RTVSPropertyOp49
 70
     1
102
RTVSPropertyOp50
 70
     1
102
RTVSPropertyOp51
 70
     0
102
RTVSPropertyOp52
 70
     0
102
RTVSPropertyOp53
 70
     1
102
RTVSPropertyOp54
 70
     1
102
RTVSPropertyOp55
 70
     1
102
RTVSPropertyOp56
 70
     1
102
RTVSPropertyOp57
 70
     1
102
RTVSPost2010Prop28
280
     0
102
RTVSPost2010PropOp28
 70
     1
102
RTVSPost2010Prop29
280
     1
102
RTVSPost2010PropOp29
 70
     1
102
RTVSPost2010Prop30
280
     1
102
RTVSPost2010PropOp30
 70
     1
102
RTVSPost2010Prop31
280
     0
102
RTVSPost2010PropOp31
 70
     1
102
RTVSPost2010Prop32
280
     0
102
RTVSPost2010PropOp32
 70
     1
102
RTVSPost2010Prop33
280
     0
102
RTVSPost2010PropOp33
 70
     1
102
RTVSPost2010Prop34
280
     0
102
RTVSPost2010PropOp34
 70
     1
102
RTVSPost2010Prop35
280
     0
102
RTVSPost2010PropOp35
 70
     1
102
RTVSPost2010Prop36
280
     0
102
RTVSPost2010PropOp36
 70
     1
102
RTVSPost2010Prop37
 90
       50
102
RTVSPost2010PropOp37
 70
     1
102
RTVSPost2010Prop38
140
0.0
102
RTVSPost2010PropOp38
 70
     1
102
RTVSPost2010Prop39
140
1.0
102
RTVSPost2010PropOp39
 70
     1
102
RTVSPost2010Prop40
 90
        0
102
RTVSPost2010PropOp40
 70
     1
102
RTVSPost2010Prop41ColorIndex
 90
       18
102
RTVSPost2010Prop41ColorRGB
 90
        0
102
RTVSPost2010PropOp41
 70
     1
102
RTVSPost2010Prop42
 90
       50
102
RTVSPost2010PropOp42
 70
     1
102
RTVSPost2010Prop43
 90
        3
102
RTVSPost2010PropOp43
 70
     1
102
RTVSPost2010Prop44ColorIndex
 90
        5
102
RTVSPost2010Prop44ColorRGB
 90
      255
102
RTVSPost2010PropOp44
 70
     1
102
RTVSPost2010Prop45
280
     0
102
RTVSPost2010PropOp45
 70
     1
102
RTVSPost2010Prop46
 90
       50
102
RTVSPost2010PropOp46
 70
     1
102
RTVSPost2010Prop47
 90
       50
102
RTVSPost2010PropOp47
 70
     1
102
RTVSPost2010Prop48
 90
       50
102
RTVSPost2010PropOp48
 70
     1
102
RTVSPost2010Prop49
280
     0
102
RTVSPost2010PropOp49
 70
     1
102
RTVSPost2010Prop50
 90
       50
102
RTVSPost2010PropOp50
 70
     1
102
RTVSPost2010Prop51ColorIndex
 90
      256
102
RTVSPost2010Prop51ColorRGB
 90
-16777216
102
RTVSPost2010PropOp51
 70
     0
102
RTVSPost2010Prop52
140
1.0
102
RTVSPost2010PropOp52
 70
     0
102
RTVSPost2010Prop53
 90
        2
102
RTVSPost2010PropOp53
 70
     1
102
RTVSPost2010Prop54
  1
strokes_ogs.tif
102
RTVSPost2010PropOp54
 70
     1
102
RTVSPost2010Prop55
280
     0
102
RTVSPost2010PropOp55
 70
     1
102
RTVSPost2010Prop56
140
1.0
102
RTVSPost2010PropOp56
 70
     1
102
RTVSPost2010Prop57
140
1.0
102
RTVSPost2010PropOp57
 70
     1
  0
XRECORD
  5
9B714
102
{ACAD_REACTORS
330
9B713
102
}
330
9B713
100
AcDbXrecord
280
     1
102
RTVSPropertyOp0
 70
     1
102
RTVSPropertyOp1
 70
     1
102
RTVSPropertyOp2
 70
     1
102
RTVSPropertyOp3
 70
     1
102
RTVSPropertyOp4
 70
     1
102
RTVSPropertyOp5
 70
     1
102
RTVSPropertyOp6
 70
     1
102
RTVSPropertyOp7
 70
     1
102
RTVSPropertyOp8
 70
     1
102
RTVSPropertyOp9
 70
     1
102
RTVSPropertyOp10
 70
     1
102
RTVSPropertyOp11
 70
     1
102
RTVSPropertyOp12
 70
     1
102
RTVSPropertyOp13
 70
     1
102
RTVSPropertyOp14
 70
     1
102
RTVSPropertyOp15
 70
     1
102
RTVSPropertyOp16
 70
     1
102
RTVSPropertyOp17
 70
     1
102
RTVSPropertyOp18
 70
     1
102
RTVSPropertyOp19
 70
     1
102
RTVSPropertyOp20
 70
     1
102
RTVSPropertyOp21
 70
     1
102
RTVSPropertyOp22
 70
     1
102
RTVSPropertyOp23
 70
     1
102
RTVSPropertyOp24
 70
     1
102
RTVSPropertyOp25
 70
     1
102
RTVSPropertyOp26
 70
     1
102
RTVSPropertyOp27
 70
     1
102
RTVSPropertyOp28
 70
     1
102
RTVSPropertyOp29
 70
     1
102
RTVSPropertyOp30
 70
     1
102
RTVSPropertyOp31
 70
     1
102
RTVSPropertyOp32
 70
     1
102
RTVSPropertyOp33
 70
     1
102
RTVSPropertyOp34
 70
     1
102
RTVSPropertyOp35
 70
     1
102
RTVSPropertyOp36
 70
     1
102
RTVSPropertyOp37
 70
     1
102
RTVSPropertyOp38
 70
     1
102
RTVSPropertyOp39
 70
     1
102
RTVSPropertyOp40
 70
     1
102
RTVSPropertyOp41
 70
     1
102
RTVSPropertyOp42
 70
     1
102
RTVSPropertyOp43
 70
     1
102
RTVSPropertyOp44
 70
     1
102
RTVSPropertyOp45
 70
     1
102
RTVSPropertyOp46
 70
     1
102
RTVSPropertyOp47
 70
     1
102
RTVSPropertyOp48
 70
     1
102
RTVSPropertyOp49
 70
     1
102
RTVSPropertyOp50
 70
     1
102
RTVSPropertyOp51
 70
     0
102
RTVSPropertyOp52
 70
     0
102
RTVSPropertyOp53
 70
     1
102
RTVSPropertyOp54
 70
     1
102
RTVSPropertyOp55
 70
     1
102
RTVSPropertyOp56
 70
     1
102
RTVSPropertyOp57
 70
     1
102
RTVSPost2010Prop28
280
     0
102
RTVSPost2010PropOp28
 70
     1
102
RTVSPost2010Prop29
280
     1
102
RTVSPost2010PropOp29
 70
     1
102
RTVSPost2010Prop30
280
     1
102
RTVSPost2010PropOp30
 70
     1
102
RTVSPost2010Prop31
280
     0
102
RTVSPost2010PropOp31
 70
     1
102
RTVSPost2010Prop32
280
     0
102
RTVSPost2010PropOp32
 70
     1
102
RTVSPost2010Prop33
280
     0
102
RTVSPost2010PropOp33
 70
     1
102
RTVSPost2010Prop34
280
     0
102
RTVSPost2010PropOp34
 70
     1
102
RTVSPost2010Prop35
280
     0
102
RTVSPost2010PropOp35
 70
     1
102
RTVSPost2010Prop36
280
     0
102
RTVSPost2010PropOp36
 70
     1
102
RTVSPost2010Prop37
 90
       50
102
RTVSPost2010PropOp37
 70
     1
102
RTVSPost2010Prop38
140
0.0
102
RTVSPost2010PropOp38
 70
     1
102
RTVSPost2010Prop39
140
1.0
102
RTVSPost2010PropOp39
 70
     1
102
RTVSPost2010Prop40
 90
        0
102
RTVSPost2010PropOp40
 70
     1
102
RTVSPost2010Prop41ColorIndex
 90
       18
102
RTVSPost2010Prop41ColorRGB
 90
        0
102
RTVSPost2010PropOp41
 70
     1
102
RTVSPost2010Prop42
 90
       50
102
RTVSPost2010PropOp42
 70
     1
102
RTVSPost2010Prop43
 90
        3
102
RTVSPost2010PropOp43
 70
     1
102
RTVSPost2010Prop44ColorIndex
 90
        5
102
RTVSPost2010Prop44ColorRGB
 90
      255
102
RTVSPost2010PropOp44
 70
     1
102
RTVSPost2010Prop45
280
     0
102
RTVSPost2010PropOp45
 70
     1
102
RTVSPost2010Prop46
 90
       50
102
RTVSPost2010PropOp46
 70
     1
102
RTVSPost2010Prop47
 90
       50
102
RTVSPost2010PropOp47
 70
     1
102
RTVSPost2010Prop48
 90
       50
102
RTVSPost2010PropOp48
 70
     1
102
RTVSPost2010Prop49
280
     0
102
RTVSPost2010PropOp49
 70
     1
102
RTVSPost2010Prop50
 90
       50
102
RTVSPost2010PropOp50
 70
     1
102
RTVSPost2010Prop51ColorIndex
 90
      256
102
RTVSPost2010Prop51ColorRGB
 90
-16777216
102
RTVSPost2010PropOp51
 70
     0
102
RTVSPost2010Prop52
140
1.0
102
RTVSPost2010PropOp52
 70
     0
102
RTVSPost2010Prop53
 90
        2
102
RTVSPost2010PropOp53
 70
     1
102
RTVSPost2010Prop54
  1
strokes_ogs.tif
102
RTVSPost2010PropOp54
 70
     1
102
RTVSPost2010Prop55
280
     0
102
RTVSPost2010PropOp55
 70
     1
102
RTVSPost2010Prop56
140
1.0
102
RTVSPost2010PropOp56
 70
     1
102
RTVSPost2010Prop57
140
1.0
102
RTVSPost2010PropOp57
 70
     1
  0
ENDSEC
  0
EOF
