  0
SECTION
  2
HEADER
  9
$ACADVER
  1
AC1015
  9
$ACADMAINTVER
 70
     6
  9
$DWGCODEPAGE
  3
ANSI_932
  9
$INSBASE
 10
0.0
 20
0.0
 30
0.0
  9
$EXTMIN
 10
-1096.9014850001
 20
-1083.694766995239
 30
-0.0015258207003583
  9
$EXTMAX
 10
842.8730354175312
 20
532.5204254886703
 30
0.0000000349246037
  9
$LIMMIN
 10
-4267.152221060482
 20
-2696.083210198413
  9
$LIMMAX
 10
7190.717422586465
 20
5141.155363923066
  9
$ORTHOMODE
 70
     0
  9
$REGENMODE
 70
     1
  9
$FILLMODE
 70
     1
  9
$QTEXTMODE
 70
     0
  9
$MIRRTEXT
 70
     0
  9
$LTSCALE
 40
20.0
  9
$ATTMODE
 70
     1
  9
$TEXTSIZE
 40
60.0
  9
$TRACEWID
 40
0.05
  9
$TEXTSTYLE
  7
STANDARD1
  9
$CLAYER
  8
NOTE
  9
$CELTYPE
  6
BYLAYER
  9
$CECOLOR
 62
   256
  9
$CELTSCALE
 40
1.0
  9
$DISPSILH
 70
     0
  9
$DIMSCALE
 40
1.0
  9
$DIMASZ
 40
30.0
  9
$DIMEXO
 40
20.0
  9
$DIMDLI
 40
80.0
  9
$DIMRND
 40
0.0
  9
$DIMDLE
 40
0.0
  9
$DIMEXE
 40
20.0
  9
$DIMTP
 40
0.0
  9
$DIMTM
 40
0.0
  9
$DIMTXT
 40
40.0
  9
$DIMCEN
 40
0.09
  9
$DIMTSZ
 40
0.0
  9
$DIMTOL
 70
     0
  9
$DIMLIM
 70
     0
  9
$DIMTIH
 70
     0
  9
$DIMTOH
 70
     0
  9
$DIMSE1
 70
     0
  9
$DIMSE2
 70
     0
  9
$DIMTAD
 70
     1
  9
$DIMZIN
 70
     8
  9
$DIMBLK
  1
Small
  9
$DIMASO
 70
     1
  9
$DIMSHO
 70
     0
  9
$DIMPOST
  1

  9
$DIMAPOST
  1

  9
$DIMALT
 70
     0
  9
$DIMALTD
 70
     2
  9
$DIMALTF
 40
25.4
  9
$DIMLFAC
 40
1.0
  9
$DIMTOFL
 70
     1
  9
$DIMTVP
 40
0.0
  9
$DIMTIX
 70
     0
  9
$DIMSOXD
 70
     0
  9
$DIMSAH
 70
     0
  9
$DIMBLK1
  1

  9
$DIMBLK2
  1

  9
$DIMSTYLE
  2
kaigai_CADSYMBOL
  9
$DIMCLRD
 70
     0
  9
$DIMCLRE
 70
     0
  9
$DIMCLRT
 70
     0
  9
$DIMTFAC
 40
1.0
  9
$DIMGAP
 40
20.0
  9
$DIMJUST
 70
     0
  9
$DIMSD1
 70
     0
  9
$DIMSD2
 70
     0
  9
$DIMTOLJ
 70
     1
  9
$DIMTZIN
 70
     0
  9
$DIMALTZ
 70
     0
  9
$DIMALTTZ
 70
     0
  9
$DIMUPT
 70
     0
  9
$DIMDEC
 70
     1
  9
$DIMTDEC
 70
     1
  9
$DIMALTU
 70
     2
  9
$DIMALTTD
 70
     2
  9
$DIMTXSTY
  7
STANDARD
  9
$DIMAUNIT
 70
     0
  9
$DIMADEC
 70
     0
  9
$DIMALTRND
 40
0.0
  9
$DIMAZIN
 70
     2
  9
$DIMDSEP
 70
    46
  9
$DIMATFIT
 70
     3
  9
$DIMFRAC
 70
     0
  9
$DIMLDRBLK
  1
Open30
  9
$DIMLUNIT
 70
     2
  9
$DIMLWD
 70
    -2
  9
$DIMLWE
 70
    -2
  9
$DIMTMOVE
 70
     0
  9
$LUNITS
 70
     2
  9
$LUPREC
 70
     4
  9
$SKETCHINC
 40
0.1
  9
$FILLETRAD
 40
0.0
  9
$AUNITS
 70
     1
  9
$AUPREC
 70
     3
  9
$MENU
  1
ACAD
  9
$ELEVATION
 40
0.0
  9
$PELEVATION
 40
0.0
  9
$THICKNESS
 40
0.0
  9
$LIMCHECK
 70
     0
  9
$CHAMFERA
 40
0.0
  9
$CHAMFERB
 40
0.0
  9
$CHAMFERC
 40
0.0
  9
$CHAMFERD
 40
0.0
  9
$SKPOLY
 70
     0
  9
$TDCREATE
 40
2455902.607169062
  9
$TDUCREATE
 40
2455902.232169062
  9
$TDUPDATE
 40
2459459.516733044
  9
$TDUUPDATE
 40
2459459.141733044
  9
$TDINDWG
 40
1.6968386806
  9
$TDUSRTIMER
 40
1.6968350579
  9
$USRTIMER
 70
     1
  9
$ANGBASE
 50
0.0
  9
$ANGDIR
 70
     0
  9
$PDMODE
 70
     3
  9
$PDSIZE
 40
-2.0
  9
$PLINEWID
 40
0.0
  9
$SPLFRAME
 70
     0
  9
$SPLINETYPE
 70
     6
  9
$SPLINESEGS
 70
     8
  9
$HANDSEED
  5
9B707
  9
$SURFTAB1
 70
     6
  9
$SURFTAB2
 70
     6
  9
$SURFTYPE
 70
     6
  9
$SURFU
 70
     6
  9
$SURFV
 70
     6
  9
$UCSBASE
  2

  9
$UCSNAME
  2

  9
$UCSORG
 10
0.0
 20
0.0
 30
0.0
  9
$UCSXDIR
 10
1.0
 20
0.0
 30
0.0
  9
$UCSYDIR
 10
0.0
 20
1.0
 30
0.0
  9
$UCSORTHOREF
  2

  9
$UCSORTHOVIEW
 70
     0
  9
$UCSORGTOP
 10
0.0
 20
0.0
 30
0.0
  9
$UCSORGBOTTOM
 10
0.0
 20
0.0
 30
0.0
  9
$UCSORGLEFT
 10
0.0
 20
0.0
 30
0.0
  9
$UCSORGRIGHT
 10
0.0
 20
0.0
 30
0.0
  9
$UCSORGFRONT
 10
0.0
 20
0.0
 30
0.0
  9
$UCSORGBACK
 10
0.0
 20
0.0
 30
0.0
  9
$PUCSBASE
  2

  9
$PUCSNAME
  2

  9
$PUCSORG
 10
0.0
 20
0.0
 30
0.0
  9
$PUCSXDIR
 10
1.0
 20
0.0
 30
0.0
  9
$PUCSYDIR
 10
0.0
 20
1.0
 30
0.0
  9
$PUCSORTHOREF
  2

  9
$PUCSORTHOVIEW
 70
     0
  9
$PUCSORGTOP
 10
0.0
 20
0.0
 30
0.0
  9
$PUCSORGBOTTOM
 10
0.0
 20
0.0
 30
0.0
  9
$PUCSORGLEFT
 10
0.0
 20
0.0
 30
0.0
  9
$PUCSORGRIGHT
 10
0.0
 20
0.0
 30
0.0
  9
$PUCSORGFRONT
 10
0.0
 20
0.0
 30
0.0
  9
$PUCSORGBACK
 10
0.0
 20
0.0
 30
0.0
  9
$USERI1
 70
     0
  9
$USERI2
 70
     0
  9
$USERI3
 70
     0
  9
$USERI4
 70
     0
  9
$USERI5
 70
     0
  9
$USERR1
 40
20.0
  9
$USERR2
 40
0.0
  9
$USERR3
 40
0.0
  9
$USERR4
 40
0.0
  9
$USERR5
 40
0.0
  9
$WORLDVIEW
 70
     1
  9
$SHADEDGE
 70
     3
  9
$SHADEDIF
 70
    70
  9
$TILEMODE
 70
     1
  9
$MAXACTVP
 70
    48
  9
$PINSBASE
 10
0.0
 20
0.0
 30
0.0
  9
$PLIMCHECK
 70
     0
  9
$PEXTMIN
 10
1.000000000000000E+20
 20
1.000000000000000E+20
 30
1.000000000000000E+20
  9
$PEXTMAX
 10
-1.000000000000000E+20
 20
-1.000000000000000E+20
 30
-1.000000000000000E+20
  9
$PLIMMIN
 10
0.0
 20
0.0
  9
$PLIMMAX
 10
12.0
 20
9.0
  9
$UNITMODE
 70
     0
  9
$VISRETAIN
 70
     1
  9
$PLINEGEN
 70
     0
  9
$PSLTSCALE
 70
     1
  9
$TREEDEPTH
 70
  3020
  9
$CMLSTYLE
  2
STANDARD
  9
$CMLJUST
 70
     0
  9
$CMLSCALE
 40
1.0
  9
$PROXYGRAPHICS
 70
     1
  9
$MEASUREMENT
 70
     0
  9
$CELWEIGHT
370
    -1
  9
$ENDCAPS
280
     0
  9
$JOINSTYLE
280
     0
  9
$LWDISPLAY
290
     0
  9
$INSUNITS
 70
     0
  9
$HYPERLINKBASE
  1

  9
$STYLESHEET
  1
monochrome.ctb
  9
$XEDIT
290
     1
  9
$CEPSNTYPE
380
     0
  9
$PSTYLEMODE
290
     1
  9
$FINGERPRINTGUID
  2
{E0B14F79-3871-45BD-B89A-A0F693FE2771}
  9
$VERSIONGUID
  2
{F3B8F382-100D-4804-839B-42B69A240302}
  9
$EXTNAMES
290
     1
  9
$PSVPSCALE
 40
0.0
  9
$OLESTARTUP
290
     0
  0
ENDSEC
  0
SECTION
  2
CLASSES
  0
CLASS
  1
ACDBDICTIONARYWDFLT
  2
AcDbDictionaryWithDefault
  3
ObjectDBX Classes
 90
        0
280
     0
281
     0
  0
CLASS
  1
ACDBPLACEHOLDER
  2
AcDbPlaceHolder
  3
ObjectDBX Classes
 90
        0
280
     0
281
     0
  0
CLASS
  1
LAYOUT
  2
AcDbLayout
  3
ObjectDBX Classes
 90
        0
280
     0
281
     0
  0
CLASS
  1
DICTIONARYVAR
  2
AcDbDictionaryVar
  3
ObjectDBX Classes
 90
        0
280
     0
281
     0
  0
CLASS
  1
SORTENTSTABLE
  2
AcDbSortentsTable
  3
ObjectDBX Classes
 90
        0
280
     0
281
     0
  0
CLASS
  1
MATERIAL
  2
AcDbMaterial
  3
ObjectDBX Classes
 90
     1153
280
     0
281
     0
  0
CLASS
  1
VISUALSTYLE
  2
AcDbVisualStyle
  3
ObjectDBX Classes
 90
     4095
280
     0
281
     0
  0
CLASS
  1
TABLESTYLE
  2
AcDbTableStyle
  3
ObjectDBX Classes
 90
     4095
280
     0
281
     0
  0
CLASS
  1
SCALE
  2
AcDbScale
  3
ObjectDBX Classes
 90
     1153
280
     0
281
     0
  0
CLASS
  1
MLEADERSTYLE
  2
AcDbMLeaderStyle
  3
ACDB_MLEADERSTYLE_CLASS
 90
     4095
280
     0
281
     0
  0
CLASS
  1
CELLSTYLEMAP
  2
AcDbCellStyleMap
  3
ObjectDBX Classes
 90
     1152
280
     0
281
     0
  0
CLASS
  1
ACARRAYJIGENTITY
  2
AcArrayJigEntity
  3
ACAD_ARRAY
 90
      129
280
     1
281
     1
  0
CLASS
  1
ACDBASSOCNETWORK
  2
AcDbAssocNetwork
  3
ObjectDBX Classes
 90
     1025
280
     1
281
     0
  0
CLASS
  1
ACDBASSOCACTION
  2
AcDbAssocAction
  3
ObjectDBX Classes
 90
     1025
280
     1
281
     0
  0
CLASS
  1
ACDBASSOCARRAYACTIONBODY
  2
AcDbAssocArrayActionBody
  3
ObjectDBX Classes
 90
     1025
280
     1
281
     0
  0
CLASS
  1
ACDBASSOCVERTEXACTIONPARAM
  2
AcDbAssocVertexActionParam
  3
ObjectDBX Classes
 90
     1025
280
     1
281
     0
  0
CLASS
  1
ACDBASSOCDEPENDENCY
  2
AcDbAssocDependency
  3
ObjectDBX Classes
 90
     1025
280
     1
281
     0
  0
CLASS
  1
ACDBASSOCARRAYRECTANGULARPARAMETERS
  2
AcDbAssocArrayRectangularParameters
  3
ObjectDBX Classes
 90
     1025
280
     1
281
     0
  0
CLASS
  1
ACAD_EVALUATION_GRAPH
  2
AcDbEvalGraph
  3
ObjectDBX Classes
 90
     1153
280
     1
281
     0
  0
CLASS
  1
ACAECUSTOBJ
  2
AcAeEditorObj
  3
AcAeEditorObj
 90
     1024
280
     1
281
     0
  0
CLASS
  1
ACDB_DYNAMICBLOCKPURGEPREVENTER_VERSION
  2
AcDbDynamicBlockPurgePreventer
  3
ObjectDBX Classes
 90
     1153
280
     1
281
     0
  0
CLASS
  1
ACDBSECTIONVIEWSTYLE
  2
AcDbSectionViewStyle
  3
ObjectDBX Classes
 90
     1025
280
     0
281
     0
  0
CLASS
  1
ACDBDETAILVIEWSTYLE
  2
AcDbDetailViewStyle
  3
ObjectDBX Classes
 90
     1025
280
     0
281
     0
  0
ENDSEC
  0
SECTION
  2
TABLES
  0
TABLE
  2
VPORT
  5
8
102
{ACAD_XDICTIONARY
360
70D15
102
}
330
0
100
AcDbSymbolTable
 70
     1
  0
VPORT
  5
513CD
330
8
100
AcDbSymbolTableRecord
100
AcDbViewportTableRecord
  2
*Active
 70
     0
 10
0.0
 20
0.0
 11
1.0
 21
1.0
 12
-127.0142247912845
 22
-275.5871707532842
 13
0.0
 23
0.0
 14
50.0
 24
50.0
 15
100.0
 25
100.0
 16
0.0
 26
0.0
 36
1.0
 17
0.0
 27
0.0
 37
0.0
 40
1628.941296361735
 41
2.446780551905387
 42
50.0
 43
0.0
 44
0.0
 50
0.0
 51
0.0
 71
     0
 72
  1000
 73
     1
 74
     0
 75
     0
 76
     0
 77
     0
 78
     0
281
     0
 65
     1
110
0.0
120
0.0
130
0.0
111
1.0
121
0.0
131
0.0
112
0.0
122
1.0
132
0.0
 79
     0
146
0.0
1001
ACAD_NAV_VCDISPLAY
1070
     3
  0
ENDTAB
  0
TABLE
  2
LTYPE
  5
5
330
0
100
AcDbSymbolTable
 70
     2
  0
LTYPE
  5
12
330
5
100
AcDbSymbolTableRecord
100
AcDbLinetypeTableRecord
  2
BYBLOCK
 70
     0
  3

 72
    65
 73
     0
 40
0.0
  0
LTYPE
  5
13
330
5
100
AcDbSymbolTableRecord
100
AcDbLinetypeTableRecord
  2
BYLAYER
 70
     0
  3

 72
    65
 73
     0
 40
0.0
  0
LTYPE
  5
14
330
5
100
AcDbSymbolTableRecord
100
AcDbLinetypeTableRecord
  2
CONTINUOUS
 70
     0
  3
実線
 72
    65
 73
     0
 40
0.0
  0
LTYPE
  5
1F
330
5
100
AcDbSymbolTableRecord
100
AcDbLinetypeTableRecord
  2
DASHDOT
 70
     0
  3
____ _ ____ _ ____ _ ____ _ ____ _ ____ _ ____
 72
    65
 73
     4
 40
5.5
 49
4.0
 74
     0
 49
-0.6
 74
     0
 49
0.3
 74
     0
 49
-0.6
 74
     0
  0
ENDTAB
  0
TABLE
  2
LAYER
  5
2
102
{ACAD_XDICTIONARY
360
5148D
102
}
330
0
100
AcDbSymbolTable
 70
    12
  0
LAYER
  5
E
102
{ACAD_XDICTIONARY
360
5144C
102
}
330
2
100
AcDbSymbolTableRecord
100
AcDbLayerTableRecord
  2
0
 70
     0
 62
     7
  6
CONTINUOUS
370
    -3
390
21F0
  0
LAYER
  5
25
102
{ACAD_XDICTIONARY
360
5144E
102
}
330
2
100
AcDbSymbolTableRecord
100
AcDbLayerTableRecord
  2
OUTLINE
 70
     0
 62
     3
  6
CONTINUOUS
370
    -3
390
21F0
  0
LAYER
  5
26
102
{ACAD_XDICTIONARY
360
51450
102
}
330
2
100
AcDbSymbolTableRecord
100
AcDbLayerTableRecord
  2
DETAIL
 70
     0
 62
     5
  6
CONTINUOUS
370
    -3
390
21F0
  0
LAYER
  5
27
102
{ACAD_XDICTIONARY
360
51452
102
}
330
2
100
AcDbSymbolTableRecord
100
AcDbLayerTableRecord
  2
BASIS
 70
     0
 62
     6
  6
DASHDOT
370
    -3
390
21F0
  0
LAYER
  5
28
102
{ACAD_XDICTIONARY
360
51454
102
}
330
2
100
AcDbSymbolTableRecord
100
AcDbLayerTableRecord
  2
SIZE
 70
     0
 62
    30
  6
CONTINUOUS
370
    -3
390
21F0
  0
LAYER
  5
29
102
{ACAD_XDICTIONARY
360
51456
102
}
330
2
100
AcDbSymbolTableRecord
100
AcDbLayerTableRecord
  2
NOTE
 70
     0
 62
     4
  6
CONTINUOUS
370
    -3
390
21F0
  0
LAYER
  5
2A
330
2
100
AcDbSymbolTableRecord
100
AcDbLayerTableRecord
  2
DEFPOINTS
 70
     0
 62
     7
  6
CONTINUOUS
290
     0
370
    -3
390
21F0
  0
LAYER
  5
2B
102
{ACAD_XDICTIONARY
360
51458
102
}
330
2
100
AcDbSymbolTableRecord
100
AcDbLayerTableRecord
  2
FIX
 70
     0
 62
    11
  6
CONTINUOUS
370
    -3
390
21F0
  0
LAYER
  5
2C
102
{ACAD_XDICTIONARY
360
5145A
102
}
330
2
100
AcDbSymbolTableRecord
100
AcDbLayerTableRecord
  2
ARRANGE
 70
     0
 62
     1
  6
CONTINUOUS
370
    -3
390
21F0
  0
LAYER
  5
2D
102
{ACAD_XDICTIONARY
360
5145C
102
}
330
2
100
AcDbSymbolTableRecord
100
AcDbLayerTableRecord
  2
ETC
 70
     0
 62
    61
  6
CONTINUOUS
370
    -3
390
21F0
  0
LAYER
  5
85433
330
2
100
AcDbSymbolTableRecord
100
AcDbLayerTableRecord
  2
SERVICESPACE
 70
     0
 62
     2
  6
DASHDOT
370
    -3
390
21F0
  0
LAYER
  5
85435
330
2
100
AcDbSymbolTableRecord
100
AcDbLayerTableRecord
  2
SYMBOLLINE
 70
     0
 62
    15
  6
CONTINUOUS
370
    -3
390
21F0
  0
ENDTAB
  0
TABLE
  2
STYLE
  5
3
330
0
100
AcDbSymbolTable
 70
     5
  0
STYLE
  5
F
330
3
100
AcDbSymbolTableRecord
100
AcDbTextStyleTableRecord
  2
STANDARD
 70
     0
 40
0.0
 41
0.9
 50
0.0
 71
     0
 42
64.0
  3
SIMPLEX
  4
BIGFONT
  0
STYLE
  5
30
330
3
100
AcDbSymbolTableRecord
100
AcDbTextStyleTableRecord
  2
STANDARD1
 70
     0
 40
60.0
 41
0.7
 50
0.0
 71
     0
 42
60.0
  3
MONOTXT.shx
  4
BIGFONT.shx
  0
STYLE
  5
51425
330
3
100
AcDbSymbolTableRecord
100
AcDbTextStyleTableRecord
  2
STANDARD_MODELNAME
 70
     0
 40
80.0
 41
0.8
 50
0.0
 71
     0
 42
64.0
  3
MONOTXT.shx
  4
BIGFONT.shx
  0
STYLE
  5
6FACE
330
3
100
AcDbSymbolTableRecord
100
AcDbTextStyleTableRecord
  2
kaigai_standard_1
 70
     0
 40
53.0
 41
0.51
 50
0.0
 71
     0
 42
53.0
  3
MONOTXT.shx
  4
BIGFONT.shx
  0
STYLE
  5
9B34A
330
3
100
AcDbSymbolTableRecord
100
AcDbTextStyleTableRecord
  2
スタイル1
 70
     0
 40
0.0
 41
1.0
 50
0.0
 71
     0
 42
3.0
  3
exthalf2.shx
  4
extfont2.shx
  0
ENDTAB
  0
TABLE
  2
VIEW
  5
6
330
0
100
AcDbSymbolTable
 70
     1
  0
VIEW
  5
31
330
6
100
AcDbSymbolTableRecord
100
AcDbViewTableRecord
  2
ALL
 70
     0
 40
9000.0
 10
241.506647
 20
0.0
 41
12483.01
 11
0.0
 21
0.0
 31
1.0
 12
0.0
 22
0.0
 32
0.0
 42
50.0
 43
0.0
 44
0.0
 50
0.0
 71
     0
281
     0
 72
     0
  0
ENDTAB
  0
TABLE
  2
UCS
  5
7
330
0
100
AcDbSymbolTable
 70
     0
  0
ENDTAB
  0
TABLE
  2
APPID
  5
9
330
0
100
AcDbSymbolTable
 70
    16
  0
APPID
  5
10
330
9
100
AcDbSymbolTableRecord
100
AcDbRegAppTableRecord
  2
ACAD
 70
     0
  0
APPID
  5
51420
330
9
100
AcDbSymbolTableRecord
100
AcDbRegAppTableRecord
  2
ACAD_MLEADERVER
 70
     0
  0
APPID
  5
51424
330
9
100
AcDbSymbolTableRecord
100
AcDbRegAppTableRecord
  2
AcadAnnoPO
 70
     0
  0
APPID
  5
6B6C8
330
9
100
AcDbSymbolTableRecord
100
AcDbRegAppTableRecord
  2
ACAD_PSEXT
 70
     0
  0
APPID
  5
6CFAF
330
9
100
AcDbSymbolTableRecord
100
AcDbRegAppTableRecord
  2
ACAD_EXEMPT_FROM_CAD_STANDARDS
 70
     0
  0
APPID
  5
6E4A4
330
9
100
AcDbSymbolTableRecord
100
AcDbRegAppTableRecord
  2
ACAD_DSTYLE_DIMJAG
 70
     0
  0
APPID
  5
6E4A5
330
9
100
AcDbSymbolTableRecord
100
AcDbRegAppTableRecord
  2
ACAD_DSTYLE_DIMTALN
 70
     0
  0
APPID
  5
6EF6C
330
9
100
AcDbSymbolTableRecord
100
AcDbRegAppTableRecord
  2
ACAD_DSTYLE_DIMBREAK
 70
     0
  0
APPID
  5
70D0F
330
9
100
AcDbSymbolTableRecord
100
AcDbRegAppTableRecord
  2
ACAD_NAV_VCDISPLAY
 70
     0
  0
APPID
  5
990C9
330
9
100
AcDbSymbolTableRecord
100
AcDbRegAppTableRecord
  2
ACAUTHENVIRON
 70
     0
  0
APPID
  5
990CD
330
9
100
AcDbSymbolTableRecord
100
AcDbRegAppTableRecord
  2
AcDbDynamicBlockTrueName
 70
     0
  0
APPID
  5
990CE
330
9
100
AcDbSymbolTableRecord
100
AcDbRegAppTableRecord
  2
AcDbDynamicBlockGUID
 70
     0
  0
APPID
  5
9B34D
330
9
100
AcDbSymbolTableRecord
100
AcDbRegAppTableRecord
  2
AcLayerTools
 70
     0
  0
APPID
  5
9B6BF
330
9
100
AcDbSymbolTableRecord
100
AcDbRegAppTableRecord
  2
ACAD_DSTYLE_DIM_LINETYPE
 70
     0
  0
APPID
  5
9B6C0
330
9
100
AcDbSymbolTableRecord
100
AcDbRegAppTableRecord
  2
ACAD_DSTYLE_DIM_EXT1_LINETYPE
 70
     0
  0
APPID
  5
9B6C1
330
9
100
AcDbSymbolTableRecord
100
AcDbRegAppTableRecord
  2
ACAD_DSTYLE_DIM_EXT2_LINETYPE
 70
     0
  0
ENDTAB
  0
TABLE
  2
DIMSTYLE
  5
A
330
0
100
AcDbSymbolTable
 70
     4
100
AcDbDimStyleTable
  0
DIMSTYLE
105
138
330
A
100
AcDbSymbolTableRecord
100
AcDbDimStyleTableRecord
  2
STANDARD
 70
     0
 73
     0
 74
     0
 77
     1
140
40.0
147
15.0
178
     0
340
F
1001
ACAD_DSTYLE_DIMJAG
1070
   388
1040
1.5
1001
ACAD_DSTYLE_DIMTALN
1070
   392
1070
     0
  0
DIMSTYLE
105
6EF6D
330
A
100
AcDbSymbolTableRecord
100
AcDbDimStyleTableRecord
  2
kaigai_CADSYMBOL
 70
     0
 41
30.0
 42
20.0
 43
80.0
 44
20.0
 73
     0
 74
     0
 77
     1
 78
     8
 79
     2
140
40.0
147
20.0
172
     1
178
     0
271
     1
272
     1
340
F
341
4C0C3
342
4C0BF
1001
ACAD_DSTYLE_DIMBREAK
1070
   391
1040
0.125
1001
ACAD_DSTYLE_DIMJAG
1070
   388
1040
1.5
1001
ACAD_DSTYLE_DIMTALN
1070
   392
1070
     0
  0
DIMSTYLE
105
9B34B
330
A
100
AcDbSymbolTableRecord
100
AcDbDimStyleTableRecord
  2
CADSYMBOL
 70
     0
 41
30.0
 42
20.0
 43
80.0
 44
20.0
 73
     0
 74
     0
 77
     1
 78
     8
 79
     2
140
60.0
147
20.0
172
     1
178
     0
271
     1
272
     1
340
F
341
4C0C3
342
4C0BF
1001
ACAD_DSTYLE_DIMJAG
1070
   388
1040
1.5
1001
ACAD_DSTYLE_DIMTALN
1070
   392
1070
     0
  0
DIMSTYLE
105
9B34C
330
A
100
AcDbSymbolTableRecord
100
AcDbDimStyleTableRecord
  2
AM_スタイル1
 70
     0
 41
2.0
 42
0.7
 43
6.0
 44
0.7
 73
     0
 74
     0
 77
     3
 78
     8
140
3.2
141
-3.0
147
1.0
172
     1
174
     1
176
   256
177
   256
271
     1
178
   256
271
     1
272
     1
284
     8
289
     0
340
9B34A
341
4C0C3
342
4C0C3
371
    13
372
    13
1001
ACAD_DSTYLE_DIMBREAK
1070
   391
1040
3.75
1001
ACAD_DSTYLE_DIMJAG
1070
   388
1040
1.5
1001
ACAD_DSTYLE_DIMTALN
1070
   392
1070
     0
1001
ACAD_DSTYLE_DIM_LINETYPE
1070
   380
1005
13
1001
ACAD_DSTYLE_DIM_EXT1_LINETYPE
1070
   381
1005
13
1001
ACAD_DSTYLE_DIM_EXT2_LINETYPE
1070
   382
1005
13
  0
ENDTAB
  0
TABLE
  2
BLOCK_RECORD
  5
1
330
0
100
AcDbSymbolTable
 70
     4
  0
BLOCK_RECORD
  5
18
102
{ACAD_XDICTIONARY
360
28B3
102
}
330
1
100
AcDbSymbolTableRecord
100
AcDbBlockTableRecord
  2
*MODEL_SPACE
340
21F3
  0
BLOCK_RECORD
  5
15
330
1
100
AcDbSymbolTableRecord
100
AcDbBlockTableRecord
  2
*PAPER_SPACE
340
21F4
  0
BLOCK_RECORD
  5
4C0BF
330
1
100
AcDbSymbolTableRecord
100
AcDbBlockTableRecord
  2
_Small
340
0
  0
BLOCK_RECORD
  5
4C0C3
330
1
100
AcDbSymbolTableRecord
100
AcDbBlockTableRecord
  2
_Open30
340
0
1001
AcDbDynamicBlockGUID
1000
{CF3FF556-EE00-416E-9104-4A9DDFC40C99}
  0
BLOCK_RECORD
  5
992F8
330
1
100
AcDbSymbolTableRecord
100
AcDbBlockTableRecord
  2
_DOTBLANK
340
0
  0
BLOCK_RECORD
  5
9B34E
102
{ACAD_XDICTIONARY
360
9B4E0
102
}
330
1
100
AcDbSymbolTableRecord
100
AcDbBlockTableRecord
  2
block
340
0
  0
ENDTAB
  0
ENDSEC
  0
SECTION
  2
BLOCKS
  0
BLOCK
  5
19
330
18
100
AcDbEntity
  8
0
100
AcDbBlockBegin
  2
*MODEL_SPACE
 70
     0
 10
0.0
 20
0.0
 30
0.0
  3
*MODEL_SPACE
  1

  0
ENDBLK
  5
1A
330
18
100
AcDbEntity
  8
0
100
AcDbBlockEnd
  0
BLOCK
  5
16
330
15
100
AcDbEntity
 67
     1
  8
0
100
AcDbBlockBegin
  2
*PAPER_SPACE
 70
     0
 10
0.0
 20
0.0
 30
0.0
  3
*PAPER_SPACE
  1

  0
ENDBLK
  5
17
330
15
100
AcDbEntity
 67
     1
  8
0
100
AcDbBlockEnd
  0
BLOCK
  5
4C0C1
330
4C0BF
100
AcDbEntity
  8
0
100
AcDbBlockBegin
  2
_Small
 70
     0
 10
0.0
 20
0.0
 30
0.0
  3
_Small
  1

  0
CIRCLE
  5
4C0C0
330
4C0BF
100
AcDbEntity
  8
0
  6
ByBlock
 62
     0
370
    -2
100
AcDbCircle
 10
0.0
 20
0.0
 30
0.0
 40
0.25
  0
ENDBLK
  5
4C0C2
330
4C0BF
100
AcDbEntity
  8
0
100
AcDbBlockEnd
  0
BLOCK
  5
4C0C7
330
4C0C3
100
AcDbEntity
  8
0
100
AcDbBlockBegin
  2
_Open30
 70
     0
 10
0.0
 20
0.0
 30
0.0
  3
_Open30
  1

  0
LINE
  5
990C6
330
4C0C3
100
AcDbEntity
  8
NOTE
100
AcDbLine
 10
-1.0
 20
0.26794919
 30
0.0
 11
0.0
 21
0.0
 31
0.0
  0
LINE
  5
990C7
330
4C0C3
100
AcDbEntity
  8
NOTE
100
AcDbLine
 10
0.0
 20
0.0
 30
0.0
 11
-1.0
 21
-0.26794919
 31
0.0
  0
LINE
  5
990C8
330
4C0C3
100
AcDbEntity
  8
NOTE
100
AcDbLine
 10
0.0
 20
0.0
 30
0.0
 11
-1.0
 21
0.0
 31
0.0
  0
ENDBLK
  5
4C0C8
330
4C0C3
100
AcDbEntity
  8
0
100
AcDbBlockEnd
  0
BLOCK
  5
992F9
330
992F8
100
AcDbEntity
  8
0
100
AcDbBlockBegin
  2
_DOTBLANK
 70
     0
 10
0.0
 20
0.0
 30
0.0
  3
_DOTBLANK
  1

  0
CIRCLE
  5
992FA
330
992F8
100
AcDbEntity
  8
0
  6
ByBlock
 62
     0
100
AcDbCircle
 10
0.0
 20
0.0
 30
0.0
 40
0.5
  0
LINE
  5
992FB
330
992F8
100
AcDbEntity
  8
0
  6
ByBlock
 62
     0
100
AcDbLine
 10
-0.5
 20
0.0
 30
0.0
 11
-1.0
 21
0.0
 31
0.0
  0
ENDBLK
  5
992FC
330
992F8
100
AcDbEntity
  8
0
100
AcDbBlockEnd
  0
BLOCK
  5
9B4E2
330
9B34E
100
AcDbEntity
  8
0
100
AcDbBlockBegin
  2
block
 70
     0
 10
0.0
 20
0.0
 30
0.0
  3
block
  1

  0
LINE
  5
9B34F
330
9B34E
100
AcDbEntity
  8
DETAIL
100
AcDbLine
 10
242.8608618231629
 20
-249.9856954071183
 30
0.0
 11
349.8627216228724
 21
-249.9856954071183
 31
0.0
  0
LINE
  5
9B350
330
9B34E
100
AcDbEntity
  8
DETAIL
100
AcDbLine
 10
340.849846086383
 20
-75.09299154447308
 30
0.0
 11
340.849846086383
 21
-53.56223331843466
 31
0.0
  0
LINE
  5
9B351
330
9B34E
100
AcDbEntity
  8
DETAIL
100
AcDbLine
 10
308.804066401126
 20
-53.56223331843466
 30
0.0
 11
308.804066401126
 21
-75.09299154447308
 31
0.0
  0
LINE
  5
9B352
330
9B34E
100
AcDbEntity
  8
DETAIL
100
AcDbLine
 10
333.8398317802366
 20
-46.55221901228287
 30
0.0
 11
315.8140807072723
 21
-46.55221901228287
 31
0.0
  0
LINE
  5
9B353
330
9B34E
100
AcDbEntity
  8
DETAIL
100
AcDbLine
 10
-309.1244028406527
 20
-46.55221901228287
 30
0.0
 11
-327.1501539136043
 21
-46.55221901228287
 31
0.0
  0
LINE
  5
9B354
330
9B34E
100
AcDbEntity
  8
DETAIL
100
AcDbLine
 10
-302.1143885344918
 20
-75.09299154447308
 30
0.0
 11
-302.1143885344918
 21
-53.56223331843466
 31
0.0
  0
LINE
  5
9B355
330
9B34E
100
AcDbEntity
  8
DETAIL
100
AcDbLine
 10
-334.1601682197634
 20
-53.56223331843466
 30
0.0
 11
-334.1601682197634
 21
-75.09299154447308
 31
0.0
  0
ARC
  5
9B356
330
9B34E
100
AcDbEntity
  8
DETAIL
100
AcDbCircle
 10
337.8455542408992
 20
-75.09299154447308
 30
0.0
 40
3.0042918454936
100
AcDbArc
 50
180.0
 51
0.0
  0
ARC
  5
9B357
330
9B34E
100
AcDbEntity
  8
DETAIL
100
AcDbCircle
 10
311.808358246637
 20
-75.09299154447308
 30
0.0
 40
3.0042918454936
100
AcDbArc
 50
180.0
 51
0.0
  0
ARC
  5
9B358
330
9B34E
100
AcDbEntity
  8
DETAIL
100
AcDbCircle
 10
333.8398317802366
 20
-53.56223331843466
 30
0.0
 40
7.010014306151662
100
AcDbArc
 50
0.0
 51
90.0
  0
ARC
  5
9B359
330
9B34E
100
AcDbEntity
  8
DETAIL
100
AcDbCircle
 10
315.8140807072723
 20
-53.56223331843466
 30
0.0
 40
7.010014306151662
100
AcDbArc
 50
90.0
 51
180.0
  0
ARC
  5
9B35A
330
9B34E
100
AcDbEntity
  8
DETAIL
100
AcDbCircle
 10
-305.1186803799901
 20
-75.09299154447308
 30
0.0
 40
3.004291845493577
100
AcDbArc
 50
180.0
 51
0.0
  0
ARC
  5
9B35B
330
9B34E
100
AcDbEntity
  8
DETAIL
100
AcDbCircle
 10
-331.1558763742523
 20
-75.09299154447308
 30
0.0
 40
3.0042918454936
100
AcDbArc
 50
180.0
 51
0.0
  0
ARC
  5
9B35C
330
9B34E
100
AcDbEntity
  8
DETAIL
100
AcDbCircle
 10
-309.1244028406527
 20
-53.56223331843466
 30
0.0
 40
7.010014306151662
100
AcDbArc
 50
0.0
 51
90.0
  0
ARC
  5
9B35D
330
9B34E
100
AcDbEntity
  8
DETAIL
100
AcDbCircle
 10
-327.1501539136043
 20
-53.56223331843466
 30
0.0
 40
7.010014306151715
100
AcDbArc
 50
90.0
 51
180.0
  0
LINE
  5
9B35E
330
9B34E
100
AcDbEntity
  8
DETAIL
100
AcDbLine
 10
381.8627216228615
 20
-33.00000155876296
 30
0.0
 11
381.8627216228615
 21
-211.000001558763
 31
0.0
  0
LINE
  5
9B35F
330
9B34E
100
AcDbEntity
  8
DETAIL
100
AcDbLine
 10
349.8627216228724
 20
-82.10300585062168
 30
0.0
 11
349.8627216228724
 21
-34.03433632272345
 31
0.0
  0
LINE
  5
9B360
330
9B34E
100
AcDbEntity
  8
DETAIL
100
AcDbLine
 10
349.8627216228724
 20
-10.00000155876296
 30
0.0
 11
349.8627216228724
 21
-34.03433632272345
 31
0.0
  0
LINE
  5
9B361
330
9B34E
100
AcDbEntity
  8
DETAIL
100
AcDbLine
 10
334.8412623954191
 20
-70.0933076033425
 30
0.0
 11
334.8412623954191
 21
-75.09299154447308
 31
0.0
  0
LINE
  5
9B362
330
9B34E
100
AcDbEntity
  8
DETAIL
100
AcDbLine
 10
330.8355399347547
 20
-25.02146078624765
 30
0.0
 11
330.8355399347547
 21
-34.03433632272345
 31
0.0
  0
LINE
  5
9B363
330
9B34E
100
AcDbEntity
  8
DETAIL
100
AcDbLine
 10
318.8183725527833
 20
-25.02146078624765
 30
0.0
 11
318.8183725527833
 21
-34.03433632272345
 31
0.0
  0
LINE
  5
9B364
330
9B34E
100
AcDbEntity
  8
DETAIL
100
AcDbLine
 10
314.8126500921189
 20
-75.09299154447308
 30
0.0
 11
314.8126500921189
 21
-70.0933076033425
 31
0.0
  0
LINE
  5
9B365
330
9B34E
100
AcDbEntity
  8
DETAIL
100
AcDbLine
 10
299.7911908646511
 20
-82.10300585062168
 30
0.0
 11
299.7911908646511
 21
-34.03433632272345
 31
0.0
  0
LINE
  5
9B366
330
9B34E
100
AcDbEntity
  8
DETAIL
100
AcDbLine
 10
299.7911908646511
 20
-25.02146078624765
 30
0.0
 11
299.7911908646511
 21
-34.03433632272345
 31
0.0
  0
LINE
  5
9B367
330
9B34E
100
AcDbEntity
  8
DETAIL
100
AcDbLine
 10
193.9399748417654
 20
-19.01287709525786
 30
0.0
 11
193.9399748417654
 21
-10.00000155877842
 31
0.0
  0
LINE
  5
9B368
330
9B34E
100
AcDbEntity
  8
DETAIL
100
AcDbLine
 10
-73.41058367765436
 20
-260.0000015587629
 30
0.0
 11
349.8627216228724
 21
-260.0000015587629
 31
0.0
  0
LINE
  5
9B369
330
9B34E
100
AcDbEntity
  8
DETAIL
100
AcDbLine
 10
242.8608618231629
 20
-249.9856954071183
 30
0.0
 11
-350.1372783771276
 21
-249.9856954071183
 31
0.0
  0
LINE
  5
9B36A
330
9B34E
100
AcDbEntity
  8
DETAIL
100
AcDbLine
 10
381.8627216228724
 20
-211.000001558763
 30
0.0
 11
349.8627216228724
 21
-211.000001558763
 31
0.0
  0
LINE
  5
9B36B
330
9B34E
100
AcDbEntity
  8
DETAIL
100
AcDbLine
 10
346.8584297773905
 20
-85.10729769611861
 30
0.0
 11
302.7954827101621
 21
-85.10729769611861
 31
0.0
  0
LINE
  5
9B36C
330
9B34E
100
AcDbEntity
  8
DETAIL
100
AcDbLine
 10
-297.061455773408
 20
-85.10729769611861
 30
0.0
 11
-341.1244028406382
 21
-85.10729769611861
 31
0.0
  0
LINE
  5
9B36D
330
9B34E
100
AcDbEntity
  8
DETAIL
100
AcDbLine
 10
-328.1515845287704
 20
-70.08583846864894
 30
0.0
 11
-308.122972225472
 21
-70.08583846864894
 31
0.0
  0
LINE
  5
9B36E
330
9B34E
100
AcDbEntity
  8
DETAIL
100
AcDbLine
 10
314.8126500921189
 20
-70.08583846864894
 30
0.0
 11
334.8412623954191
 21
-70.08583846864894
 31
0.0
  0
LINE
  5
9B36F
330
9B34E
100
AcDbEntity
  8
DETAIL
100
AcDbLine
 10
346.8584297773905
 20
-37.03862816822038
 30
0.0
 11
333.8398317802366
 21
-37.03862816822038
 31
0.0
  0
LINE
  5
9B370
330
9B34E
100
AcDbEntity
  8
DETAIL
100
AcDbLine
 10
315.8140807072723
 20
-37.03862816822038
 30
0.0
 11
302.7954827101621
 21
-37.03862816822038
 31
0.0
  0
LINE
  5
9B371
330
9B34E
100
AcDbEntity
  8
DETAIL
100
AcDbLine
 10
-297.061455773408
 20
-37.03862816822038
 30
0.0
 11
-310.0800537705618
 21
-37.03862816822038
 31
0.0
  0
LINE
  5
9B372
330
9B34E
100
AcDbEntity
  8
DETAIL
100
AcDbLine
 10
-328.1058048435134
 20
-37.03862816822038
 30
0.0
 11
-341.1244028406382
 21
-37.03862816822038
 31
0.0
  0
LINE
  5
9B373
330
9B34E
100
AcDbEntity
  8
DETAIL
100
AcDbLine
 10
381.8627216228724
 20
-33.00000155876296
 30
0.0
 11
349.8627216228724
 21
-33.00000155876296
 31
0.0
  0
LINE
  5
9B374
330
9B34E
100
AcDbEntity
  8
DETAIL
100
AcDbLine
 10
-325.1015129980024
 20
-27.52503732415426
 30
0.0
 11
-313.0843456160437
 21
-27.52503732415426
 31
0.0
  0
LINE
  5
9B375
330
9B34E
100
AcDbEntity
  8
DETAIL
100
AcDbLine
 10
318.8183725527833
 20
-27.52503732415426
 30
0.0
 11
330.8355399347547
 21
-27.52503732415426
 31
0.0
  0
LINE
  5
9B376
330
9B34E
100
AcDbEntity
  8
DETAIL
100
AcDbLine
 10
349.8627216228724
 20
-25.00000155876296
 30
0.0
 11
299.7911908646511
 21
-25.00000155876296
 31
0.0
  0
LINE
  5
9B377
330
9B34E
100
AcDbEntity
  8
DETAIL
100
AcDbLine
 10
-294.0571639279278
 20
-25.00000155876296
 30
0.0
 11
-344.1286946861492
 21
-25.00000155876296
 31
0.0
  0
LINE
  5
9B378
330
9B34E
100
AcDbEntity
  8
DETAIL
100
AcDbLine
 10
196.9442666872473
 20
-22.01716894075071
 30
0.0
 11
349.8627216228724
 21
-22.01716894074343
 31
0.0
  0
LINE
  5
9B379
330
9B34E
100
AcDbEntity
  8
DETAIL
100
AcDbLine
 10
349.8627216228724
 20
-10.00000155876296
 30
0.0
 11
-350.1372783771276
 21
-10.00000155876296
 31
0.0
  0
LINE
  5
9B37A
330
9B34E
100
AcDbEntity
  8
DETAIL
100
AcDbLine
 10
-294.0571639279278
 20
-82.10300585062168
 30
0.0
 11
-294.0571639279278
 21
-34.03433632272345
 31
0.0
  0
LINE
  5
9B37B
330
9B34E
100
AcDbEntity
  8
DETAIL
100
AcDbLine
 10
-294.0571639279278
 20
-25.02146078624765
 30
0.0
 11
-294.0571639279278
 21
-34.03433632272345
 31
0.0
  0
LINE
  5
9B37C
330
9B34E
100
AcDbEntity
  8
DETAIL
100
AcDbLine
 10
-308.122972225472
 20
-70.0933076033425
 30
0.0
 11
-308.122972225472
 21
-75.09299154447308
 31
0.0
  0
LINE
  5
9B37D
330
9B34E
100
AcDbEntity
  8
DETAIL
100
AcDbLine
 10
-313.0843456160437
 20
-25.02146078624765
 30
0.0
 11
-313.0843456160437
 21
-34.03433632272345
 31
0.0
  0
LINE
  5
9B37E
330
9B34E
100
AcDbEntity
  8
DETAIL
100
AcDbLine
 10
-325.1015129980024
 20
-25.02146078624765
 30
0.0
 11
-325.1015129980024
 21
-34.03433632272345
 31
0.0
  0
LINE
  5
9B37F
330
9B34E
100
AcDbEntity
  8
DETAIL
100
AcDbLine
 10
-328.1515845287704
 20
-75.09299154447308
 30
0.0
 11
-328.1515845287704
 21
-70.0933076033425
 31
0.0
  0
LINE
  5
9B380
330
9B34E
100
AcDbEntity
  8
DETAIL
100
AcDbLine
 10
-344.1286946861492
 20
-82.10300585062168
 30
0.0
 11
-344.1286946861492
 21
-34.03433632272345
 31
0.0
  0
LINE
  5
9B381
330
9B34E
100
AcDbEntity
  8
DETAIL
100
AcDbLine
 10
-344.1286946861492
 20
-25.02146078624765
 30
0.0
 11
-344.1286946861492
 21
-34.03433632272345
 31
0.0
  0
LINE
  5
9B382
330
9B34E
100
AcDbEntity
  8
DETAIL
100
AcDbLine
 10
-350.1372783771276
 20
-257.9971403284317
 30
0.0
 11
-350.1372783771276
 21
-246.7811174385911
 31
0.0
  0
LINE
  5
9B383
330
9B34E
100
AcDbEntity
  8
DETAIL
100
AcDbLine
 10
-350.1372783771276
 20
-244.1344793842445
 30
0.0
 11
-350.1372783771276
 21
-10.00000155877842
 31
0.0
  0
LINE
  5
9B384
330
9B34E
100
AcDbEntity
  8
DETAIL
100
AcDbLine
 10
-350.1372783771276
 20
-132.9756811009829
 30
0.0
 11
-350.1372783771276
 21
-22.01716894075071
 31
0.0
  0
ARC
  5
9B385
330
9B34E
100
AcDbEntity
  8
DETAIL
100
AcDbCircle
 10
346.8584297773905
 20
-82.10300585062168
 30
0.0
 40
3.0042918454936
100
AcDbArc
 50
270.0
 51
0.0
  0
ARC
  5
9B386
330
9B34E
100
AcDbEntity
  8
DETAIL
100
AcDbCircle
 10
302.7954827101621
 20
-82.10300585062168
 30
0.0
 40
3.004291845493496
100
AcDbArc
 50
180.0
 51
270.0
  0
CIRCLE
  5
9B387
330
9B34E
100
AcDbEntity
  8
DETAIL
100
AcDbCircle
 10
324.8269562437617
 20
-65.07868539282481
 30
0.0
 40
3.505007153075836
  0
ARC
  5
9B388
330
9B34E
100
AcDbEntity
  8
DETAIL
100
AcDbCircle
 10
346.8584297773905
 20
-34.03433632272345
 30
0.0
 40
3.0042918454936
100
AcDbArc
 50
270.0
 51
0.0
  0
ARC
  5
9B389
330
9B34E
100
AcDbEntity
  8
DETAIL
100
AcDbCircle
 10
333.8398317802366
 20
-34.03433632272345
 30
0.0
 40
3.0042918454936
100
AcDbArc
 50
180.0
 51
270.0
  0
ARC
  5
9B38A
330
9B34E
100
AcDbEntity
  8
DETAIL
100
AcDbCircle
 10
315.8140807072723
 20
-34.03433632272345
 30
0.0
 40
3.0042918454936
100
AcDbArc
 50
270.0
 51
0.0
  0
ARC
  5
9B38B
330
9B34E
100
AcDbEntity
  8
DETAIL
100
AcDbCircle
 10
302.7954827101621
 20
-34.03433632272345
 30
0.0
 40
3.0042918454936
100
AcDbArc
 50
180.0
 51
270.0
  0
ARC
  5
9B38C
330
9B34E
100
AcDbEntity
  8
DETAIL
100
AcDbCircle
 10
196.9442666872473
 20
-19.01287709525786
 30
0.0
 40
3.0042918454936
100
AcDbArc
 50
180.0
 51
270.0
  0
ARC
  5
9B38D
330
9B34E
100
AcDbEntity
  8
DETAIL
100
AcDbCircle
 10
-297.061455773408
 20
-82.10300585062168
 30
0.0
 40
3.0042918454936
100
AcDbArc
 50
270.0
 51
0.0
  0
ARC
  5
9B38E
330
9B34E
100
AcDbEntity
  8
DETAIL
100
AcDbCircle
 10
-341.1244028406382
 20
-82.10300585062168
 30
0.0
 40
3.004291845493496
100
AcDbArc
 50
180.0
 51
270.0
  0
CIRCLE
  5
9B38F
330
9B34E
100
AcDbEntity
  8
DETAIL
100
AcDbCircle
 10
-318.1372783771276
 20
-65.07868539282481
 30
0.0
 40
3.505007153075836
  0
ARC
  5
9B390
330
9B34E
100
AcDbEntity
  8
DETAIL
100
AcDbCircle
 10
-297.061455773408
 20
-34.03433632272345
 30
0.0
 40
3.0042918454936
100
AcDbArc
 50
270.0
 51
0.0
  0
ARC
  5
9B391
330
9B34E
100
AcDbEntity
  8
DETAIL
100
AcDbCircle
 10
-310.0800537705618
 20
-34.03433632272345
 30
0.0
 40
3.0042918454936
100
AcDbArc
 50
180.0
 51
270.0
  0
ARC
  5
9B392
330
9B34E
100
AcDbEntity
  8
DETAIL
100
AcDbCircle
 10
-328.1058048435134
 20
-34.03433632272345
 30
0.0
 40
3.0042918454936
100
AcDbArc
 50
270.0
 51
0.0
  0
ARC
  5
9B393
330
9B34E
100
AcDbEntity
  8
DETAIL
100
AcDbCircle
 10
-341.1244028406382
 20
-34.03433632272345
 30
0.0
 40
3.0042918454936
100
AcDbArc
 50
180.0
 51
270.0
  0
LINE
  5
9B394
330
9B34E
100
AcDbEntity
  8
NOTE
100
AcDbLine
 10
371.8627216228615
 20
-69.36348915420331
 30
0.0
 11
371.8627216228615
 21
-76.63651396332352
 31
0.0
  0
LINE
  5
9B395
330
9B34E
100
AcDbEntity
  8
NOTE
100
AcDbLine
 10
375.4992340274203
 20
-73.00000155876296
 30
0.0
 11
368.2262092182991
 21
-73.00000155876296
 31
0.0
  0
LINE
  5
9B396
330
9B34E
100
AcDbEntity
  8
NOTE
100
AcDbLine
 10
371.8627216228615
 20
-169.3634891542033
 30
0.0
 11
371.8627216228615
 21
-176.6365139633235
 31
0.0
  0
LINE
  5
9B397
330
9B34E
100
AcDbEntity
  8
NOTE
100
AcDbLine
 10
375.4992340274203
 20
-173.0000015587629
 30
0.0
 11
368.2262092182991
 21
-173.0000015587629
 31
0.0
  0
CIRCLE
  5
9B398
330
9B34E
100
AcDbEntity
  8
DETAIL
100
AcDbCircle
 10
371.8627216228615
 20
-173.0000015587629
 30
0.0
 40
1.45
  0
CIRCLE
  5
9B399
330
9B34E
100
AcDbEntity
  8
DETAIL
100
AcDbCircle
 10
371.8627216228615
 20
-73.00000155876296
 30
0.0
 40
1.45
  0
LINE
  5
9B39A
330
9B34E
100
AcDbEntity
  8
DETAIL
100
AcDbLine
 10
-350.1372783771276
 20
-260.0000015587629
 30
0.0
 11
-350.1372783771276
 21
-10.00000155876296
 31
0.0
  0
LINE
  5
9B39B
330
9B34E
100
AcDbEntity
  8
DETAIL
100
AcDbLine
 10
-350.1372783771276
 20
-10.00000155876296
 30
0.0
 11
349.8627216228724
 21
-10.00000155876296
 31
0.0
  0
LINE
  5
9B39C
330
9B34E
100
AcDbEntity
  8
DETAIL
100
AcDbLine
 10
349.8627216228724
 20
-10.00000155876296
 30
0.0
 11
349.8627216228724
 21
-260.0000015587629
 31
0.0
  0
LINE
  5
9B39D
330
9B34E
100
AcDbEntity
  8
DETAIL
100
AcDbLine
 10
349.8627216228724
 20
-260.0000015587629
 30
0.0
 11
-350.1372783771276
 21
-260.0000015587629
 31
0.0
  0
LINE
  5
9B39E
330
9B34E
100
AcDbEntity
  8
NOTE
100
AcDbLine
 10
213.8627216228724
 20
-121.13372964677
 30
0.0
 11
213.8627216228724
 21
-142.8662734707564
 31
0.0
  0
LINE
  5
9B39F
330
9B34E
100
AcDbEntity
  8
NOTE
100
AcDbLine
 10
224.7289935348653
 20
-132.0000015587629
 30
0.0
 11
202.9964497108795
 21
-132.0000015587629
 31
0.0
  0
LINE
  5
9B3A0
330
9B34E
100
AcDbEntity
  8
NOTE
100
AcDbLine
 10
146.8627216228724
 20
-154.13372964677
 30
0.0
 11
146.8627216228724
 21
-175.8662734707563
 31
0.0
  0
LINE
  5
9B3A1
330
9B34E
100
AcDbEntity
  8
NOTE
100
AcDbLine
 10
157.7289935348654
 20
-165.0000015587629
 30
0.0
 11
135.9964497108794
 21
-165.0000015587629
 31
0.0
  0
LINE
  5
9B3A2
330
9B34E
100
AcDbEntity
  8
NOTE
100
AcDbLine
 10
371.8627216228615
 20
-29.36348915420331
 30
0.0
 11
371.8627216228615
 21
-36.63651396332352
 31
0.0
  0
LINE
  5
9B3A3
330
9B34E
100
AcDbEntity
  8
NOTE
100
AcDbLine
 10
375.4992340274203
 20
-33.00000155876296
 30
0.0
 11
368.2262092182991
 21
-33.00000155876296
 31
0.0
  0
LINE
  5
9B3A4
330
9B34E
100
AcDbEntity
  8
NOTE
100
AcDbLine
 10
371.8627216228615
 20
-207.3634891542033
 30
0.0
 11
371.8627216228615
 21
-214.6365139633235
 31
0.0
  0
LINE
  5
9B3A5
330
9B34E
100
AcDbEntity
  8
NOTE
100
AcDbLine
 10
375.4992340274203
 20
-211.000001558763
 30
0.0
 11
368.2262092182991
 21
-211.000001558763
 31
0.0
  0
LINE
  5
9B3A6
330
9B34E
100
AcDbEntity
  8
NOTE
100
AcDbLine
 10
324.8627216228724
 20
-14.13372964677001
 30
0.0
 11
324.8627216228724
 21
-35.86627347075637
 31
0.0
  0
LINE
  5
9B3A7
330
9B34E
100
AcDbEntity
  8
NOTE
100
AcDbLine
 10
335.7289935348654
 20
-25.00000155876296
 30
0.0
 11
313.9964497108794
 21
-25.00000155876296
 31
0.0
  0
LINE
  5
9B3A8
330
9B34E
100
AcDbEntity
  8
NOTE
100
AcDbLine
 10
-318.1372783771276
 20
-14.13372964677001
 30
0.0
 11
-318.1372783771276
 21
-35.86627347075637
 31
0.0
  0
LINE
  5
9B3A9
330
9B34E
100
AcDbEntity
  8
NOTE
100
AcDbLine
 10
-307.2710064651346
 20
-25.00000155876296
 30
0.0
 11
-329.0035502891206
 21
-25.00000155876296
 31
0.0
  0
CIRCLE
  5
9B3AA
330
9B34E
100
AcDbEntity
  8
FIX
100
AcDbCircle
 10
324.8627216228724
 20
-25.00000155876296
 30
0.0
 40
9.947006128806798
  0
CIRCLE
  5
9B3AB
330
9B34E
100
AcDbEntity
  8
FIX
100
AcDbCircle
 10
-318.1372783771276
 20
-25.00000155876296
 30
0.0
 40
9.947006128806798
  0
LINE
  5
9B3AC
330
9B34E
100
AcDbEntity
  8
OUTLINE
100
AcDbLine
 10
381.8627216228724
 20
-33.00000155876296
 30
0.0
 11
349.8627216228724
 21
-33.00000155876296
 31
0.0
  0
LINE
  5
9B3AD
330
9B34E
100
AcDbEntity
  8
OUTLINE
100
AcDbLine
 10
381.8627216228615
 20
-33.00000155876296
 30
0.0
 11
381.8627216228724
 21
-211.000001558763
 31
0.0
  0
LINE
  5
9B3AE
330
9B34E
100
AcDbEntity
  8
OUTLINE
100
AcDbLine
 10
381.8627216228724
 20
-211.000001558763
 30
0.0
 11
349.8627216228724
 21
-211.000001558763
 31
0.0
  0
LINE
  5
9B3AF
330
9B34E
100
AcDbEntity
  8
OUTLINE
100
AcDbLine
 10
349.8627216228724
 20
-10.00000155876296
 30
0.0
 11
-350.1372783771276
 21
-10.00000155877842
 31
0.0
  0
LINE
  5
9B3B0
330
9B34E
100
AcDbEntity
  8
OUTLINE
100
AcDbLine
 10
-350.1372783771276
 20
-10.00000155877842
 30
0.0
 11
-350.1372783771276
 21
-260.0000015587629
 31
0.0
  0
LINE
  5
9B3B1
330
9B34E
100
AcDbEntity
  8
OUTLINE
100
AcDbLine
 10
-350.1372783771276
 20
-260.0000015587629
 30
0.0
 11
349.8627216228724
 21
-260.0000015587629
 31
0.0
  0
LINE
  5
9B3B2
330
9B34E
100
AcDbEntity
  8
OUTLINE
100
AcDbLine
 10
349.8627216228724
 20
-260.0000015587629
 30
0.0
 11
349.8627216228724
 21
-10.00000155876296
 31
0.0
  0
LINE
  5
9B3B3
330
9B34E
100
AcDbEntity
  8
SIZE
100
AcDbLine
 10
381.8627216228724
 20
-18.00000155876296
 30
0.0
 11
381.8627216228724
 21
53.59264310080925
 31
0.0
  0
LINE
  5
9B3B4
330
9B34E
100
AcDbEntity
  8
SIZE
100
AcDbLine
 10
371.8627216228615
 20
-54.36348915420331
 30
0.0
 11
371.8627216228615
 21
53.59264310080925
 31
0.0
  0
LINE
  5
9B3B5
330
9B34E
100
AcDbEntity
  8
SIZE
100
AcDbLine
 10
371.8627216228615
 20
48.59264310080925
 30
0.0
 11
351.8627216228615
 21
48.59264310080925
 31
0.0
  0
LINE
  5
9B3B6
330
9B34E
100
AcDbEntity
  8
SIZE
100
AcDbLine
 10
381.8627216228724
 20
48.59264310080925
 30
0.0
 11
436.1484359085862
 21
48.59264310080925
 31
0.0
  0
LINE
  5
9B3B7
330
9B34E
100
AcDbEntity
  8
SIZE
100
AcDbLine
 10
371.8627216228615
 20
48.59264310080925
 30
0.0
 11
381.8627216228724
 21
48.59264310080925
 31
0.0
  0
CIRCLE
  5
9B3B8
330
9B34E
100
AcDbEntity
  8
SIZE
100
AcDbCircle
 10
371.8627216228615
 20
48.59264310080925
 30
0.0
 40
5.0
  0
CIRCLE
  5
9B3B9
330
9B34E
100
AcDbEntity
  8
SIZE
100
AcDbCircle
 10
381.8627216228724
 20
48.59264310080925
 30
0.0
 40
5.0
  0
TEXT
  5
9B3BA
330
9B34E
100
AcDbEntity
  8
SIZE
100
AcDbText
 10
403.3275885210145
 20
63.59264310080925
 30
0.0
 40
30.0
  1
10
 41
0.9
100
AcDbText
  0
LINE
  5
9B3BB
330
9B34E
100
AcDbEntity
  8
SIZE
100
AcDbLine
 10
381.8627216228615
 20
-13.00000155876296
 30
0.0
 11
381.8627216228615
 21
188.7609901123478
 31
0.0
  0
LINE
  5
9B3BC
330
9B34E
100
AcDbEntity
  8
SIZE
100
AcDbLine
 10
324.8627216228724
 20
5.866270353229992
 30
0.0
 11
324.8627216228724
 21
188.7609901123478
 31
0.0
  0
LINE
  5
9B3BD
330
9B34E
100
AcDbEntity
  8
SIZE
100
AcDbLine
 10
324.8627216228724
 20
168.7609901123478
 30
0.0
 11
381.8627216228615
 21
168.7609901123478
 31
0.0
  0
LINE
  5
9B3BE
330
9B34E
100
AcDbEntity
  8
SIZE
100
AcDbLine
 10
381.8627216228615
 20
168.7609901123478
 30
0.0
 11
495.5770073371472
 21
168.7609901123478
 31
0.0
  0
CIRCLE
  5
9B3BF
330
9B34E
100
AcDbEntity
  8
SIZE
100
AcDbCircle
 10
324.8627216228724
 20
168.7609901123478
 30
0.0
 40
7.5
  0
CIRCLE
  5
9B3C0
330
9B34E
100
AcDbEntity
  8
SIZE
100
AcDbCircle
 10
381.8627216228615
 20
168.7609901123478
 30
0.0
 40
7.5
  0
TEXT
  5
9B3C1
330
9B34E
100
AcDbEntity
  8
SIZE
100
AcDbText
 10
431.8627216228615
 20
188.7609901123478
 30
0.0
 40
30.0
  1
57
 41
0.9
100
AcDbText
  0
LINE
  5
9B3C2
330
9B34E
100
AcDbEntity
  8
SIZE
100
AcDbLine
 10
324.8627216228724
 20
5.866270353229992
 30
0.0
 11
324.8627216228724
 21
188.7609901123478
 31
0.0
  0
LINE
  5
9B3C3
330
9B34E
100
AcDbEntity
  8
SIZE
100
AcDbLine
 10
-318.1372783771276
 20
5.866270353229992
 30
0.0
 11
-318.1372783771276
 21
188.7609901123478
 31
0.0
  0
LINE
  5
9B3C4
330
9B34E
100
AcDbEntity
  8
SIZE
100
AcDbLine
 10
324.8627216228724
 20
168.7609901123478
 30
0.0
 11
-318.1372783771276
 21
168.7609901123478
 31
0.0
  0
CIRCLE
  5
9B3C5
330
9B34E
100
AcDbEntity
  8
SIZE
100
AcDbCircle
 10
324.8627216228724
 20
168.7609901123478
 30
0.0
 40
7.5
  0
CIRCLE
  5
9B3C6
330
9B34E
100
AcDbEntity
  8
SIZE
100
AcDbCircle
 10
-318.1372783771276
 20
168.7609901123478
 30
0.0
 40
7.5
  0
TEXT
  5
9B3C7
330
9B34E
100
AcDbEntity
  8
SIZE
100
AcDbText
 10
-266.1229926628418
 20
186.61813296949
 30
0.0
 40
30.0
  1
643(Suspension bolt pitch)
 41
0.9
100
AcDbText
  0
LINE
  5
9B3C8
330
9B34E
100
AcDbEntity
  8
SIZE
100
AcDbLine
 10
381.8627216228724
 20
-13.00000155876296
 30
0.0
 11
381.8627216228724
 21
283.952294031752
 31
0.0
  0
LINE
  5
9B3C9
330
9B34E
100
AcDbEntity
  8
SIZE
100
AcDbLine
 10
349.8627216228724
 20
14.99999844123704
 30
0.0
 11
349.8627216228724
 21
283.952294031752
 31
0.0
  0
LINE
  5
9B3CA
330
9B34E
100
AcDbEntity
  8
SIZE
100
AcDbLine
 10
349.8627216228724
 20
263.952294031752
 30
0.0
 11
319.8627216228724
 21
263.952294031752
 31
0.0
  0
LINE
  5
9B3CB
330
9B34E
100
AcDbEntity
  8
SIZE
100
AcDbLine
 10
381.8627216228724
 20
263.952294031752
 30
0.0
 11
525.5770073371581
 21
263.952294031752
 31
0.0
  0
LINE
  5
9B3CC
330
9B34E
100
AcDbEntity
  8
SIZE
100
AcDbLine
 10
349.8627216228724
 20
263.952294031752
 30
0.0
 11
381.8627216228724
 21
263.952294031752
 31
0.0
  0
CIRCLE
  5
9B3CD
330
9B34E
100
AcDbEntity
  8
SIZE
100
AcDbCircle
 10
349.8627216228724
 20
263.952294031752
 30
0.0
 40
7.5
  0
CIRCLE
  5
9B3CE
330
9B34E
100
AcDbEntity
  8
SIZE
100
AcDbCircle
 10
381.8627216228724
 20
263.952294031752
 30
0.0
 40
7.5
  0
TEXT
  5
9B3CF
330
9B34E
100
AcDbEntity
  8
SIZE
100
AcDbText
 10
461.8627216228724
 20
283.952294031752
 30
0.0
 40
30.0
  1
32
 41
0.9
100
AcDbText
  0
LINE
  5
9B3D0
330
9B34E
100
AcDbEntity
  8
SIZE
100
AcDbLine
 10
349.8627216228724
 20
14.99999844123704
 30
0.0
 11
349.8627216228724
 21
283.952294031752
 31
0.0
  0
LINE
  5
9B3D1
330
9B34E
100
AcDbEntity
  8
SIZE
100
AcDbLine
 10
-350.1372783771276
 20
9.999998441221578
 30
0.0
 11
-350.1372783771276
 21
283.952294031752
 31
0.0
  0
LINE
  5
9B3D2
330
9B34E
100
AcDbEntity
  8
SIZE
100
AcDbLine
 10
349.8627216228724
 20
263.952294031752
 30
0.0
 11
-350.1372783771276
 21
263.952294031752
 31
0.0
  0
CIRCLE
  5
9B3D3
330
9B34E
100
AcDbEntity
  8
SIZE
100
AcDbCircle
 10
349.8627216228724
 20
263.952294031752
 30
0.0
 40
7.5
  0
CIRCLE
  5
9B3D4
330
9B34E
100
AcDbEntity
  8
SIZE
100
AcDbCircle
 10
-350.1372783771276
 20
263.952294031752
 30
0.0
 40
7.5
  0
TEXT
  5
9B3D5
330
9B34E
100
AcDbEntity
  8
SIZE
100
AcDbText
 10
-34.85156409141331
 20
283.952294031752
 30
0.0
 40
30.0
  1
700
 41
0.9
100
AcDbText
  0
LINE
  5
9B3D6
330
9B34E
100
AcDbEntity
  8
SIZE
100
AcDbLine
 10
381.8627216228615
 20
-13.00000155876296
 30
0.0
 11
381.8627216228615
 21
382.659698651617
 31
0.0
  0
LINE
  5
9B3D7
330
9B34E
100
AcDbEntity
  8
SIZE
100
AcDbLine
 10
-350.1372783771276
 20
6.194562103596581
 30
0.0
 11
-350.1372783771276
 21
382.659698651617
 31
0.0
  0
LINE
  5
9B3D8
330
9B34E
100
AcDbEntity
  8
SIZE
100
AcDbLine
 10
381.8627216228615
 20
362.659698651617
 30
0.0
 11
-350.1372783771276
 21
362.659698651617
 31
0.0
  0
CIRCLE
  5
9B3D9
330
9B34E
100
AcDbEntity
  8
SIZE
100
AcDbCircle
 10
381.8627216228615
 20
362.659698651617
 30
0.0
 40
7.5
  0
CIRCLE
  5
9B3DA
330
9B34E
100
AcDbEntity
  8
SIZE
100
AcDbCircle
 10
-350.1372783771276
 20
362.659698651617
 30
0.0
 40
7.5
  0
TEXT
  5
9B3DB
330
9B34E
100
AcDbEntity
  8
SIZE
100
AcDbText
 10
-18.85156409141876
 20
382.659698651617
 30
0.0
 40
30.0
  1
732
 41
0.9
100
AcDbText
  0
TEXT
  5
9B3DC
330
9B34E
100
AcDbEntity
  8
ETC
100
AcDbText
 10
-854.4204236144141
 20
472.2872279446351
 30
0.0
 40
60.0
  1
PEAD-M140JA2_5
 50
0.0000029998804485
 41
0.8
100
AcDbText
  0
LINE
  5
9B3DD
330
9B34E
100
AcDbEntity
  8
NOTE
100
AcDbLine
 10
-318.1372783771276
 20
-25.00000155876296
 30
0.0
 11
-340.2259450283636
 21
1.352236971605634
 31
0.0
  0
LINE
  5
9B3DE
330
9B34E
100
AcDbEntity
  8
NOTE
100
AcDbLine
 10
-318.1372783771276
 20
-25.00000155876296
 30
0.0
 11
-324.0905050742167
 21
8.866039867451946
 31
0.0
  0
LINE
  5
9B3DF
330
9B34E
100
AcDbEntity
  8
NOTE
100
AcDbLine
 10
-398.2037829439942
 20
143.7546113843864
 30
0.0
 11
-318.1372783771276
 21
-25.00000155876296
 31
0.0
  0
LINE
  5
9B3E0
330
9B34E
100
AcDbEntity
  8
NOTE
100
AcDbLine
 10
692.2088042036684
 20
139.0041935527433
 30
0.0
 11
564.6532649919772
 21
139.0041935527433
 31
0.0
  0
TEXT
  5
9B3E1
330
9B34E
100
AcDbEntity
  8
NOTE
100
AcDbText
 10
504.3754708703345
 20
146.4116112696902
 30
0.0
 40
30.0
  1
2X2-%%c2.9
 50
359.9999974955248
 41
0.7
  7
STANDARD1
100
AcDbText
  0
LINE
  5
9B3E2
330
9B34E
100
AcDbEntity
  8
NOTE
100
AcDbLine
 10
692.2088042036684
 20
139.0041935527433
 30
0.0
 11
492.9151013088066
 21
139.0041935527433
 31
0.0
  0
LINE
  5
9B3E3
330
9B34E
100
AcDbEntity
  8
NOTE
100
AcDbLine
 10
371.8627216228615
 20
-73.00000155876296
 30
0.0
 11
380.8423708505015
 21
-39.80790054452518
 31
0.0
  0
LINE
  5
9B3E4
330
9B34E
100
AcDbEntity
  8
NOTE
100
AcDbLine
 10
371.8627216228615
 20
-73.00000155876296
 30
0.0
 11
396.2353768315679
 21
-48.74462384439812
 31
0.0
  0
LINE
  5
9B3E5
330
9B34E
100
AcDbEntity
  8
NOTE
100
AcDbLine
 10
492.9151013088066
 20
139.0041935527433
 30
0.0
 11
371.8627216228615
 21
-73.00000155876296
 31
0.0
  0
LINE
  5
9B3E6
330
9B34E
100
AcDbEntity
  8
SIZE
100
AcDbLine
 10
-370.1372783771279
 20
-10.00000155877751
 30
0.0
 11
-801.8821844911904
 21
-10.00000155877751
 31
0.0
  0
LINE
  5
9B3E7
330
9B34E
100
AcDbEntity
  8
SIZE
100
AcDbLine
 10
-370.1372783771278
 20
-260.0000015587621
 30
0.0
 11
-801.8821844911904
 21
-260.0000015587621
 31
0.0
  0
LINE
  5
9B3E8
330
9B34E
100
AcDbEntity
  8
SIZE
100
AcDbLine
 10
-781.8821844911905
 20
-10.00000155877751
 30
0.0
 11
-781.8821844911903
 21
-260.0000015587621
 31
0.0
  0
CIRCLE
  5
9B3E9
330
9B34E
100
AcDbEntity
  8
SIZE
100
AcDbCircle
 10
-781.8821844911905
 20
-10.00000155877751
 30
0.0
 40
7.500000000000001
  0
CIRCLE
  5
9B3EA
330
9B34E
100
AcDbEntity
  8
SIZE
100
AcDbCircle
 10
-781.8821844911903
 20
-260.0000015587621
 30
0.0
 40
7.5
  0
TEXT
  5
9B3EB
330
9B34E
100
AcDbEntity
  8
SIZE
100
AcDbText
 10
-801.8821844911894
 20
-169.714287273056
 30
0.0
 40
30.0
  1
250
 50
90.0
 41
0.9
100
AcDbText
  0
LINE
  5
9B3EC
330
9B34E
100
AcDbEntity
  8
SIZE
100
AcDbLine
 10
349.8627216228724
 20
-300.000001558763
 30
0.0
 11
349.8627216228724
 21
-384.7639009624609
 31
0.0
  0
LINE
  5
9B3ED
330
9B34E
100
AcDbEntity
  8
SIZE
100
AcDbLine
 10
213.8627216228724
 20
-162.8662734707563
 30
0.0
 11
213.8627216228724
 21
-384.7639009624609
 31
0.0
  0
LINE
  5
9B3EE
330
9B34E
100
AcDbEntity
  8
SIZE
100
AcDbLine
 10
349.8627216228724
 20
-364.7639009624608
 30
0.0
 11
213.8627216228724
 21
-364.7639009624608
 31
0.0
  0
CIRCLE
  5
9B3EF
330
9B34E
100
AcDbEntity
  8
SIZE
100
AcDbCircle
 10
349.8627216228724
 20
-364.7639009624608
 30
0.0
 40
7.5
  0
CIRCLE
  5
9B3F0
330
9B34E
100
AcDbEntity
  8
SIZE
100
AcDbCircle
 10
213.8627216228724
 20
-364.7639009624608
 30
0.0
 40
7.5
  0
TEXT
  5
9B3F1
330
9B34E
100
AcDbEntity
  8
SIZE
100
AcDbText
 10
250.3627216228724
 20
-344.7639009624609
 30
0.0
 40
30.0
  1
136
 41
0.9
100
AcDbText
  0
LINE
  5
9B3F2
330
9B34E
100
AcDbEntity
  8
SIZE
100
AcDbLine
 10
213.8627216228724
 20
-162.8662734707563
 30
0.0
 11
213.8627216228724
 21
-384.7639009624609
 31
0.0
  0
LINE
  5
9B3F3
330
9B34E
100
AcDbEntity
  8
SIZE
100
AcDbLine
 10
146.8627216228724
 20
-195.8662734707564
 30
0.0
 11
146.8627216228724
 21
-384.7639009624609
 31
0.0
  0
LINE
  5
9B3F4
330
9B34E
100
AcDbEntity
  8
SIZE
100
AcDbLine
 10
213.8627216228724
 20
-364.7639009624608
 30
0.0
 11
146.8627216228724
 21
-364.7639009624608
 31
0.0
  0
TEXT
  5
9B3F5
330
9B34E
100
AcDbEntity
  8
SIZE
100
AcDbText
 10
158.5055787657295
 20
-344.7639009624609
 30
0.0
 40
30.0
  1
67
 41
0.9
100
AcDbText
  0
CIRCLE
  5
9B3F6
330
9B34E
100
AcDbEntity
  8
SIZE
100
AcDbCircle
 10
213.8627216228724
 20
-364.7639009624608
 30
0.0
 40
7.5
  0
CIRCLE
  5
9B3F7
330
9B34E
100
AcDbEntity
  8
SIZE
100
AcDbCircle
 10
146.8627216228724
 20
-364.7639009624608
 30
0.0
 40
7.5
  0
LINE
  5
9B3F8
330
9B34E
100
AcDbEntity
  8
SIZE
100
AcDbLine
 10
-370.1372783771279
 20
-10.00000155876205
 30
0.0
 11
-580.2346683533844
 21
-10.00000155876205
 31
0.0
  0
LINE
  5
9B3F9
330
9B34E
100
AcDbEntity
  8
SIZE
100
AcDbLine
 10
182.9964497108795
 20
-132.000001558762
 30
0.0
 11
-580.2346683533844
 21
-132.000001558762
 31
0.0
  0
LINE
  5
9B3FA
330
9B34E
100
AcDbEntity
  8
SIZE
100
AcDbLine
 10
-560.2346683533844
 20
-10.00000155876205
 30
0.0
 11
-560.2346683533844
 21
-132.000001558762
 31
0.0
  0
CIRCLE
  5
9B3FB
330
9B34E
100
AcDbEntity
  8
SIZE
100
AcDbCircle
 10
-560.2346683533844
 20
-10.00000155876205
 30
0.0
 40
7.500000000000001
  0
CIRCLE
  5
9B3FC
330
9B34E
100
AcDbEntity
  8
SIZE
100
AcDbCircle
 10
-560.2346683533844
 20
-132.000001558762
 30
0.0
 40
7.5
  0
TEXT
  5
9B3FD
330
9B34E
100
AcDbEntity
  8
SIZE
100
AcDbText
 10
-580.2346683533835
 20
-103.1428587016198
 30
0.0
 40
30.0
  1
122
 50
90.0
 41
0.9
100
AcDbText
  0
LINE
  5
9B3FE
330
9B34E
100
AcDbEntity
  8
SIZE
100
AcDbLine
 10
182.9964497108795
 20
-132.000001558762
 30
0.0
 11
-580.2346683533844
 21
-132.000001558762
 31
0.0
  0
LINE
  5
9B3FF
330
9B34E
100
AcDbEntity
  8
SIZE
100
AcDbLine
 10
115.9964497108794
 20
-165.000001558762
 30
0.0
 11
-580.2346683533844
 21
-165.000001558762
 31
0.0
  0
LINE
  5
9B400
330
9B34E
100
AcDbEntity
  8
SIZE
100
AcDbLine
 10
-560.2346683533844
 20
-132.000001558762
 30
0.0
 11
-560.2346683533844
 21
-102.000001558762
 31
0.0
  0
LINE
  5
9B401
330
9B34E
100
AcDbEntity
  8
SIZE
100
AcDbLine
 10
-560.2346683533844
 20
-165.000001558762
 30
0.0
 11
-560.2346683533844
 21
-195.000001558762
 31
0.0
  0
TEXT
  5
9B402
330
9B34E
100
AcDbEntity
  8
SIZE
100
AcDbText
 10
-580.2346683533888
 20
-186.8571444159056
 30
0.0
 40
30.0
  1
33
 50
90.0
 41
0.9
100
AcDbText
  0
LINE
  5
9B403
330
9B34E
100
AcDbEntity
  8
SIZE
100
AcDbLine
 10
-560.2346683533844
 20
-132.000001558762
 30
0.0
 11
-560.2346683533844
 21
-165.000001558762
 31
0.0
  0
CIRCLE
  5
9B404
330
9B34E
100
AcDbEntity
  8
SIZE
100
AcDbCircle
 10
-560.2346683533844
 20
-132.000001558762
 30
0.0
 40
7.5
  0
CIRCLE
  5
9B405
330
9B34E
100
AcDbEntity
  8
SIZE
100
AcDbCircle
 10
-560.2346683533844
 20
-165.000001558762
 30
0.0
 40
7.500000000000001
  0
LINE
  5
9B406
330
9B34E
100
AcDbEntity
  8
BASIS
100
AcDbLine
 10
-0.1372783771294053
 20
19.41240723097599
 30
0.0
 11
-0.1372783771294053
 21
-292.6696300382855
 31
0.0
  0
CIRCLE
  5
9B407
330
9B34E
100
AcDbEntity
  8
ARRANGE
100
AcDbCircle
 10
-0.1372783771197419
 20
-10.00000155877069
 30
0.0
 40
19.125
  0
LINE
  5
9B408
330
9B34E
100
AcDbEntity
  8
ARRANGE
100
AcDbLine
 10
-21.40315214044307
 20
-31.04700164765154
 30
0.0
 11
21.12859538618801
 21
11.04699853012471
 31
0.0
  0
LINE
  5
9B409
330
9B34E
100
AcDbEntity
  8
ARRANGE
100
AcDbLine
 10
-21.37187778409128
 20
11.07855123038052
 30
0.0
 11
21.09732102983622
 21
-31.07855434790645
 31
0.0
  0
TEXT
  5
9B40A
330
9B34E
100
AcDbEntity
  8
SIZE
100
AcDbText
 10
719.9055279367221
 20
-178.1230688815917
 30
0.0
 40
30.0
  1
(Duct)
 50
90.0
 41
0.9
100
AcDbText
  0
LINE
  5
9B40B
330
9B34E
100
AcDbEntity
  8
NOTE
100
AcDbLine
 10
213.8627216228761
 20
-132.0000015587675
 30
0.0
 11
244.219021423507
 21
-148.1506898538555
 31
0.0
  0
LINE
  5
9B40C
330
9B34E
100
AcDbEntity
  8
NOTE
100
AcDbLine
 10
213.8627216228761
 20
-132.0000015587675
 30
0.0
 11
232.0767038426311
 21
-161.1650580765836
 31
0.0
  0
LINE
  5
9B40D
330
9B34E
100
AcDbEntity
  8
NOTE
100
AcDbLine
 10
480.3098198750358
 20
-377.0314836669277
 30
0.0
 11
213.8627216228761
 21
-132.0000015587675
 31
0.0
  0
LINE
  5
9B40E
330
9B34E
100
AcDbEntity
  8
NOTE
100
AcDbLine
 10
146.8627216228742
 20
-165.0000015587675
 30
0.0
 11
149.4326764615343
 21
-199.2891398115471
 31
0.0
  0
LINE
  5
9B40F
330
9B34E
100
AcDbEntity
  8
NOTE
100
AcDbLine
 10
146.8627216228742
 20
-165.0000015587675
 30
0.0
 11
131.9437982219824
 21
-195.9802435614938
 31
0.0
  0
LINE
  5
9B410
330
9B34E
100
AcDbEntity
  8
NOTE
100
AcDbLine
 10
95.30337644516112
 20
-448.3250164322807
 30
0.0
 11
146.8627216228742
 21
-165.0000015587675
 31
0.0
  0
LINE
  5
9B411
330
9B34E
100
AcDbEntity
  8
SIZE
100
AcDbLine
 10
-370.1372783771279
 20
-10.00000155877751
 30
0.0
 11
-445.4938486019097
 21
-10.00000155877751
 31
0.0
  0
LINE
  5
9B412
330
9B34E
100
AcDbEntity
  8
SIZE
100
AcDbLine
 10
-348.0842845059344
 20
-25.00000155876205
 30
0.0
 11
-445.4938486019097
 21
-25.00000155876205
 31
0.0
  0
LINE
  5
9B413
330
9B34E
100
AcDbEntity
  8
SIZE
100
AcDbLine
 10
-425.4938486019097
 20
-25.00000155876205
 30
0.0
 11
-425.4938486019097
 21
-55.00000155876205
 31
0.0
  0
LINE
  5
9B414
330
9B34E
100
AcDbEntity
  8
SIZE
100
AcDbLine
 10
-425.4938486019097
 20
-10.00000155877751
 30
0.0
 11
-425.4938486019097
 21
128.5714270126514
 31
0.0
  0
LINE
  5
9B415
330
9B34E
100
AcDbEntity
  8
SIZE
100
AcDbLine
 10
-425.4938486019097
 20
-25.00000155876205
 30
0.0
 11
-425.4938486019097
 21
-10.00000155877751
 31
0.0
  0
CIRCLE
  5
9B416
330
9B34E
100
AcDbEntity
  8
SIZE
100
AcDbCircle
 10
-425.4938486019097
 20
-25.00000155876205
 30
0.0
 40
7.500000000000001
  0
CIRCLE
  5
9B417
330
9B34E
100
AcDbEntity
  8
SIZE
100
AcDbCircle
 10
-425.4938486019097
 20
-10.00000155877751
 30
0.0
 40
7.5
  0
TEXT
  5
9B418
330
9B34E
100
AcDbEntity
  8
SIZE
100
AcDbText
 10
-445.4938486019086
 20
69.99999844122249
 30
0.0
 40
30.0
  1
15
 50
90.0
 41
0.9
100
AcDbText
  0
LINE
  5
9B419
330
9B34E
100
AcDbEntity
  8
NOTE
100
AcDbLine
 10
-379.2823705221581
 20
-106.5856638292634
 30
0.0
 11
-407.3241327523192
 21
-86.70171249437817
 31
0.0
  0
LINE
  5
9B41A
330
9B34E
100
AcDbEntity
  8
NOTE
100
AcDbLine
 10
-407.3241327523192
 20
-98.90776174475877
 30
0.0
 11
-407.3241327523192
 21
-86.70171249437817
 31
0.0
  0
LINE
  5
9B41B
330
9B34E
100
AcDbEntity
  8
NOTE
100
AcDbLine
 10
-430.3578390058301
 20
-98.90776174475877
 30
0.0
 11
-407.3241327523192
 21
-98.90776174475877
 31
0.0
  0
LINE
  5
9B41C
330
9B34E
100
AcDbEntity
  8
NOTE
100
AcDbLine
 10
-430.3578390058301
 20
-114.2635659137709
 30
0.0
 11
-430.3578390058301
 21
-98.90776174475877
 31
0.0
  0
LINE
  5
9B41D
330
9B34E
100
AcDbEntity
  8
NOTE
100
AcDbLine
 10
-430.3578390058301
 20
-114.2635659137709
 30
0.0
 11
-407.3241327523192
 21
-114.2635659137709
 31
0.0
  0
LINE
  5
9B41E
330
9B34E
100
AcDbEntity
  8
NOTE
100
AcDbLine
 10
-379.2823705221581
 20
-106.5856638292634
 30
0.0
 11
-407.3241327523192
 21
-126.4696151641483
 31
0.0
  0
LINE
  5
9B41F
330
9B34E
100
AcDbEntity
  8
NOTE
100
AcDbLine
 10
-407.3241327523192
 20
-114.2635659137709
 30
0.0
 11
-407.3241327523192
 21
-126.4696151641483
 31
0.0
  0
TEXT
  5
9B420
330
9B34E
100
AcDbEntity
  8
NOTE
100
AcDbText
 10
-502.28782487028
 20
-162.1538654732171
 30
0.0
 40
23.69722882067107
  1
Air inlet
 50
359.9999974955184
 41
0.6
  7
STANDARD1
100
AcDbText
  0
LINE
  5
9B421
330
9B34E
100
AcDbEntity
  8
NOTE
100
AcDbLine
 10
485.0903329860684
 20
-106.5856638292634
 30
0.0
 11
457.0485707559073
 21
-86.70171249437772
 31
0.0
  0
LINE
  5
9B422
330
9B34E
100
AcDbEntity
  8
NOTE
100
AcDbLine
 10
457.0485707559073
 20
-98.9077617447583
 30
0.0
 11
457.0485707559073
 21
-86.70171249437772
 31
0.0
  0
LINE
  5
9B423
330
9B34E
100
AcDbEntity
  8
NOTE
100
AcDbLine
 10
434.0148645023965
 20
-98.9077617447583
 30
0.0
 11
457.0485707559073
 21
-98.9077617447583
 31
0.0
  0
LINE
  5
9B424
330
9B34E
100
AcDbEntity
  8
NOTE
100
AcDbLine
 10
434.0148645023965
 20
-114.2635659137704
 30
0.0
 11
434.0148645023965
 21
-98.9077617447583
 31
0.0
  0
LINE
  5
9B425
330
9B34E
100
AcDbEntity
  8
NOTE
100
AcDbLine
 10
434.0148645023965
 20
-114.2635659137704
 30
0.0
 11
457.0485707559073
 21
-114.2635659137704
 31
0.0
  0
LINE
  5
9B426
330
9B34E
100
AcDbEntity
  8
NOTE
100
AcDbLine
 10
485.0903329860684
 20
-106.5856638292634
 30
0.0
 11
457.0485707559073
 21
-126.4696151641483
 31
0.0
  0
LINE
  5
9B427
330
9B34E
100
AcDbEntity
  8
NOTE
100
AcDbLine
 10
457.0485707559073
 20
-114.2635659137704
 30
0.0
 11
457.0485707559073
 21
-126.4696151641483
 31
0.0
  0
TEXT
  5
9B428
330
9B34E
100
AcDbEntity
  8
NOTE
100
AcDbText
 10
388.3900721782538
 20
-165.2128031138131
 30
0.0
 40
23.69722882067107
  1
 outlet
 50
359.9999974955184
 41
0.6
  7
STANDARD1
100
AcDbText
  0
TEXT
  5
9B429
330
9B34E
100
AcDbEntity
  8
NOTE
100
AcDbText
 10
478.9996831311691
 20
-319.6797596346496
 30
0.0
 40
30.0
  1
Flare connection
 50
359.9999974955248
 41
0.7
  7
STANDARD1
100
AcDbText
  0
TEXT
  5
9B42A
330
9B34E
100
AcDbEntity
  8
NOTE
100
AcDbText
 10
479.5176660824617
 20
-281.2732349005255
 30
0.0
 40
30.0
  1
Refrigerant piping
 50
359.9999974955248
 41
0.7
  7
STANDARD1
100
AcDbText
  0
LINE
  5
9B42B
330
9B34E
100
AcDbEntity
  8
NOTE
100
AcDbLine
 10
841.5996831311694
 20
-377.0314836669277
 30
0.0
 11
480.3098198750358
 21
-377.0314836669277
 31
0.0
  0
TEXT
  5
9B42C
330
9B34E
100
AcDbEntity
  8
NOTE
100
AcDbText
 10
481.1335374734372
 20
-359.8113109934134
 30
0.0
 40
30.0
  1
(liquid) %%C9.52
 50
359.9999974955248
 41
0.7
  7
STANDARD1
100
AcDbText
  0
TEXT
  5
9B42D
330
9B34E
100
AcDbEntity
  8
NOTE
100
AcDbText
 10
-746.3791509852089
 20
240.9154440857692
 30
0.0
 40
30.0
  1
Suspension bolt hole
 50
359.9999974955248
 41
0.65
  7
STANDARD1
100
AcDbText
  0
LINE
  5
9B42E
330
9B34E
100
AcDbEntity
  8
NOTE
100
AcDbLine
 10
-398.2037829439942
 20
143.7546113843864
 30
0.0
 11
-753.644705244087
 21
143.7546434315381
 31
0.0
  0
TEXT
  5
9B42F
330
9B34E
100
AcDbEntity
  8
NOTE
100
AcDbText
 10
-755.3375249784802
 20
192.4914012575677
 30
0.0
 40
30.0
  1
 4-14X30 Slot
 50
359.9999974955248
 41
0.65
  7
STANDARD1
100
AcDbText
  0
TEXT
  5
9B430
330
9B34E
100
AcDbEntity
  8
NOTE
100
AcDbText
 10
-745.3467269910361
 20
153.6577814600632
 30
0.0
 40
30.0
  1
(Use M10 screw)
 50
359.9999974955248
 41
0.65
  7
STANDARD1
100
AcDbText
  0
LINE
  5
9B431
330
9B34E
100
AcDbEntity
  8
SIZE
100
AcDbLine
 10
401.8627216228615
 20
-33.00000155876205
 30
0.0
 11
617.1183428763917
 21
-33.00000155876205
 31
0.0
  0
LINE
  5
9B432
330
9B34E
100
AcDbEntity
  8
SIZE
100
AcDbLine
 10
395.4992340274204
 20
-73.00000155876205
 30
0.0
 11
617.1183428763917
 21
-73.00000155876205
 31
0.0
  0
LINE
  5
9B433
330
9B34E
100
AcDbEntity
  8
SIZE
100
AcDbLine
 10
597.1183428763918
 20
-73.00000155876205
 30
0.0
 11
597.1183428763918
 21
-33.00000155876205
 31
0.0
  0
LINE
  5
9B434
330
9B34E
100
AcDbEntity
  8
SIZE
100
AcDbLine
 10
597.1183428763918
 20
-33.00000155876205
 30
0.0
 11
597.1183428763918
 21
102.571427012665
 31
0.0
  0
CIRCLE
  5
9B435
330
9B34E
100
AcDbEntity
  8
SIZE
100
AcDbCircle
 10
597.1183428763918
 20
-73.00000155876205
 30
0.0
 40
7.5
  0
CIRCLE
  5
9B436
330
9B34E
100
AcDbEntity
  8
SIZE
100
AcDbCircle
 10
597.1183428763918
 20
-33.00000155876205
 30
0.0
 40
7.500000000000001
  0
TEXT
  5
9B437
330
9B34E
100
AcDbEntity
  8
SIZE
100
AcDbText
 10
577.1183428763925
 20
38.85714129837879
 30
0.0
 40
30.0
  1
40
 50
90.0
 41
0.9
100
AcDbText
  0
LINE
  5
9B438
330
9B34E
100
AcDbEntity
  8
SIZE
100
AcDbLine
 10
395.4992340274204
 20
-73.00000155876205
 30
0.0
 11
617.1183428763968
 21
-73.00000155876205
 31
0.0
  0
LINE
  5
9B439
330
9B34E
100
AcDbEntity
  8
SIZE
100
AcDbLine
 10
395.4992340274204
 20
-173.000001558762
 30
0.0
 11
617.1183428763968
 21
-173.000001558762
 31
0.0
  0
LINE
  5
9B43A
330
9B34E
100
AcDbEntity
  8
SIZE
100
AcDbLine
 10
597.1183428763968
 20
-73.00000155876205
 30
0.0
 11
597.1183428763968
 21
-173.000001558762
 31
0.0
  0
TEXT
  5
9B43B
330
9B34E
100
AcDbEntity
  8
SIZE
100
AcDbText
 10
577.1183428763975
 20
-155.1428587016194
 30
0.0
 40
30.0
  1
100
 50
90.0
 41
0.9
100
AcDbText
  0
CIRCLE
  5
9B43C
330
9B34E
100
AcDbEntity
  8
SIZE
100
AcDbCircle
 10
597.1183428763968
 20
-73.00000155876205
 30
0.0
 40
7.500000000000001
  0
CIRCLE
  5
9B43D
330
9B34E
100
AcDbEntity
  8
SIZE
100
AcDbCircle
 10
597.1183428763968
 20
-173.000001558762
 30
0.0
 40
7.5
  0
TEXT
  5
9B43E
330
9B34E
100
AcDbEntity
  8
NOTE
100
AcDbText
 10
398.5912278135783
 20
-136.2192511365615
 30
0.0
 40
23.69722882067107
  1
Air
 50
359.9999974955184
 41
0.6
  7
STANDARD1
100
AcDbText
  0
LINE
  5
9B43F
330
9B34E
100
AcDbEntity
  8
SIZE
100
AcDbLine
 10
369.8627216228725
 20
-10.00000155876205
 30
0.0
 11
697.5105832648904
 21
-10.00000155876205
 31
0.0
  0
LINE
  5
9B440
330
9B34E
100
AcDbEntity
  8
SIZE
100
AcDbLine
 10
401.8627216228615
 20
-33.00000155876205
 30
0.0
 11
697.5105832648904
 21
-33.00000155876205
 31
0.0
  0
LINE
  5
9B441
330
9B34E
100
AcDbEntity
  8
SIZE
100
AcDbLine
 10
677.5105832648904
 20
-33.00000155876205
 30
0.0
 11
677.5105832648904
 21
-63.00000155876205
 31
0.0
  0
LINE
  5
9B442
330
9B34E
100
AcDbEntity
  8
SIZE
100
AcDbLine
 10
677.5105832648904
 20
-10.00000155876205
 30
0.0
 11
677.5105832648904
 21
133.7142841555241
 31
0.0
  0
LINE
  5
9B443
330
9B34E
100
AcDbEntity
  8
SIZE
100
AcDbLine
 10
677.5105832648904
 20
-33.00000155876205
 30
0.0
 11
677.5105832648904
 21
-10.00000155876205
 31
0.0
  0
CIRCLE
  5
9B444
330
9B34E
100
AcDbEntity
  8
SIZE
100
AcDbCircle
 10
677.5105832648904
 20
-33.00000155876205
 30
0.0
 40
7.500000000000001
  0
CIRCLE
  5
9B445
330
9B34E
100
AcDbEntity
  8
SIZE
100
AcDbCircle
 10
677.5105832648904
 20
-10.00000155876205
 30
0.0
 40
7.5
  0
TEXT
  5
9B446
330
9B34E
100
AcDbEntity
  8
SIZE
100
AcDbText
 10
657.5105832648912
 20
69.99999844123795
 30
0.0
 40
30.0
  1
23
 50
90.0
 41
0.9
100
AcDbText
  0
LINE
  5
9B447
330
9B34E
100
AcDbEntity
  8
SIZE
100
AcDbLine
 10
401.8627216228615
 20
-33.00000155876205
 30
0.0
 11
697.5105832648986
 21
-33.00000155876205
 31
0.0
  0
LINE
  5
9B448
330
9B34E
100
AcDbEntity
  8
SIZE
100
AcDbLine
 10
401.8627216228725
 20
-211.000001558762
 30
0.0
 11
697.5105832648987
 21
-211.000001558762
 31
0.0
  0
LINE
  5
9B449
330
9B34E
100
AcDbEntity
  8
SIZE
100
AcDbLine
 10
677.5105832648986
 20
-33.00000155876205
 30
0.0
 11
677.5105832648987
 21
-211.000001558762
 31
0.0
  0
CIRCLE
  5
9B44A
330
9B34E
100
AcDbEntity
  8
SIZE
100
AcDbCircle
 10
677.5105832648986
 20
-33.00000155876205
 30
0.0
 40
7.500000000000001
  0
CIRCLE
  5
9B44B
330
9B34E
100
AcDbEntity
  8
SIZE
100
AcDbCircle
 10
677.5105832648987
 20
-211.000001558762
 30
0.0
 40
7.5
  0
TEXT
  5
9B44C
330
9B34E
100
AcDbEntity
  8
SIZE
100
AcDbText
 10
657.5105832648993
 20
-154.1428587016198
 30
0.0
 40
30.0
  1
178
 50
90.0
 41
0.9
100
AcDbText
  0
LINE
  5
9B44D
330
9B34E
100
AcDbEntity
  8
DETAIL
100
AcDbLine
 10
-194.2145315960242
 20
-19.01287709525786
 30
0.0
 11
-194.2145315960242
 21
-10.00000155877842
 31
0.0
  0
LINE
  5
9B44E
330
9B34E
100
AcDbEntity
  8
DETAIL
100
AcDbLine
 10
-197.2188234415062
 20
-22.01716894075071
 30
0.0
 11
-350.1372783771312
 21
-22.01716894074343
 31
0.0
  0
ARC
  5
9B44F
330
9B34E
100
AcDbEntity
  8
DETAIL
100
AcDbCircle
 10
-197.2188234415062
 20
-19.01287709525786
 30
0.0
 40
3.0042918454936
100
AcDbArc
 50
270.0
 51
0.0
  0
LINE
  5
9B450
330
9B34E
100
AcDbEntity
  8
DETAIL
100
AcDbLine
 10
-350.1372783771276
 20
-259.1988570666317
 30
0.0
 11
-350.9384228692488
 21
-259.1988570666317
 31
0.0
  0
LINE
  5
9B451
330
9B34E
100
AcDbEntity
  8
DETAIL
100
AcDbLine
 10
-353.1415702226386
 20
-256.7954235902362
 30
0.0
 11
-351.1387089923082
 21
-256.7954235902362
 31
0.0
  0
LINE
  5
9B452
330
9B34E
100
AcDbEntity
  8
DETAIL
100
AcDbLine
 10
-356.6465773757045
 20
-250.2861245916674
 30
0.0
 11
-353.1415702226386
 21
-250.2861245916674
 31
0.0
  0
LINE
  5
9B453
330
9B34E
100
AcDbEntity
  8
DETAIL
100
AcDbLine
 10
-350.1372783771276
 20
-238.0000015587784
 30
0.0
 11
-353.1415702226386
 21
-238.0000015587784
 31
0.0
  0
LINE
  5
9B454
330
9B34E
100
AcDbEntity
  8
DETAIL
100
AcDbLine
 10
-356.6465773757045
 20
-20.31473689497216
 30
0.0
 11
-353.1415702226386
 21
-20.31473689497216
 31
0.0
  0
LINE
  5
9B455
330
9B34E
100
AcDbEntity
  8
DETAIL
100
AcDbLine
 10
-357.1472926832721
 20
-14.30615320398647
 30
0.0
 11
-355.7452898220472
 21
-14.30615320398647
 31
0.0
  0
LINE
  5
9B456
330
9B34E
100
AcDbEntity
  8
DETAIL
100
AcDbLine
 10
-353.1415702226386
 20
-13.80543789640342
 30
0.0
 11
-350.1372783771276
 21
-13.80543789640342
 31
0.0
  0
LINE
  5
9B457
330
9B34E
100
AcDbEntity
  8
DETAIL
100
AcDbLine
 10
-355.7452898220472
 20
-14.30615320398647
 30
0.0
 11
-355.0652761130004
 21
-16.57286556740382
 31
0.0
  0
LINE
  5
9B458
330
9B34E
100
AcDbEntity
  8
DETAIL
100
AcDbLine
 10
-344.1286946861473
 20
-82.10300585062213
 30
0.0
 11
-344.1286946861473
 21
-34.03433632272391
 31
0.0
  0
LINE
  5
9B459
330
9B34E
100
AcDbEntity
  8
DETAIL
100
AcDbLine
 10
-344.1286946861473
 20
-25.0214607862481
 30
0.0
 11
-344.1286946861473
 21
-34.03433632272391
 31
0.0
  0
LINE
  5
9B45A
330
9B34E
100
AcDbEntity
  8
DETAIL
100
AcDbLine
 10
-350.1372783771276
 20
-257.9971403284317
 30
0.0
 11
-350.1372783771276
 21
-246.7811174385915
 31
0.0
  0
LINE
  5
9B45B
330
9B34E
100
AcDbEntity
  8
DETAIL
100
AcDbLine
 10
-350.1372783771276
 20
-244.1344793842445
 30
0.0
 11
-350.1372783771276
 21
-10.00000155877842
 31
0.0
  0
LINE
  5
9B45C
330
9B34E
100
AcDbEntity
  8
DETAIL
100
AcDbLine
 10
-350.1372783771276
 20
-132.9756811009829
 30
0.0
 11
-350.1372783771276
 21
-22.01716894075071
 31
0.0
  0
LINE
  5
9B45D
330
9B34E
100
AcDbEntity
  8
DETAIL
100
AcDbLine
 10
-351.1387089923082
 20
-257.9971403284317
 30
0.0
 11
-351.1387089923082
 21
-238.0000015587784
 31
0.0
  0
LINE
  5
9B45E
330
9B34E
100
AcDbEntity
  8
DETAIL
100
AcDbLine
 10
-351.1387089923082
 20
-257.9971403284317
 30
0.0
 11
-351.1387089923082
 21
-258.9985709435978
 31
0.0
  0
LINE
  5
9B45F
330
9B34E
100
AcDbEntity
  8
DETAIL
100
AcDbLine
 10
-353.1415702226386
 20
-13.80543789640342
 30
0.0
 11
-353.1415702226386
 21
-28.00000155877842
 31
0.0
  0
LINE
  5
9B460
330
9B34E
100
AcDbEntity
  8
DETAIL
100
AcDbLine
 10
-353.1415702226386
 20
-238.0000015587784
 30
0.0
 11
-353.1415702226386
 21
-256.7954235902362
 31
0.0
  0
LINE
  5
9B461
330
9B34E
100
AcDbEntity
  8
DETAIL
100
AcDbLine
 10
-354.9514822202891
 20
-19.83149629956551
 30
0.0
 11
-355.0652761130004
 21
-16.57286556740382
 31
0.0
  0
ARC
  5
9B462
330
9B34E
100
AcDbEntity
  8
DETAIL
100
AcDbCircle
 10
-356.6465773757045
 20
-249.7854092840844
 30
0.0
 40
0.5007153075822283
100
AcDbArc
 50
180.0
 51
270.0
  0
ARC
  5
9B463
330
9B34E
100
AcDbEntity
  8
DETAIL
100
AcDbCircle
 10
-350.9384228692488
 20
-258.9985709435978
 30
0.0
 40
0.2002861230327059
100
AcDbArc
 50
180.0
 51
270.0
  0
ARC
  5
9B464
330
9B34E
100
AcDbEntity
  8
DETAIL
100
AcDbCircle
 10
-356.6465773757045
 20
-20.81545220255521
 30
0.0
 40
0.500715307582258
100
AcDbArc
 50
90.0
 51
180.0
  0
ARC
  5
9B465
330
9B34E
100
AcDbEntity
  8
DETAIL
100
AcDbCircle
 10
-354.4510719349637
 20
-19.81402158739001
 30
0.0
 40
0.5007153075822283
100
AcDbArc
 50
182.0000000000036
 51
270.0
  0
LINE
  5
9B466
330
9B34E
100
AcDbEntity
  8
DETAIL
100
AcDbLine
 10
-357.1472926832866
 20
-249.7854092840844
 30
0.0
 11
-357.1472926832866
 21
-14.30615320398647
 31
0.0
  0
LINE
  5
9B467
330
9B34E
100
AcDbEntity
  8
DETAIL
100
AcDbLine
 10
-350.1372783771276
 20
-260.0000015587629
 30
0.0
 11
-350.1372783771276
 21
-10.00000155876296
 31
0.0
  0
LINE
  5
9B468
330
9B34E
100
AcDbEntity
  8
OUTLINE
100
AcDbLine
 10
-350.1372783771276
 20
-10.00000155877842
 30
0.0
 11
-350.1372783771276
 21
-260.0000015587629
 31
0.0
  0
LINE
  5
9B469
330
9B34E
100
AcDbEntity
  8
DETAIL
100
AcDbLine
 10
-353.1415702226386
 20
-28.00000155877842
 30
0.0
 11
-350.1372783771276
 21
-28.00000155877842
 31
0.0
  0
LINE
  5
9B46A
330
9B34E
100
AcDbEntity
  8
NOTE
100
AcDbLine
 10
-350.1372783771276
 20
-17.36348915421877
 30
0.0
 11
-350.1372783771276
 21
-24.63651396333899
 31
0.0
  0
LINE
  5
9B46B
330
9B34E
100
AcDbEntity
  8
NOTE
100
AcDbLine
 10
-353.7737907816882
 20
-21.00000155877888
 30
0.0
 11
-346.500765972567
 21
-21.00000155877888
 31
0.0
  0
LINE
  5
9B46C
330
9B34E
100
AcDbEntity
  8
NOTE
100
AcDbLine
 10
-350.1372783771276
 20
-129.3634891542188
 30
0.0
 11
-350.1372783771276
 21
-136.636513963339
 31
0.0
  0
LINE
  5
9B46D
330
9B34E
100
AcDbEntity
  8
NOTE
100
AcDbLine
 10
-353.7737907816882
 20
-133.0000015587784
 30
0.0
 11
-346.500765972567
 21
-133.0000015587784
 31
0.0
  0
LINE
  5
9B46E
330
9B34E
100
AcDbEntity
  8
NOTE
100
AcDbLine
 10
-350.1372783771276
 20
-241.3634891542188
 30
0.0
 11
-350.1372783771276
 21
-248.636513963339
 31
0.0
  0
LINE
  5
9B46F
330
9B34E
100
AcDbEntity
  8
NOTE
100
AcDbLine
 10
-353.7737907816882
 20
-245.0000015587784
 30
0.0
 11
-346.500765972567
 21
-245.0000015587784
 31
0.0
  0
TEXT
  5
9B470
330
9B34E
100
AcDbEntity
  8
NOTE
100
AcDbText
 10
-274.0267177422547
 20
-384.2875699420511
 30
0.0
 40
30.0
  1
Flare connection
 50
0.0000025044752157
 41
0.7
  7
STANDARD1
100
AcDbText
  0
TEXT
  5
9B471
330
9B34E
100
AcDbEntity
  8
NOTE
100
AcDbText
 10
-277.10433205151
 20
-342.5389096816389
 30
0.0
 40
30.0
  1
Refrigerant piping
 50
0.0000025044752157
 41
0.7
  7
STANDARD1
100
AcDbText
  0
LINE
  5
9B472
330
9B34E
100
AcDbEntity
  8
NOTE
100
AcDbLine
 10
-276.5205825919993
 20
-448.325089067057
 30
0.0
 11
95.30337644516112
 21
-448.3250164322807
 31
0.0
  0
TEXT
  5
9B473
330
9B34E
100
AcDbEntity
  8
NOTE
100
AcDbText
 10
-276.5205825919993
 20
-433.083430341725
 30
0.0
 40
30.0
  1
(gas)%%C15.88
 50
0.0000025044752157
 41
0.7
  7
STANDARD1
100
AcDbText
  0
LINE
  5
9B474
330
9B34E
100
AcDbEntity
  8
SERVICESPACE
100
AcDbLine
 10
-650.1372783771276
 20
-660.0000048825449
 30
0.0
 11
-650.1372783771276
 21
-680.000004882545
 31
0.0
  0
LINE
  5
9B475
330
9B34E
100
AcDbEntity
  8
SERVICESPACE
100
AcDbLine
 10
-125.1372783771276
 20
-680.000004882545
 30
0.0
 11
-125.1372783771276
 21
-660.0000048825449
 31
0.0
  0
LINE
  5
9B476
330
9B34E
100
AcDbEntity
  8
SERVICESPACE
100
AcDbLine
 10
-650.1372783771276
 20
-660.0000048825449
 30
0.0
 11
349.8627216228724
 21
-660.0000048825449
 31
0.0
  0
LINE
  5
9B477
330
9B34E
100
AcDbEntity
  8
SERVICESPACE
100
AcDbLine
 10
-650.1372783771276
 20
-680.000004882545
 30
0.0
 11
349.8627216228724
 21
-680.000004882545
 31
0.0
  0
LINE
  5
9B478
330
9B34E
100
AcDbEntity
  8
SERVICESPACE
100
AcDbLine
 10
-125.1372783771276
 20
-660.0000048825449
 30
0.0
 11
-650.1372783771276
 21
-680.000004882545
 31
0.0
  0
LINE
  5
9B479
330
9B34E
100
AcDbEntity
  8
SERVICESPACE
100
AcDbLine
 10
-650.1372783771276
 20
-660.0000048825449
 30
0.0
 11
-125.1372783771276
 21
-680.000004882545
 31
0.0
  0
LINE
  5
9B47A
330
9B34E
100
AcDbEntity
  8
SERVICESPACE
100
AcDbLine
 10
349.8627216228724
 20
-660.0000048825449
 30
0.0
 11
349.8627216228724
 21
-680.000004882545
 31
0.0
  0
LINE
  5
9B47B
330
9B34E
100
AcDbEntity
  8
SERVICESPACE
100
AcDbLine
 10
199.8627216228724
 20
-680.000004882545
 30
0.0
 11
199.8627216228724
 21
-660.0000048825449
 31
0.0
  0
LINE
  5
9B47C
330
9B34E
100
AcDbEntity
  8
SERVICESPACE
100
AcDbLine
 10
-250.1372783771276
 20
-660.0000048825449
 30
0.0
 11
-250.1372783771276
 21
-680.000004882545
 31
0.0
  0
LINE
  5
9B47D
330
9B34E
100
AcDbEntity
  8
SERVICESPACE
100
AcDbLine
 10
199.8627216228724
 20
-660.0000048825449
 30
0.0
 11
-250.1372783771276
 21
-680.000004882545
 31
0.0
  0
LINE
  5
9B47E
330
9B34E
100
AcDbEntity
  8
SERVICESPACE
100
AcDbLine
 10
-250.1372783771276
 20
-660.0000048825449
 30
0.0
 11
199.8627216228724
 21
-680.000004882545
 31
0.0
  0
LINE
  5
9B47F
330
9B34E
100
AcDbEntity
  8
SIZE
100
AcDbLine
 10
-320.6519364660092
 20
-560.000001558762
 30
0.0
 11
-801.8821844911904
 21
-560.000001558762
 31
0.0
  0
LINE
  5
9B480
330
9B34E
100
AcDbEntity
  8
SIZE
100
AcDbLine
 10
-370.1372783771278
 20
-260.0000015587621
 30
0.0
 11
-801.8821844911904
 21
-260.0000015587621
 31
0.0
  0
LINE
  5
9B481
330
9B34E
100
AcDbEntity
  8
SIZE
100
AcDbLine
 10
-781.8821844911903
 20
-560.000001558762
 30
0.0
 11
-781.8821844911903
 21
-260.0000015587621
 31
0.0
  0
CIRCLE
  5
9B482
330
9B34E
100
AcDbEntity
  8
SIZE
100
AcDbCircle
 10
-781.8821844911903
 20
-560.000001558762
 30
0.0
 40
7.5
  0
CIRCLE
  5
9B483
330
9B34E
100
AcDbEntity
  8
SIZE
100
AcDbCircle
 10
-781.8821844911903
 20
-260.0000015587621
 30
0.0
 40
7.500000000000001
  0
TEXT
  5
9B484
330
9B34E
100
AcDbEntity
  8
SIZE
100
AcDbText
 10
-801.8821844911894
 20
-521.2142872730482
 30
0.0
 40
30.0
  1
Min.300mm
 50
90.0
 41
0.9
100
AcDbText
  0
LINE
  5
9B485
330
9B34E
100
AcDbEntity
  8
OUTLINE
100
AcDbLine
 10
290.5929774746328
 20
-560.0000015587628
 30
0.0
 11
290.5929774746328
 21
-600.0000015587628
 31
0.0
  0
LINE
  5
9B486
330
9B34E
100
AcDbEntity
  8
OUTLINE
100
AcDbLine
 10
290.5929774746328
 20
-600.0000015587628
 30
0.0
 11
330.5929774746328
 21
-600.0000015587628
 31
0.0
  0
LINE
  5
9B487
330
9B34E
100
AcDbEntity
  8
OUTLINE
100
AcDbLine
 10
330.5929774746328
 20
-600.0000015587628
 30
0.0
 11
330.5929774746328
 21
-560.0000015587628
 31
0.0
  0
LINE
  5
9B488
330
9B34E
100
AcDbEntity
  8
OUTLINE
100
AcDbLine
 10
330.5929774746328
 20
-560.0000015587628
 30
0.0
 11
290.5929774746328
 21
-560.0000015587628
 31
0.0
  0
LINE
  5
9B489
330
9B34E
100
AcDbEntity
  8
OUTLINE
100
AcDbLine
 10
330.5929774746328
 20
-600.0000015587628
 30
0.0
 11
290.5929774746328
 21
-560.0000015587628
 31
0.0
  0
LINE
  5
9B48A
330
9B34E
100
AcDbEntity
  8
OUTLINE
100
AcDbLine
 10
290.5929774746328
 20
-600.0000015587628
 30
0.0
 11
330.5929774746328
 21
-560.0000015587628
 31
0.0
  0
LINE
  5
9B48B
330
9B34E
100
AcDbEntity
  8
OUTLINE
100
AcDbLine
 10
-300.6519364660089
 20
-560.0000015587628
 30
0.0
 11
-300.6519364660089
 21
-600.0000015587628
 31
0.0
  0
LINE
  5
9B48C
330
9B34E
100
AcDbEntity
  8
OUTLINE
100
AcDbLine
 10
-300.6519364660089
 20
-600.0000015587628
 30
0.0
 11
-260.6519364660089
 21
-600.0000015587628
 31
0.0
  0
LINE
  5
9B48D
330
9B34E
100
AcDbEntity
  8
OUTLINE
100
AcDbLine
 10
-260.6519364660089
 20
-600.0000015587628
 30
0.0
 11
-260.6519364660089
 21
-560.0000015587628
 31
0.0
  0
LINE
  5
9B48E
330
9B34E
100
AcDbEntity
  8
OUTLINE
100
AcDbLine
 10
-260.6519364660089
 20
-560.0000015587628
 30
0.0
 11
-300.6519364660089
 21
-560.0000015587628
 31
0.0
  0
LINE
  5
9B48F
330
9B34E
100
AcDbEntity
  8
OUTLINE
100
AcDbLine
 10
-260.6519364660089
 20
-600.0000015587628
 30
0.0
 11
-300.6519364660089
 21
-560.0000015587628
 31
0.0
  0
LINE
  5
9B490
330
9B34E
100
AcDbEntity
  8
OUTLINE
100
AcDbLine
 10
-300.6519364660089
 20
-600.0000015587628
 30
0.0
 11
-260.6519364660089
 21
-560.0000015587628
 31
0.0
  0
LINE
  5
9B491
330
9B34E
100
AcDbEntity
  8
NOTE
  6
ByBlock
370
    -2
100
AcDbLine
 10
365.9838665753087
 20
-554.6757911175278
 30
0.0
 11
330.1424962821129
 21
-560.0000015587628
 31
0.0
  0
LINE
  5
9B492
330
9B34E
100
AcDbEntity
  8
NOTE
  6
ByBlock
370
    -2
100
AcDbLine
 10
330.1424962821129
 20
-560.0000015587628
 30
0.0
 11
358.5199283440624
 21
-537.4684150436965
 31
0.0
  0
LINE
  5
9B493
330
9B34E
100
AcDbEntity
  8
NOTE
  6
ByBlock
370
    -2
100
AcDbLine
 10
330.1424962821129
 20
-560.0000015587628
 30
0.0
 11
362.251897459686
 21
-546.0721030806121
 31
0.0
  0
LINE
  5
9B494
330
9B34E
100
AcDbEntity
  8
NOTE
100
AcDbLine
 10
362.251897459686
 20
-546.0721030806121
 30
0.0
 11
463.6186694479911
 21
-502.1028586371158
 31
0.0
1001
ACAD
1000
DSTYLE
1002
{
1070
    41
1040
35.0
1070
   271
1070
     0
1070
   341
1005
4C0C3
1002
}
  0
LINE
  5
9B495
330
9B34E
100
AcDbEntity
  8
NOTE
100
AcDbLine
 10
463.6186694479911
 20
-502.1028586371158
 30
0.0
 11
751.1980925516255
 21
-502.1028586371158
 31
0.0
1001
ACAD
1000
DSTYLE
1002
{
1070
    41
1040
35.0
1070
   271
1070
     0
1070
   341
1005
4C0C3
1002
}
  0
TEXT
  5
9B496
330
9B34E
100
AcDbEntity
  8
NOTE
100
AcDbText
 10
466.1971543628606
 20
-486.8325870467069
 30
0.0
 40
35.0
  1
Ceiling beam
 50
359.999999316757
 41
0.7
  7
STANDARD1
100
AcDbText
  0
LINE
  5
9B497
330
9B34E
100
AcDbEntity
  8
SIZE
100
AcDbLine
 10
-575.1372783771276
 20
-700.000004882545
 30
0.0
 11
-575.1372783771276
 21
-1083.33495854938
 31
0.0
  0
LINE
  5
9B498
330
9B34E
100
AcDbEntity
  8
SIZE
100
AcDbLine
 10
-125.1372783771276
 20
-700.000004882545
 30
0.0
 11
-125.1372783771276
 21
-1083.33495854938
 31
0.0
  0
LINE
  5
9B499
330
9B34E
100
AcDbEntity
  8
SIZE
100
AcDbLine
 10
-575.1372783771276
 20
-1063.33495854938
 30
0.0
 11
-125.1372783771276
 21
-1063.33495854938
 31
0.0
  0
TEXT
  5
9B49A
330
9B34E
100
AcDbEntity
  8
SIZE
100
AcDbText
 10
-340.1670216584839
 20
-1043.33495854938
 30
0.0
 40
30.0
  1
450
 41
0.9
100
AcDbText
  0
CIRCLE
  5
9B49B
330
9B34E
100
AcDbEntity
  8
SIZE
100
AcDbCircle
 10
-575.1372783771276
 20
-1063.33495854938
 30
0.0
 40
7.5
  0
CIRCLE
  5
9B49C
330
9B34E
100
AcDbEntity
  8
SIZE
100
AcDbCircle
 10
-125.1372783771276
 20
-1063.33495854938
 30
0.0
 40
7.5
  0
LINE
  5
9B49D
330
9B34E
100
AcDbEntity
  8
SIZE
100
AcDbLine
 10
-350.1372783771276
 20
-280.000004882545
 30
0.0
 11
-350.1372783771277
 21
-1004.823802215638
 31
0.0
  0
LINE
  5
9B49E
330
9B34E
100
AcDbEntity
  8
SIZE
100
AcDbLine
 10
-650.1372783771276
 20
-700.000004882545
 30
0.0
 11
-650.1372783771276
 21
-1004.823802215638
 31
0.0
  0
LINE
  5
9B49F
330
9B34E
100
AcDbEntity
  8
SIZE
100
AcDbLine
 10
-350.1372783771277
 20
-984.8238022156384
 30
0.0
 11
-650.1372783771276
 21
-984.8238022156384
 31
0.0
  0
CIRCLE
  5
9B4A0
330
9B34E
100
AcDbEntity
  8
SIZE
100
AcDbCircle
 10
-350.1372783771277
 20
-984.8238022156384
 30
0.0
 40
7.5
  0
CIRCLE
  5
9B4A1
330
9B34E
100
AcDbEntity
  8
SIZE
100
AcDbCircle
 10
-650.1372783771276
 20
-984.8238022156384
 30
0.0
 40
7.5
  0
TEXT
  5
9B4A2
330
9B34E
100
AcDbEntity
  8
SIZE
100
AcDbText
 10
-611.3515640914133
 20
-964.8238022156384
 30
0.0
 40
30.0
  1
Min.300mm
 41
0.9
100
AcDbText
  0
LINE
  5
9B4A3
330
9B34E
100
AcDbEntity
  8
SIZE
100
AcDbLine
 10
-250.1372788784884
 20
-700.000004882545
 30
0.0
 11
-250.1372788784884
 21
-1004.823802215638
 31
0.0
  0
LINE
  5
9B4A4
330
9B34E
100
AcDbEntity
  8
SIZE
100
AcDbLine
 10
199.8627211215116
 20
-700.000004882545
 30
0.0
 11
199.8627211215116
 21
-1004.823802215638
 31
0.0
  0
LINE
  5
9B4A5
330
9B34E
100
AcDbEntity
  8
SIZE
100
AcDbLine
 10
-250.1372788784884
 20
-984.8238022156384
 30
0.0
 11
199.8627211215116
 21
-984.8238022156384
 31
0.0
  0
TEXT
  5
9B4A6
330
9B34E
100
AcDbEntity
  8
SIZE
100
AcDbText
 10
-33.29903613666596
 20
-964.8238022156384
 30
0.0
 40
30.0
  1
450
 41
0.9
100
AcDbText
  0
CIRCLE
  5
9B4A7
330
9B34E
100
AcDbEntity
  8
SIZE
100
AcDbCircle
 10
-250.1372788784884
 20
-984.8238022156384
 30
0.0
 40
7.5
  0
CIRCLE
  5
9B4A8
330
9B34E
100
AcDbEntity
  8
SIZE
100
AcDbCircle
 10
199.8627211215116
 20
-984.8238022156384
 30
0.0
 40
7.5
  0
TEXT
  5
9B4A9
330
9B34E
100
AcDbEntity
  8
NOTE
100
AcDbText
 10
-1089.223919243857
 20
-756.0521476853891
 30
0.0
 40
35.0
  1
Ceiling surface
 50
359.999999316757
 41
0.7
  7
STANDARD1
100
AcDbText
  0
LINE
  5
9B4AA
330
9B34E
100
AcDbEntity
  8
NOTE
100
AcDbLine
 10
-650.1372783771276
 20
-680.000004882545
 30
0.0
 11
-677.3371051682606
 21
-701.0361426583631
 31
0.0
  0
LINE
  5
9B4AB
330
9B34E
100
AcDbEntity
  8
NOTE
100
AcDbLine
 10
-723.6645382055303
 20
-775.1532999481432
 30
0.0
 11
-650.1372783771276
 21
-680.000004882545
 31
0.0
  0
LINE
  5
9B4AC
330
9B34E
100
AcDbEntity
  8
NOTE
100
AcDbLine
 10
-723.6645382055303
 20
-775.1532999481432
 30
0.0
 11
-1096.696537328318
 21
-775.1532999481432
 31
0.0
  0
LINE
  5
9B4AD
330
9B34E
100
AcDbEntity
  8
NOTE
  6
ByBlock
370
    -2
100
AcDbLine
 10
184.6760619753432
 20
-711.9076371186724
 30
0.0
 11
167.5047473372451
 21
-680.000004882545
 31
0.0
  0
LINE
  5
9B4AE
330
9B34E
100
AcDbEntity
  8
NOTE
  6
ByBlock
370
    -2
100
AcDbLine
 10
167.5047473372451
 20
-680.000004882545
 30
0.0
 11
198.3293580618692
 21
-699.0471677944306
 31
0.0
  0
LINE
  5
9B4AF
330
9B34E
100
AcDbEntity
  8
NOTE
  6
ByBlock
370
    -2
100
AcDbLine
 10
167.5047473372451
 20
-680.000004882545
 30
0.0
 11
191.5027100186062
 21
-705.4774024565513
 31
0.0
  0
LINE
  5
9B4B0
330
9B34E
100
AcDbEntity
  8
NOTE
100
AcDbLine
 10
191.5027100186062
 20
-705.4774024565513
 30
0.0
 11
326.5195204268875
 21
-848.8177769549984
 31
0.0
1001
ACAD
1000
DSTYLE
1002
{
1070
   341
1005
4C0C3
1070
    41
1040
35.0
1070
   271
1070
     0
1002
}
  0
LINE
  5
9B4B1
330
9B34E
100
AcDbEntity
  8
NOTE
100
AcDbLine
 10
326.5195204268875
 20
-848.8177769549984
 30
0.0
 11
639.290811921679
 21
-848.8177769549984
 31
0.0
1001
ACAD
1000
DSTYLE
1002
{
1070
   341
1005
4C0C3
1070
    41
1040
35.0
1070
   271
1070
     0
1002
}
  0
TEXT
  5
9B4B2
330
9B34E
100
AcDbEntity
  8
NOTE
100
AcDbText
 10
343.9105868955849
 20
-838.9315399052858
 30
0.0
 40
35.0
  1
Access door 2
 50
0.0000006832429909
 41
0.7
  7
STANDARD1
100
AcDbText
  0
TEXT
  5
9B4B3
330
9B34E
100
AcDbEntity
  8
NOTE
100
AcDbText
 10
354.8908528637703
 20
-905.838557875338
 30
0.0
 40
35.0
  1
(450X450)
 50
359.9999974955182
 41
0.55
  7
STANDARD1
100
AcDbText
  0
LINE
  5
9B4B4
330
9B34E
100
AcDbEntity
  8
SERVICESPACE
100
AcDbLine
 10
350.1372783771276
 20
0.0
 30
0.0
 11
-350.1372783771276
 21
0.0
 31
0.0
  0
LINE
  5
9B4B5
330
9B34E
100
AcDbEntity
  8
SERVICESPACE
100
AcDbLine
 10
335.2180685985822
 20
0.0
 30
0.0
 11
299.8627295392544
 21
35.35533905932789
 31
0.0
  0
LINE
  5
9B4B6
330
9B34E
100
AcDbEntity
  8
SERVICESPACE
100
AcDbLine
 10
285.2180685985823
 20
0.0
 30
0.0
 11
249.8627295392544
 21
35.35533905932789
 31
0.0
  0
LINE
  5
9B4B7
330
9B34E
100
AcDbEntity
  8
SERVICESPACE
100
AcDbLine
 10
235.2180685985822
 20
0.0
 30
0.0
 11
199.8627295392543
 21
35.35533905932789
 31
0.0
  0
LINE
  5
9B4B8
330
9B34E
100
AcDbEntity
  8
SERVICESPACE
100
AcDbLine
 10
185.2180685985822
 20
0.0
 30
0.0
 11
149.8627295392543
 21
35.35533905932789
 31
0.0
  0
LINE
  5
9B4B9
330
9B34E
100
AcDbEntity
  8
SERVICESPACE
100
AcDbLine
 10
135.2180685985822
 20
0.0
 30
0.0
 11
99.86272953925436
 21
35.35533905932789
 31
0.0
  0
LINE
  5
9B4BA
330
9B34E
100
AcDbEntity
  8
SERVICESPACE
100
AcDbLine
 10
85.21806859858225
 20
0.0
 30
0.0
 11
49.86272953925436
 21
35.35533905932789
 31
0.0
  0
LINE
  5
9B4BB
330
9B34E
100
AcDbEntity
  8
SERVICESPACE
100
AcDbLine
 10
35.21806859858225
 20
0.0
 30
0.0
 11
-0.1372704607456399
 21
35.35533905932789
 31
0.0
  0
LINE
  5
9B4BC
330
9B34E
100
AcDbEntity
  8
SERVICESPACE
100
AcDbLine
 10
-14.78193140141775
 20
0.0
 30
0.0
 11
-50.13727046074563
 21
35.35533905932789
 31
0.0
  0
LINE
  5
9B4BD
330
9B34E
100
AcDbEntity
  8
SERVICESPACE
100
AcDbLine
 10
-64.78193140141775
 20
0.0
 30
0.0
 11
-100.1372704607456
 21
35.35533905932789
 31
0.0
  0
LINE
  5
9B4BE
330
9B34E
100
AcDbEntity
  8
SERVICESPACE
100
AcDbLine
 10
-114.7819314014177
 20
0.0
 30
0.0
 11
-150.1372704607456
 21
35.35533905932789
 31
0.0
  0
LINE
  5
9B4BF
330
9B34E
100
AcDbEntity
  8
SERVICESPACE
100
AcDbLine
 10
-164.7819314014177
 20
0.0
 30
0.0
 11
-200.1372704607456
 21
35.35533905932789
 31
0.0
  0
LINE
  5
9B4C0
330
9B34E
100
AcDbEntity
  8
SERVICESPACE
100
AcDbLine
 10
-214.7819314014177
 20
0.0
 30
0.0
 11
-250.1372704607456
 21
35.35533905932789
 31
0.0
  0
LINE
  5
9B4C1
330
9B34E
100
AcDbEntity
  8
SERVICESPACE
100
AcDbLine
 10
-264.7819314014177
 20
0.0
 30
0.0
 11
-300.1372704607456
 21
35.35533905932789
 31
0.0
  0
LINE
  5
9B4C2
330
9B34E
100
AcDbEntity
  8
SERVICESPACE
100
AcDbLine
 10
-314.7819314014177
 20
0.0
 30
0.0
 11
-350.1372704607456
 21
35.35533905932789
 31
0.0
  0
LINE
  5
9B4C3
330
9B34E
100
AcDbEntity
  8
SIZE
100
AcDbLine
 10
-370.1372783771279
 20
-10.00000155877796
 30
0.0
 11
-801.8821844911938
 21
-10.00000155877796
 31
0.0
  0
LINE
  5
9B4C4
330
9B34E
100
AcDbEntity
  8
SIZE
100
AcDbLine
 10
-370.1372783771279
 20
0.0000000000009095
 30
0.0
 11
-801.8821844911938
 21
0.0000000000009095
 31
0.0
  0
LINE
  5
9B4C5
330
9B34E
100
AcDbEntity
  8
SIZE
100
AcDbLine
 10
-781.8821844911938
 20
-10.00000155877796
 30
0.0
 11
-781.8821844911938
 21
-40.00000155877796
 31
0.0
  0
LINE
  5
9B4C6
330
9B34E
100
AcDbEntity
  8
SIZE
100
AcDbLine
 10
-781.8821844911938
 20
0.0000000000009095
 30
0.0
 11
-781.8821844911938
 21
387.3571428571431
 31
0.0
  0
LINE
  5
9B4C7
330
9B34E
100
AcDbEntity
  8
SIZE
100
AcDbLine
 10
-781.8821844911938
 20
-10.00000155877796
 30
0.0
 11
-781.8821844911938
 21
0.0000000000009095
 31
0.0
  0
CIRCLE
  5
9B4C8
330
9B34E
100
AcDbEntity
  8
SIZE
100
AcDbCircle
 10
-781.8821844911938
 20
-10.00000155877796
 30
0.0
 40
7.500000000000001
  0
CIRCLE
  5
9B4C9
330
9B34E
100
AcDbEntity
  8
SIZE
100
AcDbCircle
 10
-781.8821844911938
 20
0.0000000000009095
 30
0.0
 40
7.5
  0
TEXT
  5
9B4CA
330
9B34E
100
AcDbEntity
  8
SIZE
100
AcDbText
 10
-801.8821844911926
 20
175.7857142857137
 30
0.0
 40
30.0
  1
Min.10mm
 50
90.0
 41
0.9
100
AcDbText
  0
TEXT
  5
9B4CB
330
9B34E
100
AcDbEntity
  8
NOTE
100
AcDbText
 10
-979.6317743930176
 20
-837.751787357306
 30
0.0
 40
35.0
  1
Access door 1
 50
359.999999316757
 41
0.7
  7
STANDARD1
100
AcDbText
  0
LINE
  5
9B4CC
330
9B34E
100
AcDbEntity
  8
NOTE
100
AcDbLine
 10
-693.4409934677842
 20
-846.1209576175743
 30
0.0
 11
-521.2544648230268
 21
-680.0000125982332
 31
0.0
  0
LINE
  5
9B4CD
330
9B34E
100
AcDbEntity
  8
NOTE
100
AcDbLine
 10
-693.4409934677842
 20
-846.1209576175743
 30
0.0
 11
-987.1088527073698
 21
-846.1209576175743
 31
0.0
  0
TEXT
  5
9B4CE
330
9B34E
100
AcDbEntity
  8
NOTE
100
AcDbText
 10
-980.0658389825365
 20
-897.8303552183434
 30
0.0
 40
35.0
  1
(450X450)
 50
0.0000025044752157
 41
0.6
  7
STANDARD1
100
AcDbText
  0
LINE
  5
9B4CF
330
9B34E
100
AcDbEntity
  8
NOTE
100
AcDbLine
 10
-521.2544534832504
 20
-680.000004882545
 30
0.0
 11
-551.1466907636922
 21
-696.9942339136196
 31
0.0
  0
LINE
  5
9B4D0
330
9B34E
100
AcDbEntity
  8
NOTE
100
AcDbLine
 10
-521.2544534832504
 20
-680.000004882545
 30
0.0
 11
-538.6447753963238
 21
-709.6635578347573
 31
0.0
  0
LINE
  5
9B4D1
330
9B34E
100
AcDbEntity
  8
SIZE
100
AcDbLine
 10
349.8627216228724
 20
-700.000004882545
 30
0.0
 11
349.8627216228724
 21
-1083.33495854938
 31
0.0
  0
LINE
  5
9B4D2
330
9B34E
100
AcDbEntity
  8
SIZE
100
AcDbLine
 10
-125.1372783771276
 20
-700.000004882545
 30
0.0
 11
-125.1372783771276
 21
-1083.33495854938
 31
0.0
  0
LINE
  5
9B4D3
330
9B34E
100
AcDbEntity
  8
SIZE
100
AcDbLine
 10
349.8627216228724
 20
-1063.33495854938
 30
0.0
 11
-125.1372783771276
 21
-1063.33495854938
 31
0.0
  0
CIRCLE
  5
9B4D4
330
9B34E
100
AcDbEntity
  8
SIZE
100
AcDbCircle
 10
349.8627216228724
 20
-1063.33495854938
 30
0.0
 40
7.5
  0
CIRCLE
  5
9B4D5
330
9B34E
100
AcDbEntity
  8
SIZE
100
AcDbCircle
 10
-125.1372783771276
 20
-1063.33495854938
 30
0.0
 40
7.5
  0
TEXT
  5
9B4D6
330
9B34E
100
AcDbEntity
  8
SIZE
100
AcDbText
 10
77.64843590858669
 20
-1043.33495854938
 30
0.0
 40
30.0
  1
475
 41
0.9
100
AcDbText
  0
LINE
  5
9B4D7
330
9B34E
100
AcDbEntity
  8
SIZE
100
AcDbLine
 10
199.8627216228724
 20
-700.000004882545
 30
0.0
 11
199.8627216228724
 21
-1004.823802215638
 31
0.0
  0
LINE
  5
9B4D8
330
9B34E
100
AcDbEntity
  8
SIZE
100
AcDbLine
 10
349.8627216228724
 20
-280.000001558763
 30
0.0
 11
349.8627216228724
 21
-1004.823802215638
 31
0.0
  0
LINE
  5
9B4D9
330
9B34E
100
AcDbEntity
  8
SIZE
100
AcDbLine
 10
199.8627216228724
 20
-984.8238022156384
 30
0.0
 11
349.8627216228724
 21
-984.8238022156384
 31
0.0
  0
LINE
  5
9B4DA
330
9B34E
100
AcDbEntity
  8
SIZE
100
AcDbLine
 10
349.8627216228724
 20
-984.8238022156384
 30
0.0
 11
643.5770073371579
 21
-984.8238022156384
 31
0.0
  0
CIRCLE
  5
9B4DB
330
9B34E
100
AcDbEntity
  8
SIZE
100
AcDbCircle
 10
199.8627216228724
 20
-984.8238022156384
 30
0.0
 40
7.5
  0
CIRCLE
  5
9B4DC
330
9B34E
100
AcDbEntity
  8
SIZE
100
AcDbCircle
 10
349.8627216228724
 20
-984.8238022156384
 30
0.0
 40
7.5
  0
TEXT
  5
9B4DD
330
9B34E
100
AcDbEntity
  8
SIZE
100
AcDbText
 10
474.4341501943007
 20
-964.8238022156384
 30
0.0
 40
30.0
  1
50~150
 41
0.9
100
AcDbText
  0
LINE
  5
9B4DE
330
9B34E
100
AcDbEntity
  8
SERVICESPACE
100
AcDbLine
 10
-575.1372783771276
 20
-680.000004882545
 30
0.0
 11
-575.1372783771276
 21
-660.0000048825449
 31
0.0
  0
LINE
  5
9B4DF
330
9B34E
100
AcDbEntity
  8
NOTE
100
AcDbLine
 10
-650.1372815183588
 20
-680.0000141275932
 30
0.0
 11
-663.2469079069721
 21
-711.788178056011
 31
0.0
  0
ENDBLK
  5
9B4E3
330
9B34E
100
AcDbEntity
  8
0
100
AcDbBlockEnd
  0
ENDSEC
  0
SECTION
  2
ENTITIES
  0
LINE
  5
9B4E8
330
18
100
AcDbEntity
  8
DETAIL
100
AcDbLine
 10
242.9981402002826
 20
-239.9856938483476
 30
0.0
 11
349.9999999999922
 21
-239.9856938483476
 31
0.0
  0
LINE
  5
9B4E9
330
18
100
AcDbEntity
  8
DETAIL
100
AcDbLine
 10
340.9871244635028
 20
-65.09298998570239
 30
0.0
 11
340.9871244635028
 21
-43.56223175966397
 31
0.0
  0
LINE
  5
9B4EA
330
18
100
AcDbEntity
  8
DETAIL
100
AcDbLine
 10
308.9413447782458
 20
-43.56223175966397
 30
0.0
 11
308.9413447782458
 21
-65.09298998570239
 31
0.0
  0
LINE
  5
9B4EB
330
18
100
AcDbEntity
  8
DETAIL
100
AcDbLine
 10
333.9771101573563
 20
-36.55221745351218
 30
0.0
 11
315.951359084392
 21
-36.55221745351218
 31
0.0
  0
LINE
  5
9B4EC
330
18
100
AcDbEntity
  8
DETAIL
100
AcDbLine
 10
-308.987124463533
 20
-36.55221745351218
 30
0.0
 11
-327.0128755364846
 21
-36.55221745351218
 31
0.0
  0
LINE
  5
9B4ED
330
18
100
AcDbEntity
  8
DETAIL
100
AcDbLine
 10
-301.9771101573721
 20
-65.09298998570239
 30
0.0
 11
-301.9771101573721
 21
-43.56223175966397
 31
0.0
  0
LINE
  5
9B4EE
330
18
100
AcDbEntity
  8
DETAIL
100
AcDbLine
 10
-334.0228898426437
 20
-43.56223175966397
 30
0.0
 11
-334.0228898426437
 21
-65.09298998570239
 31
0.0
  0
ARC
  5
9B4EF
330
18
100
AcDbEntity
  8
DETAIL
100
AcDbCircle
 10
337.982832618019
 20
-65.09298998570239
 30
0.0
 40
3.0042918454936
100
AcDbArc
 50
180.0
 51
0.0
  0
ARC
  5
9B4F0
330
18
100
AcDbEntity
  8
DETAIL
100
AcDbCircle
 10
311.9456366237567
 20
-65.09298998570239
 30
0.0
 40
3.0042918454936
100
AcDbArc
 50
180.0
 51
0.0
  0
ARC
  5
9B4F1
330
18
100
AcDbEntity
  8
DETAIL
100
AcDbCircle
 10
333.9771101573563
 20
-43.56223175966397
 30
0.0
 40
7.010014306151662
100
AcDbArc
 50
0.0
 51
90.0
  0
ARC
  5
9B4F2
330
18
100
AcDbEntity
  8
DETAIL
100
AcDbCircle
 10
315.951359084392
 20
-43.56223175966397
 30
0.0
 40
7.010014306151662
100
AcDbArc
 50
90.0
 51
180.0
  0
ARC
  5
9B4F3
330
18
100
AcDbEntity
  8
DETAIL
100
AcDbCircle
 10
-304.9814020028704
 20
-65.09298998570239
 30
0.0
 40
3.004291845493577
100
AcDbArc
 50
180.0
 51
0.0
  0
ARC
  5
9B4F4
330
18
100
AcDbEntity
  8
DETAIL
100
AcDbCircle
 10
-331.0185979971325
 20
-65.09298998570239
 30
0.0
 40
3.0042918454936
100
AcDbArc
 50
180.0
 51
0.0
  0
ARC
  5
9B4F5
330
18
100
AcDbEntity
  8
DETAIL
100
AcDbCircle
 10
-308.987124463533
 20
-43.56223175966397
 30
0.0
 40
7.010014306151662
100
AcDbArc
 50
0.0
 51
90.0
  0
ARC
  5
9B4F6
330
18
100
AcDbEntity
  8
DETAIL
100
AcDbCircle
 10
-327.0128755364846
 20
-43.56223175966397
 30
0.0
 40
7.010014306151715
100
AcDbArc
 50
90.0
 51
180.0
  0
LINE
  5
9B4F7
330
18
100
AcDbEntity
  8
DETAIL
100
AcDbLine
 10
381.9999999999812
 20
-22.99999999999227
 30
0.0
 11
381.9999999999812
 21
-200.9999999999923
 31
0.0
  0
LINE
  5
9B4F8
330
18
100
AcDbEntity
  8
DETAIL
100
AcDbLine
 10
349.9999999999922
 20
-72.103004291851
 30
0.0
 11
349.9999999999922
 21
-24.03433476395276
 31
0.0
  0
LINE
  5
9B4F9
330
18
100
AcDbEntity
  8
DETAIL
100
AcDbLine
 10
349.9999999999922
 20
0.0000000000077289
 30
0.0
 11
349.9999999999922
 21
-24.03433476395276
 31
0.0
  0
LINE
  5
9B4FA
330
18
100
AcDbEntity
  8
DETAIL
100
AcDbLine
 10
334.9785407725388
 20
-60.0933060445718
 30
0.0
 11
334.9785407725388
 21
-65.09298998570239
 31
0.0
  0
LINE
  5
9B4FB
330
18
100
AcDbEntity
  8
DETAIL
100
AcDbLine
 10
330.9728183118744
 20
-15.02145922747696
 30
0.0
 11
330.9728183118744
 21
-24.03433476395276
 31
0.0
  0
LINE
  5
9B4FC
330
18
100
AcDbEntity
  8
DETAIL
100
AcDbLine
 10
318.955650929903
 20
-15.02145922747696
 30
0.0
 11
318.955650929903
 21
-24.03433476395276
 31
0.0
  0
LINE
  5
9B4FD
330
18
100
AcDbEntity
  8
DETAIL
100
AcDbLine
 10
314.9499284692386
 20
-65.09298998570239
 30
0.0
 11
314.9499284692386
 21
-60.0933060445718
 31
0.0
  0
LINE
  5
9B4FE
330
18
100
AcDbEntity
  8
DETAIL
100
AcDbLine
 10
299.9284692417709
 20
-72.103004291851
 30
0.0
 11
299.9284692417709
 21
-24.03433476395276
 31
0.0
  0
LINE
  5
9B4FF
330
18
100
AcDbEntity
  8
DETAIL
100
AcDbLine
 10
299.9284692417709
 20
-15.02145922747696
 30
0.0
 11
299.9284692417709
 21
-24.03433476395276
 31
0.0
  0
LINE
  5
9B500
330
18
100
AcDbEntity
  8
DETAIL
100
AcDbLine
 10
194.0772532188851
 20
-9.01287553648717
 30
0.0
 11
194.0772532188851
 21
-0.0000000000077307
 31
0.0
  0
LINE
  5
9B501
330
18
100
AcDbEntity
  8
DETAIL
100
AcDbLine
 10
-73.27330530053462
 20
-249.9999999999922
 30
0.0
 11
349.9999999999922
 21
-249.9999999999922
 31
0.0
  0
LINE
  5
9B502
330
18
100
AcDbEntity
  8
DETAIL
100
AcDbLine
 10
242.9981402002826
 20
-239.9856938483476
 30
0.0
 11
-350.0000000000078
 21
-239.9856938483476
 31
0.0
  0
LINE
  5
9B503
330
18
100
AcDbEntity
  8
DETAIL
100
AcDbLine
 10
381.9999999999922
 20
-200.9999999999923
 30
0.0
 11
349.9999999999922
 21
-200.9999999999923
 31
0.0
  0
LINE
  5
9B504
330
18
100
AcDbEntity
  8
DETAIL
100
AcDbLine
 10
346.9957081545102
 20
-75.10729613734792
 30
0.0
 11
302.9327610872818
 21
-75.10729613734792
 31
0.0
  0
LINE
  5
9B505
330
18
100
AcDbEntity
  8
DETAIL
100
AcDbLine
 10
-296.9241773962883
 20
-75.10729613734792
 30
0.0
 11
-340.9871244635185
 21
-75.10729613734792
 31
0.0
  0
LINE
  5
9B506
330
18
100
AcDbEntity
  8
DETAIL
100
AcDbLine
 10
-328.0143061516507
 20
-60.08583690987825
 30
0.0
 11
-307.9856938483522
 21
-60.08583690987825
 31
0.0
  0
LINE
  5
9B507
330
18
100
AcDbEntity
  8
DETAIL
100
AcDbLine
 10
314.9499284692386
 20
-60.08583690987825
 30
0.0
 11
334.9785407725388
 21
-60.08583690987825
 31
0.0
  0
LINE
  5
9B508
330
18
100
AcDbEntity
  8
DETAIL
100
AcDbLine
 10
346.9957081545102
 20
-27.03862660944969
 30
0.0
 11
333.9771101573563
 21
-27.03862660944969
 31
0.0
  0
LINE
  5
9B509
330
18
100
AcDbEntity
  8
DETAIL
100
AcDbLine
 10
315.951359084392
 20
-27.03862660944969
 30
0.0
 11
302.9327610872818
 21
-27.03862660944969
 31
0.0
  0
LINE
  5
9B50A
330
18
100
AcDbEntity
  8
DETAIL
100
AcDbLine
 10
-296.9241773962883
 20
-27.03862660944969
 30
0.0
 11
-309.942775393442
 21
-27.03862660944969
 31
0.0
  0
LINE
  5
9B50B
330
18
100
AcDbEntity
  8
DETAIL
100
AcDbLine
 10
-327.9685264663937
 20
-27.03862660944969
 30
0.0
 11
-340.9871244635185
 21
-27.03862660944969
 31
0.0
  0
LINE
  5
9B50C
330
18
100
AcDbEntity
  8
DETAIL
100
AcDbLine
 10
381.9999999999922
 20
-22.99999999999227
 30
0.0
 11
349.9999999999922
 21
-22.99999999999227
 31
0.0
  0
LINE
  5
9B50D
330
18
100
AcDbEntity
  8
DETAIL
100
AcDbLine
 10
-324.9642346208827
 20
-17.52503576538357
 30
0.0
 11
-312.947067238924
 21
-17.52503576538357
 31
0.0
  0
LINE
  5
9B50E
330
18
100
AcDbEntity
  8
DETAIL
100
AcDbLine
 10
318.955650929903
 20
-17.52503576538357
 30
0.0
 11
330.9728183118744
 21
-17.52503576538357
 31
0.0
  0
LINE
  5
9B50F
330
18
100
AcDbEntity
  8
DETAIL
100
AcDbLine
 10
349.9999999999922
 20
-14.99999999999227
 30
0.0
 11
299.9284692417709
 21
-14.99999999999227
 31
0.0
  0
LINE
  5
9B510
330
18
100
AcDbEntity
  8
DETAIL
100
AcDbLine
 10
-293.919885550808
 20
-14.99999999999227
 30
0.0
 11
-343.9914163090294
 21
-14.99999999999227
 31
0.0
  0
LINE
  5
9B511
330
18
100
AcDbEntity
  8
DETAIL
100
AcDbLine
 10
197.081545064367
 20
-12.01716738198002
 30
0.0
 11
349.9999999999922
 21
-12.01716738197274
 31
0.0
  0
LINE
  5
9B512
330
18
100
AcDbEntity
  8
DETAIL
100
AcDbLine
 10
349.9999999999922
 20
0.0000000000077289
 30
0.0
 11
-350.0000000000078
 21
0.0000000000077289
 31
0.0
  0
LINE
  5
9B513
330
18
100
AcDbEntity
  8
DETAIL
100
AcDbLine
 10
-293.919885550808
 20
-72.103004291851
 30
0.0
 11
-293.919885550808
 21
-24.03433476395276
 31
0.0
  0
LINE
  5
9B514
330
18
100
AcDbEntity
  8
DETAIL
100
AcDbLine
 10
-293.919885550808
 20
-15.02145922747696
 30
0.0
 11
-293.919885550808
 21
-24.03433476395276
 31
0.0
  0
LINE
  5
9B515
330
18
100
AcDbEntity
  8
DETAIL
100
AcDbLine
 10
-307.9856938483522
 20
-60.0933060445718
 30
0.0
 11
-307.9856938483522
 21
-65.09298998570239
 31
0.0
  0
LINE
  5
9B516
330
18
100
AcDbEntity
  8
DETAIL
100
AcDbLine
 10
-312.947067238924
 20
-15.02145922747696
 30
0.0
 11
-312.947067238924
 21
-24.03433476395276
 31
0.0
  0
LINE
  5
9B517
330
18
100
AcDbEntity
  8
DETAIL
100
AcDbLine
 10
-324.9642346208827
 20
-15.02145922747696
 30
0.0
 11
-324.9642346208827
 21
-24.03433476395276
 31
0.0
  0
LINE
  5
9B518
330
18
100
AcDbEntity
  8
DETAIL
100
AcDbLine
 10
-328.0143061516507
 20
-65.09298998570239
 30
0.0
 11
-328.0143061516507
 21
-60.0933060445718
 31
0.0
  0
LINE
  5
9B519
330
18
100
AcDbEntity
  8
DETAIL
100
AcDbLine
 10
-343.9914163090294
 20
-72.103004291851
 30
0.0
 11
-343.9914163090294
 21
-24.03433476395276
 31
0.0
  0
LINE
  5
9B51A
330
18
100
AcDbEntity
  8
DETAIL
100
AcDbLine
 10
-343.9914163090294
 20
-15.02145922747696
 30
0.0
 11
-343.9914163090294
 21
-24.03433476395276
 31
0.0
  0
LINE
  5
9B51B
330
18
100
AcDbEntity
  8
DETAIL
100
AcDbLine
 10
-350.0000000000078
 20
-247.997138769661
 30
0.0
 11
-350.0000000000078
 21
-236.7811158798204
 31
0.0
  0
LINE
  5
9B51C
330
18
100
AcDbEntity
  8
DETAIL
100
AcDbLine
 10
-350.0000000000078
 20
-234.1344778254738
 30
0.0
 11
-350.0000000000078
 21
-0.0000000000077307
 31
0.0
  0
LINE
  5
9B51D
330
18
100
AcDbEntity
  8
DETAIL
100
AcDbLine
 10
-350.0000000000078
 20
-122.9756795422122
 30
0.0
 11
-350.0000000000078
 21
-12.01716738198002
 31
0.0
  0
ARC
  5
9B51E
330
18
100
AcDbEntity
  8
DETAIL
100
AcDbCircle
 10
346.9957081545102
 20
-72.103004291851
 30
0.0
 40
3.0042918454936
100
AcDbArc
 50
270.0
 51
0.0
  0
ARC
  5
9B51F
330
18
100
AcDbEntity
  8
DETAIL
100
AcDbCircle
 10
302.9327610872818
 20
-72.103004291851
 30
0.0
 40
3.004291845493496
100
AcDbArc
 50
180.0
 51
270.0
  0
CIRCLE
  5
9B520
330
18
100
AcDbEntity
  8
DETAIL
100
AcDbCircle
 10
324.9642346208814
 20
-55.07868383405412
 30
0.0
 40
3.505007153075836
  0
ARC
  5
9B521
330
18
100
AcDbEntity
  8
DETAIL
100
AcDbCircle
 10
346.9957081545102
 20
-24.03433476395276
 30
0.0
 40
3.0042918454936
100
AcDbArc
 50
270.0
 51
0.0
  0
ARC
  5
9B522
330
18
100
AcDbEntity
  8
DETAIL
100
AcDbCircle
 10
333.9771101573563
 20
-24.03433476395276
 30
0.0
 40
3.0042918454936
100
AcDbArc
 50
180.0
 51
270.0
  0
ARC
  5
9B523
330
18
100
AcDbEntity
  8
DETAIL
100
AcDbCircle
 10
315.951359084392
 20
-24.03433476395276
 30
0.0
 40
3.0042918454936
100
AcDbArc
 50
270.0
 51
0.0
  0
ARC
  5
9B524
330
18
100
AcDbEntity
  8
DETAIL
100
AcDbCircle
 10
302.9327610872818
 20
-24.03433476395276
 30
0.0
 40
3.0042918454936
100
AcDbArc
 50
180.0
 51
270.0
  0
ARC
  5
9B525
330
18
100
AcDbEntity
  8
DETAIL
100
AcDbCircle
 10
197.081545064367
 20
-9.01287553648717
 30
0.0
 40
3.0042918454936
100
AcDbArc
 50
180.0
 51
270.0
  0
ARC
  5
9B526
330
18
100
AcDbEntity
  8
DETAIL
100
AcDbCircle
 10
-296.9241773962883
 20
-72.103004291851
 30
0.0
 40
3.0042918454936
100
AcDbArc
 50
270.0
 51
0.0
  0
ARC
  5
9B527
330
18
100
AcDbEntity
  8
DETAIL
100
AcDbCircle
 10
-340.9871244635185
 20
-72.103004291851
 30
0.0
 40
3.004291845493496
100
AcDbArc
 50
180.0
 51
270.0
  0
CIRCLE
  5
9B528
330
18
100
AcDbEntity
  8
DETAIL
100
AcDbCircle
 10
-318.0000000000078
 20
-55.07868383405412
 30
0.0
 40
3.505007153075836
  0
ARC
  5
9B529
330
18
100
AcDbEntity
  8
DETAIL
100
AcDbCircle
 10
-296.9241773962883
 20
-24.03433476395276
 30
0.0
 40
3.0042918454936
100
AcDbArc
 50
270.0
 51
0.0
  0
ARC
  5
9B52A
330
18
100
AcDbEntity
  8
DETAIL
100
AcDbCircle
 10
-309.942775393442
 20
-24.03433476395276
 30
0.0
 40
3.0042918454936
100
AcDbArc
 50
180.0
 51
270.0
  0
ARC
  5
9B52B
330
18
100
AcDbEntity
  8
DETAIL
100
AcDbCircle
 10
-327.9685264663937
 20
-24.03433476395276
 30
0.0
 40
3.0042918454936
100
AcDbArc
 50
270.0
 51
0.0
  0
ARC
  5
9B52C
330
18
100
AcDbEntity
  8
DETAIL
100
AcDbCircle
 10
-340.9871244635185
 20
-24.03433476395276
 30
0.0
 40
3.0042918454936
100
AcDbArc
 50
180.0
 51
270.0
  0
LINE
  5
9B52D
330
18
100
AcDbEntity
  8
NOTE
100
AcDbLine
 10
371.9999999999812
 20
-59.36348759543262
 30
0.0
 11
371.9999999999812
 21
-66.63651240455283
 31
0.0
  0
LINE
  5
9B52E
330
18
100
AcDbEntity
  8
NOTE
100
AcDbLine
 10
375.63651240454
 20
-62.99999999999227
 30
0.0
 11
368.3634875954189
 21
-62.99999999999227
 31
0.0
  0
LINE
  5
9B52F
330
18
100
AcDbEntity
  8
NOTE
100
AcDbLine
 10
371.9999999999812
 20
-159.3634875954326
 30
0.0
 11
371.9999999999812
 21
-166.6365124045528
 31
0.0
  0
LINE
  5
9B530
330
18
100
AcDbEntity
  8
NOTE
100
AcDbLine
 10
375.63651240454
 20
-162.9999999999922
 30
0.0
 11
368.3634875954189
 21
-162.9999999999922
 31
0.0
  0
CIRCLE
  5
9B531
330
18
100
AcDbEntity
  8
DETAIL
100
AcDbCircle
 10
371.9999999999812
 20
-162.9999999999922
 30
0.0
 40
1.45
  0
CIRCLE
  5
9B532
330
18
100
AcDbEntity
  8
DETAIL
100
AcDbCircle
 10
371.9999999999812
 20
-62.99999999999227
 30
0.0
 40
1.45
  0
LINE
  5
9B533
330
18
100
AcDbEntity
  8
DETAIL
100
AcDbLine
 10
-350.0000000000078
 20
-249.9999999999922
 30
0.0
 11
-350.0000000000078
 21
0.0000000000077289
 31
0.0
  0
LINE
  5
9B534
330
18
100
AcDbEntity
  8
DETAIL
100
AcDbLine
 10
-350.0000000000078
 20
0.0000000000077289
 30
0.0
 11
349.9999999999922
 21
0.0000000000077289
 31
0.0
  0
LINE
  5
9B535
330
18
100
AcDbEntity
  8
DETAIL
100
AcDbLine
 10
349.9999999999922
 20
0.0000000000077289
 30
0.0
 11
349.9999999999922
 21
-249.9999999999922
 31
0.0
  0
LINE
  5
9B536
330
18
100
AcDbEntity
  8
DETAIL
100
AcDbLine
 10
349.9999999999922
 20
-249.9999999999922
 30
0.0
 11
-350.0000000000078
 21
-249.9999999999922
 31
0.0
  0
LINE
  5
9B537
330
18
100
AcDbEntity
  8
NOTE
100
AcDbLine
 10
213.9999999999922
 20
-111.1337280879993
 30
0.0
 11
213.9999999999922
 21
-132.8662719119857
 31
0.0
  0
LINE
  5
9B538
330
18
100
AcDbEntity
  8
NOTE
100
AcDbLine
 10
224.8662719119851
 20
-121.9999999999922
 30
0.0
 11
203.1337280879992
 21
-121.9999999999922
 31
0.0
  0
LINE
  5
9B539
330
18
100
AcDbEntity
  8
NOTE
100
AcDbLine
 10
146.9999999999922
 20
-144.1337280879993
 30
0.0
 11
146.9999999999922
 21
-165.8662719119856
 31
0.0
  0
LINE
  5
9B53A
330
18
100
AcDbEntity
  8
NOTE
100
AcDbLine
 10
157.8662719119851
 20
-154.9999999999922
 30
0.0
 11
136.1337280879991
 21
-154.9999999999922
 31
0.0
  0
LINE
  5
9B53B
330
18
100
AcDbEntity
  8
NOTE
100
AcDbLine
 10
371.9999999999812
 20
-19.36348759543262
 30
0.0
 11
371.9999999999812
 21
-26.63651240455283
 31
0.0
  0
LINE
  5
9B53C
330
18
100
AcDbEntity
  8
NOTE
100
AcDbLine
 10
375.63651240454
 20
-22.99999999999227
 30
0.0
 11
368.3634875954189
 21
-22.99999999999227
 31
0.0
  0
LINE
  5
9B53D
330
18
100
AcDbEntity
  8
NOTE
100
AcDbLine
 10
371.9999999999812
 20
-197.3634875954326
 30
0.0
 11
371.9999999999812
 21
-204.6365124045528
 31
0.0
  0
LINE
  5
9B53E
330
18
100
AcDbEntity
  8
NOTE
100
AcDbLine
 10
375.63651240454
 20
-200.9999999999923
 30
0.0
 11
368.3634875954189
 21
-200.9999999999923
 31
0.0
  0
LINE
  5
9B53F
330
18
100
AcDbEntity
  8
NOTE
100
AcDbLine
 10
324.9999999999922
 20
-4.133728087999321
 30
0.0
 11
324.9999999999922
 21
-25.86627191198568
 31
0.0
  0
LINE
  5
9B540
330
18
100
AcDbEntity
  8
NOTE
100
AcDbLine
 10
335.8662719119852
 20
-14.99999999999227
 30
0.0
 11
314.1337280879991
 21
-14.99999999999227
 31
0.0
  0
LINE
  5
9B541
330
18
100
AcDbEntity
  8
NOTE
100
AcDbLine
 10
-318.0000000000078
 20
-4.133728087999321
 30
0.0
 11
-318.0000000000078
 21
-25.86627191198568
 31
0.0
  0
LINE
  5
9B542
330
18
100
AcDbEntity
  8
NOTE
100
AcDbLine
 10
-307.1337280880148
 20
-14.99999999999227
 30
0.0
 11
-328.8662719120009
 21
-14.99999999999227
 31
0.0
  0
CIRCLE
  5
9B543
330
18
100
AcDbEntity
  8
FIX
100
AcDbCircle
 10
324.9999999999922
 20
-14.99999999999227
 30
0.0
 40
9.947006128806798
  0
CIRCLE
  5
9B544
330
18
100
AcDbEntity
  8
FIX
100
AcDbCircle
 10
-318.0000000000078
 20
-14.99999999999227
 30
0.0
 40
9.947006128806798
  0
LINE
  5
9B545
330
18
100
AcDbEntity
  8
OUTLINE
100
AcDbLine
 10
381.9999999999922
 20
-22.99999999999227
 30
0.0
 11
349.9999999999922
 21
-22.99999999999227
 31
0.0
  0
LINE
  5
9B546
330
18
100
AcDbEntity
  8
OUTLINE
100
AcDbLine
 10
381.9999999999812
 20
-22.99999999999227
 30
0.0
 11
381.9999999999922
 21
-200.9999999999923
 31
0.0
  0
LINE
  5
9B547
330
18
100
AcDbEntity
  8
OUTLINE
100
AcDbLine
 10
381.9999999999922
 20
-200.9999999999923
 30
0.0
 11
349.9999999999922
 21
-200.9999999999923
 31
0.0
  0
LINE
  5
9B548
330
18
100
AcDbEntity
  8
OUTLINE
100
AcDbLine
 10
349.9999999999922
 20
0.0000000000077289
 30
0.0
 11
-350.0000000000078
 21
-0.0000000000077307
 31
0.0
  0
LINE
  5
9B549
330
18
100
AcDbEntity
  8
OUTLINE
100
AcDbLine
 10
-350.0000000000078
 20
-0.0000000000077307
 30
0.0
 11
-350.0000000000078
 21
-249.9999999999922
 31
0.0
  0
LINE
  5
9B54A
330
18
100
AcDbEntity
  8
OUTLINE
100
AcDbLine
 10
-350.0000000000078
 20
-249.9999999999922
 30
0.0
 11
349.9999999999922
 21
-249.9999999999922
 31
0.0
  0
LINE
  5
9B54B
330
18
100
AcDbEntity
  8
OUTLINE
100
AcDbLine
 10
349.9999999999922
 20
-249.9999999999922
 30
0.0
 11
349.9999999999922
 21
0.0000000000077289
 31
0.0
  0
LINE
  5
9B54C
330
18
100
AcDbEntity
  8
SIZE
100
AcDbLine
 10
381.9999999999922
 20
-7.999999999992271
 30
0.0
 11
381.9999999999922
 21
63.59264465957994
 31
0.0
  0
LINE
  5
9B54D
330
18
100
AcDbEntity
  8
SIZE
100
AcDbLine
 10
371.9999999999812
 20
-44.36348759543262
 30
0.0
 11
371.9999999999812
 21
63.59264465957994
 31
0.0
  0
LINE
  5
9B54E
330
18
100
AcDbEntity
  8
SIZE
100
AcDbLine
 10
371.9999999999812
 20
58.59264465957994
 30
0.0
 11
351.9999999999812
 21
58.59264465957994
 31
0.0
  0
LINE
  5
9B54F
330
18
100
AcDbEntity
  8
SIZE
100
AcDbLine
 10
381.9999999999922
 20
58.59264465957994
 30
0.0
 11
436.2857142857059
 21
58.59264465957994
 31
0.0
  0
LINE
  5
9B550
330
18
100
AcDbEntity
  8
SIZE
100
AcDbLine
 10
371.9999999999812
 20
58.59264465957994
 30
0.0
 11
381.9999999999922
 21
58.59264465957994
 31
0.0
  0
CIRCLE
  5
9B551
330
18
100
AcDbEntity
  8
SIZE
100
AcDbCircle
 10
371.9999999999812
 20
58.59264465957994
 30
0.0
 40
5.0
  0
CIRCLE
  5
9B552
330
18
100
AcDbEntity
  8
SIZE
100
AcDbCircle
 10
381.9999999999922
 20
58.59264465957994
 30
0.0
 40
5.0
  0
TEXT
  5
9B553
330
18
100
AcDbEntity
  8
SIZE
100
AcDbText
 10
403.4648668981342
 20
73.59264465957993
 30
0.0
 40
30.0
  1
10
 41
0.9
100
AcDbText
  0
LINE
  5
9B554
330
18
100
AcDbEntity
  8
SIZE
100
AcDbLine
 10
381.9999999999812
 20
-2.999999999992271
 30
0.0
 11
381.9999999999812
 21
198.7609916711185
 31
0.0
  0
LINE
  5
9B555
330
18
100
AcDbEntity
  8
SIZE
100
AcDbLine
 10
324.9999999999922
 20
15.86627191200068
 30
0.0
 11
324.9999999999922
 21
198.7609916711185
 31
0.0
  0
LINE
  5
9B556
330
18
100
AcDbEntity
  8
SIZE
100
AcDbLine
 10
324.9999999999922
 20
178.7609916711185
 30
0.0
 11
381.9999999999812
 21
178.7609916711185
 31
0.0
  0
LINE
  5
9B557
330
18
100
AcDbEntity
  8
SIZE
100
AcDbLine
 10
381.9999999999812
 20
178.7609916711185
 30
0.0
 11
495.714285714267
 21
178.7609916711185
 31
0.0
  0
CIRCLE
  5
9B558
330
18
100
AcDbEntity
  8
SIZE
100
AcDbCircle
 10
324.9999999999922
 20
178.7609916711185
 30
0.0
 40
7.5
  0
CIRCLE
  5
9B559
330
18
100
AcDbEntity
  8
SIZE
100
AcDbCircle
 10
381.9999999999812
 20
178.7609916711185
 30
0.0
 40
7.5
  0
TEXT
  5
9B55A
330
18
100
AcDbEntity
  8
SIZE
100
AcDbText
 10
431.9999999999812
 20
198.7609916711185
 30
0.0
 40
30.0
  1
57
 41
0.9
100
AcDbText
  0
LINE
  5
9B55B
330
18
100
AcDbEntity
  8
SIZE
100
AcDbLine
 10
324.9999999999922
 20
15.86627191200068
 30
0.0
 11
324.9999999999922
 21
198.7609916711185
 31
0.0
  0
LINE
  5
9B55C
330
18
100
AcDbEntity
  8
SIZE
100
AcDbLine
 10
-318.0000000000078
 20
15.86627191200068
 30
0.0
 11
-318.0000000000078
 21
198.7609916711185
 31
0.0
  0
LINE
  5
9B55D
330
18
100
AcDbEntity
  8
SIZE
100
AcDbLine
 10
324.9999999999922
 20
178.7609916711185
 30
0.0
 11
-318.0000000000078
 21
178.7609916711185
 31
0.0
  0
CIRCLE
  5
9B55E
330
18
100
AcDbEntity
  8
SIZE
100
AcDbCircle
 10
324.9999999999922
 20
178.7609916711185
 30
0.0
 40
7.5
  0
CIRCLE
  5
9B55F
330
18
100
AcDbEntity
  8
SIZE
100
AcDbCircle
 10
-318.0000000000078
 20
178.7609916711185
 30
0.0
 40
7.5
  0
TEXT
  5
9B560
330
18
100
AcDbEntity
  8
SIZE
100
AcDbText
 10
-265.9857142857221
 20
196.6181345282607
 30
0.0
 40
30.0
  1
643(Suspension bolt pitch)
 41
0.9
100
AcDbText
  0
LINE
  5
9B561
330
18
100
AcDbEntity
  8
SIZE
100
AcDbLine
 10
381.9999999999922
 20
-2.999999999992271
 30
0.0
 11
381.9999999999922
 21
293.9522955905227
 31
0.0
  0
LINE
  5
9B562
330
18
100
AcDbEntity
  8
SIZE
100
AcDbLine
 10
349.9999999999922
 20
25.00000000000773
 30
0.0
 11
349.9999999999922
 21
293.9522955905227
 31
0.0
  0
LINE
  5
9B563
330
18
100
AcDbEntity
  8
SIZE
100
AcDbLine
 10
349.9999999999922
 20
273.9522955905227
 30
0.0
 11
319.9999999999922
 21
273.9522955905227
 31
0.0
  0
LINE
  5
9B564
330
18
100
AcDbEntity
  8
SIZE
100
AcDbLine
 10
381.9999999999922
 20
273.9522955905227
 30
0.0
 11
525.7142857142778
 21
273.9522955905227
 31
0.0
  0
LINE
  5
9B565
330
18
100
AcDbEntity
  8
SIZE
100
AcDbLine
 10
349.9999999999922
 20
273.9522955905227
 30
0.0
 11
381.9999999999922
 21
273.9522955905227
 31
0.0
  0
CIRCLE
  5
9B566
330
18
100
AcDbEntity
  8
SIZE
100
AcDbCircle
 10
349.9999999999922
 20
273.9522955905227
 30
0.0
 40
7.5
  0
CIRCLE
  5
9B567
330
18
100
AcDbEntity
  8
SIZE
100
AcDbCircle
 10
381.9999999999922
 20
273.9522955905227
 30
0.0
 40
7.5
  0
TEXT
  5
9B568
330
18
100
AcDbEntity
  8
SIZE
100
AcDbText
 10
461.9999999999922
 20
293.9522955905227
 30
0.0
 40
30.0
  1
32
 41
0.9
100
AcDbText
  0
LINE
  5
9B569
330
18
100
AcDbEntity
  8
SIZE
100
AcDbLine
 10
349.9999999999922
 20
25.00000000000773
 30
0.0
 11
349.9999999999922
 21
293.9522955905227
 31
0.0
  0
LINE
  5
9B56A
330
18
100
AcDbEntity
  8
SIZE
100
AcDbLine
 10
-350.0000000000078
 20
19.99999999999227
 30
0.0
 11
-350.0000000000078
 21
293.9522955905227
 31
0.0
  0
LINE
  5
9B56B
330
18
100
AcDbEntity
  8
SIZE
100
AcDbLine
 10
349.9999999999922
 20
273.9522955905227
 30
0.0
 11
-350.0000000000078
 21
273.9522955905227
 31
0.0
  0
CIRCLE
  5
9B56C
330
18
100
AcDbEntity
  8
SIZE
100
AcDbCircle
 10
349.9999999999922
 20
273.9522955905227
 30
0.0
 40
7.5
  0
CIRCLE
  5
9B56D
330
18
100
AcDbEntity
  8
SIZE
100
AcDbCircle
 10
-350.0000000000078
 20
273.9522955905227
 30
0.0
 40
7.5
  0
TEXT
  5
9B56E
330
18
100
AcDbEntity
  8
SIZE
100
AcDbText
 10
-34.71428571429357
 20
293.9522955905227
 30
0.0
 40
30.0
  1
700
 41
0.9
100
AcDbText
  0
LINE
  5
9B56F
330
18
100
AcDbEntity
  8
SIZE
100
AcDbLine
 10
381.9999999999812
 20
-2.999999999992271
 30
0.0
 11
381.9999999999812
 21
392.6597002103877
 31
0.0
  0
LINE
  5
9B570
330
18
100
AcDbEntity
  8
SIZE
100
AcDbLine
 10
-350.0000000000078
 20
16.19456366236727
 30
0.0
 11
-350.0000000000078
 21
392.6597002103877
 31
0.0
  0
LINE
  5
9B571
330
18
100
AcDbEntity
  8
SIZE
100
AcDbLine
 10
381.9999999999812
 20
372.6597002103877
 30
0.0
 11
-350.0000000000078
 21
372.6597002103877
 31
0.0
  0
CIRCLE
  5
9B572
330
18
100
AcDbEntity
  8
SIZE
100
AcDbCircle
 10
381.9999999999812
 20
372.6597002103877
 30
0.0
 40
7.5
  0
CIRCLE
  5
9B573
330
18
100
AcDbEntity
  8
SIZE
100
AcDbCircle
 10
-350.0000000000078
 20
372.6597002103877
 30
0.0
 40
7.5
  0
TEXT
  5
9B574
330
18
100
AcDbEntity
  8
SIZE
100
AcDbText
 10
-18.71428571429902
 20
392.6597002103877
 30
0.0
 40
30.0
  1
732
 41
0.9
100
AcDbText
  0
TEXT
  5
9B575
330
18
100
AcDbEntity
  8
ETC
100
AcDbText
 10
-854.2831452372943
 20
482.2872295034058
 30
0.0
 40
60.0
  1
PEAD-M140JA2_5
 50
0.0000030783246592
 41
0.8
100
AcDbText
  0
LINE
  5
9B576
330
18
100
AcDbEntity
  8
NOTE
100
AcDbLine
 10
-318.0000000000078
 20
-14.99999999999227
 30
0.0
 11
-340.0886666512438
 21
11.35223853037632
 31
0.0
  0
LINE
  5
9B577
330
18
100
AcDbEntity
  8
NOTE
100
AcDbLine
 10
-318.0000000000078
 20
-14.99999999999227
 30
0.0
 11
-323.953226697097
 21
18.86604142622264
 31
0.0
  0
LINE
  5
9B578
330
18
100
AcDbEntity
  8
NOTE
100
AcDbLine
 10
-398.0665045668745
 20
153.7546129431571
 30
0.0
 11
-318.0000000000078
 21
-14.99999999999227
 31
0.0
  0
LINE
  5
9B579
330
18
100
AcDbEntity
  8
NOTE
100
AcDbLine
 10
692.3460825807881
 20
149.004195111514
 30
0.0
 11
564.7905433690969
 21
149.004195111514
 31
0.0
  0
TEXT
  5
9B57A
330
18
100
AcDbEntity
  8
NOTE
100
AcDbText
 10
504.5127492474542
 20
156.4116128284609
 30
0.0
 40
30.0
  1
2X2-%%c2.9
 50
359.999997438679
 41
0.7
  7
STANDARD1
100
AcDbText
  0
LINE
  5
9B57B
330
18
100
AcDbEntity
  8
NOTE
100
AcDbLine
 10
692.3460825807881
 20
149.004195111514
 30
0.0
 11
493.0523796859263
 21
149.004195111514
 31
0.0
  0
LINE
  5
9B57C
330
18
100
AcDbEntity
  8
NOTE
100
AcDbLine
 10
371.9999999999812
 20
-62.99999999999227
 30
0.0
 11
380.9796492276212
 21
-29.80789898575449
 31
0.0
  0
LINE
  5
9B57D
330
18
100
AcDbEntity
  8
NOTE
100
AcDbLine
 10
371.9999999999812
 20
-62.99999999999227
 30
0.0
 11
396.3726552086877
 21
-38.74462228562743
 31
0.0
  0
LINE
  5
9B57E
330
18
100
AcDbEntity
  8
NOTE
100
AcDbLine
 10
493.0523796859263
 20
149.004195111514
 30
0.0
 11
371.9999999999812
 21
-62.99999999999227
 31
0.0
  0
LINE
  5
9B57F
330
18
100
AcDbEntity
  8
SIZE
100
AcDbLine
 10
-370.0000000000082
 20
-0.0000000000068212
 30
0.0
 11
-801.7449061140707
 21
-0.0000000000068212
 31
0.0
  0
LINE
  5
9B580
330
18
100
AcDbEntity
  8
SIZE
100
AcDbLine
 10
-370.0000000000081
 20
-249.9999999999914
 30
0.0
 11
-801.7449061140707
 21
-249.9999999999914
 31
0.0
  0
LINE
  5
9B581
330
18
100
AcDbEntity
  8
SIZE
100
AcDbLine
 10
-781.7449061140708
 20
-0.0000000000068212
 30
0.0
 11
-781.7449061140705
 21
-249.9999999999914
 31
0.0
  0
CIRCLE
  5
9B582
330
18
100
AcDbEntity
  8
SIZE
100
AcDbCircle
 10
-781.7449061140708
 20
-0.0000000000068212
 30
0.0
 40
7.500000000000001
  0
CIRCLE
  5
9B583
330
18
100
AcDbEntity
  8
SIZE
100
AcDbCircle
 10
-781.7449061140705
 20
-249.9999999999914
 30
0.0
 40
7.5
  0
TEXT
  5
9B584
330
18
100
AcDbEntity
  8
SIZE
100
AcDbText
 10
-801.7449061140696
 20
-159.7142857142853
 30
0.0
 40
30.0
  1
250
 50
90.0
 41
0.9
100
AcDbText
  0
LINE
  5
9B585
330
18
100
AcDbEntity
  8
SIZE
100
AcDbLine
 10
349.9999999999922
 20
-289.9999999999923
 30
0.0
 11
349.9999999999922
 21
-374.7638994036902
 31
0.0
  0
LINE
  5
9B586
330
18
100
AcDbEntity
  8
SIZE
100
AcDbLine
 10
213.9999999999922
 20
-152.8662719119856
 30
0.0
 11
213.9999999999922
 21
-374.7638994036902
 31
0.0
  0
LINE
  5
9B587
330
18
100
AcDbEntity
  8
SIZE
100
AcDbLine
 10
349.9999999999922
 20
-354.7638994036901
 30
0.0
 11
213.9999999999922
 21
-354.7638994036901
 31
0.0
  0
CIRCLE
  5
9B588
330
18
100
AcDbEntity
  8
SIZE
100
AcDbCircle
 10
349.9999999999922
 20
-354.7638994036901
 30
0.0
 40
7.5
  0
CIRCLE
  5
9B589
330
18
100
AcDbEntity
  8
SIZE
100
AcDbCircle
 10
213.9999999999922
 20
-354.7638994036901
 30
0.0
 40
7.5
  0
TEXT
  5
9B58A
330
18
100
AcDbEntity
  8
SIZE
100
AcDbText
 10
250.4999999999922
 20
-334.7638994036902
 30
0.0
 40
30.0
  1
136
 41
0.9
100
AcDbText
  0
LINE
  5
9B58B
330
18
100
AcDbEntity
  8
SIZE
100
AcDbLine
 10
213.9999999999922
 20
-152.8662719119856
 30
0.0
 11
213.9999999999922
 21
-374.7638994036902
 31
0.0
  0
LINE
  5
9B58C
330
18
100
AcDbEntity
  8
SIZE
100
AcDbLine
 10
146.9999999999922
 20
-185.8662719119857
 30
0.0
 11
146.9999999999922
 21
-374.7638994036902
 31
0.0
  0
LINE
  5
9B58D
330
18
100
AcDbEntity
  8
SIZE
100
AcDbLine
 10
213.9999999999922
 20
-354.7638994036901
 30
0.0
 11
146.9999999999922
 21
-354.7638994036901
 31
0.0
  0
TEXT
  5
9B58E
330
18
100
AcDbEntity
  8
SIZE
100
AcDbText
 10
158.6428571428492
 20
-334.7638994036902
 30
0.0
 40
30.0
  1
67
 41
0.9
100
AcDbText
  0
CIRCLE
  5
9B58F
330
18
100
AcDbEntity
  8
SIZE
100
AcDbCircle
 10
213.9999999999922
 20
-354.7638994036901
 30
0.0
 40
7.5
  0
CIRCLE
  5
9B590
330
18
100
AcDbEntity
  8
SIZE
100
AcDbCircle
 10
146.9999999999922
 20
-354.7638994036901
 30
0.0
 40
7.5
  0
LINE
  5
9B591
330
18
100
AcDbEntity
  8
SIZE
100
AcDbLine
 10
-370.0000000000082
 20
0.0000000000086402
 30
0.0
 11
-580.0973899762647
 21
0.0000000000086402
 31
0.0
  0
LINE
  5
9B592
330
18
100
AcDbEntity
  8
SIZE
100
AcDbLine
 10
183.1337280879992
 20
-121.9999999999913
 30
0.0
 11
-580.0973899762647
 21
-121.9999999999913
 31
0.0
  0
LINE
  5
9B593
330
18
100
AcDbEntity
  8
SIZE
100
AcDbLine
 10
-560.0973899762647
 20
0.0000000000086402
 30
0.0
 11
-560.0973899762647
 21
-121.9999999999913
 31
0.0
  0
CIRCLE
  5
9B594
330
18
100
AcDbEntity
  8
SIZE
100
AcDbCircle
 10
-560.0973899762647
 20
0.0000000000086402
 30
0.0
 40
7.500000000000001
  0
CIRCLE
  5
9B595
330
18
100
AcDbEntity
  8
SIZE
100
AcDbCircle
 10
-560.0973899762647
 20
-121.9999999999913
 30
0.0
 40
7.5
  0
TEXT
  5
9B596
330
18
100
AcDbEntity
  8
SIZE
100
AcDbText
 10
-580.0973899762638
 20
-93.14285714284911
 30
0.0
 40
30.0
  1
122
 50
90.0
 41
0.9
100
AcDbText
  0
LINE
  5
9B597
330
18
100
AcDbEntity
  8
SIZE
100
AcDbLine
 10
183.1337280879992
 20
-121.9999999999913
 30
0.0
 11
-580.0973899762647
 21
-121.9999999999913
 31
0.0
  0
LINE
  5
9B598
330
18
100
AcDbEntity
  8
SIZE
100
AcDbLine
 10
116.1337280879991
 20
-154.9999999999913
 30
0.0
 11
-580.0973899762647
 21
-154.9999999999913
 31
0.0
  0
LINE
  5
9B599
330
18
100
AcDbEntity
  8
SIZE
100
AcDbLine
 10
-560.0973899762647
 20
-121.9999999999913
 30
0.0
 11
-560.0973899762647
 21
-91.9999999999913
 31
0.0
  0
LINE
  5
9B59A
330
18
100
AcDbEntity
  8
SIZE
100
AcDbLine
 10
-560.0973899762647
 20
-154.9999999999913
 30
0.0
 11
-560.0973899762647
 21
-184.9999999999913
 31
0.0
  0
TEXT
  5
9B59B
330
18
100
AcDbEntity
  8
SIZE
100
AcDbText
 10
-580.097389976269
 20
-176.8571428571349
 30
0.0
 40
30.0
  1
33
 50
90.0
 41
0.9
100
AcDbText
  0
LINE
  5
9B59C
330
18
100
AcDbEntity
  8
SIZE
100
AcDbLine
 10
-560.0973899762647
 20
-121.9999999999913
 30
0.0
 11
-560.0973899762647
 21
-154.9999999999913
 31
0.0
  0
CIRCLE
  5
9B59D
330
18
100
AcDbEntity
  8
SIZE
100
AcDbCircle
 10
-560.0973899762647
 20
-121.9999999999913
 30
0.0
 40
7.5
  0
CIRCLE
  5
9B59E
330
18
100
AcDbEntity
  8
SIZE
100
AcDbCircle
 10
-560.0973899762647
 20
-154.9999999999913
 30
0.0
 40
7.500000000000001
  0
LINE
  5
9B59F
330
18
100
AcDbEntity
  8
BASIS
100
AcDbLine
 10
-0.0000000000096634
 20
29.41240878974668
 30
0.0
 11
-0.0000000000096634
 21
-282.6696284795148
 31
0.0
  0
CIRCLE
  5
9B5A0
330
18
100
AcDbEntity
  8
ARRANGE
100
AcDbCircle
 10
0.0
 20
0.0
 30
0.0
 40
19.125
  0
LINE
  5
9B5A1
330
18
100
AcDbEntity
  8
ARRANGE
100
AcDbLine
 10
-21.26587376332333
 20
-21.04700008888085
 30
0.0
 11
21.26587376330775
 21
21.0470000888954
 31
0.0
  0
LINE
  5
9B5A2
330
18
100
AcDbEntity
  8
ARRANGE
100
AcDbLine
 10
-21.23459940697154
 20
21.07855278915121
 30
0.0
 11
21.23459940695596
 21
-21.07855278913576
 31
0.0
  0
TEXT
  5
9B5A3
330
18
100
AcDbEntity
  8
SIZE
100
AcDbText
 10
720.0428063138419
 20
-168.123067322821
 30
0.0
 40
30.0
  1
(Duct)
 50
90.0
 41
0.9
100
AcDbText
  0
LINE
  5
9B5A4
330
18
100
AcDbEntity
  8
NOTE
100
AcDbLine
 10
213.9999999999959
 20
-121.9999999999968
 30
0.0
 11
244.3562998006267
 21
-138.1506882950848
 31
0.0
  0
LINE
  5
9B5A5
330
18
100
AcDbEntity
  8
NOTE
100
AcDbLine
 10
213.9999999999959
 20
-121.9999999999968
 30
0.0
 11
232.2139822197508
 21
-151.1650565178129
 31
0.0
  0
LINE
  5
9B5A6
330
18
100
AcDbEntity
  8
NOTE
100
AcDbLine
 10
480.4470982521556
 20
-367.031482108157
 30
0.0
 11
213.9999999999959
 21
-121.9999999999968
 31
0.0
  0
LINE
  5
9B5A7
330
18
100
AcDbEntity
  8
NOTE
100
AcDbLine
 10
146.9999999999939
 20
-154.9999999999968
 30
0.0
 11
149.569954838654
 21
-189.2891382527764
 31
0.0
  0
LINE
  5
9B5A8
330
18
100
AcDbEntity
  8
NOTE
100
AcDbLine
 10
146.9999999999939
 20
-154.9999999999968
 30
0.0
 11
132.0810765991021
 21
-185.9802420027231
 31
0.0
  0
LINE
  5
9B5A9
330
18
100
AcDbEntity
  8
NOTE
100
AcDbLine
 10
95.44065482228086
 20
-438.32501487351
 30
0.0
 11
146.9999999999939
 21
-154.9999999999968
 31
0.0
  0
LINE
  5
9B5AA
330
18
100
AcDbEntity
  8
SIZE
100
AcDbLine
 10
-370.0000000000082
 20
-0.0000000000068212
 30
0.0
 11
-445.3565702247899
 21
-0.0000000000068212
 31
0.0
  0
LINE
  5
9B5AB
330
18
100
AcDbEntity
  8
SIZE
100
AcDbLine
 10
-347.9470061288147
 20
-14.99999999999136
 30
0.0
 11
-445.3565702247899
 21
-14.99999999999136
 31
0.0
  0
LINE
  5
9B5AC
330
18
100
AcDbEntity
  8
SIZE
100
AcDbLine
 10
-425.3565702247899
 20
-14.99999999999136
 30
0.0
 11
-425.3565702247899
 21
-44.99999999999136
 31
0.0
  0
LINE
  5
9B5AD
330
18
100
AcDbEntity
  8
SIZE
100
AcDbLine
 10
-425.3565702247899
 20
-0.0000000000068212
 30
0.0
 11
-425.3565702247899
 21
138.5714285714221
 31
0.0
  0
LINE
  5
9B5AE
330
18
100
AcDbEntity
  8
SIZE
100
AcDbLine
 10
-425.3565702247899
 20
-14.99999999999136
 30
0.0
 11
-425.3565702247899
 21
-0.0000000000068212
 31
0.0
  0
CIRCLE
  5
9B5AF
330
18
100
AcDbEntity
  8
SIZE
100
AcDbCircle
 10
-425.3565702247899
 20
-14.99999999999136
 30
0.0
 40
7.500000000000001
  0
CIRCLE
  5
9B5B0
330
18
100
AcDbEntity
  8
SIZE
100
AcDbCircle
 10
-425.3565702247899
 20
-0.0000000000068212
 30
0.0
 40
7.5
  0
TEXT
  5
9B5B1
330
18
100
AcDbEntity
  8
SIZE
100
AcDbText
 10
-445.3565702247889
 20
79.99999999999318
 30
0.0
 40
30.0
  1
15
 50
90.0
 41
0.9
100
AcDbText
  0
LINE
  5
9B5B2
330
18
100
AcDbEntity
  8
NOTE
100
AcDbLine
 10
-379.1450921450383
 20
-96.5856622704927
 30
0.0
 11
-407.1868543751995
 21
-76.70171093560748
 31
0.0
  0
LINE
  5
9B5B3
330
18
100
AcDbEntity
  8
NOTE
100
AcDbLine
 10
-407.1868543751995
 20
-88.90776018598808
 30
0.0
 11
-407.1868543751995
 21
-76.70171093560748
 31
0.0
  0
LINE
  5
9B5B4
330
18
100
AcDbEntity
  8
NOTE
100
AcDbLine
 10
-430.2205606287104
 20
-88.90776018598808
 30
0.0
 11
-407.1868543751995
 21
-88.90776018598808
 31
0.0
  0
LINE
  5
9B5B5
330
18
100
AcDbEntity
  8
NOTE
100
AcDbLine
 10
-430.2205606287104
 20
-104.2635643550002
 30
0.0
 11
-430.2205606287104
 21
-88.90776018598808
 31
0.0
  0
LINE
  5
9B5B6
330
18
100
AcDbEntity
  8
NOTE
100
AcDbLine
 10
-430.2205606287104
 20
-104.2635643550002
 30
0.0
 11
-407.1868543751995
 21
-104.2635643550002
 31
0.0
  0
LINE
  5
9B5B7
330
18
100
AcDbEntity
  8
NOTE
100
AcDbLine
 10
-379.1450921450383
 20
-96.5856622704927
 30
0.0
 11
-407.1868543751995
 21
-116.4696136053776
 31
0.0
  0
LINE
  5
9B5B8
330
18
100
AcDbEntity
  8
NOTE
100
AcDbLine
 10
-407.1868543751995
 20
-104.2635643550002
 30
0.0
 11
-407.1868543751995
 21
-116.4696136053776
 31
0.0
  0
TEXT
  5
9B5B9
330
18
100
AcDbEntity
  8
NOTE
100
AcDbText
 10
-502.1505464931603
 20
-152.1538639144464
 30
0.0
 40
23.69722882067107
  1
Air inlet
 50
359.999997438679
 41
0.6
  7
STANDARD1
100
AcDbText
  0
LINE
  5
9B5BA
330
18
100
AcDbEntity
  8
NOTE
100
AcDbLine
 10
485.2276113631881
 20
-96.5856622704927
 30
0.0
 11
457.185849133027
 21
-76.70171093560703
 31
0.0
  0
LINE
  5
9B5BB
330
18
100
AcDbEntity
  8
NOTE
100
AcDbLine
 10
457.185849133027
 20
-88.90776018598761
 30
0.0
 11
457.185849133027
 21
-76.70171093560703
 31
0.0
  0
LINE
  5
9B5BC
330
18
100
AcDbEntity
  8
NOTE
100
AcDbLine
 10
434.1521428795162
 20
-88.90776018598761
 30
0.0
 11
457.185849133027
 21
-88.90776018598761
 31
0.0
  0
LINE
  5
9B5BD
330
18
100
AcDbEntity
  8
NOTE
100
AcDbLine
 10
434.1521428795162
 20
-104.2635643549997
 30
0.0
 11
434.1521428795162
 21
-88.90776018598761
 31
0.0
  0
LINE
  5
9B5BE
330
18
100
AcDbEntity
  8
NOTE
100
AcDbLine
 10
434.1521428795162
 20
-104.2635643549997
 30
0.0
 11
457.185849133027
 21
-104.2635643549997
 31
0.0
  0
LINE
  5
9B5BF
330
18
100
AcDbEntity
  8
NOTE
100
AcDbLine
 10
485.2276113631881
 20
-96.5856622704927
 30
0.0
 11
457.185849133027
 21
-116.4696136053776
 31
0.0
  0
LINE
  5
9B5C0
330
18
100
AcDbEntity
  8
NOTE
100
AcDbLine
 10
457.185849133027
 20
-104.2635643549997
 30
0.0
 11
457.185849133027
 21
-116.4696136053776
 31
0.0
  0
TEXT
  5
9B5C1
330
18
100
AcDbEntity
  8
NOTE
100
AcDbText
 10
388.5273505553735
 20
-155.2128015550424
 30
0.0
 40
23.69722882067107
  1
 outlet
 50
359.999997438679
 41
0.6
  7
STANDARD1
100
AcDbText
  0
TEXT
  5
9B5C2
330
18
100
AcDbEntity
  8
NOTE
100
AcDbText
 10
479.1369615082888
 20
-309.6797580758789
 30
0.0
 40
30.0
  1
Flare connection
 50
359.999997438679
 41
0.7
  7
STANDARD1
100
AcDbText
  0
TEXT
  5
9B5C3
330
18
100
AcDbEntity
  8
NOTE
100
AcDbText
 10
479.6549444595814
 20
-271.2732333417548
 30
0.0
 40
30.0
  1
Refrigerant piping
 50
359.999997438679
 41
0.7
  7
STANDARD1
100
AcDbText
  0
LINE
  5
9B5C4
330
18
100
AcDbEntity
  8
NOTE
100
AcDbLine
 10
841.7369615082891
 20
-367.031482108157
 30
0.0
 11
480.4470982521556
 21
-367.031482108157
 31
0.0
  0
TEXT
  5
9B5C5
330
18
100
AcDbEntity
  8
NOTE
100
AcDbText
 10
481.2708158505569
 20
-349.8113094346427
 30
0.0
 40
30.0
  1
(liquid) %%C9.52
 50
359.999997438679
 41
0.7
  7
STANDARD1
100
AcDbText
  0
TEXT
  5
9B5C6
330
18
100
AcDbEntity
  8
NOTE
100
AcDbText
 10
-746.2418726080891
 20
250.9154456445399
 30
0.0
 40
30.0
  1
Suspension bolt hole
 50
359.9999975851634
 41
0.65
  7
STANDARD1
100
AcDbText
  0
LINE
  5
9B5C7
330
18
100
AcDbEntity
  8
NOTE
100
AcDbLine
 10
-398.0665045668745
 20
153.7546129431571
 30
0.0
 11
-753.5074268669673
 21
153.7546449903088
 31
0.0
  0
TEXT
  5
9B5C8
330
18
100
AcDbEntity
  8
NOTE
100
AcDbText
 10
-755.2002466013605
 20
202.4914028163384
 30
0.0
 40
30.0
  1
 4-14X30 Slot
 50
359.9999975851634
 41
0.65
  7
STANDARD1
100
AcDbText
  0
TEXT
  5
9B5C9
330
18
100
AcDbEntity
  8
NOTE
100
AcDbText
 10
-745.2094486139164
 20
163.6577830188339
 30
0.0
 40
30.0
  1
(Use M10 screw)
 50
359.9999975851634
 41
0.65
  7
STANDARD1
100
AcDbText
  0
LINE
  5
9B5CA
330
18
100
AcDbEntity
  8
SIZE
100
AcDbLine
 10
401.9999999999812
 20
-22.99999999999136
 30
0.0
 11
617.2556212535114
 21
-22.99999999999136
 31
0.0
  0
LINE
  5
9B5CB
330
18
100
AcDbEntity
  8
SIZE
100
AcDbLine
 10
395.6365124045402
 20
-62.99999999999136
 30
0.0
 11
617.2556212535114
 21
-62.99999999999136
 31
0.0
  0
LINE
  5
9B5CC
330
18
100
AcDbEntity
  8
SIZE
100
AcDbLine
 10
597.2556212535115
 20
-62.99999999999136
 30
0.0
 11
597.2556212535115
 21
-22.99999999999136
 31
0.0
  0
LINE
  5
9B5CD
330
18
100
AcDbEntity
  8
SIZE
100
AcDbLine
 10
597.2556212535115
 20
-22.99999999999136
 30
0.0
 11
597.2556212535115
 21
112.5714285714357
 31
0.0
  0
CIRCLE
  5
9B5CE
330
18
100
AcDbEntity
  8
SIZE
100
AcDbCircle
 10
597.2556212535115
 20
-62.99999999999136
 30
0.0
 40
7.5
  0
CIRCLE
  5
9B5CF
330
18
100
AcDbEntity
  8
SIZE
100
AcDbCircle
 10
597.2556212535115
 20
-22.99999999999136
 30
0.0
 40
7.500000000000001
  0
TEXT
  5
9B5D0
330
18
100
AcDbEntity
  8
SIZE
100
AcDbText
 10
577.2556212535122
 20
48.85714285714948
 30
0.0
 40
30.0
  1
40
 50
90.0
 41
0.9
100
AcDbText
  0
LINE
  5
9B5D1
330
18
100
AcDbEntity
  8
SIZE
100
AcDbLine
 10
395.6365124045402
 20
-62.99999999999136
 30
0.0
 11
617.2556212535166
 21
-62.99999999999136
 31
0.0
  0
LINE
  5
9B5D2
330
18
100
AcDbEntity
  8
SIZE
100
AcDbLine
 10
395.6365124045402
 20
-162.9999999999913
 30
0.0
 11
617.2556212535166
 21
-162.9999999999913
 31
0.0
  0
LINE
  5
9B5D3
330
18
100
AcDbEntity
  8
SIZE
100
AcDbLine
 10
597.2556212535166
 20
-62.99999999999136
 30
0.0
 11
597.2556212535166
 21
-162.9999999999913
 31
0.0
  0
TEXT
  5
9B5D4
330
18
100
AcDbEntity
  8
SIZE
100
AcDbText
 10
577.2556212535172
 20
-145.1428571428487
 30
0.0
 40
30.0
  1
100
 50
90.0
 41
0.9
100
AcDbText
  0
CIRCLE
  5
9B5D5
330
18
100
AcDbEntity
  8
SIZE
100
AcDbCircle
 10
597.2556212535166
 20
-62.99999999999136
 30
0.0
 40
7.500000000000001
  0
CIRCLE
  5
9B5D6
330
18
100
AcDbEntity
  8
SIZE
100
AcDbCircle
 10
597.2556212535166
 20
-162.9999999999913
 30
0.0
 40
7.5
  0
TEXT
  5
9B5D7
330
18
100
AcDbEntity
  8
NOTE
100
AcDbText
 10
398.7285061906981
 20
-126.2192495777908
 30
0.0
 40
23.69722882067107
  1
Air
 50
359.999997438679
 41
0.6
  7
STANDARD1
100
AcDbText
  0
LINE
  5
9B5D8
330
18
100
AcDbEntity
  8
SIZE
100
AcDbLine
 10
369.9999999999923
 20
0.0000000000086402
 30
0.0
 11
697.6478616420102
 21
0.0000000000086402
 31
0.0
  0
LINE
  5
9B5D9
330
18
100
AcDbEntity
  8
SIZE
100
AcDbLine
 10
401.9999999999812
 20
-22.99999999999136
 30
0.0
 11
697.6478616420102
 21
-22.99999999999136
 31
0.0
  0
LINE
  5
9B5DA
330
18
100
AcDbEntity
  8
SIZE
100
AcDbLine
 10
677.6478616420102
 20
-22.99999999999136
 30
0.0
 11
677.6478616420102
 21
-52.99999999999136
 31
0.0
  0
LINE
  5
9B5DB
330
18
100
AcDbEntity
  8
SIZE
100
AcDbLine
 10
677.6478616420102
 20
0.0000000000086402
 30
0.0
 11
677.6478616420102
 21
143.7142857142948
 31
0.0
  0
LINE
  5
9B5DC
330
18
100
AcDbEntity
  8
SIZE
100
AcDbLine
 10
677.6478616420102
 20
-22.99999999999136
 30
0.0
 11
677.6478616420102
 21
0.0000000000086402
 31
0.0
  0
CIRCLE
  5
9B5DD
330
18
100
AcDbEntity
  8
SIZE
100
AcDbCircle
 10
677.6478616420102
 20
-22.99999999999136
 30
0.0
 40
7.500000000000001
  0
CIRCLE
  5
9B5DE
330
18
100
AcDbEntity
  8
SIZE
100
AcDbCircle
 10
677.6478616420102
 20
0.0000000000086402
 30
0.0
 40
7.5
  0
TEXT
  5
9B5DF
330
18
100
AcDbEntity
  8
SIZE
100
AcDbText
 10
657.647861642011
 20
80.00000000000864
 30
0.0
 40
30.0
  1
23
 50
90.0
 41
0.9
100
AcDbText
  0
LINE
  5
9B5E0
330
18
100
AcDbEntity
  8
SIZE
100
AcDbLine
 10
401.9999999999812
 20
-22.99999999999136
 30
0.0
 11
697.6478616420184
 21
-22.99999999999136
 31
0.0
  0
LINE
  5
9B5E1
330
18
100
AcDbEntity
  8
SIZE
100
AcDbLine
 10
401.9999999999923
 20
-200.9999999999913
 30
0.0
 11
697.6478616420185
 21
-200.9999999999913
 31
0.0
  0
LINE
  5
9B5E2
330
18
100
AcDbEntity
  8
SIZE
100
AcDbLine
 10
677.6478616420184
 20
-22.99999999999136
 30
0.0
 11
677.6478616420185
 21
-200.9999999999913
 31
0.0
  0
CIRCLE
  5
9B5E3
330
18
100
AcDbEntity
  8
SIZE
100
AcDbCircle
 10
677.6478616420184
 20
-22.99999999999136
 30
0.0
 40
7.500000000000001
  0
CIRCLE
  5
9B5E4
330
18
100
AcDbEntity
  8
SIZE
100
AcDbCircle
 10
677.6478616420185
 20
-200.9999999999913
 30
0.0
 40
7.5
  0
TEXT
  5
9B5E5
330
18
100
AcDbEntity
  8
SIZE
100
AcDbText
 10
657.647861642019
 20
-144.1428571428491
 30
0.0
 40
30.0
  1
178
 50
90.0
 41
0.9
100
AcDbText
  0
LINE
  5
9B5E6
330
18
100
AcDbEntity
  8
DETAIL
100
AcDbLine
 10
-194.0772532189044
 20
-9.01287553648717
 30
0.0
 11
-194.0772532189044
 21
-0.0000000000077307
 31
0.0
  0
LINE
  5
9B5E7
330
18
100
AcDbEntity
  8
DETAIL
100
AcDbLine
 10
-197.0815450643865
 20
-12.01716738198002
 30
0.0
 11
-350.0000000000115
 21
-12.01716738197274
 31
0.0
  0
ARC
  5
9B5E8
330
18
100
AcDbEntity
  8
DETAIL
100
AcDbCircle
 10
-197.0815450643865
 20
-9.01287553648717
 30
0.0
 40
3.0042918454936
100
AcDbArc
 50
270.0
 51
0.0
  0
LINE
  5
9B5E9
330
18
100
AcDbEntity
  8
DETAIL
100
AcDbLine
 10
-350.0000000000078
 20
-249.198855507861
 30
0.0
 11
-350.8011444921291
 21
-249.198855507861
 31
0.0
  0
LINE
  5
9B5EA
330
18
100
AcDbEntity
  8
DETAIL
100
AcDbLine
 10
-353.0042918455189
 20
-246.7954220314655
 30
0.0
 11
-351.0014306151884
 21
-246.7954220314655
 31
0.0
  0
LINE
  5
9B5EB
330
18
100
AcDbEntity
  8
DETAIL
100
AcDbLine
 10
-356.5092989985848
 20
-240.2861230328967
 30
0.0
 11
-353.0042918455189
 21
-240.2861230328967
 31
0.0
  0
LINE
  5
9B5EC
330
18
100
AcDbEntity
  8
DETAIL
100
AcDbLine
 10
-350.0000000000078
 20
-228.0000000000077
 30
0.0
 11
-353.0042918455189
 21
-228.0000000000077
 31
0.0
  0
LINE
  5
9B5ED
330
18
100
AcDbEntity
  8
DETAIL
100
AcDbLine
 10
-356.5092989985848
 20
-10.31473533620147
 30
0.0
 11
-353.0042918455189
 21
-10.31473533620147
 31
0.0
  0
LINE
  5
9B5EE
330
18
100
AcDbEntity
  8
DETAIL
100
AcDbLine
 10
-357.0100143061524
 20
-4.306151645215781
 30
0.0
 11
-355.6080114449275
 21
-4.306151645215781
 31
0.0
  0
LINE
  5
9B5EF
330
18
100
AcDbEntity
  8
DETAIL
100
AcDbLine
 10
-353.0042918455189
 20
-3.805436337632731
 30
0.0
 11
-350.0000000000078
 21
-3.805436337632731
 31
0.0
  0
LINE
  5
9B5F0
330
18
100
AcDbEntity
  8
DETAIL
100
AcDbLine
 10
-355.6080114449275
 20
-4.306151645215781
 30
0.0
 11
-354.9279977358806
 21
-6.572864008633131
 31
0.0
  0
LINE
  5
9B5F1
330
18
100
AcDbEntity
  8
DETAIL
100
AcDbLine
 10
-343.9914163090276
 20
-72.10300429185143
 30
0.0
 11
-343.9914163090276
 21
-24.03433476395322
 31
0.0
  0
LINE
  5
9B5F2
330
18
100
AcDbEntity
  8
DETAIL
100
AcDbLine
 10
-343.9914163090276
 20
-15.02145922747741
 30
0.0
 11
-343.9914163090276
 21
-24.03433476395322
 31
0.0
  0
LINE
  5
9B5F3
330
18
100
AcDbEntity
  8
DETAIL
100
AcDbLine
 10
-350.0000000000078
 20
-247.997138769661
 30
0.0
 11
-350.0000000000078
 21
-236.7811158798208
 31
0.0
  0
LINE
  5
9B5F4
330
18
100
AcDbEntity
  8
DETAIL
100
AcDbLine
 10
-350.0000000000078
 20
-234.1344778254738
 30
0.0
 11
-350.0000000000078
 21
-0.0000000000077307
 31
0.0
  0
LINE
  5
9B5F5
330
18
100
AcDbEntity
  8
DETAIL
100
AcDbLine
 10
-350.0000000000078
 20
-122.9756795422122
 30
0.0
 11
-350.0000000000078
 21
-12.01716738198002
 31
0.0
  0
LINE
  5
9B5F6
330
18
100
AcDbEntity
  8
DETAIL
100
AcDbLine
 10
-351.0014306151884
 20
-247.997138769661
 30
0.0
 11
-351.0014306151884
 21
-228.0000000000077
 31
0.0
  0
LINE
  5
9B5F7
330
18
100
AcDbEntity
  8
DETAIL
100
AcDbLine
 10
-351.0014306151884
 20
-247.997138769661
 30
0.0
 11
-351.0014306151884
 21
-248.9985693848271
 31
0.0
  0
LINE
  5
9B5F8
330
18
100
AcDbEntity
  8
DETAIL
100
AcDbLine
 10
-353.0042918455189
 20
-3.805436337632731
 30
0.0
 11
-353.0042918455189
 21
-18.00000000000773
 31
0.0
  0
LINE
  5
9B5F9
330
18
100
AcDbEntity
  8
DETAIL
100
AcDbLine
 10
-353.0042918455189
 20
-228.0000000000077
 30
0.0
 11
-353.0042918455189
 21
-246.7954220314655
 31
0.0
  0
LINE
  5
9B5FA
330
18
100
AcDbEntity
  8
DETAIL
100
AcDbLine
 10
-354.8142038431694
 20
-9.831494740794822
 30
0.0
 11
-354.9279977358806
 21
-6.572864008633131
 31
0.0
  0
ARC
  5
9B5FB
330
18
100
AcDbEntity
  8
DETAIL
100
AcDbCircle
 10
-356.5092989985848
 20
-239.7854077253137
 30
0.0
 40
0.5007153075822283
100
AcDbArc
 50
180.0
 51
270.0
  0
ARC
  5
9B5FC
330
18
100
AcDbEntity
  8
DETAIL
100
AcDbCircle
 10
-350.8011444921291
 20
-248.9985693848271
 30
0.0
 40
0.2002861230327059
100
AcDbArc
 50
180.0
 51
270.0
  0
ARC
  5
9B5FD
330
18
100
AcDbEntity
  8
DETAIL
100
AcDbCircle
 10
-356.5092989985848
 20
-10.81545064378452
 30
0.0
 40
0.500715307582258
100
AcDbArc
 50
90.0
 51
180.0
  0
ARC
  5
9B5FE
330
18
100
AcDbEntity
  8
DETAIL
100
AcDbCircle
 10
-354.313793557844
 20
-9.81402002861932
 30
0.0
 40
0.5007153075822283
100
AcDbArc
 50
182.0000000000038
 51
270.0
  0
LINE
  5
9B5FF
330
18
100
AcDbEntity
  8
DETAIL
100
AcDbLine
 10
-357.0100143061669
 20
-239.7854077253137
 30
0.0
 11
-357.0100143061669
 21
-4.306151645215781
 31
0.0
  0
LINE
  5
9B600
330
18
100
AcDbEntity
  8
DETAIL
100
AcDbLine
 10
-350.0000000000078
 20
-249.9999999999922
 30
0.0
 11
-350.0000000000078
 21
0.0000000000077289
 31
0.0
  0
LINE
  5
9B601
330
18
100
AcDbEntity
  8
OUTLINE
100
AcDbLine
 10
-350.0000000000078
 20
-0.0000000000077307
 30
0.0
 11
-350.0000000000078
 21
-249.9999999999922
 31
0.0
  0
LINE
  5
9B602
330
18
100
AcDbEntity
  8
DETAIL
100
AcDbLine
 10
-353.0042918455189
 20
-18.00000000000773
 30
0.0
 11
-350.0000000000078
 21
-18.00000000000773
 31
0.0
  0
LINE
  5
9B603
330
18
100
AcDbEntity
  8
NOTE
100
AcDbLine
 10
-350.0000000000078
 20
-7.363487595448079
 30
0.0
 11
-350.0000000000078
 21
-14.6365124045683
 31
0.0
  0
LINE
  5
9B604
330
18
100
AcDbEntity
  8
NOTE
100
AcDbLine
 10
-353.6365124045685
 20
-11.00000000000819
 30
0.0
 11
-346.3634875954473
 21
-11.00000000000819
 31
0.0
  0
LINE
  5
9B605
330
18
100
AcDbEntity
  8
NOTE
100
AcDbLine
 10
-350.0000000000078
 20
-119.3634875954481
 30
0.0
 11
-350.0000000000078
 21
-126.6365124045683
 31
0.0
  0
LINE
  5
9B606
330
18
100
AcDbEntity
  8
NOTE
100
AcDbLine
 10
-353.6365124045685
 20
-123.0000000000077
 30
0.0
 11
-346.3634875954473
 21
-123.0000000000077
 31
0.0
  0
LINE
  5
9B607
330
18
100
AcDbEntity
  8
NOTE
100
AcDbLine
 10
-350.0000000000078
 20
-231.3634875954481
 30
0.0
 11
-350.0000000000078
 21
-238.6365124045683
 31
0.0
  0
LINE
  5
9B608
330
18
100
AcDbEntity
  8
NOTE
100
AcDbLine
 10
-353.6365124045685
 20
-235.0000000000077
 30
0.0
 11
-346.3634875954473
 21
-235.0000000000077
 31
0.0
  0
TEXT
  5
9B609
330
18
100
AcDbEntity
  8
NOTE
100
AcDbText
 10
-273.8894393651349
 20
-374.2875683832804
 30
0.0
 40
30.0
  1
Flare connection
 50
0.0000025613209388
 41
0.7
  7
STANDARD1
100
AcDbText
  0
TEXT
  5
9B60A
330
18
100
AcDbEntity
  8
NOTE
100
AcDbText
 10
-276.9670536743903
 20
-332.5389081228682
 30
0.0
 40
30.0
  1
Refrigerant piping
 50
0.0000025613209388
 41
0.7
  7
STANDARD1
100
AcDbText
  0
LINE
  5
9B60B
330
18
100
AcDbEntity
  8
NOTE
100
AcDbLine
 10
-276.3833042148796
 20
-438.3250875082863
 30
0.0
 11
95.44065482228086
 21
-438.32501487351
 31
0.0
  0
TEXT
  5
9B60C
330
18
100
AcDbEntity
  8
NOTE
100
AcDbText
 10
-276.3833042148796
 20
-423.0834287829543
 30
0.0
 40
30.0
  1
(gas)%%C15.88
 50
0.0000025613209388
 41
0.7
  7
STANDARD1
100
AcDbText
  0
LINE
  5
9B60D
330
18
100
AcDbEntity
  8
SERVICESPACE
100
AcDbLine
 10
-650.0000000000078
 20
-650.0000033237742
 30
0.0
 11
-650.0000000000078
 21
-670.0000033237743
 31
0.0
  0
LINE
  5
9B60E
330
18
100
AcDbEntity
  8
SERVICESPACE
100
AcDbLine
 10
-125.0000000000079
 20
-670.0000033237743
 30
0.0
 11
-125.0000000000079
 21
-650.0000033237742
 31
0.0
  0
LINE
  5
9B60F
330
18
100
AcDbEntity
  8
SERVICESPACE
100
AcDbLine
 10
-650.0000000000078
 20
-650.0000033237742
 30
0.0
 11
349.9999999999922
 21
-650.0000033237742
 31
0.0
  0
LINE
  5
9B610
330
18
100
AcDbEntity
  8
SERVICESPACE
100
AcDbLine
 10
-650.0000000000078
 20
-670.0000033237743
 30
0.0
 11
349.9999999999922
 21
-670.0000033237743
 31
0.0
  0
LINE
  5
9B611
330
18
100
AcDbEntity
  8
SERVICESPACE
100
AcDbLine
 10
-125.0000000000079
 20
-650.0000033237742
 30
0.0
 11
-650.0000000000078
 21
-670.0000033237743
 31
0.0
  0
LINE
  5
9B612
330
18
100
AcDbEntity
  8
SERVICESPACE
100
AcDbLine
 10
-650.0000000000078
 20
-650.0000033237742
 30
0.0
 11
-125.0000000000079
 21
-670.0000033237743
 31
0.0
  0
LINE
  5
9B613
330
18
100
AcDbEntity
  8
SERVICESPACE
100
AcDbLine
 10
349.9999999999922
 20
-650.0000033237742
 30
0.0
 11
349.9999999999922
 21
-670.0000033237743
 31
0.0
  0
LINE
  5
9B614
330
18
100
AcDbEntity
  8
SERVICESPACE
100
AcDbLine
 10
199.9999999999922
 20
-670.0000033237743
 30
0.0
 11
199.9999999999922
 21
-650.0000033237742
 31
0.0
  0
LINE
  5
9B615
330
18
100
AcDbEntity
  8
SERVICESPACE
100
AcDbLine
 10
-250.0000000000078
 20
-650.0000033237742
 30
0.0
 11
-250.0000000000078
 21
-670.0000033237743
 31
0.0
  0
LINE
  5
9B616
330
18
100
AcDbEntity
  8
SERVICESPACE
100
AcDbLine
 10
199.9999999999922
 20
-650.0000033237742
 30
0.0
 11
-250.0000000000078
 21
-670.0000033237743
 31
0.0
  0
LINE
  5
9B617
330
18
100
AcDbEntity
  8
SERVICESPACE
100
AcDbLine
 10
-250.0000000000078
 20
-650.0000033237742
 30
0.0
 11
199.9999999999922
 21
-670.0000033237743
 31
0.0
  0
LINE
  5
9B618
330
18
100
AcDbEntity
  8
SIZE
100
AcDbLine
 10
-320.5146580888895
 20
-549.9999999999914
 30
0.0
 11
-801.7449061140707
 21
-549.9999999999914
 31
0.0
  0
LINE
  5
9B619
330
18
100
AcDbEntity
  8
SIZE
100
AcDbLine
 10
-370.0000000000081
 20
-249.9999999999914
 30
0.0
 11
-801.7449061140707
 21
-249.9999999999914
 31
0.0
  0
LINE
  5
9B61A
330
18
100
AcDbEntity
  8
SIZE
100
AcDbLine
 10
-781.7449061140705
 20
-549.9999999999914
 30
0.0
 11
-781.7449061140705
 21
-249.9999999999914
 31
0.0
  0
CIRCLE
  5
9B61B
330
18
100
AcDbEntity
  8
SIZE
100
AcDbCircle
 10
-781.7449061140705
 20
-549.9999999999914
 30
0.0
 40
7.5
  0
CIRCLE
  5
9B61C
330
18
100
AcDbEntity
  8
SIZE
100
AcDbCircle
 10
-781.7449061140705
 20
-249.9999999999914
 30
0.0
 40
7.500000000000001
  0
TEXT
  5
9B61D
330
18
100
AcDbEntity
  8
SIZE
100
AcDbText
 10
-801.7449061140696
 20
-511.2142857142775
 30
0.0
 40
30.0
  1
Min.300mm
 50
90.0
 41
0.9
100
AcDbText
  0
LINE
  5
9B61E
330
18
100
AcDbEntity
  8
OUTLINE
100
AcDbLine
 10
290.7302558517525
 20
-549.9999999999922
 30
0.0
 11
290.7302558517525
 21
-589.9999999999922
 31
0.0
  0
LINE
  5
9B61F
330
18
100
AcDbEntity
  8
OUTLINE
100
AcDbLine
 10
290.7302558517525
 20
-589.9999999999922
 30
0.0
 11
330.7302558517525
 21
-589.9999999999922
 31
0.0
  0
LINE
  5
9B620
330
18
100
AcDbEntity
  8
OUTLINE
100
AcDbLine
 10
330.7302558517525
 20
-589.9999999999922
 30
0.0
 11
330.7302558517525
 21
-549.9999999999922
 31
0.0
  0
LINE
  5
9B621
330
18
100
AcDbEntity
  8
OUTLINE
100
AcDbLine
 10
330.7302558517525
 20
-549.9999999999922
 30
0.0
 11
290.7302558517525
 21
-549.9999999999922
 31
0.0
  0
LINE
  5
9B622
330
18
100
AcDbEntity
  8
OUTLINE
100
AcDbLine
 10
330.7302558517525
 20
-589.9999999999922
 30
0.0
 11
290.7302558517525
 21
-549.9999999999922
 31
0.0
  0
LINE
  5
9B623
330
18
100
AcDbEntity
  8
OUTLINE
100
AcDbLine
 10
290.7302558517525
 20
-589.9999999999922
 30
0.0
 11
330.7302558517525
 21
-549.9999999999922
 31
0.0
  0
LINE
  5
9B624
330
18
100
AcDbEntity
  8
OUTLINE
100
AcDbLine
 10
-300.5146580888892
 20
-549.9999999999922
 30
0.0
 11
-300.5146580888892
 21
-589.9999999999922
 31
0.0
  0
LINE
  5
9B625
330
18
100
AcDbEntity
  8
OUTLINE
100
AcDbLine
 10
-300.5146580888892
 20
-589.9999999999922
 30
0.0
 11
-260.5146580888892
 21
-589.9999999999922
 31
0.0
  0
LINE
  5
9B626
330
18
100
AcDbEntity
  8
OUTLINE
100
AcDbLine
 10
-260.5146580888892
 20
-589.9999999999922
 30
0.0
 11
-260.5146580888892
 21
-549.9999999999922
 31
0.0
  0
LINE
  5
9B627
330
18
100
AcDbEntity
  8
OUTLINE
100
AcDbLine
 10
-260.5146580888892
 20
-549.9999999999922
 30
0.0
 11
-300.5146580888892
 21
-549.9999999999922
 31
0.0
  0
LINE
  5
9B628
330
18
100
AcDbEntity
  8
OUTLINE
100
AcDbLine
 10
-260.5146580888892
 20
-589.9999999999922
 30
0.0
 11
-300.5146580888892
 21
-549.9999999999922
 31
0.0
  0
LINE
  5
9B629
330
18
100
AcDbEntity
  8
OUTLINE
100
AcDbLine
 10
-300.5146580888892
 20
-589.9999999999922
 30
0.0
 11
-260.5146580888892
 21
-549.9999999999922
 31
0.0
  0
LINE
  5
9B62A
330
18
100
AcDbEntity
  8
NOTE
  6
ByBlock
370
    -2
100
AcDbLine
 10
366.1211449524284
 20
-544.6757895587571
 30
0.0
 11
330.2797746592327
 21
-549.9999999999922
 31
0.0
  0
LINE
  5
9B62B
330
18
100
AcDbEntity
  8
NOTE
  6
ByBlock
370
    -2
100
AcDbLine
 10
330.2797746592327
 20
-549.9999999999922
 30
0.0
 11
358.6572067211821
 21
-527.4684134849258
 31
0.0
  0
LINE
  5
9B62C
330
18
100
AcDbEntity
  8
NOTE
  6
ByBlock
370
    -2
100
AcDbLine
 10
330.2797746592327
 20
-549.9999999999922
 30
0.0
 11
362.3891758368057
 21
-536.0721015218414
 31
0.0
  0
LINE
  5
9B62D
330
18
100
AcDbEntity
  8
NOTE
100
AcDbLine
 10
362.3891758368057
 20
-536.0721015218414
 30
0.0
 11
463.7559478251109
 21
-492.1028570783451
 31
0.0
1001
ACAD
1000
DSTYLE
1002
{
1070
    41
1040
35.0
1070
   271
1070
     0
1070
   341
1005
4C0C3
1002
}
  0
LINE
  5
9B62E
330
18
100
AcDbEntity
  8
NOTE
100
AcDbLine
 10
463.7559478251109
 20
-492.1028570783451
 30
0.0
 11
751.3353709287452
 21
-492.1028570783451
 31
0.0
1001
ACAD
1000
DSTYLE
1002
{
1070
    41
1040
35.0
1070
   271
1070
     0
1070
   341
1005
4C0C3
1002
}
  0
TEXT
  5
9B62F
330
18
100
AcDbEntity
  8
NOTE
100
AcDbText
 10
466.3344327399803
 20
-476.8325854879362
 30
0.0
 40
34.99999999999999
  1
Ceiling beam
 50
360.0
 41
0.7000000000000001
  7
STANDARD1
100
AcDbText
  0
LINE
  5
9B630
330
18
100
AcDbEntity
  8
SIZE
100
AcDbLine
 10
-575.0000000000078
 20
-690.0000033237743
 30
0.0
 11
-575.0000000000078
 21
-1073.334956990609
 31
0.0
  0
LINE
  5
9B631
330
18
100
AcDbEntity
  8
SIZE
100
AcDbLine
 10
-125.0000000000079
 20
-690.0000033237743
 30
0.0
 11
-125.0000000000079
 21
-1073.334956990609
 31
0.0
  0
LINE
  5
9B632
330
18
100
AcDbEntity
  8
SIZE
100
AcDbLine
 10
-575.0000000000078
 20
-1053.334956990609
 30
0.0
 11
-125.0000000000079
 21
-1053.334956990609
 31
0.0
  0
TEXT
  5
9B633
330
18
100
AcDbEntity
  8
SIZE
100
AcDbText
 10
-340.0297432813642
 20
-1033.334956990609
 30
0.0
 40
30.0
  1
450
 41
0.9
100
AcDbText
  0
CIRCLE
  5
9B634
330
18
100
AcDbEntity
  8
SIZE
100
AcDbCircle
 10
-575.0000000000078
 20
-1053.334956990609
 30
0.0
 40
7.5
  0
CIRCLE
  5
9B635
330
18
100
AcDbEntity
  8
SIZE
100
AcDbCircle
 10
-125.0000000000079
 20
-1053.334956990609
 30
0.0
 40
7.5
  0
LINE
  5
9B636
330
18
100
AcDbEntity
  8
SIZE
100
AcDbLine
 10
-350.0000000000078
 20
-270.0000033237743
 30
0.0
 11
-350.000000000008
 21
-994.8238006568673
 31
0.0
  0
LINE
  5
9B637
330
18
100
AcDbEntity
  8
SIZE
100
AcDbLine
 10
-650.0000000000078
 20
-690.0000033237743
 30
0.0
 11
-650.0000000000078
 21
-994.8238006568673
 31
0.0
  0
LINE
  5
9B638
330
18
100
AcDbEntity
  8
SIZE
100
AcDbLine
 10
-350.000000000008
 20
-974.8238006568677
 30
0.0
 11
-650.0000000000078
 21
-974.8238006568677
 31
0.0
  0
CIRCLE
  5
9B639
330
18
100
AcDbEntity
  8
SIZE
100
AcDbCircle
 10
-350.000000000008
 20
-974.8238006568677
 30
0.0
 40
7.5
  0
CIRCLE
  5
9B63A
330
18
100
AcDbEntity
  8
SIZE
100
AcDbCircle
 10
-650.0000000000078
 20
-974.8238006568677
 30
0.0
 40
7.5
  0
TEXT
  5
9B63B
330
18
100
AcDbEntity
  8
SIZE
100
AcDbText
 10
-611.2142857142935
 20
-954.8238006568677
 30
0.0
 40
30.0
  1
Min.300mm
 41
0.9
100
AcDbText
  0
LINE
  5
9B63C
330
18
100
AcDbEntity
  8
SIZE
100
AcDbLine
 10
-250.0000005013686
 20
-690.0000033237743
 30
0.0
 11
-250.0000005013686
 21
-994.8238006568673
 31
0.0
  0
LINE
  5
9B63D
330
18
100
AcDbEntity
  8
SIZE
100
AcDbLine
 10
199.9999994986314
 20
-690.0000033237743
 30
0.0
 11
199.9999994986314
 21
-994.8238006568673
 31
0.0
  0
LINE
  5
9B63E
330
18
100
AcDbEntity
  8
SIZE
100
AcDbLine
 10
-250.0000005013686
 20
-974.8238006568677
 30
0.0
 11
199.9999994986314
 21
-974.8238006568677
 31
0.0
  0
TEXT
  5
9B63F
330
18
100
AcDbEntity
  8
SIZE
100
AcDbText
 10
-33.16175775954622
 20
-954.8238006568677
 30
0.0
 40
30.0
  1
450
 41
0.9
100
AcDbText
  0
CIRCLE
  5
9B640
330
18
100
AcDbEntity
  8
SIZE
100
AcDbCircle
 10
-250.0000005013686
 20
-974.8238006568677
 30
0.0
 40
7.5
  0
CIRCLE
  5
9B641
330
18
100
AcDbEntity
  8
SIZE
100
AcDbCircle
 10
199.9999994986314
 20
-974.8238006568677
 30
0.0
 40
7.5
  0
TEXT
  5
9B642
330
18
100
AcDbEntity
  8
NOTE
100
AcDbText
 10
-1089.086640866737
 20
-746.0521461266184
 30
0.0
 40
34.99999999999999
  1
Ceiling surface
 50
360.0
 41
0.7000000000000001
  7
STANDARD1
100
AcDbText
  0
LINE
  5
9B643
330
18
100
AcDbEntity
  8
NOTE
100
AcDbLine
 10
-650.0000000000078
 20
-670.0000033237743
 30
0.0
 11
-677.1998267911408
 21
-691.0361410995924
 31
0.0
  0
LINE
  5
9B644
330
18
100
AcDbEntity
  8
NOTE
100
AcDbLine
 10
-723.5272598284106
 20
-765.1532983893725
 30
0.0
 11
-650.0000000000078
 21
-670.0000033237743
 31
0.0
  0
LINE
  5
9B645
330
18
100
AcDbEntity
  8
NOTE
100
AcDbLine
 10
-723.5272598284106
 20
-765.1532983893725
 30
0.0
 11
-1096.559258951198
 21
-765.1532983893725
 31
0.0
  0
LINE
  5
9B646
330
18
100
AcDbEntity
  8
NOTE
  6
ByBlock
370
    -2
100
AcDbLine
 10
184.8133403524629
 20
-701.9076355599017
 30
0.0
 11
167.6420257143648
 21
-670.0000033237743
 31
0.0
  0
LINE
  5
9B647
330
18
100
AcDbEntity
  8
NOTE
  6
ByBlock
370
    -2
100
AcDbLine
 10
167.6420257143648
 20
-670.0000033237743
 30
0.0
 11
198.4666364389889
 21
-689.0471662356599
 31
0.0
  0
LINE
  5
9B648
330
18
100
AcDbEntity
  8
NOTE
  6
ByBlock
370
    -2
100
AcDbLine
 10
167.6420257143648
 20
-670.0000033237743
 30
0.0
 11
191.6399883957259
 21
-695.4774008977806
 31
0.0
  0
LINE
  5
9B649
330
18
100
AcDbEntity
  8
NOTE
100
AcDbLine
 10
191.6399883957259
 20
-695.4774008977806
 30
0.0
 11
326.6567988040072
 21
-838.8177753962277
 31
0.0
1001
ACAD
1000
DSTYLE
1002
{
1070
   341
1005
4C0C3
1070
    41
1040
35.0
1070
   271
1070
     0
1002
}
  0
LINE
  5
9B64A
330
18
100
AcDbEntity
  8
NOTE
100
AcDbLine
 10
326.6567988040072
 20
-838.8177753962277
 30
0.0
 11
639.4280902987988
 21
-838.8177753962277
 31
0.0
1001
ACAD
1000
DSTYLE
1002
{
1070
   341
1005
4C0C3
1070
    41
1040
35.0
1070
   271
1070
     0
1002
}
  0
TEXT
  5
9B64B
330
18
100
AcDbEntity
  8
NOTE
100
AcDbText
 10
344.0478652727047
 20
-828.9315383465151
 30
0.0
 40
34.99999999999999
  1
Access door 2
 41
0.7000000000000001
  7
STANDARD1
100
AcDbText
  0
TEXT
  5
9B64C
330
18
100
AcDbEntity
  8
NOTE
100
AcDbText
 10
355.02813124089
 20
-895.8385563165673
 30
0.0
 40
34.99999999999999
  1
(450X450)
 50
359.9999975851634
 41
0.5500000000000002
  7
STANDARD1
100
AcDbText
  0
LINE
  5
9B64D
330
18
100
AcDbEntity
  8
SERVICESPACE
100
AcDbLine
 10
350.2745567542473
 20
10.00000155877069
 30
0.0
 11
-350.0000000000078
 21
10.00000155877069
 31
0.0
  0
LINE
  5
9B64E
330
18
100
AcDbEntity
  8
SERVICESPACE
100
AcDbLine
 10
335.3553469757019
 20
10.00000155877069
 30
0.0
 11
300.0000079163742
 21
45.35534061809858
 31
0.0
  0
LINE
  5
9B64F
330
18
100
AcDbEntity
  8
SERVICESPACE
100
AcDbLine
 10
285.355346975702
 20
10.00000155877069
 30
0.0
 11
250.0000079163741
 21
45.35534061809858
 31
0.0
  0
LINE
  5
9B650
330
18
100
AcDbEntity
  8
SERVICESPACE
100
AcDbLine
 10
235.3553469757019
 20
10.00000155877069
 30
0.0
 11
200.000007916374
 21
45.35534061809858
 31
0.0
  0
LINE
  5
9B651
330
18
100
AcDbEntity
  8
SERVICESPACE
100
AcDbLine
 10
185.3553469757019
 20
10.00000155877069
 30
0.0
 11
150.000007916374
 21
45.35534061809858
 31
0.0
  0
LINE
  5
9B652
330
18
100
AcDbEntity
  8
SERVICESPACE
100
AcDbLine
 10
135.3553469757019
 20
10.00000155877069
 30
0.0
 11
100.0000079163741
 21
45.35534061809858
 31
0.0
  0
LINE
  5
9B653
330
18
100
AcDbEntity
  8
SERVICESPACE
100
AcDbLine
 10
85.35534697570199
 20
10.00000155877069
 30
0.0
 11
50.0000079163741
 21
45.35534061809858
 31
0.0
  0
LINE
  5
9B654
330
18
100
AcDbEntity
  8
SERVICESPACE
100
AcDbLine
 10
35.35534697570199
 20
10.00000155877069
 30
0.0
 11
0.000007916374102
 21
45.35534061809858
 31
0.0
  0
LINE
  5
9B655
330
18
100
AcDbEntity
  8
SERVICESPACE
100
AcDbLine
 10
-14.64465302429801
 20
10.00000155877069
 30
0.0
 11
-49.99999208362589
 21
45.35534061809858
 31
0.0
  0
LINE
  5
9B656
330
18
100
AcDbEntity
  8
SERVICESPACE
100
AcDbLine
 10
-64.64465302429801
 20
10.00000155877069
 30
0.0
 11
-99.99999208362586
 21
45.35534061809858
 31
0.0
  0
LINE
  5
9B657
330
18
100
AcDbEntity
  8
SERVICESPACE
100
AcDbLine
 10
-114.644653024298
 20
10.00000155877069
 30
0.0
 11
-149.9999920836259
 21
45.35534061809858
 31
0.0
  0
LINE
  5
9B658
330
18
100
AcDbEntity
  8
SERVICESPACE
100
AcDbLine
 10
-164.644653024298
 20
10.00000155877069
 30
0.0
 11
-199.9999920836259
 21
45.35534061809858
 31
0.0
  0
LINE
  5
9B659
330
18
100
AcDbEntity
  8
SERVICESPACE
100
AcDbLine
 10
-214.644653024298
 20
10.00000155877069
 30
0.0
 11
-249.9999920836259
 21
45.35534061809858
 31
0.0
  0
LINE
  5
9B65A
330
18
100
AcDbEntity
  8
SERVICESPACE
100
AcDbLine
 10
-264.644653024298
 20
10.00000155877069
 30
0.0
 11
-299.9999920836258
 21
45.35534061809858
 31
0.0
  0
LINE
  5
9B65B
330
18
100
AcDbEntity
  8
SERVICESPACE
100
AcDbLine
 10
-314.644653024298
 20
10.00000155877069
 30
0.0
 11
-349.9999920836258
 21
45.35534061809858
 31
0.0
  0
LINE
  5
9B65C
330
18
100
AcDbEntity
  8
SIZE
100
AcDbLine
 10
-370.0000000000082
 20
-0.0000000000072706
 30
0.0
 11
-801.7449061140741
 21
-0.0000000000072706
 31
0.0
  0
LINE
  5
9B65D
330
18
100
AcDbEntity
  8
SIZE
100
AcDbLine
 10
-370.0000000000082
 20
10.0000015587716
 30
0.0
 11
-801.7449061140741
 21
10.0000015587716
 31
0.0
  0
LINE
  5
9B65E
330
18
100
AcDbEntity
  8
SIZE
100
AcDbLine
 10
-781.7449061140741
 20
-0.0000000000072706
 30
0.0
 11
-781.7449061140741
 21
-30.00000000000727
 31
0.0
  0
LINE
  5
9B65F
330
18
100
AcDbEntity
  8
SIZE
100
AcDbLine
 10
-781.7449061140741
 20
10.0000015587716
 30
0.0
 11
-781.7449061140741
 21
397.3571444159138
 31
0.0
  0
LINE
  5
9B660
330
18
100
AcDbEntity
  8
SIZE
100
AcDbLine
 10
-781.7449061140741
 20
-0.0000000000072706
 30
0.0
 11
-781.7449061140741
 21
10.0000015587716
 31
0.0
  0
CIRCLE
  5
9B661
330
18
100
AcDbEntity
  8
SIZE
100
AcDbCircle
 10
-781.7449061140741
 20
-0.0000000000072706
 30
0.0
 40
7.500000000000001
  0
CIRCLE
  5
9B662
330
18
100
AcDbEntity
  8
SIZE
100
AcDbCircle
 10
-781.7449061140741
 20
10.0000015587716
 30
0.0
 40
7.5
  0
TEXT
  5
9B663
330
18
100
AcDbEntity
  8
SIZE
100
AcDbText
 10
-801.7449061140728
 20
185.7857158444844
 30
0.0
 40
30.0
  1
Min.10mm
 50
90.0
 41
0.9
100
AcDbText
  0
TEXT
  5
9B664
330
18
100
AcDbEntity
  8
NOTE
100
AcDbText
 10
-979.4944960158979
 20
-827.7517857985353
 30
0.0
 40
34.99999999999999
  1
Access door 1
 50
360.0
 41
0.7000000000000001
  7
STANDARD1
100
AcDbText
  0
LINE
  5
9B665
330
18
100
AcDbEntity
  8
NOTE
100
AcDbLine
 10
-693.3037150906645
 20
-836.1209560588036
 30
0.0
 11
-521.117186445907
 21
-670.0000110394625
 31
0.0
  0
LINE
  5
9B666
330
18
100
AcDbEntity
  8
NOTE
100
AcDbLine
 10
-693.3037150906645
 20
-836.1209560588036
 30
0.0
 11
-986.9715743302501
 21
-836.1209560588036
 31
0.0
  0
TEXT
  5
9B667
330
18
100
AcDbEntity
  8
NOTE
100
AcDbText
 10
-979.9285606054168
 20
-887.8303536595727
 30
0.0
 40
34.99999999999999
  1
(450X450)
 50
0.0000025613209388
 41
0.6
  7
STANDARD1
100
AcDbText
  0
LINE
  5
9B668
330
18
100
AcDbEntity
  8
NOTE
100
AcDbLine
 10
-521.1171751061306
 20
-670.0000033237743
 30
0.0
 11
-551.0094123865724
 21
-686.9942323548489
 31
0.0
  0
LINE
  5
9B669
330
18
100
AcDbEntity
  8
NOTE
100
AcDbLine
 10
-521.1171751061306
 20
-670.0000033237743
 30
0.0
 11
-538.507497019204
 21
-699.6635562759866
 31
0.0
  0
LINE
  5
9B66A
330
18
100
AcDbEntity
  8
SIZE
100
AcDbLine
 10
349.9999999999922
 20
-690.0000033237743
 30
0.0
 11
349.9999999999922
 21
-1073.334956990609
 31
0.0
  0
LINE
  5
9B66B
330
18
100
AcDbEntity
  8
SIZE
100
AcDbLine
 10
-125.0000000000079
 20
-690.0000033237743
 30
0.0
 11
-125.0000000000079
 21
-1073.334956990609
 31
0.0
  0
LINE
  5
9B66C
330
18
100
AcDbEntity
  8
SIZE
100
AcDbLine
 10
349.9999999999922
 20
-1053.334956990609
 30
0.0
 11
-125.0000000000079
 21
-1053.334956990609
 31
0.0
  0
CIRCLE
  5
9B66D
330
18
100
AcDbEntity
  8
SIZE
100
AcDbCircle
 10
349.9999999999922
 20
-1053.334956990609
 30
0.0
 40
7.5
  0
CIRCLE
  5
9B66E
330
18
100
AcDbEntity
  8
SIZE
100
AcDbCircle
 10
-125.0000000000079
 20
-1053.334956990609
 30
0.0
 40
7.5
  0
TEXT
  5
9B66F
330
18
100
AcDbEntity
  8
SIZE
100
AcDbText
 10
77.78571428570643
 20
-1033.334956990609
 30
0.0
 40
30.0
  1
475
 41
0.9
100
AcDbText
  0
LINE
  5
9B670
330
18
100
AcDbEntity
  8
SIZE
100
AcDbLine
 10
199.9999999999922
 20
-690.0000033237743
 30
0.0
 11
199.9999999999922
 21
-994.8238006568673
 31
0.0
  0
LINE
  5
9B671
330
18
100
AcDbEntity
  8
SIZE
100
AcDbLine
 10
349.9999999999922
 20
-269.9999999999923
 30
0.0
 11
349.9999999999922
 21
-994.8238006568673
 31
0.0
  0
LINE
  5
9B672
330
18
100
AcDbEntity
  8
SIZE
100
AcDbLine
 10
199.9999999999922
 20
-974.8238006568677
 30
0.0
 11
349.9999999999922
 21
-974.8238006568677
 31
0.0
  0
LINE
  5
9B673
330
18
100
AcDbEntity
  8
SIZE
100
AcDbLine
 10
349.9999999999922
 20
-974.8238006568677
 30
0.0
 11
643.7142857142776
 21
-974.8238006568677
 31
0.0
  0
CIRCLE
  5
9B674
330
18
100
AcDbEntity
  8
SIZE
100
AcDbCircle
 10
199.9999999999922
 20
-974.8238006568677
 30
0.0
 40
7.5
  0
CIRCLE
  5
9B675
330
18
100
AcDbEntity
  8
SIZE
100
AcDbCircle
 10
349.9999999999922
 20
-974.8238006568677
 30
0.0
 40
7.5
  0
TEXT
  5
9B676
330
18
100
AcDbEntity
  8
SIZE
100
AcDbText
 10
474.5714285714204
 20
-954.8238006568677
 30
0.0
 40
30.0
  1
50~150
 41
0.9
100
AcDbText
  0
LINE
  5
9B677
330
18
100
AcDbEntity
  8
SERVICESPACE
100
AcDbLine
 10
-575.0000000000078
 20
-670.0000033237743
 30
0.0
 11
-575.0000000000078
 21
-650.0000033237742
 31
0.0
  0
LINE
  5
9B678
330
18
100
AcDbEntity
  8
NOTE
100
AcDbLine
 10
-650.0000031412391
 20
-670.0000125688225
 30
0.0
 11
-663.1096295298523
 21
-701.7881764972403
 31
0.0
  0
ENDSEC
  0
SECTION
  2
OBJECTS
  0
DICTIONARY
  5
C
330
0
100
AcDbDictionary
281
     1
  3
ACAD_CIP_PREVIOUS_PRODUCT_INFO
350
70D0E
  3
ACAD_COLOR
350
513F9
  3
ACAD_DETAILVIEWSTYLE
350
9B345
  3
ACAD_GROUP
350
D
  3
ACAD_LAYOUT
350
21F1
  3
ACAD_MATERIAL
350
513CF
  3
ACAD_MLEADERSTYLE
350
5141E
  3
ACAD_MLINESTYLE
350
1B
  3
ACAD_PLOTSETTINGS
350
21F2
  3
ACAD_PLOTSTYLENAME
350
21EF
  3
ACAD_SCALELIST
350
513FC
  3
ACAD_SECTIONVIEWSTYLE
350
9B343
  3
ACAD_TABLESTYLE
350
513FA
  3
ACAD_VISUALSTYLE
350
513E8
  3
AcadDim
350
956CE
  3
ACDBHEADERROUNDTRIPXREC
350
9B6C3
  3
AcDbVariableDictionary
350
28B1
  3
DWGPROPS
350
9B6C6
  0
DICTIONARY
  5
70D15
330
8
100
AcDbDictionary
280
     1
281
     1
  3
ACAD_XREC_ROUNDTRIP
360
9B6C7
  0
DICTIONARY
  5
5148D
330
2
100
AcDbDictionary
280
     1
281
     1
  3
ACAD_LAYERFILTERS
360
6ADDC
  3
ACAD_LAYERSTATES
360
6B6C9
  3
ACLYDICTIONARY
360
6ADDB
  0
DICTIONARY
  5
5144C
330
E
100
AcDbDictionary
280
     1
281
     1
  3
ADSK_XREC_LAYER_RECONCILED
360
5144D
  0
DICTIONARY
  5
5144E
330
25
100
AcDbDictionary
280
     1
281
     1
  3
ADSK_XREC_LAYER_RECONCILED
360
5144F
  0
DICTIONARY
  5
51450
330
26
100
AcDbDictionary
280
     1
281
     1
  3
ADSK_XREC_LAYER_RECONCILED
360
51451
  0
DICTIONARY
  5
51452
330
27
100
AcDbDictionary
280
     1
281
     1
  3
ADSK_XREC_LAYER_RECONCILED
360
51453
  0
DICTIONARY
  5
51454
330
28
100
AcDbDictionary
280
     1
281
     1
  3
ADSK_XREC_LAYER_RECONCILED
360
51455
  0
DICTIONARY
  5
51456
330
29
100
AcDbDictionary
280
     1
281
     1
  3
ADSK_XREC_LAYER_RECONCILED
360
51457
  0
DICTIONARY
  5
51458
330
2B
100
AcDbDictionary
280
     1
281
     1
  3
ADSK_XREC_LAYER_RECONCILED
360
51459
  0
DICTIONARY
  5
5145A
330
2C
100
AcDbDictionary
280
     1
281
     1
  3
ADSK_XREC_LAYER_RECONCILED
360
5145B
  0
DICTIONARY
  5
5145C
330
2D
100
AcDbDictionary
280
     1
281
     1
  3
ADSK_XREC_LAYER_RECONCILED
360
5145D
  0
DICTIONARY
  5
28B3
330
18
100
AcDbDictionary
280
     1
281
     1
  3
ACAD_SORTENTS
360
28B4
  0
DICTIONARY
  5
9B4E0
330
9B34E
100
AcDbDictionary
280
     1
281
     1
  3
ACAD_SORTENTS
360
9B4E1
  0
XRECORD
  5
70D0E
102
{ACAD_REACTORS
330
C
102
}
330
C
100
AcDbXrecord
280
     1
300
ACDLT
300
2018
300
86831ACDLT_2018_0F
  0
DICTIONARY
  5
513F9
102
{ACAD_REACTORS
330
C
102
}
330
C
100
AcDbDictionary
281
     1
  0
DICTIONARY
  5
9B345
102
{ACAD_REACTORS
330
C
102
}
330
C
100
AcDbDictionary
281
     1
  3
Imperial24
350
9B346
  0
DICTIONARY
  5
D
102
{ACAD_REACTORS
330
C
102
}
330
C
100
AcDbDictionary
281
     1
  0
DICTIONARY
  5
21F1
102
{ACAD_REACTORS
330
C
102
}
330
C
100
AcDbDictionary
281
     1
  3
Model
350
21F3
  3
ﾚｲｱｳﾄ1
350
21F4
  0
DICTIONARY
  5
513CF
102
{ACAD_REACTORS
330
C
102
}
330
C
100
AcDbDictionary
281
     1
  3
ByBlock
350
513D8
  3
ByLayer
350
513D0
  3
Global
350
513E0
  0
DICTIONARY
  5
5141E
102
{ACAD_REACTORS
330
C
102
}
330
C
100
AcDbDictionary
281
     1
  3
Standard
350
5141F
  0
DICTIONARY
  5
1B
102
{ACAD_REACTORS
330
C
102
}
330
C
100
AcDbDictionary
281
     1
  3
STANDARD
350
1C
  0
DICTIONARY
  5
21F2
102
{ACAD_REACTORS
330
C
102
}
330
C
100
AcDbDictionary
281
     1
  0
ACDBDICTIONARYWDFLT
  5
21EF
102
{ACAD_REACTORS
330
C
102
}
330
C
100
AcDbDictionary
281
     1
  3
Normal
350
21F0
100
AcDbDictionaryWithDefault
340
21F0
  0
DICTIONARY
  5
513FC
102
{ACAD_REACTORS
330
C
102
}
330
C
100
AcDbDictionary
281
     1
  3
A0
350
513FD
  3
A1
350
513FE
  3
A2
350
513FF
  3
A3
350
51400
  3
A4
350
51401
  3
A5
350
51402
  3
A6
350
51403
  3
A7
350
51404
  3
A8
350
51405
  3
A9
350
51406
  3
B0
350
51407
  3
B1
350
51408
  3
B2
350
51409
  3
B3
350
5140A
  3
B4
350
5140B
  3
B5
350
5140C
  3
B6
350
5140D
  3
B7
350
5140E
  3
B8
350
5140F
  3
B9
350
51410
  3
C0
350
51411
  3
C1
350
51412
  3
C2
350
51413
  3
C3
350
51414
  3
C4
350
51415
  3
C5
350
51416
  3
C6
350
51417
  3
C7
350
51418
  3
C8
350
51419
  3
C9
350
5141A
  3
D0
350
5141B
  3
D1
350
5141C
  3
D2
350
5141D
  0
DICTIONARY
  5
9B343
102
{ACAD_REACTORS
330
C
102
}
330
C
100
AcDbDictionary
281
     1
  3
Imperial24
350
9B344
  0
DICTIONARY
  5
513FA
102
{ACAD_REACTORS
330
C
102
}
330
C
100
AcDbDictionary
281
     1
  3
Standard
350
513FB
  0
DICTIONARY
  5
513E8
102
{ACAD_REACTORS
330
C
102
}
330
C
100
AcDbDictionary
281
     1
  3
2dWireframe
350
513EE
  3
3D Hidden
350
513F0
  3
3dWireframe
350
513EF
  3
Basic
350
513ED
  3
Brighten
350
513F4
  3
ColorChange
350
513F8
  3
Conceptual
350
513F1
  3
Dim
350
513F3
  3
EdgeColorOff
350
70D09
  3
Facepattern
350
513F7
  3
Flat
350
513E9
  3
FlatWithEdges
350
513EA
  3
Gouraud
350
513EB
  3
GouraudWithEdges
350
513EC
  3
Hidden
350
70D01
  3
JitterOff
350
70D07
  3
Linepattern
350
513F6
  3
OverhangOff
350
70D08
  3
Realistic
350
513F2
  3
Shaded
350
70D06
  3
Shaded with edges
350
70D05
  3
Shades of Gray
350
70D02
  3
Sketchy
350
70D03
  3
Thicken
350
513F5
  3
Wireframe
350
70D00
  3
X-Ray
350
70D04
  0
XRECORD
  5
956CE
102
{ACAD_REACTORS
330
C
102
}
330
C
100
AcDbXrecord
280
     1
 90
   990106
  3

 60
     0
 61
     0
 62
     1
 63
     3
 64
     0
 65
     0
 66
     0
 67
     3
 68
     1
 69
     0
 70
     0
 71
     0
 72
     0
 40
0.0
170
     0
  0
DICTIONARY
  5
9B6C3
102
{ACAD_REACTORS
330
C
102
}
330
C
100
AcDbDictionary
281
     1
  3
COLORDICT
350
9B6C4
  3
MATERIALDICT
350
9B6C5
  0
DICTIONARY
  5
28B1
102
{ACAD_REACTORS
330
C
102
}
330
C
100
AcDbDictionary
281
     1
  3
CANNOSCALE
350
9B6C8
  3
CMLEADERSTYLE
350
5147E
  3
CTABLESTYLE
350
5147D
  3
CVIEWDETAILSTYLE
350
9B679
  3
CVIEWSECTIONSTYLE
350
9B67A
  3
DIMASSOC
350
5135B
  3
HIDETEXT
350
9B6C2
  3
INDEXCTL
350
70D55
  3
LIGHTINGUNITS
350
51481
  3
MSLTSCALE
350
5147F
  3
SOLIDHIST
350
70D57
  3
SORTENTS
350
28B2
  3
XCLIPFRAME
350
9B67B
  0
XRECORD
  5
9B6C6
102
{ACAD_REACTORS
330
C
102
}
330
C
100
AcDbXrecord
280
     1
  1
DWGPROPS COOKIE
  2

  3

  4

  6

  7

  8
prohiokamot
  9

300
=
301
=
302
=
303
=
304
=
305
=
306
=
307
=
308
=
309
=
 40
0.0
 41
2455902.232169062
 42
2459459.141733044
  1

 90
        0
  0
XRECORD
  5
9B6C7
102
{ACAD_REACTORS
330
70D15
102
}
330
70D15
100
AcDbXrecord
280
     1
102
VTR_0.000_0.000_1.000_1.000_VISUALSTYLE
340
513EE
102
VTR_0.000_0.000_1.000_1.000_GRIDDISPLAY
 70
     3
102
VTR_0.000_0.000_1.000_1.000_GRIDMAJOR
 70
     5
102
VTR_0.000_0.000_1.000_1.000_DEFAULTLIGHTING
280
     1
102
VTR_0.000_0.000_1.000_1.000_DEFAULTLIGHTINGTYPE
 70
     1
102
VTR_0.000_0.000_1.000_1.000_BRIGHTNESS
141
0.0
102
VTR_0.000_0.000_1.000_1.000_CONTRAST
142
0.0
  0
DICTIONARY
  5
6ADDC
102
{ACAD_REACTORS
330
5148D
102
}
330
5148D
100
AcDbDictionary
281
     1
  0
DICTIONARY
  5
6B6C9
102
{ACAD_REACTORS
330
5148D
102
}
330
5148D
100
AcDbDictionary
281
     1
  0
DICTIONARY
  5
6ADDB
102
{ACAD_REACTORS
330
5148D
102
}
330
5148D
100
AcDbDictionary
281
     1
1001
ACAD
1000
<All
  0
XRECORD
  5
5144D
102
{ACAD_REACTORS
330
5144C
102
}
330
5144C
100
AcDbXrecord
280
     1
290
     1
  0
XRECORD
  5
5144F
102
{ACAD_REACTORS
330
5144E
102
}
330
5144E
100
AcDbXrecord
280
     1
290
     1
  0
XRECORD
  5
51451
102
{ACAD_REACTORS
330
51450
102
}
330
51450
100
AcDbXrecord
280
     1
290
     1
  0
XRECORD
  5
51453
102
{ACAD_REACTORS
330
51452
102
}
330
51452
100
AcDbXrecord
280
     1
290
     1
  0
XRECORD
  5
51455
102
{ACAD_REACTORS
330
51454
102
}
330
51454
100
AcDbXrecord
280
     1
290
     1
  0
XRECORD
  5
51457
102
{ACAD_REACTORS
330
51456
102
}
330
51456
100
AcDbXrecord
280
     1
290
     1
  0
XRECORD
  5
51459
102
{ACAD_REACTORS
330
51458
102
}
330
51458
100
AcDbXrecord
280
     1
290
     1
  0
XRECORD
  5
5145B
102
{ACAD_REACTORS
330
5145A
102
}
330
5145A
100
AcDbXrecord
280
     1
290
     1
  0
XRECORD
  5
5145D
102
{ACAD_REACTORS
330
5145C
102
}
330
5145C
100
AcDbXrecord
280
     1
290
     1
  0
SORTENTSTABLE
  5
28B4
102
{ACAD_REACTORS
330
28B3
102
}
330
28B3
100
AcDbSortentsTable
330
18
331
9B4E8
  5
9B4E8
331
9B4E9
  5
9B4E9
331
9B4EA
  5
9B4EA
331
9B4EB
  5
9B4EB
331
9B4EC
  5
9B4EC
331
9B4ED
  5
9B4ED
331
9B4EE
  5
9B4EE
331
9B4EF
  5
9B4EF
331
9B4F0
  5
9B4F0
331
9B4F1
  5
9B4F1
331
9B4F2
  5
9B4F2
331
9B4F3
  5
9B4F3
331
9B4F4
  5
9B4F4
331
9B4F5
  5
9B4F5
331
9B4F6
  5
9B4F6
331
9B4F7
  5
9B4F7
331
9B4F8
  5
9B4F8
331
9B4F9
  5
9B4F9
331
9B4FA
  5
9B4FA
331
9B4FB
  5
9B4FB
331
9B4FC
  5
9B4FC
331
9B4FD
  5
9B4FD
331
9B4FE
  5
9B4FE
331
9B4FF
  5
9B4FF
331
9B500
  5
9B500
331
9B501
  5
9B501
331
9B502
  5
9B502
331
9B503
  5
9B503
331
9B504
  5
9B504
331
9B505
  5
9B505
331
9B506
  5
9B506
331
9B507
  5
9B507
331
9B508
  5
9B508
331
9B509
  5
9B509
331
9B50A
  5
9B50A
331
9B50B
  5
9B50B
331
9B50C
  5
9B50C
331
9B50D
  5
9B50D
331
9B50E
  5
9B50E
331
9B50F
  5
9B50F
331
9B510
  5
9B510
331
9B511
  5
9B511
331
9B512
  5
9B512
331
9B513
  5
9B513
331
9B514
  5
9B514
331
9B515
  5
9B515
331
9B516
  5
9B516
331
9B517
  5
9B517
331
9B518
  5
9B518
331
9B519
  5
9B519
331
9B51A
  5
9B51A
331
9B51B
  5
9B51B
331
9B51C
  5
9B51C
331
9B51D
  5
9B51D
331
9B51E
  5
9B51E
331
9B51F
  5
9B51F
331
9B520
  5
9B520
331
9B521
  5
9B521
331
9B522
  5
9B522
331
9B523
  5
9B523
331
9B524
  5
9B524
331
9B525
  5
9B525
331
9B526
  5
9B526
331
9B527
  5
9B527
331
9B528
  5
9B528
331
9B529
  5
9B529
331
9B52A
  5
9B52A
331
9B52B
  5
9B52B
331
9B52C
  5
9B52C
331
9B52D
  5
9B52D
331
9B52E
  5
9B52E
331
9B52F
  5
9B52F
331
9B530
  5
9B530
331
9B531
  5
9B531
331
9B532
  5
9B532
331
9B533
  5
9B533
331
9B534
  5
9B534
331
9B535
  5
9B535
331
9B536
  5
9B536
331
9B537
  5
9B537
331
9B538
  5
9B538
331
9B539
  5
9B539
331
9B53A
  5
9B53A
331
9B53B
  5
9B53B
331
9B53C
  5
9B53C
331
9B53D
  5
9B53D
331
9B53E
  5
9B53E
331
9B53F
  5
9B53F
331
9B540
  5
9B540
331
9B541
  5
9B541
331
9B542
  5
9B542
331
9B543
  5
9B543
331
9B544
  5
9B544
331
9B545
  5
9B545
331
9B546
  5
9B546
331
9B547
  5
9B547
331
9B548
  5
9B548
331
9B549
  5
9B549
331
9B54A
  5
9B54A
331
9B54B
  5
9B54B
331
9B54C
  5
9B54C
331
9B54D
  5
9B54D
331
9B54E
  5
9B54E
331
9B54F
  5
9B54F
331
9B550
  5
9B550
331
9B551
  5
9B551
331
9B552
  5
9B552
331
9B553
  5
9B553
331
9B554
  5
9B554
331
9B555
  5
9B555
331
9B556
  5
9B556
331
9B557
  5
9B557
331
9B558
  5
9B558
331
9B559
  5
9B559
331
9B55A
  5
9B55A
331
9B55B
  5
9B55B
331
9B55C
  5
9B55C
331
9B55D
  5
9B55D
331
9B55E
  5
9B55E
331
9B55F
  5
9B55F
331
9B560
  5
9B560
331
9B561
  5
9B561
331
9B562
  5
9B562
331
9B563
  5
9B563
331
9B564
  5
9B564
331
9B565
  5
9B565
331
9B566
  5
9B566
331
9B567
  5
9B567
331
9B568
  5
9B568
331
9B569
  5
9B569
331
9B56A
  5
9B56A
331
9B56B
  5
9B56B
331
9B56C
  5
9B56C
331
9B56D
  5
9B56D
331
9B56E
  5
9B56E
331
9B56F
  5
9B56F
331
9B570
  5
9B570
331
9B571
  5
9B571
331
9B572
  5
9B572
331
9B573
  5
9B573
331
9B574
  5
9B574
331
9B575
  5
9B575
331
9B576
  5
9B576
331
9B577
  5
9B577
331
9B578
  5
9B578
331
9B579
  5
9B579
331
9B57A
  5
9B57A
331
9B57B
  5
9B57B
331
9B57C
  5
9B57C
331
9B57D
  5
9B57D
331
9B57E
  5
9B57E
331
9B57F
  5
9B57F
331
9B580
  5
9B580
331
9B581
  5
9B581
331
9B582
  5
9B582
331
9B583
  5
9B583
331
9B584
  5
9B584
331
9B585
  5
9B585
331
9B586
  5
9B586
331
9B587
  5
9B587
331
9B588
  5
9B588
331
9B589
  5
9B589
331
9B58A
  5
9B58A
331
9B58B
  5
9B58B
331
9B58C
  5
9B58C
331
9B58D
  5
9B58D
331
9B58E
  5
9B58E
331
9B58F
  5
9B58F
331
9B590
  5
9B590
331
9B591
  5
9B591
331
9B592
  5
9B592
331
9B593
  5
9B593
331
9B594
  5
9B594
331
9B595
  5
9B595
331
9B596
  5
9B596
331
9B597
  5
9B597
331
9B598
  5
9B598
331
9B599
  5
9B599
331
9B59A
  5
9B59A
331
9B59B
  5
9B59B
331
9B59C
  5
9B59C
331
9B59D
  5
9B59D
331
9B59E
  5
9B59E
331
9B59F
  5
9B59F
331
9B5A0
  5
9B5A0
331
9B5A1
  5
9B5A1
331
9B5A2
  5
9B5A2
331
9B5A3
  5
9B5A3
331
9B5A4
  5
9B5A4
331
9B5A5
  5
9B5A5
331
9B5A6
  5
9B5A6
331
9B5A7
  5
9B5A7
331
9B5A8
  5
9B5A8
331
9B5A9
  5
9B5A9
331
9B5AA
  5
9B5AA
331
9B5AB
  5
9B5AB
331
9B5AC
  5
9B5AC
331
9B5AD
  5
9B5AD
331
9B5AE
  5
9B5AE
331
9B5AF
  5
9B5AF
331
9B5B0
  5
9B5B0
331
9B5B1
  5
9B5B1
331
9B5B2
  5
9B5B2
331
9B5B3
  5
9B5B3
331
9B5B4
  5
9B5B4
331
9B5B5
  5
9B5B5
331
9B5B6
  5
9B5B6
331
9B5B7
  5
9B5B7
331
9B5B8
  5
9B5B8
331
9B5B9
  5
9B5B9
331
9B5BA
  5
9B5BA
331
9B5BB
  5
9B5BB
331
9B5BC
  5
9B5BC
331
9B5BD
  5
9B5BD
331
9B5BE
  5
9B5BE
331
9B5BF
  5
9B5BF
331
9B5C0
  5
9B5C0
331
9B5C1
  5
9B5C1
331
9B5C2
  5
9B5C2
331
9B5C3
  5
9B5C3
331
9B5C4
  5
9B5C4
331
9B5C5
  5
9B5C5
331
9B5C6
  5
9B5C6
331
9B5C7
  5
9B5C7
331
9B5C8
  5
9B5C8
331
9B5C9
  5
9B5C9
331
9B5CA
  5
9B5CA
331
9B5CB
  5
9B5CB
331
9B5CC
  5
9B5CC
331
9B5CD
  5
9B5CD
331
9B5CE
  5
9B5CE
331
9B5CF
  5
9B5CF
331
9B5D0
  5
9B5D0
331
9B5D1
  5
9B5D1
331
9B5D2
  5
9B5D2
331
9B5D3
  5
9B5D3
331
9B5D4
  5
9B5D4
331
9B5D5
  5
9B5D5
331
9B5D6
  5
9B5D6
331
9B5D7
  5
9B5D7
331
9B5D8
  5
9B5D8
331
9B5D9
  5
9B5D9
331
9B5DA
  5
9B5DA
331
9B5DB
  5
9B5DB
331
9B5DC
  5
9B5DC
331
9B5DD
  5
9B5DD
331
9B5DE
  5
9B5DE
331
9B5DF
  5
9B5DF
331
9B5E0
  5
9B5E0
331
9B5E1
  5
9B5E1
331
9B5E2
  5
9B5E2
331
9B5E3
  5
9B5E3
331
9B5E4
  5
9B5E4
331
9B5E5
  5
9B5E5
331
9B5E6
  5
9B5E6
331
9B5E7
  5
9B5E7
331
9B5E8
  5
9B5E8
331
9B5E9
  5
9B5E9
331
9B5EA
  5
9B5EA
331
9B5EB
  5
9B5EB
331
9B5EC
  5
9B5EC
331
9B5ED
  5
9B5ED
331
9B5EE
  5
9B5EE
331
9B5EF
  5
9B5EF
331
9B5F0
  5
9B5F0
331
9B5F1
  5
9B5F1
331
9B5F2
  5
9B5F2
331
9B5F3
  5
9B5F3
331
9B5F4
  5
9B5F4
331
9B5F5
  5
9B5F5
331
9B5F6
  5
9B5F6
331
9B5F7
  5
9B5F7
331
9B5F8
  5
9B5F8
331
9B5F9
  5
9B5F9
331
9B5FA
  5
9B5FA
331
9B5FB
  5
9B5FB
331
9B5FC
  5
9B5FC
331
9B5FD
  5
9B5FD
331
9B5FE
  5
9B5FE
331
9B5FF
  5
9B5FF
331
9B600
  5
9B600
331
9B601
  5
9B601
331
9B602
  5
9B602
331
9B603
  5
9B603
331
9B604
  5
9B604
331
9B605
  5
9B605
331
9B606
  5
9B606
331
9B607
  5
9B607
331
9B608
  5
9B608
331
9B609
  5
9B609
331
9B60A
  5
9B60A
331
9B60B
  5
9B60B
331
9B60C
  5
9B60C
331
9B60D
  5
9B60D
331
9B60E
  5
9B60E
331
9B60F
  5
9B60F
331
9B610
  5
9B610
331
9B611
  5
9B611
331
9B612
  5
9B612
331
9B613
  5
9B613
331
9B614
  5
9B614
331
9B615
  5
9B615
331
9B616
  5
9B616
331
9B617
  5
9B617
331
9B618
  5
9B618
331
9B619
  5
9B619
331
9B61A
  5
9B61A
331
9B61B
  5
9B61B
331
9B61C
  5
9B61C
331
9B61D
  5
9B61D
331
9B61E
  5
9B61E
331
9B61F
  5
9B61F
331
9B620
  5
9B620
331
9B621
  5
9B621
331
9B622
  5
9B622
331
9B623
  5
9B623
331
9B624
  5
9B624
331
9B625
  5
9B625
331
9B626
  5
9B626
331
9B627
  5
9B627
331
9B628
  5
9B628
331
9B629
  5
9B629
331
9B62A
  5
9B62A
331
9B62B
  5
9B62B
331
9B62C
  5
9B62C
331
9B62D
  5
9B62D
331
9B62E
  5
9B62E
331
9B62F
  5
9B62F
331
9B630
  5
9B630
331
9B631
  5
9B631
331
9B632
  5
9B632
331
9B633
  5
9B633
331
9B634
  5
9B634
331
9B635
  5
9B635
331
9B636
  5
9B636
331
9B637
  5
9B637
331
9B638
  5
9B638
331
9B639
  5
9B639
331
9B63A
  5
9B63A
331
9B63B
  5
9B63B
331
9B63C
  5
9B63C
331
9B63D
  5
9B63D
331
9B63E
  5
9B63E
331
9B63F
  5
9B63F
331
9B640
  5
9B640
331
9B641
  5
9B641
331
9B642
  5
9B642
331
9B643
  5
9B643
331
9B644
  5
9B644
331
9B645
  5
9B645
331
9B646
  5
9B646
331
9B647
  5
9B647
331
9B648
  5
9B648
331
9B649
  5
9B649
331
9B64A
  5
9B64A
331
9B64B
  5
9B64B
331
9B64C
  5
9B64C
331
9B64D
  5
9B64D
331
9B64E
  5
9B64E
331
9B64F
  5
9B64F
331
9B650
  5
9B650
331
9B651
  5
9B651
331
9B652
  5
9B652
331
9B653
  5
9B653
331
9B654
  5
9B654
331
9B655
  5
9B655
331
9B656
  5
9B656
331
9B657
  5
9B657
331
9B658
  5
9B658
331
9B659
  5
9B659
331
9B65A
  5
9B65A
331
9B65B
  5
9B65B
331
9B65C
  5
9B65C
331
9B65D
  5
9B65D
331
9B65E
  5
9B65E
331
9B65F
  5
9B65F
331
9B660
  5
9B660
331
9B661
  5
9B661
331
9B662
  5
9B662
331
9B663
  5
9B663
331
9B664
  5
9B664
331
9B665
  5
9B665
331
9B666
  5
9B666
331
9B667
  5
9B667
331
9B668
  5
9B668
331
9B669
  5
9B669
331
9B66A
  5
9B66A
331
9B66B
  5
9B66B
331
9B66C
  5
9B66C
331
9B66D
  5
9B66D
331
9B66E
  5
9B66E
331
9B66F
  5
9B66F
331
9B670
  5
9B670
331
9B671
  5
9B671
331
9B672
  5
9B672
331
9B673
  5
9B673
331
9B674
  5
9B674
331
9B675
  5
9B675
331
9B676
  5
9B676
331
9B677
  5
9B677
331
9B678
  5
9B678
  0
SORTENTSTABLE
  5
9B4E1
102
{ACAD_REACTORS
330
9B4E0
102
}
330
9B4E0
100
AcDbSortentsTable
330
9B34E
  0
ACDBDETAILVIEWSTYLE
  5
9B346
102
{ACAD_REACTORS
330
9B345
102
}
102
{ACAD_XDICTIONARY
360
9B6BD
102
}
330
9B345
100
AcDbModelDocViewStyle
 70
     0
  3
Imperial24
290
     0
100
AcDbDetailViewStyle
 70
     0
 71
     0
 90
        3
 71
     1
340
F
 40
0.24
340
0
 40
0.24
300

 40
0.36
280
     3
 71
     2
340
14
 90
       25
 71
     3
340
F
 40
0.24
 90
        1
 40
0.75
 90
        1
300
%<\AcVar ViewType \f "%tc1">% %<\AcVar ViewDetailId>%\PSCALE %<\AcVar ViewScale \f "%sn">%
 71
     4
340
14
 90
       25
340
14
 90
       25
280
     0
  0
LAYOUT
  5
21F3
102
{ACAD_REACTORS
330
21F1
102
}
330
21F1
100
AcDbPlotSettings
  1

  2
OKI MICROLINE Pro 930PS-X(PS)
  4
A3
  6
ALL
 40
5.365749835968017
 41
5.70440673828125
 42
5.4080810546875
 43
5.74676513671875
 44
297.0530090332031
 45
420.1583251953125
 46
3.360748538846422
 47
0.0
 48
0.0
 49
0.0
140
0.0
141
0.0
142
1.0
143
28.03442403824817
 70
 28340
 72
     1
 73
     1
 74
     2
  7
monochrome.ctb
 75
     0
147
0.0356704314180192
148
4267.152221060482
149
2696.083210198413
100
AcDbLayout
  1
Model
 70
     1
 71
     0
 10
0.0
 20
0.0
 11
12.0
 21
9.0
 12
0.0
 22
0.0
 32
0.0
 14
0.0
 24
0.0
 34
0.0
 15
0.0
 25
0.0
 35
0.0
146
0.0
 13
0.0
 23
0.0
 33
0.0
 16
1.0
 26
0.0
 36
0.0
 17
0.0
 27
1.0
 37
0.0
 76
     0
330
18
331
513CD
1001
ACAD_PSEXT
1000
OKI MICROLINE Pro 930PS-X(PS)
1000
OKI MICROLINE Pro 930PS-X(PS)
1000
IP_10.130.24.50コピー1
1000

1070
     0
  0
LAYOUT
  5
21F4
102
{ACAD_REACTORS
330
21F1
102
}
330
21F1
100
AcDbPlotSettings
  1

  2
DocuCentre 505
  4

  6

 40
0.0
 41
0.0
 42
0.0
 43
0.0
 44
0.0
 45
0.0
 46
0.0
 47
0.0
 48
0.0
 49
0.0
140
0.0
141
0.0
142
1.0
143
1.0
 70
   688
 72
     0
 73
     0
 74
     5
  7
monochrome.ctb
 75
    16
147
1.0
148
0.0
149
0.0
100
AcDbLayout
  1
ﾚｲｱｳﾄ1
 70
     1
 71
     1
 10
0.0
 20
0.0
 11
12.0
 21
9.0
 12
0.0
 22
0.0
 32
0.0
 14
1.000000000000000E+20
 24
1.000000000000000E+20
 34
1.000000000000000E+20
 15
-1.000000000000000E+20
 25
-1.000000000000000E+20
 35
-1.000000000000000E+20
146
0.0
 13
0.0
 23
0.0
 33
0.0
 16
1.0
 26
0.0
 36
0.0
 17
0.0
 27
1.0
 37
0.0
 76
     0
330
15
  0
MATERIAL
  5
513D8
102
{ACAD_REACTORS
330
513CF
102
}
102
{ACAD_XDICTIONARY
360
9B6CA
102
}
330
513CF
100
AcDbMaterial
  1
ByBlock
 72
     0
 43
0.0208333333333333
 43
0.0
 43
0.0
 43
0.0
 43
0.0
 43
0.0208333333333333
 43
0.0
 43
0.0
 43
0.0
 43
0.0
 43
1.0
 43
0.0
 43
0.0
 43
0.0
 43
0.0
 43
1.0
 77
     0
 47
0.0208333333333333
 47
0.0
 47
0.0
 47
0.0
 47
0.0
 47
0.0208333333333333
 47
0.0
 47
0.0
 47
0.0
 47
0.0
 47
1.0
 47
0.0
 47
0.0
 47
0.0
 47
0.0
 47
1.0
171
     0
 49
0.0208333333333333
 49
0.0
 49
0.0
 49
0.0
 49
0.0
 49
0.0208333333333333
 49
0.0
 49
0.0
 49
0.0
 49
0.0
 49
1.0
 49
0.0
 49
0.0
 49
0.0
 49
0.0
 49
1.0
175
     0
142
0.0208333333333333
142
0.0
142
0.0
142
0.0
142
0.0
142
0.0208333333333333
142
0.0
142
0.0
142
0.0
142
0.0
142
1.0
142
0.0
142
0.0
142
0.0
142
0.0
142
1.0
179
     0
144
0.0208333333333333
144
0.0
144
0.0
144
0.0
144
0.0
144
0.0208333333333333
144
0.0
144
0.0
144
0.0
144
0.0
144
1.0
144
0.0
144
0.0
144
0.0
144
0.0
144
1.0
147
0.0208333333333333
147
0.0
147
0.0
147
0.0
147
0.0
147
0.0208333333333333
147
0.0
147
0.0
147
0.0
147
0.0
147
1.0
147
0.0
147
0.0
147
0.0
147
0.0
147
1.0
  0
MATERIAL
  5
513D0
102
{ACAD_REACTORS
330
513CF
102
}
102
{ACAD_XDICTIONARY
360
9B6CC
102
}
330
513CF
100
AcDbMaterial
  1
ByLayer
 72
     0
 43
0.0208333333333333
 43
0.0
 43
0.0
 43
0.0
 43
0.0
 43
0.0208333333333333
 43
0.0
 43
0.0
 43
0.0
 43
0.0
 43
1.0
 43
0.0
 43
0.0
 43
0.0
 43
0.0
 43
1.0
 77
     0
 47
0.0208333333333333
 47
0.0
 47
0.0
 47
0.0
 47
0.0
 47
0.0208333333333333
 47
0.0
 47
0.0
 47
0.0
 47
0.0
 47
1.0
 47
0.0
 47
0.0
 47
0.0
 47
0.0
 47
1.0
171
     0
 49
0.0208333333333333
 49
0.0
 49
0.0
 49
0.0
 49
0.0
 49
0.0208333333333333
 49
0.0
 49
0.0
 49
0.0
 49
0.0
 49
1.0
 49
0.0
 49
0.0
 49
0.0
 49
0.0
 49
1.0
175
     0
142
0.0208333333333333
142
0.0
142
0.0
142
0.0
142
0.0
142
0.0208333333333333
142
0.0
142
0.0
142
0.0
142
0.0
142
1.0
142
0.0
142
0.0
142
0.0
142
0.0
142
1.0
179
     0
144
0.0208333333333333
144
0.0
144
0.0
144
0.0
144
0.0
144
0.0208333333333333
144
0.0
144
0.0
144
0.0
144
0.0
144
1.0
144
0.0
144
0.0
144
0.0
144
0.0
144
1.0
147
0.0208333333333333
147
0.0
147
0.0
147
0.0
147
0.0
147
0.0208333333333333
147
0.0
147
0.0
147
0.0
147
0.0
147
1.0
147
0.0
147
0.0
147
0.0
147
0.0
147
1.0
  0
MATERIAL
  5
513E0
102
{ACAD_REACTORS
330
513CF
102
}
102
{ACAD_XDICTIONARY
360
9B6CE
102
}
330
513CF
100
AcDbMaterial
  1
Global
 72
     0
 43
0.0208333333333333
 43
0.0
 43
0.0
 43
0.0
 43
0.0
 43
0.0208333333333333
 43
0.0
 43
0.0
 43
0.0
 43
0.0
 43
1.0
 43
0.0
 43
0.0
 43
0.0
 43
0.0
 43
1.0
 77
     0
 47
0.0208333333333333
 47
0.0
 47
0.0
 47
0.0
 47
0.0
 47
0.0208333333333333
 47
0.0
 47
0.0
 47
0.0
 47
0.0
 47
1.0
 47
0.0
 47
0.0
 47
0.0
 47
0.0
 47
1.0
171
     0
 49
0.0208333333333333
 49
0.0
 49
0.0
 49
0.0
 49
0.0
 49
0.0208333333333333
 49
0.0
 49
0.0
 49
0.0
 49
0.0
 49
1.0
 49
0.0
 49
0.0
 49
0.0
 49
0.0
 49
1.0
175
     0
142
0.0208333333333333
142
0.0
142
0.0
142
0.0
142
0.0
142
0.0208333333333333
142
0.0
142
0.0
142
0.0
142
0.0
142
1.0
142
0.0
142
0.0
142
0.0
142
0.0
142
1.0
179
     0
144
0.0208333333333333
144
0.0
144
0.0
144
0.0
144
0.0
144
0.0208333333333333
144
0.0
144
0.0
144
0.0
144
0.0
144
1.0
144
0.0
144
0.0
144
0.0
144
0.0
144
1.0
147
0.0208333333333333
147
0.0
147
0.0
147
0.0
147
0.0
147
0.0208333333333333
147
0.0
147
0.0
147
0.0
147
0.0
147
1.0
147
0.0
147
0.0
147
0.0
147
0.0
147
1.0
  0
MLEADERSTYLE
  5
5141F
102
{ACAD_REACTORS
330
5141E
102
}
102
{ACAD_XDICTIONARY
360
9B6D0
102
}
330
5141E
100
AcDbMLeaderStyle
170
     2
171
     1
172
     0
 90
        2
 40
0.0
 41
0.0
173
     1
 91
-1056964608
340
12
 92
       -2
290
     1
 42
0.09
291
     1
 43
0.36
  3
Standard
341
0
 44
0.18
300

342
F
174
     1
178
     6
175
     1
176
     0
 93
-1056964608
 45
0.18
292
     0
297
     0
 46
0.18
343
0
 94
-1056964608
 47
1.0
 49
1.0
140
1.0
293
     1
141
0.0
294
     1
177
     0
142
1.0
295
     0
296
     0
143
0.125
1001
ACAD_MLEADERVER
1070
     2
  0
MLINESTYLE
  5
1C
102
{ACAD_REACTORS
330
1B
102
}
330
1B
100
AcDbMlineStyle
  2
STANDARD
 70
     0
  3

 62
   256
 51
90.0
 52
90.0
 71
     2
 49
0.5
 62
   256
  6
BYLAYER
 49
-0.5
 62
   256
  6
BYLAYER
  0
ACDBPLACEHOLDER
  5
21F0
102
{ACAD_REACTORS
330
21EF
102
}
330
21EF
  0
SCALE
  5
513FD
102
{ACAD_REACTORS
330
513FC
102
}
330
513FC
100
AcDbScale
 70
     0
300
1:1
140
1.0
141
1.0
290
     1
  0
SCALE
  5
513FE
102
{ACAD_REACTORS
330
513FC
102
}
330
513FC
100
AcDbScale
 70
     0
300
1:2
140
1.0
141
2.0
290
     0
  0
SCALE
  5
513FF
102
{ACAD_REACTORS
330
513FC
102
}
330
513FC
100
AcDbScale
 70
     0
300
1:4
140
1.0
141
4.0
290
     0
  0
SCALE
  5
51400
102
{ACAD_REACTORS
330
513FC
102
}
330
513FC
100
AcDbScale
 70
     0
300
1:5
140
1.0
141
5.0
290
     0
  0
SCALE
  5
51401
102
{ACAD_REACTORS
330
513FC
102
}
330
513FC
100
AcDbScale
 70
     0
300
1:8
140
1.0
141
8.0
290
     0
  0
SCALE
  5
51402
102
{ACAD_REACTORS
330
513FC
102
}
330
513FC
100
AcDbScale
 70
     0
300
1:10
140
1.0
141
10.0
290
     0
  0
SCALE
  5
51403
102
{ACAD_REACTORS
330
513FC
102
}
330
513FC
100
AcDbScale
 70
     0
300
1:16
140
1.0
141
16.0
290
     0
  0
SCALE
  5
51404
102
{ACAD_REACTORS
330
513FC
102
}
330
513FC
100
AcDbScale
 70
     0
300
1:20
140
1.0
141
20.0
290
     0
  0
SCALE
  5
51405
102
{ACAD_REACTORS
330
513FC
102
}
330
513FC
100
AcDbScale
 70
     0
300
1:30
140
1.0
141
30.0
290
     0
  0
SCALE
  5
51406
102
{ACAD_REACTORS
330
513FC
102
}
330
513FC
100
AcDbScale
 70
     0
300
1:40
140
1.0
141
40.0
290
     0
  0
SCALE
  5
51407
102
{ACAD_REACTORS
330
513FC
102
}
330
513FC
100
AcDbScale
 70
     0
300
1:50
140
1.0
141
50.0
290
     0
  0
SCALE
  5
51408
102
{ACAD_REACTORS
330
513FC
102
}
330
513FC
100
AcDbScale
 70
     0
300
1:100
140
1.0
141
100.0
290
     0
  0
SCALE
  5
51409
102
{ACAD_REACTORS
330
513FC
102
}
330
513FC
100
AcDbScale
 70
     0
300
2:1
140
2.0
141
1.0
290
     0
  0
SCALE
  5
5140A
102
{ACAD_REACTORS
330
513FC
102
}
330
513FC
100
AcDbScale
 70
     0
300
4:1
140
4.0
141
1.0
290
     0
  0
SCALE
  5
5140B
102
{ACAD_REACTORS
330
513FC
102
}
330
513FC
100
AcDbScale
 70
     0
300
8:1
140
8.0
141
1.0
290
     0
  0
SCALE
  5
5140C
102
{ACAD_REACTORS
330
513FC
102
}
330
513FC
100
AcDbScale
 70
     0
300
10:1
140
10.0
141
1.0
290
     0
  0
SCALE
  5
5140D
102
{ACAD_REACTORS
330
513FC
102
}
330
513FC
100
AcDbScale
 70
     0
300
100:1
140
100.0
141
1.0
290
     0
  0
SCALE
  5
5140E
102
{ACAD_REACTORS
330
513FC
102
}
330
513FC
100
AcDbScale
 70
     0
300
1/128" = 1'-0"
140
0.0078125
141
12.0
290
     0
  0
SCALE
  5
5140F
102
{ACAD_REACTORS
330
513FC
102
}
330
513FC
100
AcDbScale
 70
     0
300
1/64" = 1'-0"
140
0.015625
141
12.0
290
     0
  0
SCALE
  5
51410
102
{ACAD_REACTORS
330
513FC
102
}
330
513FC
100
AcDbScale
 70
     0
300
1/32" = 1'-0"
140
0.03125
141
12.0
290
     0
  0
SCALE
  5
51411
102
{ACAD_REACTORS
330
513FC
102
}
330
513FC
100
AcDbScale
 70
     0
300
1/16" = 1'-0"
140
0.0625
141
12.0
290
     0
  0
SCALE
  5
51412
102
{ACAD_REACTORS
330
513FC
102
}
330
513FC
100
AcDbScale
 70
     0
300
3/32" = 1'-0"
140
0.09375
141
12.0
290
     0
  0
SCALE
  5
51413
102
{ACAD_REACTORS
330
513FC
102
}
330
513FC
100
AcDbScale
 70
     0
300
1/8" = 1'-0"
140
0.125
141
12.0
290
     0
  0
SCALE
  5
51414
102
{ACAD_REACTORS
330
513FC
102
}
330
513FC
100
AcDbScale
 70
     0
300
3/16" = 1'-0"
140
0.1875
141
12.0
290
     0
  0
SCALE
  5
51415
102
{ACAD_REACTORS
330
513FC
102
}
330
513FC
100
AcDbScale
 70
     0
300
1/4" = 1'-0"
140
0.25
141
12.0
290
     0
  0
SCALE
  5
51416
102
{ACAD_REACTORS
330
513FC
102
}
330
513FC
100
AcDbScale
 70
     0
300
3/8" = 1'-0"
140
0.375
141
12.0
290
     0
  0
SCALE
  5
51417
102
{ACAD_REACTORS
330
513FC
102
}
330
513FC
100
AcDbScale
 70
     0
300
1/2" = 1'-0"
140
0.5
141
12.0
290
     0
  0
SCALE
  5
51418
102
{ACAD_REACTORS
330
513FC
102
}
330
513FC
100
AcDbScale
 70
     0
300
3/4" = 1'-0"
140
0.75
141
12.0
290
     0
  0
SCALE
  5
51419
102
{ACAD_REACTORS
330
513FC
102
}
330
513FC
100
AcDbScale
 70
     0
300
1" = 1'-0"
140
1.0
141
12.0
290
     0
  0
SCALE
  5
5141A
102
{ACAD_REACTORS
330
513FC
102
}
330
513FC
100
AcDbScale
 70
     0
300
1-1/2" = 1'-0"
140
1.5
141
12.0
290
     0
  0
SCALE
  5
5141B
102
{ACAD_REACTORS
330
513FC
102
}
330
513FC
100
AcDbScale
 70
     0
300
3" = 1'-0"
140
3.0
141
12.0
290
     0
  0
SCALE
  5
5141C
102
{ACAD_REACTORS
330
513FC
102
}
330
513FC
100
AcDbScale
 70
     0
300
6" = 1'-0"
140
6.0
141
12.0
290
     0
  0
SCALE
  5
5141D
102
{ACAD_REACTORS
330
513FC
102
}
330
513FC
100
AcDbScale
 70
     0
300
1'-0" = 1'-0"
140
12.0
141
12.0
290
     0
  0
ACDBSECTIONVIEWSTYLE
  5
9B344
102
{ACAD_REACTORS
330
9B343
102
}
102
{ACAD_XDICTIONARY
360
9B6BB
102
}
330
9B343
100
AcDbModelDocViewStyle
 70
     0
  3
Imperial24
290
     0
100
AcDbSectionViewStyle
 70
     0
 71
     0
 90
       78
 71
     1
340
F
 40
0.24
340
0
340
0
 40
0.24
300
I, O, Q, S, X, Z
 40
0.48
 90
        3
 40
0.18
 90
        1
 71
     2
340
14
 90
       25
340
14
 90
       50
 40
0.24
 40
0.0
 40
0.24
 71
     3
340
F
 40
0.24
 90
        1
 40
0.75
 90
        1
300
%<\AcVar ViewType \f "%tc1">% %<\AcVar ViewSectionStartId>%-%<\AcVar ViewSectionEndId>%\PSCALE %<\AcVar ViewScale \f "%sn">%
 71
     4
300
ANSI31
 40
1.0
 90
        0
290
     0
290
     0
 90
        6
 40
0.0
 40
1.570796326794896
 40
0.2617993877991494
 40
1.308996938995747
 40
-0.2617993877991494
 40
1.832595714594046
  0
TABLESTYLE
  5
513FB
102
{ACAD_REACTORS
330
513FA
102
}
330
513FA
100
AcDbTableStyle
  3
Standard
 70
     0
 71
     0
 40
0.06
 41
0.06
280
     0
281
     0
  7
STANDARD
140
0.18
170
     2
 62
     0
 63
   257
283
     0
274
    -2
284
     1
 64
     0
275
    -2
285
     1
 65
     0
276
    -2
286
     1
 66
     0
277
    -2
287
     1
 67
     0
278
    -2
288
     1
 68
     0
279
    -2
289
     1
 69
     0
  7
STANDARD
140
0.25
170
     5
 62
     0
 63
   257
283
     0
274
    -2
284
     1
 64
     0
275
    -2
285
     1
 65
     0
276
    -2
286
     1
 66
     0
277
    -2
287
     1
 67
     0
278
    -2
288
     1
 68
     0
279
    -2
289
     1
 69
     0
  7
STANDARD
140
0.18
170
     5
 62
     0
 63
   257
283
     0
274
    -2
284
     1
 64
     0
275
    -2
285
     1
 65
     0
276
    -2
286
     1
 66
     0
277
    -2
287
     1
 67
     0
278
    -2
288
     1
 68
     0
279
    -2
289
     1
 69
     0
  0
VISUALSTYLE
  5
513EE
102
{ACAD_REACTORS
330
513E8
102
}
102
{ACAD_XDICTIONARY
360
9B6D3
102
}
330
513E8
100
AcDbVisualStyle
  2
2dWireframe
 70
     4
 71
     0
 72
     2
 73
     0
 90
        0
 40
-0.6
 41
-30.0
 62
     5
 63
     7
 74
     1
 91
        4
 64
     7
 65
   257
 75
     1
175
     1
 42
1.0
 92
        0
 66
   257
 43
1.0
 76
     1
 77
     6
 78
     2
 67
     7
 79
     5
170
     0
171
     0
290
     0
174
     0
 93
        1
 44
0.0
173
     0
291
     0
 45
0.0
1001
ACAD
1000
AcDbSavedByObjectVersion
1070
     0
  0
VISUALSTYLE
  5
513F0
102
{ACAD_REACTORS
330
513E8
102
}
102
{ACAD_XDICTIONARY
360
9B6D5
102
}
330
513E8
100
AcDbVisualStyle
  2
3D Hidden
 70
     6
 71
     1
 72
     2
 73
     2
 90
        0
 40
-0.6
 41
-30.0
 62
     5
 63
     7
 74
     2
 91
        2
 64
     7
 65
   257
 75
     2
175
     1
 42
40.0
 92
        0
 66
   257
 43
1.0
 76
     1
 77
     6
 78
     2
 67
     7
 79
     3
170
     0
171
     0
290
     0
174
     0
 93
        1
 44
0.0
173
     0
291
     0
 45
0.0
1001
ACAD
1000
AcDbSavedByObjectVersion
1070
     0
  0
VISUALSTYLE
  5
513EF
102
{ACAD_REACTORS
330
513E8
102
}
102
{ACAD_XDICTIONARY
360
9B6D7
102
}
330
513E8
100
AcDbVisualStyle
  2
3dWireframe
 70
     5
 71
     0
 72
     2
 73
     0
 90
        0
 40
-0.6
 41
-30.0
 62
     5
 63
     7
 74
     1
 91
        4
 64
     7
 65
   257
 75
     1
175
     1
 42
1.0
 92
        0
 66
   257
 43
1.0
 76
     1
 77
     6
 78
     2
 67
     7
 79
     5
170
     0
171
     0
290
     0
174
     0
 93
        1
 44
0.0
173
     0
291
     0
 45
0.0
1001
ACAD
1000
AcDbSavedByObjectVersion
1070
     0
  0
VISUALSTYLE
  5
513ED
102
{ACAD_REACTORS
330
513E8
102
}
102
{ACAD_XDICTIONARY
360
9B6D9
102
}
330
513E8
100
AcDbVisualStyle
  2
Basic
 70
     7
 71
     1
 72
     0
 73
     1
 90
        0
 40
-0.6
 41
-30.0
 62
     5
 63
     7
 74
     0
 91
        4
 64
     7
 65
   257
 75
     1
175
     1
 42
1.0
 92
        8
 66
     7
 43
1.0
 76
     1
 77
     6
 78
     2
 67
     7
 79
     5
170
     0
171
     0
290
     0
174
     0
 93
        1
 44
0.0
173
     0
291
     1
 45
0.0
1001
ACAD
1000
AcDbSavedByObjectVersion
1070
     0
  0
VISUALSTYLE
  5
513F4
102
{ACAD_REACTORS
330
513E8
102
}
102
{ACAD_XDICTIONARY
360
9B6DB
102
}
330
513E8
100
AcDbVisualStyle
  2
Brighten
 70
    12
 71
     2
 72
     2
 73
     0
 90
        0
 40
-0.6
 41
-30.0
 62
     5
 63
     7
 74
     1
 91
        4
 64
     7
 65
   257
 75
     1
175
     1
 42
1.0
 92
        8
 66
     7
 43
1.0
 76
     1
 77
     6
 78
     2
 67
     7
 79
     5
170
     0
171
     0
290
     0
174
     0
 93
        1
 44
50.0
173
     0
291
     1
 45
0.0
1001
ACAD
1000
AcDbSavedByObjectVersion
1070
     0
  0
VISUALSTYLE
  5
513F8
102
{ACAD_REACTORS
330
513E8
102
}
102
{ACAD_XDICTIONARY
360
9B6DD
102
}
330
513E8
100
AcDbVisualStyle
  2
ColorChange
 70
    16
 71
     2
 72
     2
 73
     3
 90
        0
 40
-0.6
 41
-30.0
 62
     5
 63
     8
 74
     1
 91
        4
 64
     7
 65
   257
 75
     1
175
     1
 42
1.0
 92
        8
 66
     8
 43
1.0
 76
     1
 77
     6
 78
     2
 67
     7
 79
     5
170
     0
171
     0
290
     0
174
     0
 93
        1
 44
0.0
173
     0
291
     1
 45
0.0
1001
ACAD
1000
AcDbSavedByObjectVersion
1070
     0
  0
VISUALSTYLE
  5
513F1
102
{ACAD_REACTORS
330
513E8
102
}
102
{ACAD_XDICTIONARY
360
9B6DF
102
}
330
513E8
100
AcDbVisualStyle
  2
Conceptual
 70
     9
 71
     3
 72
     2
 73
     0
 90
        0
 40
-0.6
 41
-30.0
 62
     5
 63
     7
 74
     2
 91
        2
 64
     7
 65
   257
 75
     1
175
     1
 42
40.0
 92
        8
 66
     7
 43
1.0
 76
     1
 77
     6
 78
     2
 67
     7
 79
     3
170
     0
171
     0
290
     0
174
     0
 93
        1
 44
0.0
173
     0
291
     0
 45
0.0
1001
ACAD
1000
AcDbSavedByObjectVersion
1070
     0
  0
VISUALSTYLE
  5
513F3
102
{ACAD_REACTORS
330
513E8
102
}
102
{ACAD_XDICTIONARY
360
9B6E1
102
}
330
513E8
100
AcDbVisualStyle
  2
Dim
 70
    11
 71
     2
 72
     2
 73
     0
 90
        0
 40
-0.6
 41
-30.0
 62
     5
 63
     7
 74
     1
 91
        4
 64
     7
 65
   257
 75
     1
175
     1
 42
1.0
 92
        8
 66
     7
 43
1.0
 76
     1
 77
     6
 78
     2
 67
     7
 79
     5
170
     0
171
     0
290
     0
174
     0
 93
        1
 44
-50.0
173
     0
291
     1
 45
0.0
1001
ACAD
1000
AcDbSavedByObjectVersion
1070
     0
  0
VISUALSTYLE
  5
70D09
102
{ACAD_REACTORS
330
513E8
102
}
102
{ACAD_XDICTIONARY
360
9B6E3
102
}
330
513E8
100
AcDbVisualStyle
  2
EdgeColorOff
 70
    22
 71
     2
 72
     2
 73
     0
 90
        0
 40
-0.6
 41
-30.0
 62
     5
 63
     7
 74
     1
 91
        4
 64
     7
 65
   257
 75
     1
175
     1
 42
1.0
 92
        8
 66
     7
 43
1.0
 76
     1
 77
     6
 78
     2
 67
     7
 79
     5
170
     0
171
     0
290
     0
174
     0
 93
        1
 44
0.0
173
     0
291
     1
 45
0.0
1001
ACAD
1000
AcDbSavedByObjectVersion
1070
     0
  0
VISUALSTYLE
  5
513F7
102
{ACAD_REACTORS
330
513E8
102
}
102
{ACAD_XDICTIONARY
360
9B6E5
102
}
330
513E8
100
AcDbVisualStyle
  2
Facepattern
 70
    15
 71
     2
 72
     2
 73
     0
 90
        0
 40
-0.6
 41
-30.0
 62
     5
 63
     7
 74
     1
 91
        4
 64
     7
 65
   257
 75
     1
175
     1
 42
1.0
 92
        8
 66
     7
 43
1.0
 76
     1
 77
     6
 78
     2
 67
     7
 79
     5
170
     0
171
     0
290
     0
174
     0
 93
        1
 44
0.0
173
     0
291
     1
 45
0.0
1001
ACAD
1000
AcDbSavedByObjectVersion
1070
     0
  0
VISUALSTYLE
  5
513E9
102
{ACAD_REACTORS
330
513E8
102
}
102
{ACAD_XDICTIONARY
360
9B6E7
102
}
330
513E8
100
AcDbVisualStyle
  2
Flat
 70
     0
 71
     2
 72
     1
 73
     1
 90
        2
 40
-0.6
 41
30.0
 62
     5
 63
     7
 74
     0
 91
        4
 64
     7
 65
   257
 75
     1
175
     1
 42
1.0
 92
        8
 66
     7
 43
1.0
 76
     1
 77
     6
 78
     2
 67
     7
 79
     5
170
     0
171
     0
290
     0
174
     0
 93
       13
 44
0.0
173
     0
291
     1
 45
0.0
1001
ACAD
1000
AcDbSavedByObjectVersion
1070
     0
  0
VISUALSTYLE
  5
513EA
102
{ACAD_REACTORS
330
513E8
102
}
102
{ACAD_XDICTIONARY
360
9B6E9
102
}
330
513E8
100
AcDbVisualStyle
  2
FlatWithEdges
 70
     1
 71
     2
 72
     1
 73
     1
 90
        2
 40
-0.6
 41
30.0
 62
     5
 63
     7
 74
     1
 91
        4
 64
     7
 65
   257
 75
     1
175
     1
 42
1.0
 92
        0
 66
   257
 43
1.0
 76
     1
 77
     6
 78
     2
 67
     7
 79
     5
170
     0
171
     0
290
     0
174
     0
 93
       13
 44
0.0
173
     0
291
     1
 45
0.0
1001
ACAD
1000
AcDbSavedByObjectVersion
1070
     0
  0
VISUALSTYLE
  5
513EB
102
{ACAD_REACTORS
330
513E8
102
}
102
{ACAD_XDICTIONARY
360
9B6EB
102
}
330
513E8
100
AcDbVisualStyle
  2
Gouraud
 70
     2
 71
     2
 72
     2
 73
     1
 90
        2
 40
-0.6
 41
30.0
 62
     5
 63
     7
 74
     0
 91
        4
 64
     7
 65
   257
 75
     1
175
     1
 42
1.0
 92
        0
 66
     7
 43
1.0
 76
     1
 77
     6
 78
     2
 67
     7
 79
     5
170
     0
171
     0
290
     0
174
     0
 93
       13
 44
0.0
173
     0
291
     1
 45
0.0
1001
ACAD
1000
AcDbSavedByObjectVersion
1070
     0
  0
VISUALSTYLE
  5
513EC
102
{ACAD_REACTORS
330
513E8
102
}
102
{ACAD_XDICTIONARY
360
9B6ED
102
}
330
513E8
100
AcDbVisualStyle
  2
GouraudWithEdges
 70
     3
 71
     2
 72
     2
 73
     1
 90
        2
 40
-0.6
 41
30.0
 62
     5
 63
     7
 74
     1
 91
        4
 64
     7
 65
   257
 75
     1
175
     1
 42
1.0
 92
        0
 66
   257
 43
1.0
 76
     1
 77
     6
 78
     2
 67
     7
 79
     5
170
     0
171
     0
290
     0
174
     0
 93
       13
 44
0.0
173
     0
291
     1
 45
0.0
1001
ACAD
1000
AcDbSavedByObjectVersion
1070
     0
  0
VISUALSTYLE
  5
70D01
102
{ACAD_REACTORS
330
513E8
102
}
102
{ACAD_XDICTIONARY
360
9B6EF
102
}
330
513E8
100
AcDbVisualStyle
  2
Hidden
 70
     6
 71
     1
 72
     2
 73
     2
 90
        0
 40
-0.6
 41
-30.0
 62
     5
 63
     7
 74
     2
 91
        2
 64
     7
 65
   257
 75
     2
175
     1
 42
40.0
 92
        0
 66
   257
 43
1.0
 76
     1
 77
     6
 78
     2
 67
     7
 79
     3
170
     0
171
     0
290
     0
174
     0
 93
        1
 44
0.0
173
     0
291
     0
 45
0.0
1001
ACAD
1000
AcDbSavedByObjectVersion
1070
     0
  0
VISUALSTYLE
  5
70D07
102
{ACAD_REACTORS
330
513E8
102
}
102
{ACAD_XDICTIONARY
360
9B6F1
102
}
330
513E8
100
AcDbVisualStyle
  2
JitterOff
 70
    20
 71
     2
 72
     2
 73
     0
 90
        0
 40
-0.6
 41
-30.0
 62
     5
 63
     7
 74
     1
 91
        4
 64
     7
 65
   257
 75
     1
175
     1
 42
1.0
 92
       10
 66
     7
 43
1.0
 76
     1
 77
     6
 78
     2
 67
     7
 79
     5
170
     0
171
     0
290
     0
174
     0
 93
        1
 44
0.0
173
     0
291
     1
 45
0.0
1001
ACAD
1000
AcDbSavedByObjectVersion
1070
     0
  0
VISUALSTYLE
  5
513F6
102
{ACAD_REACTORS
330
513E8
102
}
102
{ACAD_XDICTIONARY
360
9B6F3
102
}
330
513E8
100
AcDbVisualStyle
  2
Linepattern
 70
    14
 71
     2
 72
     2
 73
     0
 90
        0
 40
-0.6
 41
-30.0
 62
     5
 63
     7
 74
     1
 91
        4
 64
     7
 65
   257
 75
     7
175
     7
 42
1.0
 92
        8
 66
     7
 43
1.0
 76
     1
 77
     6
 78
     2
 67
     7
 79
     5
170
     0
171
     0
290
     0
174
     0
 93
        1
 44
0.0
173
     0
291
     1
 45
0.0
1001
ACAD
1000
AcDbSavedByObjectVersion
1070
     0
  0
VISUALSTYLE
  5
70D08
102
{ACAD_REACTORS
330
513E8
102
}
102
{ACAD_XDICTIONARY
360
9B6F5
102
}
330
513E8
100
AcDbVisualStyle
  2
OverhangOff
 70
    21
 71
     2
 72
     2
 73
     0
 90
        0
 40
-0.6
 41
-30.0
 62
     5
 63
     7
 74
     1
 91
        4
 64
     7
 65
   257
 75
     1
175
     1
 42
1.0
 92
        9
 66
     7
 43
1.0
 76
     1
 77
     6
 78
     2
 67
     7
 79
     5
170
     0
171
     0
290
     0
174
     0
 93
        1
 44
0.0
173
     0
291
     1
 45
0.0
1001
ACAD
1000
AcDbSavedByObjectVersion
1070
     0
  0
VISUALSTYLE
  5
513F2
102
{ACAD_REACTORS
330
513E8
102
}
102
{ACAD_XDICTIONARY
360
9B6F7
102
}
330
513E8
100
AcDbVisualStyle
  2
Realistic
 70
     8
 71
     2
 72
     2
 73
     0
 90
        0
 40
-0.6
 41
-30.0
 62
     5
 63
     7
 74
     1
 91
        0
 64
     7
 65
   257
 75
     1
175
     1
 42
1.0
 92
        8
 66
     8
 43
1.0
 76
     1
 77
     6
 78
     2
 67
     7
 79
     5
170
     0
171
     0
290
     0
174
     0
 93
       13
 44
0.0
173
     0
291
     0
 45
0.0
1001
ACAD
1000
AcDbSavedByObjectVersion
1070
     0
  0
VISUALSTYLE
  5
70D06
102
{ACAD_REACTORS
330
513E8
102
}
102
{ACAD_XDICTIONARY
360
9B6F9
102
}
330
513E8
100
AcDbVisualStyle
  2
Shaded
 70
    27
 71
     2
 72
     2
 73
     1
 90
        2
 40
-0.6
 41
30.0
 62
     5
 63
     7
 74
     0
 91
        4
 64
     7
 65
   257
 75
     1
175
     1
 42
1.0
 92
        8
 66
   257
 43
1.0
 76
     1
 77
     6
 78
     2
 67
     8
 79
     3
170
     0
171
     0
290
     0
174
     0
 93
        5
 44
0.0
173
     0
291
     0
 45
0.0
1001
ACAD
1000
AcDbSavedByObjectVersion
1070
     0
  0
VISUALSTYLE
  5
70D05
102
{ACAD_REACTORS
330
513E8
102
}
102
{ACAD_XDICTIONARY
360
9B6FB
102
}
330
513E8
100
AcDbVisualStyle
  2
Shaded with edges
 70
    26
 71
     2
 72
     2
 73
     1
 90
        2
 40
-0.6
 41
30.0
 62
     5
 63
     7
 74
     1
 91
        2
 64
     7
 65
   257
 75
     2
175
     1
 42
1.0
 92
        8
 66
   257
 43
1.0
 76
     1
 77
     6
 78
     2
 67
     7
 79
     3
170
     0
171
     0
290
     0
174
     0
 93
        5
 44
0.0
173
     0
291
     0
 45
0.0
1001
ACAD
1000
AcDbSavedByObjectVersion
1070
     0
  0
VISUALSTYLE
  5
70D02
102
{ACAD_REACTORS
330
513E8
102
}
102
{ACAD_XDICTIONARY
360
9B6FD
102
}
330
513E8
100
AcDbVisualStyle
  2
Shades of Gray
 70
    23
 71
     2
 72
     2
 73
     3
 90
        0
 40
-0.6
 41
-30.0
 62
     5
 63
     7
 74
     2
 91
        2
 64
     7
 65
     7
 75
     1
175
     1
 42
40.0
 92
        8
 66
     7
 43
1.0
 76
     1
 77
     6
 78
     2
 67
     7
 79
     3
170
     0
171
     0
290
     0
174
     0
 93
        1
 44
0.0
173
     0
291
     0
 45
0.0
1001
ACAD
1000
AcDbSavedByObjectVersion
1070
     0
  0
VISUALSTYLE
  5
70D03
102
{ACAD_REACTORS
330
513E8
102
}
102
{ACAD_XDICTIONARY
360
9B6FF
102
}
330
513E8
100
AcDbVisualStyle
  2
Sketchy
 70
    24
 71
     1
 72
     2
 73
     2
 90
        0
 40
-0.6
 41
-30.0
 62
     5
 63
     7
 74
     2
 91
        2
 64
     7
 65
     7
 75
     1
175
     1
 42
40.0
 92
       11
 66
     7
 43
1.0
 76
     1
 77
     6
 78
     2
 67
     7
 79
     6
170
     0
171
     0
290
     0
174
     0
 93
        1
 44
0.0
173
     0
291
     0
 45
0.0
1001
ACAD
1000
AcDbSavedByObjectVersion
1070
     0
  0
VISUALSTYLE
  5
513F5
102
{ACAD_REACTORS
330
513E8
102
}
102
{ACAD_XDICTIONARY
360
9B701
102
}
330
513E8
100
AcDbVisualStyle
  2
Thicken
 70
    13
 71
     2
 72
     2
 73
     0
 90
        0
 40
-0.6
 41
-30.0
 62
     5
 63
     7
 74
     1
 91
        4
 64
     7
 65
   257
 75
     1
175
     1
 42
1.0
 92
       12
 66
     7
 43
1.0
 76
     1
 77
     6
 78
     2
 67
     7
 79
     5
170
     0
171
     0
290
     0
174
     0
 93
        1
 44
0.0
173
     0
291
     1
 45
0.0
1001
ACAD
1000
AcDbSavedByObjectVersion
1070
     0
  0
VISUALSTYLE
  5
70D00
102
{ACAD_REACTORS
330
513E8
102
}
102
{ACAD_XDICTIONARY
360
9B703
102
}
330
513E8
100
AcDbVisualStyle
  2
Wireframe
 70
     5
 71
     0
 72
     2
 73
     0
 90
        0
 40
-0.6
 41
-30.0
 62
     5
 63
     7
 74
     1
 91
        4
 64
     7
 65
   257
 75
     1
175
     1
 42
1.0
 92
        0
 66
   257
 43
1.0
 76
     1
 77
     6
 78
     2
 67
     7
 79
     3
170
     0
171
     0
290
     0
174
     0
 93
        1
 44
0.0
173
     0
291
     0
 45
0.0
1001
ACAD
1000
AcDbSavedByObjectVersion
1070
     0
  0
VISUALSTYLE
  5
70D04
102
{ACAD_REACTORS
330
513E8
102
}
102
{ACAD_XDICTIONARY
360
9B705
102
}
330
513E8
100
AcDbVisualStyle
  2
X-Ray
 70
    25
 71
     2
 72
     2
 73
     1
 90
        1
 40
0.5
 41
-30.0
 62
     5
 63
     7
 74
     1
 91
        0
 64
     7
 65
   257
 75
     1
175
     1
 42
1.0
 92
        8
 66
     7
 43
1.0
 76
     1
 77
     6
 78
     2
 67
     7
 79
     3
170
     0
171
     0
290
     0
174
     0
 93
       13
 44
0.0
173
     0
291
     0
 45
0.0
1001
ACAD
1000
AcDbSavedByObjectVersion
1070
     0
  0
XRECORD
  5
9B6C4
102
{ACAD_REACTORS
330
9B6C3
102
}
330
9B6C3
100
AcDbXrecord
280
     1
340
513F9
  0
XRECORD
  5
9B6C5
102
{ACAD_REACTORS
330
9B6C3
102
}
330
9B6C3
100
AcDbXrecord
280
     1
340
513CF
  0
DICTIONARYVAR
  5
9B6C8
102
{ACAD_REACTORS
330
28B1
102
}
330
28B1
100
DictionaryVariables
280
     0
  1
1:1
  0
DICTIONARYVAR
  5
5147E
102
{ACAD_REACTORS
330
28B1
102
}
330
28B1
100
DictionaryVariables
280
     0
  1
Standard
  0
DICTIONARYVAR
  5
5147D
102
{ACAD_REACTORS
330
28B1
102
}
330
28B1
100
DictionaryVariables
280
     0
  1
Standard
  0
DICTIONARYVAR
  5
9B679
102
{ACAD_REACTORS
330
28B1
102
}
330
28B1
100
DictionaryVariables
280
     0
  1
Imperial24
  0
DICTIONARYVAR
  5
9B67A
102
{ACAD_REACTORS
330
28B1
102
}
330
28B1
100
DictionaryVariables
280
     0
  1
Imperial24
  0
DICTIONARYVAR
  5
5135B
102
{ACAD_REACTORS
330
28B1
102
}
330
28B1
100
DictionaryVariables
280
     0
  1
1
  0
DICTIONARYVAR
  5
9B6C2
102
{ACAD_REACTORS
330
28B1
102
}
330
28B1
100
DictionaryVariables
280
     0
  1
1
  0
DICTIONARYVAR
  5
70D55
102
{ACAD_REACTORS
330
28B1
102
}
330
28B1
100
DictionaryVariables
280
     0
  1
0
  0
DICTIONARYVAR
  5
51481
102
{ACAD_REACTORS
330
28B1
102
}
330
28B1
100
DictionaryVariables
280
     0
  1
0
  0
DICTIONARYVAR
  5
5147F
102
{ACAD_REACTORS
330
28B1
102
}
330
28B1
100
DictionaryVariables
280
     0
  1
0
  0
DICTIONARYVAR
  5
70D57
102
{ACAD_REACTORS
330
28B1
102
}
330
28B1
100
DictionaryVariables
280
     0
  1
1
  0
DICTIONARYVAR
  5
28B2
102
{ACAD_REACTORS
330
28B1
102
}
330
28B1
100
DictionaryVariables
280
     0
  1
127
  0
DICTIONARYVAR
  5
9B67B
102
{ACAD_REACTORS
330
28B1
102
}
330
28B1
100
DictionaryVariables
280
     0
  1
2
  0
DICTIONARY
  5
9B6BD
330
9B346
100
AcDbDictionary
280
     1
281
     1
  3
ACAD_XREC_ROUNDTRIP
360
9B6C9
  0
DICTIONARY
  5
9B6CA
330
513D8
100
AcDbDictionary
280
     1
281
     1
  3
ACAD_XREC_ROUNDTRIP
360
9B6CB
  0
DICTIONARY
  5
9B6CC
330
513D0
100
AcDbDictionary
280
     1
281
     1
  3
ACAD_XREC_ROUNDTRIP
360
9B6CD
  0
DICTIONARY
  5
9B6CE
330
513E0
100
AcDbDictionary
280
     1
281
     1
  3
ACAD_XREC_ROUNDTRIP
360
9B6CF
  0
DICTIONARY
  5
9B6D0
330
5141F
100
AcDbDictionary
280
     1
281
     1
  3
ACAD_XREC_ROUNDTRIP
360
9B6D1
  0
DICTIONARY
  5
9B6BB
330
9B344
100
AcDbDictionary
280
     1
281
     1
  3
ACAD_XREC_ROUNDTRIP
360
9B6D2
  0
DICTIONARY
  5
9B6D3
330
513EE
100
AcDbDictionary
280
     1
281
     1
  3
ACAD_XREC_ROUNDTRIP
360
9B6D4
  0
DICTIONARY
  5
9B6D5
330
513F0
100
AcDbDictionary
280
     1
281
     1
  3
ACAD_XREC_ROUNDTRIP
360
9B6D6
  0
DICTIONARY
  5
9B6D7
330
513EF
100
AcDbDictionary
280
     1
281
     1
  3
ACAD_XREC_ROUNDTRIP
360
9B6D8
  0
DICTIONARY
  5
9B6D9
330
513ED
100
AcDbDictionary
280
     1
281
     1
  3
ACAD_XREC_ROUNDTRIP
360
9B6DA
  0
DICTIONARY
  5
9B6DB
330
513F4
100
AcDbDictionary
280
     1
281
     1
  3
ACAD_XREC_ROUNDTRIP
360
9B6DC
  0
DICTIONARY
  5
9B6DD
330
513F8
100
AcDbDictionary
280
     1
281
     1
  3
ACAD_XREC_ROUNDTRIP
360
9B6DE
  0
DICTIONARY
  5
9B6DF
330
513F1
100
AcDbDictionary
280
     1
281
     1
  3
ACAD_XREC_ROUNDTRIP
360
9B6E0
  0
DICTIONARY
  5
9B6E1
330
513F3
100
AcDbDictionary
280
     1
281
     1
  3
ACAD_XREC_ROUNDTRIP
360
9B6E2
  0
DICTIONARY
  5
9B6E3
330
70D09
100
AcDbDictionary
280
     1
281
     1
  3
ACAD_XREC_ROUNDTRIP
360
9B6E4
  0
DICTIONARY
  5
9B6E5
330
513F7
100
AcDbDictionary
280
     1
281
     1
  3
ACAD_XREC_ROUNDTRIP
360
9B6E6
  0
DICTIONARY
  5
9B6E7
330
513E9
100
AcDbDictionary
280
     1
281
     1
  3
ACAD_XREC_ROUNDTRIP
360
9B6E8
  0
DICTIONARY
  5
9B6E9
330
513EA
100
AcDbDictionary
280
     1
281
     1
  3
ACAD_XREC_ROUNDTRIP
360
9B6EA
  0
DICTIONARY
  5
9B6EB
330
513EB
100
AcDbDictionary
280
     1
281
     1
  3
ACAD_XREC_ROUNDTRIP
360
9B6EC
  0
DICTIONARY
  5
9B6ED
330
513EC
100
AcDbDictionary
280
     1
281
     1
  3
ACAD_XREC_ROUNDTRIP
360
9B6EE
  0
DICTIONARY
  5
9B6EF
330
70D01
100
AcDbDictionary
280
     1
281
     1
  3
ACAD_XREC_ROUNDTRIP
360
9B6F0
  0
DICTIONARY
  5
9B6F1
330
70D07
100
AcDbDictionary
280
     1
281
     1
  3
ACAD_XREC_ROUNDTRIP
360
9B6F2
  0
DICTIONARY
  5
9B6F3
330
513F6
100
AcDbDictionary
280
     1
281
     1
  3
ACAD_XREC_ROUNDTRIP
360
9B6F4
  0
DICTIONARY
  5
9B6F5
330
70D08
100
AcDbDictionary
280
     1
281
     1
  3
ACAD_XREC_ROUNDTRIP
360
9B6F6
  0
DICTIONARY
  5
9B6F7
330
513F2
100
AcDbDictionary
280
     1
281
     1
  3
ACAD_XREC_ROUNDTRIP
360
9B6F8
  0
DICTIONARY
  5
9B6F9
330
70D06
100
AcDbDictionary
280
     1
281
     1
  3
ACAD_XREC_ROUNDTRIP
360
9B6FA
  0
DICTIONARY
  5
9B6FB
330
70D05
100
AcDbDictionary
280
     1
281
     1
  3
ACAD_XREC_ROUNDTRIP
360
9B6FC
  0
DICTIONARY
  5
9B6FD
330
70D02
100
AcDbDictionary
280
     1
281
     1
  3
ACAD_XREC_ROUNDTRIP
360
9B6FE
  0
DICTIONARY
  5
9B6FF
330
70D03
100
AcDbDictionary
280
     1
281
     1
  3
ACAD_XREC_ROUNDTRIP
360
9B700
  0
DICTIONARY
  5
9B701
330
513F5
100
AcDbDictionary
280
     1
281
     1
  3
ACAD_XREC_ROUNDTRIP
360
9B702
  0
DICTIONARY
  5
9B703
330
70D00
100
AcDbDictionary
280
     1
281
     1
  3
ACAD_XREC_ROUNDTRIP
360
9B704
  0
DICTIONARY
  5
9B705
330
70D04
100
AcDbDictionary
280
     1
281
     1
  3
ACAD_XREC_ROUNDTRIP
360
9B706
  0
XRECORD
  5
9B6C9
102
{ACAD_REACTORS
330
9B6BD
102
}
330
9B6BD
100
AcDbXrecord
280
     1
102
DISPLAYNAME
  1
Imperial24
102
FLAGS
 90
        0
  0
XRECORD
  5
9B6CB
102
{ACAD_REACTORS
330
9B6CA
102
}
330
9B6CA
100
AcDbXrecord
280
     1
102
MATERIAL
148
0.0
149
0.0
149
0.0
 93
        0
 94
      127
282
     0
 72
     0
 77
     0
171
     0
175
     0
179
     0
273
     0
  0
XRECORD
  5
9B6CD
102
{ACAD_REACTORS
330
9B6CC
102
}
330
9B6CC
100
AcDbXrecord
280
     1
102
MATERIAL
148
0.0
149
0.0
149
0.0
 93
        0
 94
      127
282
     0
 72
     0
 77
     0
171
     0
175
     0
179
     0
273
     0
  0
XRECORD
  5
9B6CF
102
{ACAD_REACTORS
330
9B6CE
102
}
330
9B6CE
100
AcDbXrecord
280
     1
102
MATERIAL
148
0.0
149
0.0
149
0.0
 93
        0
 94
      127
282
     0
 72
     0
 77
     0
171
     0
175
     0
179
     0
273
     0
  0
XRECORD
  5
9B6D1
102
{ACAD_REACTORS
330
9B6D0
102
}
330
9B6D0
100
AcDbXrecord
280
     1
102
ACAD_ROUNDTRIP_2010_MLEADER_STYLE
  0
XRECORD
  5
9B6D2
102
{ACAD_REACTORS
330
9B6BB
102
}
330
9B6BB
100
AcDbXrecord
280
     1
102
DISPLAYNAME
  1
Imperial24
102
FLAGS
 90
        0
  0
XRECORD
  5
9B6D4
102
{ACAD_REACTORS
330
9B6D3
102
}
330
9B6D3
100
AcDbXrecord
280
     1
102
RTVSPropertyOp0
 70
     1
102
RTVSPropertyOp1
 70
     1
102
RTVSPropertyOp2
 70
     1
102
RTVSPropertyOp3
 70
     1
102
RTVSPropertyOp4
 70
     1
102
RTVSPropertyOp5
 70
     1
102
RTVSPropertyOp6
 70
     1
102
RTVSPropertyOp7
 70
     1
102
RTVSPropertyOp8
 70
     1
102
RTVSPropertyOp9
 70
     1
102
RTVSPropertyOp10
 70
     1
102
RTVSPropertyOp11
 70
     1
102
RTVSPropertyOp12
 70
     1
102
RTVSPropertyOp13
 70
     1
102
RTVSPropertyOp14
 70
     1
102
RTVSPropertyOp15
 70
     1
102
RTVSPropertyOp16
 70
     1
102
RTVSPropertyOp17
 70
     1
102
RTVSPropertyOp18
 70
     1
102
RTVSPropertyOp19
 70
     1
102
RTVSPropertyOp20
 70
     1
102
RTVSPropertyOp21
 70
     1
102
RTVSPropertyOp22
 70
     1
102
RTVSPropertyOp23
 70
     1
102
RTVSPropertyOp24
 70
     1
102
RTVSPropertyOp25
 70
     1
102
RTVSPropertyOp26
 70
     1
102
RTVSPropertyOp27
 70
     1
102
RTVSPropertyOp28
 70
     1
102
RTVSPropertyOp29
 70
     1
102
RTVSPropertyOp30
 70
     1
102
RTVSPropertyOp31
 70
     1
102
RTVSPropertyOp32
 70
     1
102
RTVSPropertyOp33
 70
     1
102
RTVSPropertyOp34
 70
     1
102
RTVSPropertyOp35
 70
     1
102
RTVSPropertyOp36
 70
     1
102
RTVSPropertyOp37
 70
     1
102
RTVSPropertyOp38
 70
     1
102
RTVSPropertyOp39
 70
     1
102
RTVSPropertyOp40
 70
     1
102
RTVSPropertyOp41
 70
     1
102
RTVSPropertyOp42
 70
     1
102
RTVSPropertyOp43
 70
     1
102
RTVSPropertyOp44
 70
     1
102
RTVSPropertyOp45
 70
     1
102
RTVSPropertyOp46
 70
     1
102
RTVSPropertyOp47
 70
     1
102
RTVSPropertyOp48
 70
     1
102
RTVSPropertyOp49
 70
     1
102
RTVSPropertyOp50
 70
     1
102
RTVSPropertyOp51
 70
     0
102
RTVSPropertyOp52
 70
     0
102
RTVSPropertyOp53
 70
     1
102
RTVSPropertyOp54
 70
     1
102
RTVSPropertyOp55
 70
     1
102
RTVSPropertyOp56
 70
     1
102
RTVSPropertyOp57
 70
     1
102
RTVSPost2010Prop28
280
     1
102
RTVSPost2010PropOp28
 70
     1
102
RTVSPost2010Prop29
280
     1
102
RTVSPost2010PropOp29
 70
     1
102
RTVSPost2010Prop30
280
     0
102
RTVSPost2010PropOp30
 70
     1
102
RTVSPost2010Prop31
280
     0
102
RTVSPost2010PropOp31
 70
     1
102
RTVSPost2010Prop32
280
     0
102
RTVSPost2010PropOp32
 70
     1
102
RTVSPost2010Prop33
280
     0
102
RTVSPost2010PropOp33
 70
     1
102
RTVSPost2010Prop34
280
     0
102
RTVSPost2010PropOp34
 70
     1
102
RTVSPost2010Prop35
280
     0
102
RTVSPost2010PropOp35
 70
     1
102
RTVSPost2010Prop36
280
     0
102
RTVSPost2010PropOp36
 70
     1
102
RTVSPost2010Prop37
 90
       50
102
RTVSPost2010PropOp37
 70
     1
102
RTVSPost2010Prop38
140
0.0
102
RTVSPost2010PropOp38
 70
     1
102
RTVSPost2010Prop39
140
1.0
102
RTVSPost2010PropOp39
 70
     1
102
RTVSPost2010Prop40
 90
        0
102
RTVSPost2010PropOp40
 70
     1
102
RTVSPost2010Prop41ColorIndex
 90
       18
102
RTVSPost2010Prop41ColorRGB
 90
        0
102
RTVSPost2010PropOp41
 70
     1
102
RTVSPost2010Prop42
 90
       50
102
RTVSPost2010PropOp42
 70
     1
102
RTVSPost2010Prop43
 90
        3
102
RTVSPost2010PropOp43
 70
     1
102
RTVSPost2010Prop44ColorIndex
 90
        5
102
RTVSPost2010Prop44ColorRGB
 90
      255
102
RTVSPost2010PropOp44
 70
     1
102
RTVSPost2010Prop45
280
     0
102
RTVSPost2010PropOp45
 70
     1
102
RTVSPost2010Prop46
 90
       50
102
RTVSPost2010PropOp46
 70
     1
102
RTVSPost2010Prop47
 90
       50
102
RTVSPost2010PropOp47
 70
     1
102
RTVSPost2010Prop48
 90
       50
102
RTVSPost2010PropOp48
 70
     1
102
RTVSPost2010Prop49
280
     0
102
RTVSPost2010PropOp49
 70
     1
102
RTVSPost2010Prop50
 90
       50
102
RTVSPost2010PropOp50
 70
     1
102
RTVSPost2010Prop51ColorIndex
 90
      256
102
RTVSPost2010Prop51ColorRGB
 90
-16777216
102
RTVSPost2010PropOp51
 70
     0
102
RTVSPost2010Prop52
140
1.0
102
RTVSPost2010PropOp52
 70
     0
102
RTVSPost2010Prop53
 90
        2
102
RTVSPost2010PropOp53
 70
     1
102
RTVSPost2010Prop54
  1
strokes_ogs.tif
102
RTVSPost2010PropOp54
 70
     1
102
RTVSPost2010Prop55
280
     0
102
RTVSPost2010PropOp55
 70
     1
102
RTVSPost2010Prop56
140
1.0
102
RTVSPost2010PropOp56
 70
     1
102
RTVSPost2010Prop57
140
1.0
102
RTVSPost2010PropOp57
 70
     1
  0
XRECORD
  5
9B6D6
102
{ACAD_REACTORS
330
9B6D5
102
}
330
9B6D5
100
AcDbXrecord
280
     1
102
RTVSPropertyOp0
 70
     1
102
RTVSPropertyOp1
 70
     1
102
RTVSPropertyOp2
 70
     1
102
RTVSPropertyOp3
 70
     1
102
RTVSPropertyOp4
 70
     1
102
RTVSPropertyOp5
 70
     1
102
RTVSPropertyOp6
 70
     1
102
RTVSPropertyOp7
 70
     1
102
RTVSPropertyOp8
 70
     1
102
RTVSPropertyOp9
 70
     1
102
RTVSPropertyOp10
 70
     1
102
RTVSPropertyOp11
 70
     1
102
RTVSPropertyOp12
 70
     1
102
RTVSPropertyOp13
 70
     1
102
RTVSPropertyOp14
 70
     1
102
RTVSPropertyOp15
 70
     1
102
RTVSPropertyOp16
 70
     1
102
RTVSPropertyOp17
 70
     1
102
RTVSPropertyOp18
 70
     1
102
RTVSPropertyOp19
 70
     1
102
RTVSPropertyOp20
 70
     1
102
RTVSPropertyOp21
 70
     1
102
RTVSPropertyOp22
 70
     1
102
RTVSPropertyOp23
 70
     1
102
RTVSPropertyOp24
 70
     1
102
RTVSPropertyOp25
 70
     1
102
RTVSPropertyOp26
 70
     1
102
RTVSPropertyOp27
 70
     1
102
RTVSPropertyOp28
 70
     1
102
RTVSPropertyOp29
 70
     1
102
RTVSPropertyOp30
 70
     1
102
RTVSPropertyOp31
 70
     1
102
RTVSPropertyOp32
 70
     1
102
RTVSPropertyOp33
 70
     1
102
RTVSPropertyOp34
 70
     1
102
RTVSPropertyOp35
 70
     1
102
RTVSPropertyOp36
 70
     1
102
RTVSPropertyOp37
 70
     1
102
RTVSPropertyOp38
 70
     1
102
RTVSPropertyOp39
 70
     1
102
RTVSPropertyOp40
 70
     1
102
RTVSPropertyOp41
 70
     1
102
RTVSPropertyOp42
 70
     1
102
RTVSPropertyOp43
 70
     1
102
RTVSPropertyOp44
 70
     1
102
RTVSPropertyOp45
 70
     1
102
RTVSPropertyOp46
 70
     1
102
RTVSPropertyOp47
 70
     1
102
RTVSPropertyOp48
 70
     1
102
RTVSPropertyOp49
 70
     1
102
RTVSPropertyOp50
 70
     1
102
RTVSPropertyOp51
 70
     0
102
RTVSPropertyOp52
 70
     0
102
RTVSPropertyOp53
 70
     1
102
RTVSPropertyOp54
 70
     1
102
RTVSPropertyOp55
 70
     1
102
RTVSPropertyOp56
 70
     1
102
RTVSPropertyOp57
 70
     1
102
RTVSPost2010Prop28
280
     0
102
RTVSPost2010PropOp28
 70
     1
102
RTVSPost2010Prop29
280
     1
102
RTVSPost2010PropOp29
 70
     1
102
RTVSPost2010Prop30
280
     1
102
RTVSPost2010PropOp30
 70
     1
102
RTVSPost2010Prop31
280
     0
102
RTVSPost2010PropOp31
 70
     1
102
RTVSPost2010Prop32
280
     0
102
RTVSPost2010PropOp32
 70
     1
102
RTVSPost2010Prop33
280
     0
102
RTVSPost2010PropOp33
 70
     1
102
RTVSPost2010Prop34
280
     0
102
RTVSPost2010PropOp34
 70
     1
102
RTVSPost2010Prop35
280
     0
102
RTVSPost2010PropOp35
 70
     1
102
RTVSPost2010Prop36
280
     0
102
RTVSPost2010PropOp36
 70
     1
102
RTVSPost2010Prop37
 90
       50
102
RTVSPost2010PropOp37
 70
     1
102
RTVSPost2010Prop38
140
0.0
102
RTVSPost2010PropOp38
 70
     1
102
RTVSPost2010Prop39
140
1.0
102
RTVSPost2010PropOp39
 70
     1
102
RTVSPost2010Prop40
 90
        0
102
RTVSPost2010PropOp40
 70
     1
102
RTVSPost2010Prop41ColorIndex
 90
       18
102
RTVSPost2010Prop41ColorRGB
 90
        0
102
RTVSPost2010PropOp41
 70
     1
102
RTVSPost2010Prop42
 90
       50
102
RTVSPost2010PropOp42
 70
     1
102
RTVSPost2010Prop43
 90
        3
102
RTVSPost2010PropOp43
 70
     1
102
RTVSPost2010Prop44ColorIndex
 90
        5
102
RTVSPost2010Prop44ColorRGB
 90
      255
102
RTVSPost2010PropOp44
 70
     1
102
RTVSPost2010Prop45
280
     0
102
RTVSPost2010PropOp45
 70
     1
102
RTVSPost2010Prop46
 90
       50
102
RTVSPost2010PropOp46
 70
     1
102
RTVSPost2010Prop47
 90
       50
102
RTVSPost2010PropOp47
 70
     1
102
RTVSPost2010Prop48
 90
       50
102
RTVSPost2010PropOp48
 70
     1
102
RTVSPost2010Prop49
280
     0
102
RTVSPost2010PropOp49
 70
     1
102
RTVSPost2010Prop50
 90
       50
102
RTVSPost2010PropOp50
 70
     1
102
RTVSPost2010Prop51ColorIndex
 90
      256
102
RTVSPost2010Prop51ColorRGB
 90
-16777216
102
RTVSPost2010PropOp51
 70
     0
102
RTVSPost2010Prop52
140
1.0
102
RTVSPost2010PropOp52
 70
     0
102
RTVSPost2010Prop53
 90
        2
102
RTVSPost2010PropOp53
 70
     1
102
RTVSPost2010Prop54
  1
strokes_ogs.tif
102
RTVSPost2010PropOp54
 70
     1
102
RTVSPost2010Prop55
280
     0
102
RTVSPost2010PropOp55
 70
     1
102
RTVSPost2010Prop56
140
1.0
102
RTVSPost2010PropOp56
 70
     1
102
RTVSPost2010Prop57
140
1.0
102
RTVSPost2010PropOp57
 70
     1
  0
XRECORD
  5
9B6D8
102
{ACAD_REACTORS
330
9B6D7
102
}
330
9B6D7
100
AcDbXrecord
280
     1
102
RTVSPropertyOp0
 70
     1
102
RTVSPropertyOp1
 70
     1
102
RTVSPropertyOp2
 70
     1
102
RTVSPropertyOp3
 70
     1
102
RTVSPropertyOp4
 70
     1
102
RTVSPropertyOp5
 70
     1
102
RTVSPropertyOp6
 70
     1
102
RTVSPropertyOp7
 70
     1
102
RTVSPropertyOp8
 70
     1
102
RTVSPropertyOp9
 70
     1
102
RTVSPropertyOp10
 70
     1
102
RTVSPropertyOp11
 70
     1
102
RTVSPropertyOp12
 70
     1
102
RTVSPropertyOp13
 70
     1
102
RTVSPropertyOp14
 70
     1
102
RTVSPropertyOp15
 70
     1
102
RTVSPropertyOp16
 70
     1
102
RTVSPropertyOp17
 70
     1
102
RTVSPropertyOp18
 70
     1
102
RTVSPropertyOp19
 70
     1
102
RTVSPropertyOp20
 70
     1
102
RTVSPropertyOp21
 70
     1
102
RTVSPropertyOp22
 70
     1
102
RTVSPropertyOp23
 70
     1
102
RTVSPropertyOp24
 70
     1
102
RTVSPropertyOp25
 70
     1
102
RTVSPropertyOp26
 70
     1
102
RTVSPropertyOp27
 70
     1
102
RTVSPropertyOp28
 70
     1
102
RTVSPropertyOp29
 70
     1
102
RTVSPropertyOp30
 70
     1
102
RTVSPropertyOp31
 70
     1
102
RTVSPropertyOp32
 70
     1
102
RTVSPropertyOp33
 70
     1
102
RTVSPropertyOp34
 70
     1
102
RTVSPropertyOp35
 70
     1
102
RTVSPropertyOp36
 70
     1
102
RTVSPropertyOp37
 70
     1
102
RTVSPropertyOp38
 70
     1
102
RTVSPropertyOp39
 70
     1
102
RTVSPropertyOp40
 70
     1
102
RTVSPropertyOp41
 70
     1
102
RTVSPropertyOp42
 70
     1
102
RTVSPropertyOp43
 70
     1
102
RTVSPropertyOp44
 70
     1
102
RTVSPropertyOp45
 70
     1
102
RTVSPropertyOp46
 70
     1
102
RTVSPropertyOp47
 70
     1
102
RTVSPropertyOp48
 70
     1
102
RTVSPropertyOp49
 70
     1
102
RTVSPropertyOp50
 70
     1
102
RTVSPropertyOp51
 70
     0
102
RTVSPropertyOp52
 70
     0
102
RTVSPropertyOp53
 70
     1
102
RTVSPropertyOp54
 70
     1
102
RTVSPropertyOp55
 70
     1
102
RTVSPropertyOp56
 70
     1
102
RTVSPropertyOp57
 70
     1
102
RTVSPost2010Prop28
280
     0
102
RTVSPost2010PropOp28
 70
     1
102
RTVSPost2010Prop29
280
     1
102
RTVSPost2010PropOp29
 70
     1
102
RTVSPost2010Prop30
280
     1
102
RTVSPost2010PropOp30
 70
     1
102
RTVSPost2010Prop31
280
     0
102
RTVSPost2010PropOp31
 70
     1
102
RTVSPost2010Prop32
280
     0
102
RTVSPost2010PropOp32
 70
     1
102
RTVSPost2010Prop33
280
     0
102
RTVSPost2010PropOp33
 70
     1
102
RTVSPost2010Prop34
280
     0
102
RTVSPost2010PropOp34
 70
     1
102
RTVSPost2010Prop35
280
     0
102
RTVSPost2010PropOp35
 70
     1
102
RTVSPost2010Prop36
280
     0
102
RTVSPost2010PropOp36
 70
     1
102
RTVSPost2010Prop37
 90
       50
102
RTVSPost2010PropOp37
 70
     1
102
RTVSPost2010Prop38
140
0.0
102
RTVSPost2010PropOp38
 70
     1
102
RTVSPost2010Prop39
140
1.0
102
RTVSPost2010PropOp39
 70
     1
102
RTVSPost2010Prop40
 90
        0
102
RTVSPost2010PropOp40
 70
     1
102
RTVSPost2010Prop41ColorIndex
 90
       18
102
RTVSPost2010Prop41ColorRGB
 90
        0
102
RTVSPost2010PropOp41
 70
     1
102
RTVSPost2010Prop42
 90
       50
102
RTVSPost2010PropOp42
 70
     1
102
RTVSPost2010Prop43
 90
        3
102
RTVSPost2010PropOp43
 70
     1
102
RTVSPost2010Prop44ColorIndex
 90
        5
102
RTVSPost2010Prop44ColorRGB
 90
      255
102
RTVSPost2010PropOp44
 70
     1
102
RTVSPost2010Prop45
280
     0
102
RTVSPost2010PropOp45
 70
     1
102
RTVSPost2010Prop46
 90
       50
102
RTVSPost2010PropOp46
 70
     1
102
RTVSPost2010Prop47
 90
       50
102
RTVSPost2010PropOp47
 70
     1
102
RTVSPost2010Prop48
 90
       50
102
RTVSPost2010PropOp48
 70
     1
102
RTVSPost2010Prop49
280
     0
102
RTVSPost2010PropOp49
 70
     1
102
RTVSPost2010Prop50
 90
       50
102
RTVSPost2010PropOp50
 70
     1
102
RTVSPost2010Prop51ColorIndex
 90
      256
102
RTVSPost2010Prop51ColorRGB
 90
-16777216
102
RTVSPost2010PropOp51
 70
     0
102
RTVSPost2010Prop52
140
1.0
102
RTVSPost2010PropOp52
 70
     0
102
RTVSPost2010Prop53
 90
        2
102
RTVSPost2010PropOp53
 70
     1
102
RTVSPost2010Prop54
  1
strokes_ogs.tif
102
RTVSPost2010PropOp54
 70
     1
102
RTVSPost2010Prop55
280
     0
102
RTVSPost2010PropOp55
 70
     1
102
RTVSPost2010Prop56
140
1.0
102
RTVSPost2010PropOp56
 70
     1
102
RTVSPost2010Prop57
140
1.0
102
RTVSPost2010PropOp57
 70
     1
  0
XRECORD
  5
9B6DA
102
{ACAD_REACTORS
330
9B6D9
102
}
330
9B6D9
100
AcDbXrecord
280
     1
102
RTVSPropertyOp0
 70
     1
102
RTVSPropertyOp1
 70
     1
102
RTVSPropertyOp2
 70
     1
102
RTVSPropertyOp3
 70
     1
102
RTVSPropertyOp4
 70
     1
102
RTVSPropertyOp5
 70
     1
102
RTVSPropertyOp6
 70
     1
102
RTVSPropertyOp7
 70
     1
102
RTVSPropertyOp8
 70
     1
102
RTVSPropertyOp9
 70
     1
102
RTVSPropertyOp10
 70
     1
102
RTVSPropertyOp11
 70
     1
102
RTVSPropertyOp12
 70
     1
102
RTVSPropertyOp13
 70
     1
102
RTVSPropertyOp14
 70
     1
102
RTVSPropertyOp15
 70
     1
102
RTVSPropertyOp16
 70
     1
102
RTVSPropertyOp17
 70
     1
102
RTVSPropertyOp18
 70
     1
102
RTVSPropertyOp19
 70
     1
102
RTVSPropertyOp20
 70
     1
102
RTVSPropertyOp21
 70
     1
102
RTVSPropertyOp22
 70
     1
102
RTVSPropertyOp23
 70
     1
102
RTVSPropertyOp24
 70
     1
102
RTVSPropertyOp25
 70
     1
102
RTVSPropertyOp26
 70
     1
102
RTVSPropertyOp27
 70
     1
102
RTVSPropertyOp28
 70
     1
102
RTVSPropertyOp29
 70
     1
102
RTVSPropertyOp30
 70
     1
102
RTVSPropertyOp31
 70
     1
102
RTVSPropertyOp32
 70
     1
102
RTVSPropertyOp33
 70
     1
102
RTVSPropertyOp34
 70
     1
102
RTVSPropertyOp35
 70
     1
102
RTVSPropertyOp36
 70
     1
102
RTVSPropertyOp37
 70
     1
102
RTVSPropertyOp38
 70
     1
102
RTVSPropertyOp39
 70
     1
102
RTVSPropertyOp40
 70
     1
102
RTVSPropertyOp41
 70
     1
102
RTVSPropertyOp42
 70
     1
102
RTVSPropertyOp43
 70
     1
102
RTVSPropertyOp44
 70
     1
102
RTVSPropertyOp45
 70
     1
102
RTVSPropertyOp46
 70
     1
102
RTVSPropertyOp47
 70
     1
102
RTVSPropertyOp48
 70
     1
102
RTVSPropertyOp49
 70
     1
102
RTVSPropertyOp50
 70
     1
102
RTVSPropertyOp51
 70
     0
102
RTVSPropertyOp52
 70
     0
102
RTVSPropertyOp53
 70
     1
102
RTVSPropertyOp54
 70
     1
102
RTVSPropertyOp55
 70
     1
102
RTVSPropertyOp56
 70
     1
102
RTVSPropertyOp57
 70
     1
102
RTVSPost2010Prop28
280
     0
102
RTVSPost2010PropOp28
 70
     1
102
RTVSPost2010Prop29
280
     1
102
RTVSPost2010PropOp29
 70
     1
102
RTVSPost2010Prop30
280
     1
102
RTVSPost2010PropOp30
 70
     1
102
RTVSPost2010Prop31
280
     0
102
RTVSPost2010PropOp31
 70
     1
102
RTVSPost2010Prop32
280
     0
102
RTVSPost2010PropOp32
 70
     1
102
RTVSPost2010Prop33
280
     0
102
RTVSPost2010PropOp33
 70
     1
102
RTVSPost2010Prop34
280
     0
102
RTVSPost2010PropOp34
 70
     1
102
RTVSPost2010Prop35
280
     0
102
RTVSPost2010PropOp35
 70
     1
102
RTVSPost2010Prop36
280
     0
102
RTVSPost2010PropOp36
 70
     1
102
RTVSPost2010Prop37
 90
       50
102
RTVSPost2010PropOp37
 70
     1
102
RTVSPost2010Prop38
140
0.0
102
RTVSPost2010PropOp38
 70
     1
102
RTVSPost2010Prop39
140
1.0
102
RTVSPost2010PropOp39
 70
     1
102
RTVSPost2010Prop40
 90
        0
102
RTVSPost2010PropOp40
 70
     1
102
RTVSPost2010Prop41ColorIndex
 90
       18
102
RTVSPost2010Prop41ColorRGB
 90
        0
102
RTVSPost2010PropOp41
 70
     1
102
RTVSPost2010Prop42
 90
       50
102
RTVSPost2010PropOp42
 70
     1
102
RTVSPost2010Prop43
 90
        3
102
RTVSPost2010PropOp43
 70
     1
102
RTVSPost2010Prop44ColorIndex
 90
        5
102
RTVSPost2010Prop44ColorRGB
 90
      255
102
RTVSPost2010PropOp44
 70
     1
102
RTVSPost2010Prop45
280
     0
102
RTVSPost2010PropOp45
 70
     1
102
RTVSPost2010Prop46
 90
       50
102
RTVSPost2010PropOp46
 70
     1
102
RTVSPost2010Prop47
 90
       50
102
RTVSPost2010PropOp47
 70
     1
102
RTVSPost2010Prop48
 90
       50
102
RTVSPost2010PropOp48
 70
     1
102
RTVSPost2010Prop49
280
     0
102
RTVSPost2010PropOp49
 70
     1
102
RTVSPost2010Prop50
 90
       50
102
RTVSPost2010PropOp50
 70
     1
102
RTVSPost2010Prop51ColorIndex
 90
      256
102
RTVSPost2010Prop51ColorRGB
 90
-16777216
102
RTVSPost2010PropOp51
 70
     0
102
RTVSPost2010Prop52
140
1.0
102
RTVSPost2010PropOp52
 70
     0
102
RTVSPost2010Prop53
 90
        2
102
RTVSPost2010PropOp53
 70
     1
102
RTVSPost2010Prop54
  1
strokes_ogs.tif
102
RTVSPost2010PropOp54
 70
     1
102
RTVSPost2010Prop55
280
     0
102
RTVSPost2010PropOp55
 70
     1
102
RTVSPost2010Prop56
140
1.0
102
RTVSPost2010PropOp56
 70
     1
102
RTVSPost2010Prop57
140
1.0
102
RTVSPost2010PropOp57
 70
     1
  0
XRECORD
  5
9B6DC
102
{ACAD_REACTORS
330
9B6DB
102
}
330
9B6DB
100
AcDbXrecord
280
     1
102
RTVSPropertyOp0
 70
     1
102
RTVSPropertyOp1
 70
     1
102
RTVSPropertyOp2
 70
     1
102
RTVSPropertyOp3
 70
     1
102
RTVSPropertyOp4
 70
     1
102
RTVSPropertyOp5
 70
     1
102
RTVSPropertyOp6
 70
     1
102
RTVSPropertyOp7
 70
     1
102
RTVSPropertyOp8
 70
     1
102
RTVSPropertyOp9
 70
     1
102
RTVSPropertyOp10
 70
     1
102
RTVSPropertyOp11
 70
     1
102
RTVSPropertyOp12
 70
     1
102
RTVSPropertyOp13
 70
     1
102
RTVSPropertyOp14
 70
     1
102
RTVSPropertyOp15
 70
     1
102
RTVSPropertyOp16
 70
     1
102
RTVSPropertyOp17
 70
     1
102
RTVSPropertyOp18
 70
     1
102
RTVSPropertyOp19
 70
     1
102
RTVSPropertyOp20
 70
     1
102
RTVSPropertyOp21
 70
     1
102
RTVSPropertyOp22
 70
     1
102
RTVSPropertyOp23
 70
     1
102
RTVSPropertyOp24
 70
     1
102
RTVSPropertyOp25
 70
     1
102
RTVSPropertyOp26
 70
     1
102
RTVSPropertyOp27
 70
     1
102
RTVSPropertyOp28
 70
     1
102
RTVSPropertyOp29
 70
     1
102
RTVSPropertyOp30
 70
     1
102
RTVSPropertyOp31
 70
     1
102
RTVSPropertyOp32
 70
     1
102
RTVSPropertyOp33
 70
     1
102
RTVSPropertyOp34
 70
     1
102
RTVSPropertyOp35
 70
     1
102
RTVSPropertyOp36
 70
     1
102
RTVSPropertyOp37
 70
     1
102
RTVSPropertyOp38
 70
     1
102
RTVSPropertyOp39
 70
     1
102
RTVSPropertyOp40
 70
     1
102
RTVSPropertyOp41
 70
     1
102
RTVSPropertyOp42
 70
     1
102
RTVSPropertyOp43
 70
     1
102
RTVSPropertyOp44
 70
     1
102
RTVSPropertyOp45
 70
     1
102
RTVSPropertyOp46
 70
     1
102
RTVSPropertyOp47
 70
     1
102
RTVSPropertyOp48
 70
     1
102
RTVSPropertyOp49
 70
     1
102
RTVSPropertyOp50
 70
     1
102
RTVSPropertyOp51
 70
     0
102
RTVSPropertyOp52
 70
     0
102
RTVSPropertyOp53
 70
     1
102
RTVSPropertyOp54
 70
     1
102
RTVSPropertyOp55
 70
     1
102
RTVSPropertyOp56
 70
     1
102
RTVSPropertyOp57
 70
     1
102
RTVSPost2010Prop28
280
     0
102
RTVSPost2010PropOp28
 70
     1
102
RTVSPost2010Prop29
280
     1
102
RTVSPost2010PropOp29
 70
     1
102
RTVSPost2010Prop30
280
     1
102
RTVSPost2010PropOp30
 70
     1
102
RTVSPost2010Prop31
280
     0
102
RTVSPost2010PropOp31
 70
     1
102
RTVSPost2010Prop32
280
     0
102
RTVSPost2010PropOp32
 70
     1
102
RTVSPost2010Prop33
280
     0
102
RTVSPost2010PropOp33
 70
     1
102
RTVSPost2010Prop34
280
     0
102
RTVSPost2010PropOp34
 70
     1
102
RTVSPost2010Prop35
280
     0
102
RTVSPost2010PropOp35
 70
     1
102
RTVSPost2010Prop36
280
     0
102
RTVSPost2010PropOp36
 70
     1
102
RTVSPost2010Prop37
 90
       50
102
RTVSPost2010PropOp37
 70
     1
102
RTVSPost2010Prop38
140
0.0
102
RTVSPost2010PropOp38
 70
     1
102
RTVSPost2010Prop39
140
1.0
102
RTVSPost2010PropOp39
 70
     1
102
RTVSPost2010Prop40
 90
        0
102
RTVSPost2010PropOp40
 70
     1
102
RTVSPost2010Prop41ColorIndex
 90
       18
102
RTVSPost2010Prop41ColorRGB
 90
        0
102
RTVSPost2010PropOp41
 70
     1
102
RTVSPost2010Prop42
 90
       50
102
RTVSPost2010PropOp42
 70
     1
102
RTVSPost2010Prop43
 90
        3
102
RTVSPost2010PropOp43
 70
     1
102
RTVSPost2010Prop44ColorIndex
 90
        5
102
RTVSPost2010Prop44ColorRGB
 90
      255
102
RTVSPost2010PropOp44
 70
     1
102
RTVSPost2010Prop45
280
     0
102
RTVSPost2010PropOp45
 70
     1
102
RTVSPost2010Prop46
 90
       50
102
RTVSPost2010PropOp46
 70
     1
102
RTVSPost2010Prop47
 90
       50
102
RTVSPost2010PropOp47
 70
     1
102
RTVSPost2010Prop48
 90
       50
102
RTVSPost2010PropOp48
 70
     1
102
RTVSPost2010Prop49
280
     0
102
RTVSPost2010PropOp49
 70
     1
102
RTVSPost2010Prop50
 90
       50
102
RTVSPost2010PropOp50
 70
     1
102
RTVSPost2010Prop51ColorIndex
 90
      256
102
RTVSPost2010Prop51ColorRGB
 90
-16777216
102
RTVSPost2010PropOp51
 70
     0
102
RTVSPost2010Prop52
140
1.0
102
RTVSPost2010PropOp52
 70
     0
102
RTVSPost2010Prop53
 90
        2
102
RTVSPost2010PropOp53
 70
     1
102
RTVSPost2010Prop54
  1
strokes_ogs.tif
102
RTVSPost2010PropOp54
 70
     1
102
RTVSPost2010Prop55
280
     0
102
RTVSPost2010PropOp55
 70
     1
102
RTVSPost2010Prop56
140
1.0
102
RTVSPost2010PropOp56
 70
     1
102
RTVSPost2010Prop57
140
1.0
102
RTVSPost2010PropOp57
 70
     1
  0
XRECORD
  5
9B6DE
102
{ACAD_REACTORS
330
9B6DD
102
}
330
9B6DD
100
AcDbXrecord
280
     1
102
RTVSPropertyOp0
 70
     1
102
RTVSPropertyOp1
 70
     1
102
RTVSPropertyOp2
 70
     1
102
RTVSPropertyOp3
 70
     1
102
RTVSPropertyOp4
 70
     1
102
RTVSPropertyOp5
 70
     1
102
RTVSPropertyOp6
 70
     1
102
RTVSPropertyOp7
 70
     1
102
RTVSPropertyOp8
 70
     1
102
RTVSPropertyOp9
 70
     1
102
RTVSPropertyOp10
 70
     1
102
RTVSPropertyOp11
 70
     1
102
RTVSPropertyOp12
 70
     1
102
RTVSPropertyOp13
 70
     1
102
RTVSPropertyOp14
 70
     1
102
RTVSPropertyOp15
 70
     1
102
RTVSPropertyOp16
 70
     1
102
RTVSPropertyOp17
 70
     1
102
RTVSPropertyOp18
 70
     1
102
RTVSPropertyOp19
 70
     1
102
RTVSPropertyOp20
 70
     1
102
RTVSPropertyOp21
 70
     1
102
RTVSPropertyOp22
 70
     1
102
RTVSPropertyOp23
 70
     1
102
RTVSPropertyOp24
 70
     1
102
RTVSPropertyOp25
 70
     1
102
RTVSPropertyOp26
 70
     1
102
RTVSPropertyOp27
 70
     1
102
RTVSPropertyOp28
 70
     1
102
RTVSPropertyOp29
 70
     1
102
RTVSPropertyOp30
 70
     1
102
RTVSPropertyOp31
 70
     1
102
RTVSPropertyOp32
 70
     1
102
RTVSPropertyOp33
 70
     1
102
RTVSPropertyOp34
 70
     1
102
RTVSPropertyOp35
 70
     1
102
RTVSPropertyOp36
 70
     1
102
RTVSPropertyOp37
 70
     1
102
RTVSPropertyOp38
 70
     1
102
RTVSPropertyOp39
 70
     1
102
RTVSPropertyOp40
 70
     1
102
RTVSPropertyOp41
 70
     1
102
RTVSPropertyOp42
 70
     1
102
RTVSPropertyOp43
 70
     1
102
RTVSPropertyOp44
 70
     1
102
RTVSPropertyOp45
 70
     1
102
RTVSPropertyOp46
 70
     1
102
RTVSPropertyOp47
 70
     1
102
RTVSPropertyOp48
 70
     1
102
RTVSPropertyOp49
 70
     1
102
RTVSPropertyOp50
 70
     1
102
RTVSPropertyOp51
 70
     0
102
RTVSPropertyOp52
 70
     0
102
RTVSPropertyOp53
 70
     1
102
RTVSPropertyOp54
 70
     1
102
RTVSPropertyOp55
 70
     1
102
RTVSPropertyOp56
 70
     1
102
RTVSPropertyOp57
 70
     1
102
RTVSPost2010Prop28
280
     0
102
RTVSPost2010PropOp28
 70
     1
102
RTVSPost2010Prop29
280
     1
102
RTVSPost2010PropOp29
 70
     1
102
RTVSPost2010Prop30
280
     1
102
RTVSPost2010PropOp30
 70
     1
102
RTVSPost2010Prop31
280
     0
102
RTVSPost2010PropOp31
 70
     1
102
RTVSPost2010Prop32
280
     0
102
RTVSPost2010PropOp32
 70
     1
102
RTVSPost2010Prop33
280
     0
102
RTVSPost2010PropOp33
 70
     1
102
RTVSPost2010Prop34
280
     0
102
RTVSPost2010PropOp34
 70
     1
102
RTVSPost2010Prop35
280
     0
102
RTVSPost2010PropOp35
 70
     1
102
RTVSPost2010Prop36
280
     0
102
RTVSPost2010PropOp36
 70
     1
102
RTVSPost2010Prop37
 90
       50
102
RTVSPost2010PropOp37
 70
     1
102
RTVSPost2010Prop38
140
0.0
102
RTVSPost2010PropOp38
 70
     1
102
RTVSPost2010Prop39
140
1.0
102
RTVSPost2010PropOp39
 70
     1
102
RTVSPost2010Prop40
 90
        0
102
RTVSPost2010PropOp40
 70
     1
102
RTVSPost2010Prop41ColorIndex
 90
       18
102
RTVSPost2010Prop41ColorRGB
 90
        0
102
RTVSPost2010PropOp41
 70
     1
102
RTVSPost2010Prop42
 90
       50
102
RTVSPost2010PropOp42
 70
     1
102
RTVSPost2010Prop43
 90
        3
102
RTVSPost2010PropOp43
 70
     1
102
RTVSPost2010Prop44ColorIndex
 90
        5
102
RTVSPost2010Prop44ColorRGB
 90
      255
102
RTVSPost2010PropOp44
 70
     1
102
RTVSPost2010Prop45
280
     0
102
RTVSPost2010PropOp45
 70
     1
102
RTVSPost2010Prop46
 90
       50
102
RTVSPost2010PropOp46
 70
     1
102
RTVSPost2010Prop47
 90
       50
102
RTVSPost2010PropOp47
 70
     1
102
RTVSPost2010Prop48
 90
       50
102
RTVSPost2010PropOp48
 70
     1
102
RTVSPost2010Prop49
280
     0
102
RTVSPost2010PropOp49
 70
     1
102
RTVSPost2010Prop50
 90
       50
102
RTVSPost2010PropOp50
 70
     1
102
RTVSPost2010Prop51ColorIndex
 90
      256
102
RTVSPost2010Prop51ColorRGB
 90
-16777216
102
RTVSPost2010PropOp51
 70
     0
102
RTVSPost2010Prop52
140
1.0
102
RTVSPost2010PropOp52
 70
     0
102
RTVSPost2010Prop53
 90
        2
102
RTVSPost2010PropOp53
 70
     1
102
RTVSPost2010Prop54
  1
strokes_ogs.tif
102
RTVSPost2010PropOp54
 70
     1
102
RTVSPost2010Prop55
280
     0
102
RTVSPost2010PropOp55
 70
     1
102
RTVSPost2010Prop56
140
1.0
102
RTVSPost2010PropOp56
 70
     1
102
RTVSPost2010Prop57
140
1.0
102
RTVSPost2010PropOp57
 70
     1
  0
XRECORD
  5
9B6E0
102
{ACAD_REACTORS
330
9B6DF
102
}
330
9B6DF
100
AcDbXrecord
280
     1
102
RTVSPropertyOp0
 70
     1
102
RTVSPropertyOp1
 70
     1
102
RTVSPropertyOp2
 70
     1
102
RTVSPropertyOp3
 70
     1
102
RTVSPropertyOp4
 70
     1
102
RTVSPropertyOp5
 70
     1
102
RTVSPropertyOp6
 70
     1
102
RTVSPropertyOp7
 70
     1
102
RTVSPropertyOp8
 70
     1
102
RTVSPropertyOp9
 70
     1
102
RTVSPropertyOp10
 70
     1
102
RTVSPropertyOp11
 70
     1
102
RTVSPropertyOp12
 70
     1
102
RTVSPropertyOp13
 70
     1
102
RTVSPropertyOp14
 70
     1
102
RTVSPropertyOp15
 70
     1
102
RTVSPropertyOp16
 70
     1
102
RTVSPropertyOp17
 70
     1
102
RTVSPropertyOp18
 70
     1
102
RTVSPropertyOp19
 70
     1
102
RTVSPropertyOp20
 70
     1
102
RTVSPropertyOp21
 70
     1
102
RTVSPropertyOp22
 70
     1
102
RTVSPropertyOp23
 70
     1
102
RTVSPropertyOp24
 70
     1
102
RTVSPropertyOp25
 70
     1
102
RTVSPropertyOp26
 70
     1
102
RTVSPropertyOp27
 70
     1
102
RTVSPropertyOp28
 70
     1
102
RTVSPropertyOp29
 70
     1
102
RTVSPropertyOp30
 70
     1
102
RTVSPropertyOp31
 70
     1
102
RTVSPropertyOp32
 70
     1
102
RTVSPropertyOp33
 70
     1
102
RTVSPropertyOp34
 70
     1
102
RTVSPropertyOp35
 70
     1
102
RTVSPropertyOp36
 70
     1
102
RTVSPropertyOp37
 70
     1
102
RTVSPropertyOp38
 70
     1
102
RTVSPropertyOp39
 70
     1
102
RTVSPropertyOp40
 70
     1
102
RTVSPropertyOp41
 70
     1
102
RTVSPropertyOp42
 70
     1
102
RTVSPropertyOp43
 70
     1
102
RTVSPropertyOp44
 70
     1
102
RTVSPropertyOp45
 70
     1
102
RTVSPropertyOp46
 70
     1
102
RTVSPropertyOp47
 70
     1
102
RTVSPropertyOp48
 70
     1
102
RTVSPropertyOp49
 70
     1
102
RTVSPropertyOp50
 70
     1
102
RTVSPropertyOp51
 70
     0
102
RTVSPropertyOp52
 70
     0
102
RTVSPropertyOp53
 70
     1
102
RTVSPropertyOp54
 70
     1
102
RTVSPropertyOp55
 70
     1
102
RTVSPropertyOp56
 70
     1
102
RTVSPropertyOp57
 70
     1
102
RTVSPost2010Prop28
280
     0
102
RTVSPost2010PropOp28
 70
     1
102
RTVSPost2010Prop29
280
     1
102
RTVSPost2010PropOp29
 70
     1
102
RTVSPost2010Prop30
280
     1
102
RTVSPost2010PropOp30
 70
     1
102
RTVSPost2010Prop31
280
     0
102
RTVSPost2010PropOp31
 70
     1
102
RTVSPost2010Prop32
280
     0
102
RTVSPost2010PropOp32
 70
     1
102
RTVSPost2010Prop33
280
     0
102
RTVSPost2010PropOp33
 70
     1
102
RTVSPost2010Prop34
280
     0
102
RTVSPost2010PropOp34
 70
     1
102
RTVSPost2010Prop35
280
     0
102
RTVSPost2010PropOp35
 70
     1
102
RTVSPost2010Prop36
280
     0
102
RTVSPost2010PropOp36
 70
     1
102
RTVSPost2010Prop37
 90
       50
102
RTVSPost2010PropOp37
 70
     1
102
RTVSPost2010Prop38
140
0.0
102
RTVSPost2010PropOp38
 70
     1
102
RTVSPost2010Prop39
140
1.0
102
RTVSPost2010PropOp39
 70
     1
102
RTVSPost2010Prop40
 90
        0
102
RTVSPost2010PropOp40
 70
     1
102
RTVSPost2010Prop41ColorIndex
 90
       18
102
RTVSPost2010Prop41ColorRGB
 90
        0
102
RTVSPost2010PropOp41
 70
     1
102
RTVSPost2010Prop42
 90
       50
102
RTVSPost2010PropOp42
 70
     1
102
RTVSPost2010Prop43
 90
        3
102
RTVSPost2010PropOp43
 70
     1
102
RTVSPost2010Prop44ColorIndex
 90
        5
102
RTVSPost2010Prop44ColorRGB
 90
      255
102
RTVSPost2010PropOp44
 70
     1
102
RTVSPost2010Prop45
280
     0
102
RTVSPost2010PropOp45
 70
     1
102
RTVSPost2010Prop46
 90
       50
102
RTVSPost2010PropOp46
 70
     1
102
RTVSPost2010Prop47
 90
       50
102
RTVSPost2010PropOp47
 70
     1
102
RTVSPost2010Prop48
 90
       50
102
RTVSPost2010PropOp48
 70
     1
102
RTVSPost2010Prop49
280
     0
102
RTVSPost2010PropOp49
 70
     1
102
RTVSPost2010Prop50
 90
       50
102
RTVSPost2010PropOp50
 70
     1
102
RTVSPost2010Prop51ColorIndex
 90
      256
102
RTVSPost2010Prop51ColorRGB
 90
-16777216
102
RTVSPost2010PropOp51
 70
     0
102
RTVSPost2010Prop52
140
1.0
102
RTVSPost2010PropOp52
 70
     0
102
RTVSPost2010Prop53
 90
        2
102
RTVSPost2010PropOp53
 70
     1
102
RTVSPost2010Prop54
  1
strokes_ogs.tif
102
RTVSPost2010PropOp54
 70
     1
102
RTVSPost2010Prop55
280
     0
102
RTVSPost2010PropOp55
 70
     1
102
RTVSPost2010Prop56
140
1.0
102
RTVSPost2010PropOp56
 70
     1
102
RTVSPost2010Prop57
140
1.0
102
RTVSPost2010PropOp57
 70
     1
  0
XRECORD
  5
9B6E2
102
{ACAD_REACTORS
330
9B6E1
102
}
330
9B6E1
100
AcDbXrecord
280
     1
102
RTVSPropertyOp0
 70
     1
102
RTVSPropertyOp1
 70
     1
102
RTVSPropertyOp2
 70
     1
102
RTVSPropertyOp3
 70
     1
102
RTVSPropertyOp4
 70
     1
102
RTVSPropertyOp5
 70
     1
102
RTVSPropertyOp6
 70
     1
102
RTVSPropertyOp7
 70
     1
102
RTVSPropertyOp8
 70
     1
102
RTVSPropertyOp9
 70
     1
102
RTVSPropertyOp10
 70
     1
102
RTVSPropertyOp11
 70
     1
102
RTVSPropertyOp12
 70
     1
102
RTVSPropertyOp13
 70
     1
102
RTVSPropertyOp14
 70
     1
102
RTVSPropertyOp15
 70
     1
102
RTVSPropertyOp16
 70
     1
102
RTVSPropertyOp17
 70
     1
102
RTVSPropertyOp18
 70
     1
102
RTVSPropertyOp19
 70
     1
102
RTVSPropertyOp20
 70
     1
102
RTVSPropertyOp21
 70
     1
102
RTVSPropertyOp22
 70
     1
102
RTVSPropertyOp23
 70
     1
102
RTVSPropertyOp24
 70
     1
102
RTVSPropertyOp25
 70
     1
102
RTVSPropertyOp26
 70
     1
102
RTVSPropertyOp27
 70
     1
102
RTVSPropertyOp28
 70
     1
102
RTVSPropertyOp29
 70
     1
102
RTVSPropertyOp30
 70
     1
102
RTVSPropertyOp31
 70
     1
102
RTVSPropertyOp32
 70
     1
102
RTVSPropertyOp33
 70
     1
102
RTVSPropertyOp34
 70
     1
102
RTVSPropertyOp35
 70
     1
102
RTVSPropertyOp36
 70
     1
102
RTVSPropertyOp37
 70
     1
102
RTVSPropertyOp38
 70
     1
102
RTVSPropertyOp39
 70
     1
102
RTVSPropertyOp40
 70
     1
102
RTVSPropertyOp41
 70
     1
102
RTVSPropertyOp42
 70
     1
102
RTVSPropertyOp43
 70
     1
102
RTVSPropertyOp44
 70
     1
102
RTVSPropertyOp45
 70
     1
102
RTVSPropertyOp46
 70
     1
102
RTVSPropertyOp47
 70
     1
102
RTVSPropertyOp48
 70
     1
102
RTVSPropertyOp49
 70
     1
102
RTVSPropertyOp50
 70
     1
102
RTVSPropertyOp51
 70
     0
102
RTVSPropertyOp52
 70
     0
102
RTVSPropertyOp53
 70
     1
102
RTVSPropertyOp54
 70
     1
102
RTVSPropertyOp55
 70
     1
102
RTVSPropertyOp56
 70
     1
102
RTVSPropertyOp57
 70
     1
102
RTVSPost2010Prop28
280
     0
102
RTVSPost2010PropOp28
 70
     1
102
RTVSPost2010Prop29
280
     1
102
RTVSPost2010PropOp29
 70
     1
102
RTVSPost2010Prop30
280
     1
102
RTVSPost2010PropOp30
 70
     1
102
RTVSPost2010Prop31
280
     0
102
RTVSPost2010PropOp31
 70
     1
102
RTVSPost2010Prop32
280
     0
102
RTVSPost2010PropOp32
 70
     1
102
RTVSPost2010Prop33
280
     0
102
RTVSPost2010PropOp33
 70
     1
102
RTVSPost2010Prop34
280
     0
102
RTVSPost2010PropOp34
 70
     1
102
RTVSPost2010Prop35
280
     0
102
RTVSPost2010PropOp35
 70
     1
102
RTVSPost2010Prop36
280
     0
102
RTVSPost2010PropOp36
 70
     1
102
RTVSPost2010Prop37
 90
       50
102
RTVSPost2010PropOp37
 70
     1
102
RTVSPost2010Prop38
140
0.0
102
RTVSPost2010PropOp38
 70
     1
102
RTVSPost2010Prop39
140
1.0
102
RTVSPost2010PropOp39
 70
     1
102
RTVSPost2010Prop40
 90
        0
102
RTVSPost2010PropOp40
 70
     1
102
RTVSPost2010Prop41ColorIndex
 90
       18
102
RTVSPost2010Prop41ColorRGB
 90
        0
102
RTVSPost2010PropOp41
 70
     1
102
RTVSPost2010Prop42
 90
       50
102
RTVSPost2010PropOp42
 70
     1
102
RTVSPost2010Prop43
 90
        3
102
RTVSPost2010PropOp43
 70
     1
102
RTVSPost2010Prop44ColorIndex
 90
        5
102
RTVSPost2010Prop44ColorRGB
 90
      255
102
RTVSPost2010PropOp44
 70
     1
102
RTVSPost2010Prop45
280
     0
102
RTVSPost2010PropOp45
 70
     1
102
RTVSPost2010Prop46
 90
       50
102
RTVSPost2010PropOp46
 70
     1
102
RTVSPost2010Prop47
 90
       50
102
RTVSPost2010PropOp47
 70
     1
102
RTVSPost2010Prop48
 90
       50
102
RTVSPost2010PropOp48
 70
     1
102
RTVSPost2010Prop49
280
     0
102
RTVSPost2010PropOp49
 70
     1
102
RTVSPost2010Prop50
 90
       50
102
RTVSPost2010PropOp50
 70
     1
102
RTVSPost2010Prop51ColorIndex
 90
      256
102
RTVSPost2010Prop51ColorRGB
 90
-16777216
102
RTVSPost2010PropOp51
 70
     0
102
RTVSPost2010Prop52
140
1.0
102
RTVSPost2010PropOp52
 70
     0
102
RTVSPost2010Prop53
 90
        2
102
RTVSPost2010PropOp53
 70
     1
102
RTVSPost2010Prop54
  1
strokes_ogs.tif
102
RTVSPost2010PropOp54
 70
     1
102
RTVSPost2010Prop55
280
     0
102
RTVSPost2010PropOp55
 70
     1
102
RTVSPost2010Prop56
140
1.0
102
RTVSPost2010PropOp56
 70
     1
102
RTVSPost2010Prop57
140
1.0
102
RTVSPost2010PropOp57
 70
     1
  0
XRECORD
  5
9B6E4
102
{ACAD_REACTORS
330
9B6E3
102
}
330
9B6E3
100
AcDbXrecord
280
     1
102
RTVSPropertyOp0
 70
     0
102
RTVSPropertyOp1
 70
     0
102
RTVSPropertyOp2
 70
     0
102
RTVSPropertyOp3
 70
     0
102
RTVSPropertyOp4
 70
     0
102
RTVSPropertyOp5
 70
     0
102
RTVSPropertyOp6
 70
     0
102
RTVSPropertyOp7
 70
     0
102
RTVSPropertyOp8
 70
     0
102
RTVSPropertyOp9
 70
     0
102
RTVSPropertyOp10
 70
     0
102
RTVSPropertyOp11
 70
     0
102
RTVSPropertyOp12
 70
     0
102
RTVSPropertyOp13
 70
     0
102
RTVSPropertyOp14
 70
     2
102
RTVSPropertyOp15
 70
     0
102
RTVSPropertyOp16
 70
     0
102
RTVSPropertyOp17
 70
     0
102
RTVSPropertyOp18
 70
     0
102
RTVSPropertyOp19
 70
     0
102
RTVSPropertyOp20
 70
     0
102
RTVSPropertyOp21
 70
     0
102
RTVSPropertyOp22
 70
     0
102
RTVSPropertyOp23
 70
     0
102
RTVSPropertyOp24
 70
     0
102
RTVSPropertyOp25
 70
     0
102
RTVSPropertyOp26
 70
     0
102
RTVSPropertyOp27
 70
     0
102
RTVSPropertyOp28
 70
     0
102
RTVSPropertyOp29
 70
     0
102
RTVSPropertyOp30
 70
     0
102
RTVSPropertyOp31
 70
     0
102
RTVSPropertyOp32
 70
     0
102
RTVSPropertyOp33
 70
     1
102
RTVSPropertyOp34
 70
     1
102
RTVSPropertyOp35
 70
     1
102
RTVSPropertyOp36
 70
     1
102
RTVSPropertyOp37
 70
     1
102
RTVSPropertyOp38
 70
     1
102
RTVSPropertyOp39
 70
     1
102
RTVSPropertyOp40
 70
     1
102
RTVSPropertyOp41
 70
     1
102
RTVSPropertyOp42
 70
     1
102
RTVSPropertyOp43
 70
     1
102
RTVSPropertyOp44
 70
     1
102
RTVSPropertyOp45
 70
     1
102
RTVSPropertyOp46
 70
     1
102
RTVSPropertyOp47
 70
     1
102
RTVSPropertyOp48
 70
     1
102
RTVSPropertyOp49
 70
     1
102
RTVSPropertyOp50
 70
     1
102
RTVSPropertyOp51
 70
     0
102
RTVSPropertyOp52
 70
     0
102
RTVSPropertyOp53
 70
     1
102
RTVSPropertyOp54
 70
     1
102
RTVSPropertyOp55
 70
     1
102
RTVSPropertyOp56
 70
     1
102
RTVSPropertyOp57
 70
     1
102
RTVSPost2010Prop28
280
     0
102
RTVSPost2010PropOp28
 70
     0
102
RTVSPost2010Prop29
280
     1
102
RTVSPost2010PropOp29
 70
     0
102
RTVSPost2010Prop30
280
     1
102
RTVSPost2010PropOp30
 70
     0
102
RTVSPost2010Prop31
280
     0
102
RTVSPost2010PropOp31
 70
     0
102
RTVSPost2010Prop32
280
     0
102
RTVSPost2010PropOp32
 70
     0
102
RTVSPost2010Prop33
280
     0
102
RTVSPost2010PropOp33
 70
     1
102
RTVSPost2010Prop34
280
     0
102
RTVSPost2010PropOp34
 70
     1
102
RTVSPost2010Prop35
280
     0
102
RTVSPost2010PropOp35
 70
     1
102
RTVSPost2010Prop36
280
     0
102
RTVSPost2010PropOp36
 70
     1
102
RTVSPost2010Prop37
 90
       50
102
RTVSPost2010PropOp37
 70
     1
102
RTVSPost2010Prop38
140
0.0
102
RTVSPost2010PropOp38
 70
     1
102
RTVSPost2010Prop39
140
1.0
102
RTVSPost2010PropOp39
 70
     1
102
RTVSPost2010Prop40
 90
        0
102
RTVSPost2010PropOp40
 70
     1
102
RTVSPost2010Prop41ColorIndex
 90
       18
102
RTVSPost2010Prop41ColorRGB
 90
        0
102
RTVSPost2010PropOp41
 70
     1
102
RTVSPost2010Prop42
 90
       50
102
RTVSPost2010PropOp42
 70
     1
102
RTVSPost2010Prop43
 90
        3
102
RTVSPost2010PropOp43
 70
     1
102
RTVSPost2010Prop44ColorIndex
 90
        5
102
RTVSPost2010Prop44ColorRGB
 90
      255
102
RTVSPost2010PropOp44
 70
     1
102
RTVSPost2010Prop45
280
     0
102
RTVSPost2010PropOp45
 70
     1
102
RTVSPost2010Prop46
 90
       50
102
RTVSPost2010PropOp46
 70
     1
102
RTVSPost2010Prop47
 90
       50
102
RTVSPost2010PropOp47
 70
     1
102
RTVSPost2010Prop48
 90
       50
102
RTVSPost2010PropOp48
 70
     1
102
RTVSPost2010Prop49
280
     0
102
RTVSPost2010PropOp49
 70
     1
102
RTVSPost2010Prop50
 90
       50
102
RTVSPost2010PropOp50
 70
     1
102
RTVSPost2010Prop51ColorIndex
 90
      256
102
RTVSPost2010Prop51ColorRGB
 90
-16777216
102
RTVSPost2010PropOp51
 70
     0
102
RTVSPost2010Prop52
140
1.0
102
RTVSPost2010PropOp52
 70
     0
102
RTVSPost2010Prop53
 90
        2
102
RTVSPost2010PropOp53
 70
     1
102
RTVSPost2010Prop54
  1
strokes_ogs.tif
102
RTVSPost2010PropOp54
 70
     1
102
RTVSPost2010Prop55
280
     0
102
RTVSPost2010PropOp55
 70
     1
102
RTVSPost2010Prop56
140
1.0
102
RTVSPost2010PropOp56
 70
     1
102
RTVSPost2010Prop57
140
1.0
102
RTVSPost2010PropOp57
 70
     1
  0
XRECORD
  5
9B6E6
102
{ACAD_REACTORS
330
9B6E5
102
}
330
9B6E5
100
AcDbXrecord
280
     1
102
RTVSPropertyOp0
 70
     1
102
RTVSPropertyOp1
 70
     1
102
RTVSPropertyOp2
 70
     1
102
RTVSPropertyOp3
 70
     1
102
RTVSPropertyOp4
 70
     1
102
RTVSPropertyOp5
 70
     1
102
RTVSPropertyOp6
 70
     1
102
RTVSPropertyOp7
 70
     1
102
RTVSPropertyOp8
 70
     1
102
RTVSPropertyOp9
 70
     1
102
RTVSPropertyOp10
 70
     1
102
RTVSPropertyOp11
 70
     1
102
RTVSPropertyOp12
 70
     1
102
RTVSPropertyOp13
 70
     1
102
RTVSPropertyOp14
 70
     1
102
RTVSPropertyOp15
 70
     1
102
RTVSPropertyOp16
 70
     1
102
RTVSPropertyOp17
 70
     1
102
RTVSPropertyOp18
 70
     1
102
RTVSPropertyOp19
 70
     1
102
RTVSPropertyOp20
 70
     1
102
RTVSPropertyOp21
 70
     1
102
RTVSPropertyOp22
 70
     1
102
RTVSPropertyOp23
 70
     1
102
RTVSPropertyOp24
 70
     1
102
RTVSPropertyOp25
 70
     1
102
RTVSPropertyOp26
 70
     1
102
RTVSPropertyOp27
 70
     1
102
RTVSPropertyOp28
 70
     1
102
RTVSPropertyOp29
 70
     1
102
RTVSPropertyOp30
 70
     1
102
RTVSPropertyOp31
 70
     1
102
RTVSPropertyOp32
 70
     1
102
RTVSPropertyOp33
 70
     1
102
RTVSPropertyOp34
 70
     1
102
RTVSPropertyOp35
 70
     1
102
RTVSPropertyOp36
 70
     1
102
RTVSPropertyOp37
 70
     1
102
RTVSPropertyOp38
 70
     1
102
RTVSPropertyOp39
 70
     1
102
RTVSPropertyOp40
 70
     1
102
RTVSPropertyOp41
 70
     1
102
RTVSPropertyOp42
 70
     1
102
RTVSPropertyOp43
 70
     1
102
RTVSPropertyOp44
 70
     1
102
RTVSPropertyOp45
 70
     1
102
RTVSPropertyOp46
 70
     1
102
RTVSPropertyOp47
 70
     1
102
RTVSPropertyOp48
 70
     1
102
RTVSPropertyOp49
 70
     1
102
RTVSPropertyOp50
 70
     1
102
RTVSPropertyOp51
 70
     0
102
RTVSPropertyOp52
 70
     0
102
RTVSPropertyOp53
 70
     1
102
RTVSPropertyOp54
 70
     1
102
RTVSPropertyOp55
 70
     1
102
RTVSPropertyOp56
 70
     1
102
RTVSPropertyOp57
 70
     1
102
RTVSPost2010Prop28
280
     0
102
RTVSPost2010PropOp28
 70
     1
102
RTVSPost2010Prop29
280
     1
102
RTVSPost2010PropOp29
 70
     1
102
RTVSPost2010Prop30
280
     1
102
RTVSPost2010PropOp30
 70
     1
102
RTVSPost2010Prop31
280
     0
102
RTVSPost2010PropOp31
 70
     1
102
RTVSPost2010Prop32
280
     0
102
RTVSPost2010PropOp32
 70
     1
102
RTVSPost2010Prop33
280
     0
102
RTVSPost2010PropOp33
 70
     1
102
RTVSPost2010Prop34
280
     0
102
RTVSPost2010PropOp34
 70
     1
102
RTVSPost2010Prop35
280
     0
102
RTVSPost2010PropOp35
 70
     1
102
RTVSPost2010Prop36
280
     0
102
RTVSPost2010PropOp36
 70
     1
102
RTVSPost2010Prop37
 90
       50
102
RTVSPost2010PropOp37
 70
     1
102
RTVSPost2010Prop38
140
0.0
102
RTVSPost2010PropOp38
 70
     1
102
RTVSPost2010Prop39
140
1.0
102
RTVSPost2010PropOp39
 70
     1
102
RTVSPost2010Prop40
 90
        0
102
RTVSPost2010PropOp40
 70
     1
102
RTVSPost2010Prop41ColorIndex
 90
       18
102
RTVSPost2010Prop41ColorRGB
 90
        0
102
RTVSPost2010PropOp41
 70
     1
102
RTVSPost2010Prop42
 90
       50
102
RTVSPost2010PropOp42
 70
     1
102
RTVSPost2010Prop43
 90
        3
102
RTVSPost2010PropOp43
 70
     1
102
RTVSPost2010Prop44ColorIndex
 90
        5
102
RTVSPost2010Prop44ColorRGB
 90
      255
102
RTVSPost2010PropOp44
 70
     1
102
RTVSPost2010Prop45
280
     0
102
RTVSPost2010PropOp45
 70
     1
102
RTVSPost2010Prop46
 90
       50
102
RTVSPost2010PropOp46
 70
     1
102
RTVSPost2010Prop47
 90
       50
102
RTVSPost2010PropOp47
 70
     1
102
RTVSPost2010Prop48
 90
       50
102
RTVSPost2010PropOp48
 70
     1
102
RTVSPost2010Prop49
280
     0
102
RTVSPost2010PropOp49
 70
     1
102
RTVSPost2010Prop50
 90
       50
102
RTVSPost2010PropOp50
 70
     1
102
RTVSPost2010Prop51ColorIndex
 90
      256
102
RTVSPost2010Prop51ColorRGB
 90
-16777216
102
RTVSPost2010PropOp51
 70
     0
102
RTVSPost2010Prop52
140
1.0
102
RTVSPost2010PropOp52
 70
     0
102
RTVSPost2010Prop53
 90
        2
102
RTVSPost2010PropOp53
 70
     1
102
RTVSPost2010Prop54
  1
strokes_ogs.tif
102
RTVSPost2010PropOp54
 70
     1
102
RTVSPost2010Prop55
280
     0
102
RTVSPost2010PropOp55
 70
     1
102
RTVSPost2010Prop56
140
1.0
102
RTVSPost2010PropOp56
 70
     1
102
RTVSPost2010Prop57
140
1.0
102
RTVSPost2010PropOp57
 70
     1
  0
XRECORD
  5
9B6E8
102
{ACAD_REACTORS
330
9B6E7
102
}
330
9B6E7
100
AcDbXrecord
280
     1
102
RTVSPropertyOp0
 70
     1
102
RTVSPropertyOp1
 70
     1
102
RTVSPropertyOp2
 70
     1
102
RTVSPropertyOp3
 70
     1
102
RTVSPropertyOp4
 70
     1
102
RTVSPropertyOp5
 70
     1
102
RTVSPropertyOp6
 70
     1
102
RTVSPropertyOp7
 70
     1
102
RTVSPropertyOp8
 70
     1
102
RTVSPropertyOp9
 70
     1
102
RTVSPropertyOp10
 70
     1
102
RTVSPropertyOp11
 70
     1
102
RTVSPropertyOp12
 70
     1
102
RTVSPropertyOp13
 70
     1
102
RTVSPropertyOp14
 70
     1
102
RTVSPropertyOp15
 70
     1
102
RTVSPropertyOp16
 70
     1
102
RTVSPropertyOp17
 70
     1
102
RTVSPropertyOp18
 70
     1
102
RTVSPropertyOp19
 70
     1
102
RTVSPropertyOp20
 70
     1
102
RTVSPropertyOp21
 70
     1
102
RTVSPropertyOp22
 70
     1
102
RTVSPropertyOp23
 70
     1
102
RTVSPropertyOp24
 70
     1
102
RTVSPropertyOp25
 70
     1
102
RTVSPropertyOp26
 70
     1
102
RTVSPropertyOp27
 70
     1
102
RTVSPropertyOp28
 70
     1
102
RTVSPropertyOp29
 70
     1
102
RTVSPropertyOp30
 70
     1
102
RTVSPropertyOp31
 70
     1
102
RTVSPropertyOp32
 70
     1
102
RTVSPropertyOp33
 70
     1
102
RTVSPropertyOp34
 70
     1
102
RTVSPropertyOp35
 70
     1
102
RTVSPropertyOp36
 70
     1
102
RTVSPropertyOp37
 70
     1
102
RTVSPropertyOp38
 70
     1
102
RTVSPropertyOp39
 70
     1
102
RTVSPropertyOp40
 70
     1
102
RTVSPropertyOp41
 70
     1
102
RTVSPropertyOp42
 70
     1
102
RTVSPropertyOp43
 70
     1
102
RTVSPropertyOp44
 70
     1
102
RTVSPropertyOp45
 70
     1
102
RTVSPropertyOp46
 70
     1
102
RTVSPropertyOp47
 70
     1
102
RTVSPropertyOp48
 70
     1
102
RTVSPropertyOp49
 70
     1
102
RTVSPropertyOp50
 70
     1
102
RTVSPropertyOp51
 70
     0
102
RTVSPropertyOp52
 70
     0
102
RTVSPropertyOp53
 70
     1
102
RTVSPropertyOp54
 70
     1
102
RTVSPropertyOp55
 70
     1
102
RTVSPropertyOp56
 70
     1
102
RTVSPropertyOp57
 70
     1
102
RTVSPost2010Prop28
280
     0
102
RTVSPost2010PropOp28
 70
     1
102
RTVSPost2010Prop29
280
     1
102
RTVSPost2010PropOp29
 70
     1
102
RTVSPost2010Prop30
280
     1
102
RTVSPost2010PropOp30
 70
     1
102
RTVSPost2010Prop31
280
     0
102
RTVSPost2010PropOp31
 70
     1
102
RTVSPost2010Prop32
280
     0
102
RTVSPost2010PropOp32
 70
     1
102
RTVSPost2010Prop33
280
     0
102
RTVSPost2010PropOp33
 70
     1
102
RTVSPost2010Prop34
280
     0
102
RTVSPost2010PropOp34
 70
     1
102
RTVSPost2010Prop35
280
     0
102
RTVSPost2010PropOp35
 70
     1
102
RTVSPost2010Prop36
280
     0
102
RTVSPost2010PropOp36
 70
     1
102
RTVSPost2010Prop37
 90
       50
102
RTVSPost2010PropOp37
 70
     1
102
RTVSPost2010Prop38
140
0.0
102
RTVSPost2010PropOp38
 70
     1
102
RTVSPost2010Prop39
140
1.0
102
RTVSPost2010PropOp39
 70
     1
102
RTVSPost2010Prop40
 90
        0
102
RTVSPost2010PropOp40
 70
     1
102
RTVSPost2010Prop41ColorIndex
 90
       18
102
RTVSPost2010Prop41ColorRGB
 90
        0
102
RTVSPost2010PropOp41
 70
     1
102
RTVSPost2010Prop42
 90
       50
102
RTVSPost2010PropOp42
 70
     1
102
RTVSPost2010Prop43
 90
        3
102
RTVSPost2010PropOp43
 70
     1
102
RTVSPost2010Prop44ColorIndex
 90
        5
102
RTVSPost2010Prop44ColorRGB
 90
      255
102
RTVSPost2010PropOp44
 70
     1
102
RTVSPost2010Prop45
280
     0
102
RTVSPost2010PropOp45
 70
     1
102
RTVSPost2010Prop46
 90
       50
102
RTVSPost2010PropOp46
 70
     1
102
RTVSPost2010Prop47
 90
       50
102
RTVSPost2010PropOp47
 70
     1
102
RTVSPost2010Prop48
 90
       50
102
RTVSPost2010PropOp48
 70
     1
102
RTVSPost2010Prop49
280
     0
102
RTVSPost2010PropOp49
 70
     1
102
RTVSPost2010Prop50
 90
       50
102
RTVSPost2010PropOp50
 70
     1
102
RTVSPost2010Prop51ColorIndex
 90
      256
102
RTVSPost2010Prop51ColorRGB
 90
-16777216
102
RTVSPost2010PropOp51
 70
     0
102
RTVSPost2010Prop52
140
1.0
102
RTVSPost2010PropOp52
 70
     0
102
RTVSPost2010Prop53
 90
        2
102
RTVSPost2010PropOp53
 70
     1
102
RTVSPost2010Prop54
  1
strokes_ogs.tif
102
RTVSPost2010PropOp54
 70
     1
102
RTVSPost2010Prop55
280
     0
102
RTVSPost2010PropOp55
 70
     1
102
RTVSPost2010Prop56
140
1.0
102
RTVSPost2010PropOp56
 70
     1
102
RTVSPost2010Prop57
140
1.0
102
RTVSPost2010PropOp57
 70
     1
  0
XRECORD
  5
9B6EA
102
{ACAD_REACTORS
330
9B6E9
102
}
330
9B6E9
100
AcDbXrecord
280
     1
102
RTVSPropertyOp0
 70
     1
102
RTVSPropertyOp1
 70
     1
102
RTVSPropertyOp2
 70
     1
102
RTVSPropertyOp3
 70
     1
102
RTVSPropertyOp4
 70
     1
102
RTVSPropertyOp5
 70
     1
102
RTVSPropertyOp6
 70
     1
102
RTVSPropertyOp7
 70
     1
102
RTVSPropertyOp8
 70
     1
102
RTVSPropertyOp9
 70
     1
102
RTVSPropertyOp10
 70
     1
102
RTVSPropertyOp11
 70
     1
102
RTVSPropertyOp12
 70
     1
102
RTVSPropertyOp13
 70
     1
102
RTVSPropertyOp14
 70
     1
102
RTVSPropertyOp15
 70
     1
102
RTVSPropertyOp16
 70
     1
102
RTVSPropertyOp17
 70
     1
102
RTVSPropertyOp18
 70
     1
102
RTVSPropertyOp19
 70
     1
102
RTVSPropertyOp20
 70
     1
102
RTVSPropertyOp21
 70
     1
102
RTVSPropertyOp22
 70
     1
102
RTVSPropertyOp23
 70
     1
102
RTVSPropertyOp24
 70
     1
102
RTVSPropertyOp25
 70
     1
102
RTVSPropertyOp26
 70
     1
102
RTVSPropertyOp27
 70
     1
102
RTVSPropertyOp28
 70
     1
102
RTVSPropertyOp29
 70
     1
102
RTVSPropertyOp30
 70
     1
102
RTVSPropertyOp31
 70
     1
102
RTVSPropertyOp32
 70
     1
102
RTVSPropertyOp33
 70
     1
102
RTVSPropertyOp34
 70
     1
102
RTVSPropertyOp35
 70
     1
102
RTVSPropertyOp36
 70
     1
102
RTVSPropertyOp37
 70
     1
102
RTVSPropertyOp38
 70
     1
102
RTVSPropertyOp39
 70
     1
102
RTVSPropertyOp40
 70
     1
102
RTVSPropertyOp41
 70
     1
102
RTVSPropertyOp42
 70
     1
102
RTVSPropertyOp43
 70
     1
102
RTVSPropertyOp44
 70
     1
102
RTVSPropertyOp45
 70
     1
102
RTVSPropertyOp46
 70
     1
102
RTVSPropertyOp47
 70
     1
102
RTVSPropertyOp48
 70
     1
102
RTVSPropertyOp49
 70
     1
102
RTVSPropertyOp50
 70
     1
102
RTVSPropertyOp51
 70
     0
102
RTVSPropertyOp52
 70
     0
102
RTVSPropertyOp53
 70
     1
102
RTVSPropertyOp54
 70
     1
102
RTVSPropertyOp55
 70
     1
102
RTVSPropertyOp56
 70
     1
102
RTVSPropertyOp57
 70
     1
102
RTVSPost2010Prop28
280
     0
102
RTVSPost2010PropOp28
 70
     1
102
RTVSPost2010Prop29
280
     1
102
RTVSPost2010PropOp29
 70
     1
102
RTVSPost2010Prop30
280
     1
102
RTVSPost2010PropOp30
 70
     1
102
RTVSPost2010Prop31
280
     0
102
RTVSPost2010PropOp31
 70
     1
102
RTVSPost2010Prop32
280
     0
102
RTVSPost2010PropOp32
 70
     1
102
RTVSPost2010Prop33
280
     0
102
RTVSPost2010PropOp33
 70
     1
102
RTVSPost2010Prop34
280
     0
102
RTVSPost2010PropOp34
 70
     1
102
RTVSPost2010Prop35
280
     0
102
RTVSPost2010PropOp35
 70
     1
102
RTVSPost2010Prop36
280
     0
102
RTVSPost2010PropOp36
 70
     1
102
RTVSPost2010Prop37
 90
       50
102
RTVSPost2010PropOp37
 70
     1
102
RTVSPost2010Prop38
140
0.0
102
RTVSPost2010PropOp38
 70
     1
102
RTVSPost2010Prop39
140
1.0
102
RTVSPost2010PropOp39
 70
     1
102
RTVSPost2010Prop40
 90
        0
102
RTVSPost2010PropOp40
 70
     1
102
RTVSPost2010Prop41ColorIndex
 90
       18
102
RTVSPost2010Prop41ColorRGB
 90
        0
102
RTVSPost2010PropOp41
 70
     1
102
RTVSPost2010Prop42
 90
       50
102
RTVSPost2010PropOp42
 70
     1
102
RTVSPost2010Prop43
 90
        3
102
RTVSPost2010PropOp43
 70
     1
102
RTVSPost2010Prop44ColorIndex
 90
        5
102
RTVSPost2010Prop44ColorRGB
 90
      255
102
RTVSPost2010PropOp44
 70
     1
102
RTVSPost2010Prop45
280
     0
102
RTVSPost2010PropOp45
 70
     1
102
RTVSPost2010Prop46
 90
       50
102
RTVSPost2010PropOp46
 70
     1
102
RTVSPost2010Prop47
 90
       50
102
RTVSPost2010PropOp47
 70
     1
102
RTVSPost2010Prop48
 90
       50
102
RTVSPost2010PropOp48
 70
     1
102
RTVSPost2010Prop49
280
     0
102
RTVSPost2010PropOp49
 70
     1
102
RTVSPost2010Prop50
 90
       50
102
RTVSPost2010PropOp50
 70
     1
102
RTVSPost2010Prop51ColorIndex
 90
      256
102
RTVSPost2010Prop51ColorRGB
 90
-16777216
102
RTVSPost2010PropOp51
 70
     0
102
RTVSPost2010Prop52
140
1.0
102
RTVSPost2010PropOp52
 70
     0
102
RTVSPost2010Prop53
 90
        2
102
RTVSPost2010PropOp53
 70
     1
102
RTVSPost2010Prop54
  1
strokes_ogs.tif
102
RTVSPost2010PropOp54
 70
     1
102
RTVSPost2010Prop55
280
     0
102
RTVSPost2010PropOp55
 70
     1
102
RTVSPost2010Prop56
140
1.0
102
RTVSPost2010PropOp56
 70
     1
102
RTVSPost2010Prop57
140
1.0
102
RTVSPost2010PropOp57
 70
     1
  0
XRECORD
  5
9B6EC
102
{ACAD_REACTORS
330
9B6EB
102
}
330
9B6EB
100
AcDbXrecord
280
     1
102
RTVSPropertyOp0
 70
     1
102
RTVSPropertyOp1
 70
     1
102
RTVSPropertyOp2
 70
     1
102
RTVSPropertyOp3
 70
     1
102
RTVSPropertyOp4
 70
     1
102
RTVSPropertyOp5
 70
     1
102
RTVSPropertyOp6
 70
     1
102
RTVSPropertyOp7
 70
     1
102
RTVSPropertyOp8
 70
     1
102
RTVSPropertyOp9
 70
     1
102
RTVSPropertyOp10
 70
     1
102
RTVSPropertyOp11
 70
     1
102
RTVSPropertyOp12
 70
     1
102
RTVSPropertyOp13
 70
     1
102
RTVSPropertyOp14
 70
     1
102
RTVSPropertyOp15
 70
     1
102
RTVSPropertyOp16
 70
     1
102
RTVSPropertyOp17
 70
     1
102
RTVSPropertyOp18
 70
     1
102
RTVSPropertyOp19
 70
     1
102
RTVSPropertyOp20
 70
     1
102
RTVSPropertyOp21
 70
     1
102
RTVSPropertyOp22
 70
     1
102
RTVSPropertyOp23
 70
     1
102
RTVSPropertyOp24
 70
     1
102
RTVSPropertyOp25
 70
     1
102
RTVSPropertyOp26
 70
     1
102
RTVSPropertyOp27
 70
     1
102
RTVSPropertyOp28
 70
     1
102
RTVSPropertyOp29
 70
     1
102
RTVSPropertyOp30
 70
     1
102
RTVSPropertyOp31
 70
     1
102
RTVSPropertyOp32
 70
     1
102
RTVSPropertyOp33
 70
     1
102
RTVSPropertyOp34
 70
     1
102
RTVSPropertyOp35
 70
     1
102
RTVSPropertyOp36
 70
     1
102
RTVSPropertyOp37
 70
     1
102
RTVSPropertyOp38
 70
     1
102
RTVSPropertyOp39
 70
     1
102
RTVSPropertyOp40
 70
     1
102
RTVSPropertyOp41
 70
     1
102
RTVSPropertyOp42
 70
     1
102
RTVSPropertyOp43
 70
     1
102
RTVSPropertyOp44
 70
     1
102
RTVSPropertyOp45
 70
     1
102
RTVSPropertyOp46
 70
     1
102
RTVSPropertyOp47
 70
     1
102
RTVSPropertyOp48
 70
     1
102
RTVSPropertyOp49
 70
     1
102
RTVSPropertyOp50
 70
     1
102
RTVSPropertyOp51
 70
     0
102
RTVSPropertyOp52
 70
     0
102
RTVSPropertyOp53
 70
     1
102
RTVSPropertyOp54
 70
     1
102
RTVSPropertyOp55
 70
     1
102
RTVSPropertyOp56
 70
     1
102
RTVSPropertyOp57
 70
     1
102
RTVSPost2010Prop28
280
     0
102
RTVSPost2010PropOp28
 70
     1
102
RTVSPost2010Prop29
280
     1
102
RTVSPost2010PropOp29
 70
     1
102
RTVSPost2010Prop30
280
     1
102
RTVSPost2010PropOp30
 70
     1
102
RTVSPost2010Prop31
280
     0
102
RTVSPost2010PropOp31
 70
     1
102
RTVSPost2010Prop32
280
     0
102
RTVSPost2010PropOp32
 70
     1
102
RTVSPost2010Prop33
280
     0
102
RTVSPost2010PropOp33
 70
     1
102
RTVSPost2010Prop34
280
     0
102
RTVSPost2010PropOp34
 70
     1
102
RTVSPost2010Prop35
280
     0
102
RTVSPost2010PropOp35
 70
     1
102
RTVSPost2010Prop36
280
     0
102
RTVSPost2010PropOp36
 70
     1
102
RTVSPost2010Prop37
 90
       50
102
RTVSPost2010PropOp37
 70
     1
102
RTVSPost2010Prop38
140
0.0
102
RTVSPost2010PropOp38
 70
     1
102
RTVSPost2010Prop39
140
1.0
102
RTVSPost2010PropOp39
 70
     1
102
RTVSPost2010Prop40
 90
        0
102
RTVSPost2010PropOp40
 70
     1
102
RTVSPost2010Prop41ColorIndex
 90
       18
102
RTVSPost2010Prop41ColorRGB
 90
        0
102
RTVSPost2010PropOp41
 70
     1
102
RTVSPost2010Prop42
 90
       50
102
RTVSPost2010PropOp42
 70
     1
102
RTVSPost2010Prop43
 90
        3
102
RTVSPost2010PropOp43
 70
     1
102
RTVSPost2010Prop44ColorIndex
 90
        5
102
RTVSPost2010Prop44ColorRGB
 90
      255
102
RTVSPost2010PropOp44
 70
     1
102
RTVSPost2010Prop45
280
     0
102
RTVSPost2010PropOp45
 70
     1
102
RTVSPost2010Prop46
 90
       50
102
RTVSPost2010PropOp46
 70
     1
102
RTVSPost2010Prop47
 90
       50
102
RTVSPost2010PropOp47
 70
     1
102
RTVSPost2010Prop48
 90
       50
102
RTVSPost2010PropOp48
 70
     1
102
RTVSPost2010Prop49
280
     0
102
RTVSPost2010PropOp49
 70
     1
102
RTVSPost2010Prop50
 90
       50
102
RTVSPost2010PropOp50
 70
     1
102
RTVSPost2010Prop51ColorIndex
 90
      256
102
RTVSPost2010Prop51ColorRGB
 90
-16777216
102
RTVSPost2010PropOp51
 70
     0
102
RTVSPost2010Prop52
140
1.0
102
RTVSPost2010PropOp52
 70
     0
102
RTVSPost2010Prop53
 90
        2
102
RTVSPost2010PropOp53
 70
     1
102
RTVSPost2010Prop54
  1
strokes_ogs.tif
102
RTVSPost2010PropOp54
 70
     1
102
RTVSPost2010Prop55
280
     0
102
RTVSPost2010PropOp55
 70
     1
102
RTVSPost2010Prop56
140
1.0
102
RTVSPost2010PropOp56
 70
     1
102
RTVSPost2010Prop57
140
1.0
102
RTVSPost2010PropOp57
 70
     1
  0
XRECORD
  5
9B6EE
102
{ACAD_REACTORS
330
9B6ED
102
}
330
9B6ED
100
AcDbXrecord
280
     1
102
RTVSPropertyOp0
 70
     1
102
RTVSPropertyOp1
 70
     1
102
RTVSPropertyOp2
 70
     1
102
RTVSPropertyOp3
 70
     1
102
RTVSPropertyOp4
 70
     1
102
RTVSPropertyOp5
 70
     1
102
RTVSPropertyOp6
 70
     1
102
RTVSPropertyOp7
 70
     1
102
RTVSPropertyOp8
 70
     1
102
RTVSPropertyOp9
 70
     1
102
RTVSPropertyOp10
 70
     1
102
RTVSPropertyOp11
 70
     1
102
RTVSPropertyOp12
 70
     1
102
RTVSPropertyOp13
 70
     1
102
RTVSPropertyOp14
 70
     1
102
RTVSPropertyOp15
 70
     1
102
RTVSPropertyOp16
 70
     1
102
RTVSPropertyOp17
 70
     1
102
RTVSPropertyOp18
 70
     1
102
RTVSPropertyOp19
 70
     1
102
RTVSPropertyOp20
 70
     1
102
RTVSPropertyOp21
 70
     1
102
RTVSPropertyOp22
 70
     1
102
RTVSPropertyOp23
 70
     1
102
RTVSPropertyOp24
 70
     1
102
RTVSPropertyOp25
 70
     1
102
RTVSPropertyOp26
 70
     1
102
RTVSPropertyOp27
 70
     1
102
RTVSPropertyOp28
 70
     1
102
RTVSPropertyOp29
 70
     1
102
RTVSPropertyOp30
 70
     1
102
RTVSPropertyOp31
 70
     1
102
RTVSPropertyOp32
 70
     1
102
RTVSPropertyOp33
 70
     1
102
RTVSPropertyOp34
 70
     1
102
RTVSPropertyOp35
 70
     1
102
RTVSPropertyOp36
 70
     1
102
RTVSPropertyOp37
 70
     1
102
RTVSPropertyOp38
 70
     1
102
RTVSPropertyOp39
 70
     1
102
RTVSPropertyOp40
 70
     1
102
RTVSPropertyOp41
 70
     1
102
RTVSPropertyOp42
 70
     1
102
RTVSPropertyOp43
 70
     1
102
RTVSPropertyOp44
 70
     1
102
RTVSPropertyOp45
 70
     1
102
RTVSPropertyOp46
 70
     1
102
RTVSPropertyOp47
 70
     1
102
RTVSPropertyOp48
 70
     1
102
RTVSPropertyOp49
 70
     1
102
RTVSPropertyOp50
 70
     1
102
RTVSPropertyOp51
 70
     0
102
RTVSPropertyOp52
 70
     0
102
RTVSPropertyOp53
 70
     1
102
RTVSPropertyOp54
 70
     1
102
RTVSPropertyOp55
 70
     1
102
RTVSPropertyOp56
 70
     1
102
RTVSPropertyOp57
 70
     1
102
RTVSPost2010Prop28
280
     0
102
RTVSPost2010PropOp28
 70
     1
102
RTVSPost2010Prop29
280
     1
102
RTVSPost2010PropOp29
 70
     1
102
RTVSPost2010Prop30
280
     1
102
RTVSPost2010PropOp30
 70
     1
102
RTVSPost2010Prop31
280
     0
102
RTVSPost2010PropOp31
 70
     1
102
RTVSPost2010Prop32
280
     0
102
RTVSPost2010PropOp32
 70
     1
102
RTVSPost2010Prop33
280
     0
102
RTVSPost2010PropOp33
 70
     1
102
RTVSPost2010Prop34
280
     0
102
RTVSPost2010PropOp34
 70
     1
102
RTVSPost2010Prop35
280
     0
102
RTVSPost2010PropOp35
 70
     1
102
RTVSPost2010Prop36
280
     0
102
RTVSPost2010PropOp36
 70
     1
102
RTVSPost2010Prop37
 90
       50
102
RTVSPost2010PropOp37
 70
     1
102
RTVSPost2010Prop38
140
0.0
102
RTVSPost2010PropOp38
 70
     1
102
RTVSPost2010Prop39
140
1.0
102
RTVSPost2010PropOp39
 70
     1
102
RTVSPost2010Prop40
 90
        0
102
RTVSPost2010PropOp40
 70
     1
102
RTVSPost2010Prop41ColorIndex
 90
       18
102
RTVSPost2010Prop41ColorRGB
 90
        0
102
RTVSPost2010PropOp41
 70
     1
102
RTVSPost2010Prop42
 90
       50
102
RTVSPost2010PropOp42
 70
     1
102
RTVSPost2010Prop43
 90
        3
102
RTVSPost2010PropOp43
 70
     1
102
RTVSPost2010Prop44ColorIndex
 90
        5
102
RTVSPost2010Prop44ColorRGB
 90
      255
102
RTVSPost2010PropOp44
 70
     1
102
RTVSPost2010Prop45
280
     0
102
RTVSPost2010PropOp45
 70
     1
102
RTVSPost2010Prop46
 90
       50
102
RTVSPost2010PropOp46
 70
     1
102
RTVSPost2010Prop47
 90
       50
102
RTVSPost2010PropOp47
 70
     1
102
RTVSPost2010Prop48
 90
       50
102
RTVSPost2010PropOp48
 70
     1
102
RTVSPost2010Prop49
280
     0
102
RTVSPost2010PropOp49
 70
     1
102
RTVSPost2010Prop50
 90
       50
102
RTVSPost2010PropOp50
 70
     1
102
RTVSPost2010Prop51ColorIndex
 90
      256
102
RTVSPost2010Prop51ColorRGB
 90
-16777216
102
RTVSPost2010PropOp51
 70
     0
102
RTVSPost2010Prop52
140
1.0
102
RTVSPost2010PropOp52
 70
     0
102
RTVSPost2010Prop53
 90
        2
102
RTVSPost2010PropOp53
 70
     1
102
RTVSPost2010Prop54
  1
strokes_ogs.tif
102
RTVSPost2010PropOp54
 70
     1
102
RTVSPost2010Prop55
280
     0
102
RTVSPost2010PropOp55
 70
     1
102
RTVSPost2010Prop56
140
1.0
102
RTVSPost2010PropOp56
 70
     1
102
RTVSPost2010Prop57
140
1.0
102
RTVSPost2010PropOp57
 70
     1
  0
XRECORD
  5
9B6F0
102
{ACAD_REACTORS
330
9B6EF
102
}
330
9B6EF
100
AcDbXrecord
280
     1
102
RTVSPropertyOp0
 70
     1
102
RTVSPropertyOp1
 70
     1
102
RTVSPropertyOp2
 70
     1
102
RTVSPropertyOp3
 70
     1
102
RTVSPropertyOp4
 70
     1
102
RTVSPropertyOp5
 70
     1
102
RTVSPropertyOp6
 70
     1
102
RTVSPropertyOp7
 70
     1
102
RTVSPropertyOp8
 70
     1
102
RTVSPropertyOp9
 70
     1
102
RTVSPropertyOp10
 70
     1
102
RTVSPropertyOp11
 70
     1
102
RTVSPropertyOp12
 70
     1
102
RTVSPropertyOp13
 70
     1
102
RTVSPropertyOp14
 70
     1
102
RTVSPropertyOp15
 70
     1
102
RTVSPropertyOp16
 70
     1
102
RTVSPropertyOp17
 70
     1
102
RTVSPropertyOp18
 70
     1
102
RTVSPropertyOp19
 70
     1
102
RTVSPropertyOp20
 70
     1
102
RTVSPropertyOp21
 70
     1
102
RTVSPropertyOp22
 70
     1
102
RTVSPropertyOp23
 70
     1
102
RTVSPropertyOp24
 70
     1
102
RTVSPropertyOp25
 70
     1
102
RTVSPropertyOp26
 70
     1
102
RTVSPropertyOp27
 70
     1
102
RTVSPropertyOp28
 70
     1
102
RTVSPropertyOp29
 70
     1
102
RTVSPropertyOp30
 70
     1
102
RTVSPropertyOp31
 70
     1
102
RTVSPropertyOp32
 70
     1
102
RTVSPropertyOp33
 70
     1
102
RTVSPropertyOp34
 70
     1
102
RTVSPropertyOp35
 70
     1
102
RTVSPropertyOp36
 70
     1
102
RTVSPropertyOp37
 70
     1
102
RTVSPropertyOp38
 70
     1
102
RTVSPropertyOp39
 70
     1
102
RTVSPropertyOp40
 70
     1
102
RTVSPropertyOp41
 70
     1
102
RTVSPropertyOp42
 70
     1
102
RTVSPropertyOp43
 70
     1
102
RTVSPropertyOp44
 70
     1
102
RTVSPropertyOp45
 70
     1
102
RTVSPropertyOp46
 70
     1
102
RTVSPropertyOp47
 70
     1
102
RTVSPropertyOp48
 70
     1
102
RTVSPropertyOp49
 70
     1
102
RTVSPropertyOp50
 70
     1
102
RTVSPropertyOp51
 70
     0
102
RTVSPropertyOp52
 70
     0
102
RTVSPropertyOp53
 70
     1
102
RTVSPropertyOp54
 70
     1
102
RTVSPropertyOp55
 70
     1
102
RTVSPropertyOp56
 70
     1
102
RTVSPropertyOp57
 70
     1
102
RTVSPost2010Prop28
280
     0
102
RTVSPost2010PropOp28
 70
     1
102
RTVSPost2010Prop29
280
     1
102
RTVSPost2010PropOp29
 70
     1
102
RTVSPost2010Prop30
280
     1
102
RTVSPost2010PropOp30
 70
     1
102
RTVSPost2010Prop31
280
     0
102
RTVSPost2010PropOp31
 70
     1
102
RTVSPost2010Prop32
280
     0
102
RTVSPost2010PropOp32
 70
     1
102
RTVSPost2010Prop33
280
     0
102
RTVSPost2010PropOp33
 70
     1
102
RTVSPost2010Prop34
280
     0
102
RTVSPost2010PropOp34
 70
     1
102
RTVSPost2010Prop35
280
     0
102
RTVSPost2010PropOp35
 70
     1
102
RTVSPost2010Prop36
280
     0
102
RTVSPost2010PropOp36
 70
     1
102
RTVSPost2010Prop37
 90
       50
102
RTVSPost2010PropOp37
 70
     1
102
RTVSPost2010Prop38
140
0.0
102
RTVSPost2010PropOp38
 70
     1
102
RTVSPost2010Prop39
140
1.0
102
RTVSPost2010PropOp39
 70
     1
102
RTVSPost2010Prop40
 90
        0
102
RTVSPost2010PropOp40
 70
     1
102
RTVSPost2010Prop41ColorIndex
 90
       18
102
RTVSPost2010Prop41ColorRGB
 90
        0
102
RTVSPost2010PropOp41
 70
     1
102
RTVSPost2010Prop42
 90
       50
102
RTVSPost2010PropOp42
 70
     1
102
RTVSPost2010Prop43
 90
        3
102
RTVSPost2010PropOp43
 70
     1
102
RTVSPost2010Prop44ColorIndex
 90
        5
102
RTVSPost2010Prop44ColorRGB
 90
      255
102
RTVSPost2010PropOp44
 70
     1
102
RTVSPost2010Prop45
280
     0
102
RTVSPost2010PropOp45
 70
     1
102
RTVSPost2010Prop46
 90
       50
102
RTVSPost2010PropOp46
 70
     1
102
RTVSPost2010Prop47
 90
       50
102
RTVSPost2010PropOp47
 70
     1
102
RTVSPost2010Prop48
 90
       50
102
RTVSPost2010PropOp48
 70
     1
102
RTVSPost2010Prop49
280
     0
102
RTVSPost2010PropOp49
 70
     1
102
RTVSPost2010Prop50
 90
       50
102
RTVSPost2010PropOp50
 70
     1
102
RTVSPost2010Prop51ColorIndex
 90
      256
102
RTVSPost2010Prop51ColorRGB
 90
-16777216
102
RTVSPost2010PropOp51
 70
     0
102
RTVSPost2010Prop52
140
1.0
102
RTVSPost2010PropOp52
 70
     0
102
RTVSPost2010Prop53
 90
        2
102
RTVSPost2010PropOp53
 70
     1
102
RTVSPost2010Prop54
  1
strokes_ogs.tif
102
RTVSPost2010PropOp54
 70
     1
102
RTVSPost2010Prop55
280
     0
102
RTVSPost2010PropOp55
 70
     1
102
RTVSPost2010Prop56
140
1.0
102
RTVSPost2010PropOp56
 70
     1
102
RTVSPost2010Prop57
140
1.0
102
RTVSPost2010PropOp57
 70
     1
  0
XRECORD
  5
9B6F2
102
{ACAD_REACTORS
330
9B6F1
102
}
330
9B6F1
100
AcDbXrecord
280
     1
102
RTVSPropertyOp0
 70
     0
102
RTVSPropertyOp1
 70
     0
102
RTVSPropertyOp2
 70
     0
102
RTVSPropertyOp3
 70
     0
102
RTVSPropertyOp4
 70
     0
102
RTVSPropertyOp5
 70
     0
102
RTVSPropertyOp6
 70
     0
102
RTVSPropertyOp7
 70
     0
102
RTVSPropertyOp8
 70
     0
102
RTVSPropertyOp9
 70
     0
102
RTVSPropertyOp10
 70
     0
102
RTVSPropertyOp11
 70
     0
102
RTVSPropertyOp12
 70
     0
102
RTVSPropertyOp13
 70
     0
102
RTVSPropertyOp14
 70
     2
102
RTVSPropertyOp15
 70
     0
102
RTVSPropertyOp16
 70
     0
102
RTVSPropertyOp17
 70
     0
102
RTVSPropertyOp18
 70
     0
102
RTVSPropertyOp19
 70
     0
102
RTVSPropertyOp20
 70
     0
102
RTVSPropertyOp21
 70
     0
102
RTVSPropertyOp22
 70
     0
102
RTVSPropertyOp23
 70
     0
102
RTVSPropertyOp24
 70
     0
102
RTVSPropertyOp25
 70
     0
102
RTVSPropertyOp26
 70
     0
102
RTVSPropertyOp27
 70
     0
102
RTVSPropertyOp28
 70
     0
102
RTVSPropertyOp29
 70
     0
102
RTVSPropertyOp30
 70
     0
102
RTVSPropertyOp31
 70
     0
102
RTVSPropertyOp32
 70
     0
102
RTVSPropertyOp33
 70
     1
102
RTVSPropertyOp34
 70
     1
102
RTVSPropertyOp35
 70
     1
102
RTVSPropertyOp36
 70
     1
102
RTVSPropertyOp37
 70
     1
102
RTVSPropertyOp38
 70
     1
102
RTVSPropertyOp39
 70
     1
102
RTVSPropertyOp40
 70
     1
102
RTVSPropertyOp41
 70
     1
102
RTVSPropertyOp42
 70
     1
102
RTVSPropertyOp43
 70
     1
102
RTVSPropertyOp44
 70
     1
102
RTVSPropertyOp45
 70
     1
102
RTVSPropertyOp46
 70
     1
102
RTVSPropertyOp47
 70
     1
102
RTVSPropertyOp48
 70
     1
102
RTVSPropertyOp49
 70
     1
102
RTVSPropertyOp50
 70
     1
102
RTVSPropertyOp51
 70
     0
102
RTVSPropertyOp52
 70
     0
102
RTVSPropertyOp53
 70
     1
102
RTVSPropertyOp54
 70
     1
102
RTVSPropertyOp55
 70
     1
102
RTVSPropertyOp56
 70
     1
102
RTVSPropertyOp57
 70
     1
102
RTVSPost2010Prop28
280
     0
102
RTVSPost2010PropOp28
 70
     0
102
RTVSPost2010Prop29
280
     1
102
RTVSPost2010PropOp29
 70
     0
102
RTVSPost2010Prop30
280
     1
102
RTVSPost2010PropOp30
 70
     0
102
RTVSPost2010Prop31
280
     0
102
RTVSPost2010PropOp31
 70
     0
102
RTVSPost2010Prop32
280
     0
102
RTVSPost2010PropOp32
 70
     0
102
RTVSPost2010Prop33
280
     0
102
RTVSPost2010PropOp33
 70
     1
102
RTVSPost2010Prop34
280
     0
102
RTVSPost2010PropOp34
 70
     1
102
RTVSPost2010Prop35
280
     0
102
RTVSPost2010PropOp35
 70
     1
102
RTVSPost2010Prop36
280
     0
102
RTVSPost2010PropOp36
 70
     1
102
RTVSPost2010Prop37
 90
       50
102
RTVSPost2010PropOp37
 70
     1
102
RTVSPost2010Prop38
140
0.0
102
RTVSPost2010PropOp38
 70
     1
102
RTVSPost2010Prop39
140
1.0
102
RTVSPost2010PropOp39
 70
     1
102
RTVSPost2010Prop40
 90
        0
102
RTVSPost2010PropOp40
 70
     1
102
RTVSPost2010Prop41ColorIndex
 90
       18
102
RTVSPost2010Prop41ColorRGB
 90
        0
102
RTVSPost2010PropOp41
 70
     1
102
RTVSPost2010Prop42
 90
       50
102
RTVSPost2010PropOp42
 70
     1
102
RTVSPost2010Prop43
 90
        3
102
RTVSPost2010PropOp43
 70
     1
102
RTVSPost2010Prop44ColorIndex
 90
        5
102
RTVSPost2010Prop44ColorRGB
 90
      255
102
RTVSPost2010PropOp44
 70
     1
102
RTVSPost2010Prop45
280
     0
102
RTVSPost2010PropOp45
 70
     1
102
RTVSPost2010Prop46
 90
       50
102
RTVSPost2010PropOp46
 70
     1
102
RTVSPost2010Prop47
 90
       50
102
RTVSPost2010PropOp47
 70
     1
102
RTVSPost2010Prop48
 90
       50
102
RTVSPost2010PropOp48
 70
     1
102
RTVSPost2010Prop49
280
     0
102
RTVSPost2010PropOp49
 70
     1
102
RTVSPost2010Prop50
 90
       50
102
RTVSPost2010PropOp50
 70
     1
102
RTVSPost2010Prop51ColorIndex
 90
      256
102
RTVSPost2010Prop51ColorRGB
 90
-16777216
102
RTVSPost2010PropOp51
 70
     0
102
RTVSPost2010Prop52
140
1.0
102
RTVSPost2010PropOp52
 70
     0
102
RTVSPost2010Prop53
 90
        2
102
RTVSPost2010PropOp53
 70
     1
102
RTVSPost2010Prop54
  1
strokes_ogs.tif
102
RTVSPost2010PropOp54
 70
     1
102
RTVSPost2010Prop55
280
     0
102
RTVSPost2010PropOp55
 70
     1
102
RTVSPost2010Prop56
140
1.0
102
RTVSPost2010PropOp56
 70
     1
102
RTVSPost2010Prop57
140
1.0
102
RTVSPost2010PropOp57
 70
     1
  0
XRECORD
  5
9B6F4
102
{ACAD_REACTORS
330
9B6F3
102
}
330
9B6F3
100
AcDbXrecord
280
     1
102
RTVSPropertyOp0
 70
     1
102
RTVSPropertyOp1
 70
     1
102
RTVSPropertyOp2
 70
     1
102
RTVSPropertyOp3
 70
     1
102
RTVSPropertyOp4
 70
     1
102
RTVSPropertyOp5
 70
     1
102
RTVSPropertyOp6
 70
     1
102
RTVSPropertyOp7
 70
     1
102
RTVSPropertyOp8
 70
     1
102
RTVSPropertyOp9
 70
     1
102
RTVSPropertyOp10
 70
     1
102
RTVSPropertyOp11
 70
     1
102
RTVSPropertyOp12
 70
     1
102
RTVSPropertyOp13
 70
     1
102
RTVSPropertyOp14
 70
     1
102
RTVSPropertyOp15
 70
     1
102
RTVSPropertyOp16
 70
     1
102
RTVSPropertyOp17
 70
     1
102
RTVSPropertyOp18
 70
     1
102
RTVSPropertyOp19
 70
     1
102
RTVSPropertyOp20
 70
     1
102
RTVSPropertyOp21
 70
     1
102
RTVSPropertyOp22
 70
     1
102
RTVSPropertyOp23
 70
     1
102
RTVSPropertyOp24
 70
     1
102
RTVSPropertyOp25
 70
     1
102
RTVSPropertyOp26
 70
     1
102
RTVSPropertyOp27
 70
     1
102
RTVSPropertyOp28
 70
     1
102
RTVSPropertyOp29
 70
     1
102
RTVSPropertyOp30
 70
     1
102
RTVSPropertyOp31
 70
     1
102
RTVSPropertyOp32
 70
     1
102
RTVSPropertyOp33
 70
     1
102
RTVSPropertyOp34
 70
     1
102
RTVSPropertyOp35
 70
     1
102
RTVSPropertyOp36
 70
     1
102
RTVSPropertyOp37
 70
     1
102
RTVSPropertyOp38
 70
     1
102
RTVSPropertyOp39
 70
     1
102
RTVSPropertyOp40
 70
     1
102
RTVSPropertyOp41
 70
     1
102
RTVSPropertyOp42
 70
     1
102
RTVSPropertyOp43
 70
     1
102
RTVSPropertyOp44
 70
     1
102
RTVSPropertyOp45
 70
     1
102
RTVSPropertyOp46
 70
     1
102
RTVSPropertyOp47
 70
     1
102
RTVSPropertyOp48
 70
     1
102
RTVSPropertyOp49
 70
     1
102
RTVSPropertyOp50
 70
     1
102
RTVSPropertyOp51
 70
     0
102
RTVSPropertyOp52
 70
     0
102
RTVSPropertyOp53
 70
     1
102
RTVSPropertyOp54
 70
     1
102
RTVSPropertyOp55
 70
     1
102
RTVSPropertyOp56
 70
     1
102
RTVSPropertyOp57
 70
     1
102
RTVSPost2010Prop28
280
     0
102
RTVSPost2010PropOp28
 70
     1
102
RTVSPost2010Prop29
280
     1
102
RTVSPost2010PropOp29
 70
     1
102
RTVSPost2010Prop30
280
     1
102
RTVSPost2010PropOp30
 70
     1
102
RTVSPost2010Prop31
280
     0
102
RTVSPost2010PropOp31
 70
     1
102
RTVSPost2010Prop32
280
     0
102
RTVSPost2010PropOp32
 70
     1
102
RTVSPost2010Prop33
280
     0
102
RTVSPost2010PropOp33
 70
     1
102
RTVSPost2010Prop34
280
     0
102
RTVSPost2010PropOp34
 70
     1
102
RTVSPost2010Prop35
280
     0
102
RTVSPost2010PropOp35
 70
     1
102
RTVSPost2010Prop36
280
     0
102
RTVSPost2010PropOp36
 70
     1
102
RTVSPost2010Prop37
 90
       50
102
RTVSPost2010PropOp37
 70
     1
102
RTVSPost2010Prop38
140
0.0
102
RTVSPost2010PropOp38
 70
     1
102
RTVSPost2010Prop39
140
1.0
102
RTVSPost2010PropOp39
 70
     1
102
RTVSPost2010Prop40
 90
        0
102
RTVSPost2010PropOp40
 70
     1
102
RTVSPost2010Prop41ColorIndex
 90
       18
102
RTVSPost2010Prop41ColorRGB
 90
        0
102
RTVSPost2010PropOp41
 70
     1
102
RTVSPost2010Prop42
 90
       50
102
RTVSPost2010PropOp42
 70
     1
102
RTVSPost2010Prop43
 90
        3
102
RTVSPost2010PropOp43
 70
     1
102
RTVSPost2010Prop44ColorIndex
 90
        5
102
RTVSPost2010Prop44ColorRGB
 90
      255
102
RTVSPost2010PropOp44
 70
     1
102
RTVSPost2010Prop45
280
     0
102
RTVSPost2010PropOp45
 70
     1
102
RTVSPost2010Prop46
 90
       50
102
RTVSPost2010PropOp46
 70
     1
102
RTVSPost2010Prop47
 90
       50
102
RTVSPost2010PropOp47
 70
     1
102
RTVSPost2010Prop48
 90
       50
102
RTVSPost2010PropOp48
 70
     1
102
RTVSPost2010Prop49
280
     0
102
RTVSPost2010PropOp49
 70
     1
102
RTVSPost2010Prop50
 90
       50
102
RTVSPost2010PropOp50
 70
     1
102
RTVSPost2010Prop51ColorIndex
 90
      256
102
RTVSPost2010Prop51ColorRGB
 90
-16777216
102
RTVSPost2010PropOp51
 70
     0
102
RTVSPost2010Prop52
140
1.0
102
RTVSPost2010PropOp52
 70
     0
102
RTVSPost2010Prop53
 90
        2
102
RTVSPost2010PropOp53
 70
     1
102
RTVSPost2010Prop54
  1
strokes_ogs.tif
102
RTVSPost2010PropOp54
 70
     1
102
RTVSPost2010Prop55
280
     0
102
RTVSPost2010PropOp55
 70
     1
102
RTVSPost2010Prop56
140
1.0
102
RTVSPost2010PropOp56
 70
     1
102
RTVSPost2010Prop57
140
1.0
102
RTVSPost2010PropOp57
 70
     1
  0
XRECORD
  5
9B6F6
102
{ACAD_REACTORS
330
9B6F5
102
}
330
9B6F5
100
AcDbXrecord
280
     1
102
RTVSPropertyOp0
 70
     0
102
RTVSPropertyOp1
 70
     0
102
RTVSPropertyOp2
 70
     0
102
RTVSPropertyOp3
 70
     0
102
RTVSPropertyOp4
 70
     0
102
RTVSPropertyOp5
 70
     0
102
RTVSPropertyOp6
 70
     0
102
RTVSPropertyOp7
 70
     0
102
RTVSPropertyOp8
 70
     0
102
RTVSPropertyOp9
 70
     0
102
RTVSPropertyOp10
 70
     0
102
RTVSPropertyOp11
 70
     0
102
RTVSPropertyOp12
 70
     0
102
RTVSPropertyOp13
 70
     0
102
RTVSPropertyOp14
 70
     2
102
RTVSPropertyOp15
 70
     0
102
RTVSPropertyOp16
 70
     0
102
RTVSPropertyOp17
 70
     0
102
RTVSPropertyOp18
 70
     0
102
RTVSPropertyOp19
 70
     0
102
RTVSPropertyOp20
 70
     0
102
RTVSPropertyOp21
 70
     0
102
RTVSPropertyOp22
 70
     0
102
RTVSPropertyOp23
 70
     0
102
RTVSPropertyOp24
 70
     0
102
RTVSPropertyOp25
 70
     0
102
RTVSPropertyOp26
 70
     0
102
RTVSPropertyOp27
 70
     0
102
RTVSPropertyOp28
 70
     0
102
RTVSPropertyOp29
 70
     0
102
RTVSPropertyOp30
 70
     0
102
RTVSPropertyOp31
 70
     0
102
RTVSPropertyOp32
 70
     0
102
RTVSPropertyOp33
 70
     1
102
RTVSPropertyOp34
 70
     1
102
RTVSPropertyOp35
 70
     1
102
RTVSPropertyOp36
 70
     1
102
RTVSPropertyOp37
 70
     1
102
RTVSPropertyOp38
 70
     1
102
RTVSPropertyOp39
 70
     1
102
RTVSPropertyOp40
 70
     1
102
RTVSPropertyOp41
 70
     1
102
RTVSPropertyOp42
 70
     1
102
RTVSPropertyOp43
 70
     1
102
RTVSPropertyOp44
 70
     1
102
RTVSPropertyOp45
 70
     1
102
RTVSPropertyOp46
 70
     1
102
RTVSPropertyOp47
 70
     1
102
RTVSPropertyOp48
 70
     1
102
RTVSPropertyOp49
 70
     1
102
RTVSPropertyOp50
 70
     1
102
RTVSPropertyOp51
 70
     0
102
RTVSPropertyOp52
 70
     0
102
RTVSPropertyOp53
 70
     1
102
RTVSPropertyOp54
 70
     1
102
RTVSPropertyOp55
 70
     1
102
RTVSPropertyOp56
 70
     1
102
RTVSPropertyOp57
 70
     1
102
RTVSPost2010Prop28
280
     0
102
RTVSPost2010PropOp28
 70
     0
102
RTVSPost2010Prop29
280
     1
102
RTVSPost2010PropOp29
 70
     0
102
RTVSPost2010Prop30
280
     1
102
RTVSPost2010PropOp30
 70
     0
102
RTVSPost2010Prop31
280
     0
102
RTVSPost2010PropOp31
 70
     0
102
RTVSPost2010Prop32
280
     0
102
RTVSPost2010PropOp32
 70
     0
102
RTVSPost2010Prop33
280
     0
102
RTVSPost2010PropOp33
 70
     1
102
RTVSPost2010Prop34
280
     0
102
RTVSPost2010PropOp34
 70
     1
102
RTVSPost2010Prop35
280
     0
102
RTVSPost2010PropOp35
 70
     1
102
RTVSPost2010Prop36
280
     0
102
RTVSPost2010PropOp36
 70
     1
102
RTVSPost2010Prop37
 90
       50
102
RTVSPost2010PropOp37
 70
     1
102
RTVSPost2010Prop38
140
0.0
102
RTVSPost2010PropOp38
 70
     1
102
RTVSPost2010Prop39
140
1.0
102
RTVSPost2010PropOp39
 70
     1
102
RTVSPost2010Prop40
 90
        0
102
RTVSPost2010PropOp40
 70
     1
102
RTVSPost2010Prop41ColorIndex
 90
       18
102
RTVSPost2010Prop41ColorRGB
 90
        0
102
RTVSPost2010PropOp41
 70
     1
102
RTVSPost2010Prop42
 90
       50
102
RTVSPost2010PropOp42
 70
     1
102
RTVSPost2010Prop43
 90
        3
102
RTVSPost2010PropOp43
 70
     1
102
RTVSPost2010Prop44ColorIndex
 90
        5
102
RTVSPost2010Prop44ColorRGB
 90
      255
102
RTVSPost2010PropOp44
 70
     1
102
RTVSPost2010Prop45
280
     0
102
RTVSPost2010PropOp45
 70
     1
102
RTVSPost2010Prop46
 90
       50
102
RTVSPost2010PropOp46
 70
     1
102
RTVSPost2010Prop47
 90
       50
102
RTVSPost2010PropOp47
 70
     1
102
RTVSPost2010Prop48
 90
       50
102
RTVSPost2010PropOp48
 70
     1
102
RTVSPost2010Prop49
280
     0
102
RTVSPost2010PropOp49
 70
     1
102
RTVSPost2010Prop50
 90
       50
102
RTVSPost2010PropOp50
 70
     1
102
RTVSPost2010Prop51ColorIndex
 90
      256
102
RTVSPost2010Prop51ColorRGB
 90
-16777216
102
RTVSPost2010PropOp51
 70
     0
102
RTVSPost2010Prop52
140
1.0
102
RTVSPost2010PropOp52
 70
     0
102
RTVSPost2010Prop53
 90
        2
102
RTVSPost2010PropOp53
 70
     1
102
RTVSPost2010Prop54
  1
strokes_ogs.tif
102
RTVSPost2010PropOp54
 70
     1
102
RTVSPost2010Prop55
280
     0
102
RTVSPost2010PropOp55
 70
     1
102
RTVSPost2010Prop56
140
1.0
102
RTVSPost2010PropOp56
 70
     1
102
RTVSPost2010Prop57
140
1.0
102
RTVSPost2010PropOp57
 70
     1
  0
XRECORD
  5
9B6F8
102
{ACAD_REACTORS
330
9B6F7
102
}
330
9B6F7
100
AcDbXrecord
280
     1
102
RTVSPropertyOp0
 70
     1
102
RTVSPropertyOp1
 70
     1
102
RTVSPropertyOp2
 70
     1
102
RTVSPropertyOp3
 70
     1
102
RTVSPropertyOp4
 70
     1
102
RTVSPropertyOp5
 70
     1
102
RTVSPropertyOp6
 70
     1
102
RTVSPropertyOp7
 70
     1
102
RTVSPropertyOp8
 70
     1
102
RTVSPropertyOp9
 70
     1
102
RTVSPropertyOp10
 70
     1
102
RTVSPropertyOp11
 70
     1
102
RTVSPropertyOp12
 70
     1
102
RTVSPropertyOp13
 70
     1
102
RTVSPropertyOp14
 70
     1
102
RTVSPropertyOp15
 70
     1
102
RTVSPropertyOp16
 70
     1
102
RTVSPropertyOp17
 70
     1
102
RTVSPropertyOp18
 70
     1
102
RTVSPropertyOp19
 70
     1
102
RTVSPropertyOp20
 70
     1
102
RTVSPropertyOp21
 70
     1
102
RTVSPropertyOp22
 70
     1
102
RTVSPropertyOp23
 70
     1
102
RTVSPropertyOp24
 70
     1
102
RTVSPropertyOp25
 70
     1
102
RTVSPropertyOp26
 70
     1
102
RTVSPropertyOp27
 70
     1
102
RTVSPropertyOp28
 70
     1
102
RTVSPropertyOp29
 70
     1
102
RTVSPropertyOp30
 70
     1
102
RTVSPropertyOp31
 70
     1
102
RTVSPropertyOp32
 70
     1
102
RTVSPropertyOp33
 70
     1
102
RTVSPropertyOp34
 70
     1
102
RTVSPropertyOp35
 70
     1
102
RTVSPropertyOp36
 70
     1
102
RTVSPropertyOp37
 70
     1
102
RTVSPropertyOp38
 70
     1
102
RTVSPropertyOp39
 70
     1
102
RTVSPropertyOp40
 70
     1
102
RTVSPropertyOp41
 70
     1
102
RTVSPropertyOp42
 70
     1
102
RTVSPropertyOp43
 70
     1
102
RTVSPropertyOp44
 70
     1
102
RTVSPropertyOp45
 70
     1
102
RTVSPropertyOp46
 70
     1
102
RTVSPropertyOp47
 70
     1
102
RTVSPropertyOp48
 70
     1
102
RTVSPropertyOp49
 70
     1
102
RTVSPropertyOp50
 70
     1
102
RTVSPropertyOp51
 70
     0
102
RTVSPropertyOp52
 70
     0
102
RTVSPropertyOp53
 70
     1
102
RTVSPropertyOp54
 70
     1
102
RTVSPropertyOp55
 70
     1
102
RTVSPropertyOp56
 70
     1
102
RTVSPropertyOp57
 70
     1
102
RTVSPost2010Prop28
280
     0
102
RTVSPost2010PropOp28
 70
     1
102
RTVSPost2010Prop29
280
     1
102
RTVSPost2010PropOp29
 70
     1
102
RTVSPost2010Prop30
280
     1
102
RTVSPost2010PropOp30
 70
     1
102
RTVSPost2010Prop31
280
     0
102
RTVSPost2010PropOp31
 70
     1
102
RTVSPost2010Prop32
280
     0
102
RTVSPost2010PropOp32
 70
     1
102
RTVSPost2010Prop33
280
     0
102
RTVSPost2010PropOp33
 70
     1
102
RTVSPost2010Prop34
280
     0
102
RTVSPost2010PropOp34
 70
     1
102
RTVSPost2010Prop35
280
     0
102
RTVSPost2010PropOp35
 70
     1
102
RTVSPost2010Prop36
280
     0
102
RTVSPost2010PropOp36
 70
     1
102
RTVSPost2010Prop37
 90
       50
102
RTVSPost2010PropOp37
 70
     1
102
RTVSPost2010Prop38
140
0.0
102
RTVSPost2010PropOp38
 70
     1
102
RTVSPost2010Prop39
140
1.0
102
RTVSPost2010PropOp39
 70
     1
102
RTVSPost2010Prop40
 90
        0
102
RTVSPost2010PropOp40
 70
     1
102
RTVSPost2010Prop41ColorIndex
 90
       18
102
RTVSPost2010Prop41ColorRGB
 90
        0
102
RTVSPost2010PropOp41
 70
     1
102
RTVSPost2010Prop42
 90
       50
102
RTVSPost2010PropOp42
 70
     1
102
RTVSPost2010Prop43
 90
        3
102
RTVSPost2010PropOp43
 70
     1
102
RTVSPost2010Prop44ColorIndex
 90
        5
102
RTVSPost2010Prop44ColorRGB
 90
      255
102
RTVSPost2010PropOp44
 70
     1
102
RTVSPost2010Prop45
280
     0
102
RTVSPost2010PropOp45
 70
     1
102
RTVSPost2010Prop46
 90
       50
102
RTVSPost2010PropOp46
 70
     1
102
RTVSPost2010Prop47
 90
       50
102
RTVSPost2010PropOp47
 70
     1
102
RTVSPost2010Prop48
 90
       50
102
RTVSPost2010PropOp48
 70
     1
102
RTVSPost2010Prop49
280
     0
102
RTVSPost2010PropOp49
 70
     1
102
RTVSPost2010Prop50
 90
       50
102
RTVSPost2010PropOp50
 70
     1
102
RTVSPost2010Prop51ColorIndex
 90
      256
102
RTVSPost2010Prop51ColorRGB
 90
-16777216
102
RTVSPost2010PropOp51
 70
     0
102
RTVSPost2010Prop52
140
1.0
102
RTVSPost2010PropOp52
 70
     0
102
RTVSPost2010Prop53
 90
        2
102
RTVSPost2010PropOp53
 70
     1
102
RTVSPost2010Prop54
  1
strokes_ogs.tif
102
RTVSPost2010PropOp54
 70
     1
102
RTVSPost2010Prop55
280
     0
102
RTVSPost2010PropOp55
 70
     1
102
RTVSPost2010Prop56
140
1.0
102
RTVSPost2010PropOp56
 70
     1
102
RTVSPost2010Prop57
140
1.0
102
RTVSPost2010PropOp57
 70
     1
  0
XRECORD
  5
9B6FA
102
{ACAD_REACTORS
330
9B6F9
102
}
330
9B6F9
100
AcDbXrecord
280
     1
102
RTVSPropertyOp0
 70
     1
102
RTVSPropertyOp1
 70
     1
102
RTVSPropertyOp2
 70
     1
102
RTVSPropertyOp3
 70
     1
102
RTVSPropertyOp4
 70
     1
102
RTVSPropertyOp5
 70
     1
102
RTVSPropertyOp6
 70
     1
102
RTVSPropertyOp7
 70
     1
102
RTVSPropertyOp8
 70
     1
102
RTVSPropertyOp9
 70
     1
102
RTVSPropertyOp10
 70
     1
102
RTVSPropertyOp11
 70
     1
102
RTVSPropertyOp12
 70
     1
102
RTVSPropertyOp13
 70
     1
102
RTVSPropertyOp14
 70
     1
102
RTVSPropertyOp15
 70
     1
102
RTVSPropertyOp16
 70
     1
102
RTVSPropertyOp17
 70
     1
102
RTVSPropertyOp18
 70
     1
102
RTVSPropertyOp19
 70
     1
102
RTVSPropertyOp20
 70
     1
102
RTVSPropertyOp21
 70
     1
102
RTVSPropertyOp22
 70
     1
102
RTVSPropertyOp23
 70
     1
102
RTVSPropertyOp24
 70
     1
102
RTVSPropertyOp25
 70
     1
102
RTVSPropertyOp26
 70
     1
102
RTVSPropertyOp27
 70
     1
102
RTVSPropertyOp28
 70
     1
102
RTVSPropertyOp29
 70
     1
102
RTVSPropertyOp30
 70
     1
102
RTVSPropertyOp31
 70
     1
102
RTVSPropertyOp32
 70
     1
102
RTVSPropertyOp33
 70
     1
102
RTVSPropertyOp34
 70
     1
102
RTVSPropertyOp35
 70
     1
102
RTVSPropertyOp36
 70
     1
102
RTVSPropertyOp37
 70
     1
102
RTVSPropertyOp38
 70
     1
102
RTVSPropertyOp39
 70
     1
102
RTVSPropertyOp40
 70
     1
102
RTVSPropertyOp41
 70
     1
102
RTVSPropertyOp42
 70
     1
102
RTVSPropertyOp43
 70
     1
102
RTVSPropertyOp44
 70
     1
102
RTVSPropertyOp45
 70
     1
102
RTVSPropertyOp46
 70
     1
102
RTVSPropertyOp47
 70
     1
102
RTVSPropertyOp48
 70
     1
102
RTVSPropertyOp49
 70
     1
102
RTVSPropertyOp50
 70
     1
102
RTVSPropertyOp51
 70
     0
102
RTVSPropertyOp52
 70
     0
102
RTVSPropertyOp53
 70
     1
102
RTVSPropertyOp54
 70
     1
102
RTVSPropertyOp55
 70
     1
102
RTVSPropertyOp56
 70
     1
102
RTVSPropertyOp57
 70
     1
102
RTVSPost2010Prop28
280
     0
102
RTVSPost2010PropOp28
 70
     1
102
RTVSPost2010Prop29
280
     1
102
RTVSPost2010PropOp29
 70
     1
102
RTVSPost2010Prop30
280
     1
102
RTVSPost2010PropOp30
 70
     1
102
RTVSPost2010Prop31
280
     0
102
RTVSPost2010PropOp31
 70
     1
102
RTVSPost2010Prop32
280
     0
102
RTVSPost2010PropOp32
 70
     1
102
RTVSPost2010Prop33
280
     0
102
RTVSPost2010PropOp33
 70
     1
102
RTVSPost2010Prop34
280
     0
102
RTVSPost2010PropOp34
 70
     1
102
RTVSPost2010Prop35
280
     0
102
RTVSPost2010PropOp35
 70
     1
102
RTVSPost2010Prop36
280
     0
102
RTVSPost2010PropOp36
 70
     1
102
RTVSPost2010Prop37
 90
       50
102
RTVSPost2010PropOp37
 70
     1
102
RTVSPost2010Prop38
140
0.0
102
RTVSPost2010PropOp38
 70
     1
102
RTVSPost2010Prop39
140
1.0
102
RTVSPost2010PropOp39
 70
     1
102
RTVSPost2010Prop40
 90
        0
102
RTVSPost2010PropOp40
 70
     1
102
RTVSPost2010Prop41ColorIndex
 90
       18
102
RTVSPost2010Prop41ColorRGB
 90
        0
102
RTVSPost2010PropOp41
 70
     1
102
RTVSPost2010Prop42
 90
       50
102
RTVSPost2010PropOp42
 70
     1
102
RTVSPost2010Prop43
 90
        3
102
RTVSPost2010PropOp43
 70
     1
102
RTVSPost2010Prop44ColorIndex
 90
        5
102
RTVSPost2010Prop44ColorRGB
 90
      255
102
RTVSPost2010PropOp44
 70
     1
102
RTVSPost2010Prop45
280
     0
102
RTVSPost2010PropOp45
 70
     1
102
RTVSPost2010Prop46
 90
       50
102
RTVSPost2010PropOp46
 70
     1
102
RTVSPost2010Prop47
 90
       50
102
RTVSPost2010PropOp47
 70
     1
102
RTVSPost2010Prop48
 90
       50
102
RTVSPost2010PropOp48
 70
     1
102
RTVSPost2010Prop49
280
     0
102
RTVSPost2010PropOp49
 70
     1
102
RTVSPost2010Prop50
 90
       50
102
RTVSPost2010PropOp50
 70
     1
102
RTVSPost2010Prop51ColorIndex
 90
      256
102
RTVSPost2010Prop51ColorRGB
 90
-16777216
102
RTVSPost2010PropOp51
 70
     0
102
RTVSPost2010Prop52
140
1.0
102
RTVSPost2010PropOp52
 70
     0
102
RTVSPost2010Prop53
 90
        2
102
RTVSPost2010PropOp53
 70
     1
102
RTVSPost2010Prop54
  1
strokes_ogs.tif
102
RTVSPost2010PropOp54
 70
     1
102
RTVSPost2010Prop55
280
     0
102
RTVSPost2010PropOp55
 70
     1
102
RTVSPost2010Prop56
140
1.0
102
RTVSPost2010PropOp56
 70
     1
102
RTVSPost2010Prop57
140
1.0
102
RTVSPost2010PropOp57
 70
     1
  0
XRECORD
  5
9B6FC
102
{ACAD_REACTORS
330
9B6FB
102
}
330
9B6FB
100
AcDbXrecord
280
     1
102
RTVSPropertyOp0
 70
     1
102
RTVSPropertyOp1
 70
     1
102
RTVSPropertyOp2
 70
     1
102
RTVSPropertyOp3
 70
     1
102
RTVSPropertyOp4
 70
     1
102
RTVSPropertyOp5
 70
     1
102
RTVSPropertyOp6
 70
     1
102
RTVSPropertyOp7
 70
     1
102
RTVSPropertyOp8
 70
     1
102
RTVSPropertyOp9
 70
     1
102
RTVSPropertyOp10
 70
     1
102
RTVSPropertyOp11
 70
     1
102
RTVSPropertyOp12
 70
     1
102
RTVSPropertyOp13
 70
     1
102
RTVSPropertyOp14
 70
     1
102
RTVSPropertyOp15
 70
     1
102
RTVSPropertyOp16
 70
     1
102
RTVSPropertyOp17
 70
     1
102
RTVSPropertyOp18
 70
     1
102
RTVSPropertyOp19
 70
     1
102
RTVSPropertyOp20
 70
     1
102
RTVSPropertyOp21
 70
     1
102
RTVSPropertyOp22
 70
     1
102
RTVSPropertyOp23
 70
     1
102
RTVSPropertyOp24
 70
     1
102
RTVSPropertyOp25
 70
     1
102
RTVSPropertyOp26
 70
     1
102
RTVSPropertyOp27
 70
     1
102
RTVSPropertyOp28
 70
     1
102
RTVSPropertyOp29
 70
     1
102
RTVSPropertyOp30
 70
     1
102
RTVSPropertyOp31
 70
     1
102
RTVSPropertyOp32
 70
     1
102
RTVSPropertyOp33
 70
     1
102
RTVSPropertyOp34
 70
     1
102
RTVSPropertyOp35
 70
     1
102
RTVSPropertyOp36
 70
     1
102
RTVSPropertyOp37
 70
     1
102
RTVSPropertyOp38
 70
     1
102
RTVSPropertyOp39
 70
     1
102
RTVSPropertyOp40
 70
     1
102
RTVSPropertyOp41
 70
     1
102
RTVSPropertyOp42
 70
     1
102
RTVSPropertyOp43
 70
     1
102
RTVSPropertyOp44
 70
     1
102
RTVSPropertyOp45
 70
     1
102
RTVSPropertyOp46
 70
     1
102
RTVSPropertyOp47
 70
     1
102
RTVSPropertyOp48
 70
     1
102
RTVSPropertyOp49
 70
     1
102
RTVSPropertyOp50
 70
     1
102
RTVSPropertyOp51
 70
     0
102
RTVSPropertyOp52
 70
     0
102
RTVSPropertyOp53
 70
     1
102
RTVSPropertyOp54
 70
     1
102
RTVSPropertyOp55
 70
     1
102
RTVSPropertyOp56
 70
     1
102
RTVSPropertyOp57
 70
     1
102
RTVSPost2010Prop28
280
     0
102
RTVSPost2010PropOp28
 70
     1
102
RTVSPost2010Prop29
280
     1
102
RTVSPost2010PropOp29
 70
     1
102
RTVSPost2010Prop30
280
     1
102
RTVSPost2010PropOp30
 70
     1
102
RTVSPost2010Prop31
280
     0
102
RTVSPost2010PropOp31
 70
     1
102
RTVSPost2010Prop32
280
     0
102
RTVSPost2010PropOp32
 70
     1
102
RTVSPost2010Prop33
280
     0
102
RTVSPost2010PropOp33
 70
     1
102
RTVSPost2010Prop34
280
     0
102
RTVSPost2010PropOp34
 70
     1
102
RTVSPost2010Prop35
280
     0
102
RTVSPost2010PropOp35
 70
     1
102
RTVSPost2010Prop36
280
     0
102
RTVSPost2010PropOp36
 70
     1
102
RTVSPost2010Prop37
 90
       50
102
RTVSPost2010PropOp37
 70
     1
102
RTVSPost2010Prop38
140
0.0
102
RTVSPost2010PropOp38
 70
     1
102
RTVSPost2010Prop39
140
1.0
102
RTVSPost2010PropOp39
 70
     1
102
RTVSPost2010Prop40
 90
        0
102
RTVSPost2010PropOp40
 70
     1
102
RTVSPost2010Prop41ColorIndex
 90
       18
102
RTVSPost2010Prop41ColorRGB
 90
        0
102
RTVSPost2010PropOp41
 70
     1
102
RTVSPost2010Prop42
 90
       50
102
RTVSPost2010PropOp42
 70
     1
102
RTVSPost2010Prop43
 90
        3
102
RTVSPost2010PropOp43
 70
     1
102
RTVSPost2010Prop44ColorIndex
 90
        5
102
RTVSPost2010Prop44ColorRGB
 90
      255
102
RTVSPost2010PropOp44
 70
     1
102
RTVSPost2010Prop45
280
     0
102
RTVSPost2010PropOp45
 70
     1
102
RTVSPost2010Prop46
 90
       50
102
RTVSPost2010PropOp46
 70
     1
102
RTVSPost2010Prop47
 90
       50
102
RTVSPost2010PropOp47
 70
     1
102
RTVSPost2010Prop48
 90
       50
102
RTVSPost2010PropOp48
 70
     1
102
RTVSPost2010Prop49
280
     0
102
RTVSPost2010PropOp49
 70
     1
102
RTVSPost2010Prop50
 90
       50
102
RTVSPost2010PropOp50
 70
     1
102
RTVSPost2010Prop51ColorIndex
 90
      256
102
RTVSPost2010Prop51ColorRGB
 90
-16777216
102
RTVSPost2010PropOp51
 70
     0
102
RTVSPost2010Prop52
140
1.0
102
RTVSPost2010PropOp52
 70
     0
102
RTVSPost2010Prop53
 90
        2
102
RTVSPost2010PropOp53
 70
     1
102
RTVSPost2010Prop54
  1
strokes_ogs.tif
102
RTVSPost2010PropOp54
 70
     1
102
RTVSPost2010Prop55
280
     0
102
RTVSPost2010PropOp55
 70
     1
102
RTVSPost2010Prop56
140
1.0
102
RTVSPost2010PropOp56
 70
     1
102
RTVSPost2010Prop57
140
1.0
102
RTVSPost2010PropOp57
 70
     1
  0
XRECORD
  5
9B6FE
102
{ACAD_REACTORS
330
9B6FD
102
}
330
9B6FD
100
AcDbXrecord
280
     1
102
RTVSPropertyOp0
 70
     1
102
RTVSPropertyOp1
 70
     1
102
RTVSPropertyOp2
 70
     1
102
RTVSPropertyOp3
 70
     1
102
RTVSPropertyOp4
 70
     1
102
RTVSPropertyOp5
 70
     1
102
RTVSPropertyOp6
 70
     1
102
RTVSPropertyOp7
 70
     1
102
RTVSPropertyOp8
 70
     1
102
RTVSPropertyOp9
 70
     1
102
RTVSPropertyOp10
 70
     1
102
RTVSPropertyOp11
 70
     1
102
RTVSPropertyOp12
 70
     1
102
RTVSPropertyOp13
 70
     1
102
RTVSPropertyOp14
 70
     1
102
RTVSPropertyOp15
 70
     1
102
RTVSPropertyOp16
 70
     1
102
RTVSPropertyOp17
 70
     1
102
RTVSPropertyOp18
 70
     1
102
RTVSPropertyOp19
 70
     1
102
RTVSPropertyOp20
 70
     1
102
RTVSPropertyOp21
 70
     1
102
RTVSPropertyOp22
 70
     1
102
RTVSPropertyOp23
 70
     1
102
RTVSPropertyOp24
 70
     1
102
RTVSPropertyOp25
 70
     1
102
RTVSPropertyOp26
 70
     1
102
RTVSPropertyOp27
 70
     1
102
RTVSPropertyOp28
 70
     1
102
RTVSPropertyOp29
 70
     1
102
RTVSPropertyOp30
 70
     1
102
RTVSPropertyOp31
 70
     1
102
RTVSPropertyOp32
 70
     1
102
RTVSPropertyOp33
 70
     1
102
RTVSPropertyOp34
 70
     1
102
RTVSPropertyOp35
 70
     1
102
RTVSPropertyOp36
 70
     1
102
RTVSPropertyOp37
 70
     1
102
RTVSPropertyOp38
 70
     1
102
RTVSPropertyOp39
 70
     1
102
RTVSPropertyOp40
 70
     1
102
RTVSPropertyOp41
 70
     1
102
RTVSPropertyOp42
 70
     1
102
RTVSPropertyOp43
 70
     1
102
RTVSPropertyOp44
 70
     1
102
RTVSPropertyOp45
 70
     1
102
RTVSPropertyOp46
 70
     1
102
RTVSPropertyOp47
 70
     1
102
RTVSPropertyOp48
 70
     1
102
RTVSPropertyOp49
 70
     1
102
RTVSPropertyOp50
 70
     1
102
RTVSPropertyOp51
 70
     0
102
RTVSPropertyOp52
 70
     0
102
RTVSPropertyOp53
 70
     1
102
RTVSPropertyOp54
 70
     1
102
RTVSPropertyOp55
 70
     1
102
RTVSPropertyOp56
 70
     1
102
RTVSPropertyOp57
 70
     1
102
RTVSPost2010Prop28
280
     0
102
RTVSPost2010PropOp28
 70
     1
102
RTVSPost2010Prop29
280
     1
102
RTVSPost2010PropOp29
 70
     1
102
RTVSPost2010Prop30
280
     1
102
RTVSPost2010PropOp30
 70
     1
102
RTVSPost2010Prop31
280
     0
102
RTVSPost2010PropOp31
 70
     1
102
RTVSPost2010Prop32
280
     0
102
RTVSPost2010PropOp32
 70
     1
102
RTVSPost2010Prop33
280
     0
102
RTVSPost2010PropOp33
 70
     1
102
RTVSPost2010Prop34
280
     0
102
RTVSPost2010PropOp34
 70
     1
102
RTVSPost2010Prop35
280
     0
102
RTVSPost2010PropOp35
 70
     1
102
RTVSPost2010Prop36
280
     0
102
RTVSPost2010PropOp36
 70
     1
102
RTVSPost2010Prop37
 90
       50
102
RTVSPost2010PropOp37
 70
     1
102
RTVSPost2010Prop38
140
0.0
102
RTVSPost2010PropOp38
 70
     1
102
RTVSPost2010Prop39
140
1.0
102
RTVSPost2010PropOp39
 70
     1
102
RTVSPost2010Prop40
 90
        0
102
RTVSPost2010PropOp40
 70
     1
102
RTVSPost2010Prop41ColorIndex
 90
       18
102
RTVSPost2010Prop41ColorRGB
 90
        0
102
RTVSPost2010PropOp41
 70
     1
102
RTVSPost2010Prop42
 90
       50
102
RTVSPost2010PropOp42
 70
     1
102
RTVSPost2010Prop43
 90
        3
102
RTVSPost2010PropOp43
 70
     1
102
RTVSPost2010Prop44ColorIndex
 90
        5
102
RTVSPost2010Prop44ColorRGB
 90
      255
102
RTVSPost2010PropOp44
 70
     1
102
RTVSPost2010Prop45
280
     0
102
RTVSPost2010PropOp45
 70
     1
102
RTVSPost2010Prop46
 90
       50
102
RTVSPost2010PropOp46
 70
     1
102
RTVSPost2010Prop47
 90
       50
102
RTVSPost2010PropOp47
 70
     1
102
RTVSPost2010Prop48
 90
       50
102
RTVSPost2010PropOp48
 70
     1
102
RTVSPost2010Prop49
280
     0
102
RTVSPost2010PropOp49
 70
     1
102
RTVSPost2010Prop50
 90
       50
102
RTVSPost2010PropOp50
 70
     1
102
RTVSPost2010Prop51ColorIndex
 90
      256
102
RTVSPost2010Prop51ColorRGB
 90
-16777216
102
RTVSPost2010PropOp51
 70
     0
102
RTVSPost2010Prop52
140
1.0
102
RTVSPost2010PropOp52
 70
     0
102
RTVSPost2010Prop53
 90
        2
102
RTVSPost2010PropOp53
 70
     1
102
RTVSPost2010Prop54
  1
strokes_ogs.tif
102
RTVSPost2010PropOp54
 70
     1
102
RTVSPost2010Prop55
280
     0
102
RTVSPost2010PropOp55
 70
     1
102
RTVSPost2010Prop56
140
1.0
102
RTVSPost2010PropOp56
 70
     1
102
RTVSPost2010Prop57
140
1.0
102
RTVSPost2010PropOp57
 70
     1
  0
XRECORD
  5
9B700
102
{ACAD_REACTORS
330
9B6FF
102
}
330
9B6FF
100
AcDbXrecord
280
     1
102
RTVSPropertyOp0
 70
     1
102
RTVSPropertyOp1
 70
     1
102
RTVSPropertyOp2
 70
     1
102
RTVSPropertyOp3
 70
     1
102
RTVSPropertyOp4
 70
     1
102
RTVSPropertyOp5
 70
     1
102
RTVSPropertyOp6
 70
     1
102
RTVSPropertyOp7
 70
     1
102
RTVSPropertyOp8
 70
     1
102
RTVSPropertyOp9
 70
     1
102
RTVSPropertyOp10
 70
     1
102
RTVSPropertyOp11
 70
     1
102
RTVSPropertyOp12
 70
     1
102
RTVSPropertyOp13
 70
     1
102
RTVSPropertyOp14
 70
     1
102
RTVSPropertyOp15
 70
     1
102
RTVSPropertyOp16
 70
     1
102
RTVSPropertyOp17
 70
     1
102
RTVSPropertyOp18
 70
     1
102
RTVSPropertyOp19
 70
     1
102
RTVSPropertyOp20
 70
     1
102
RTVSPropertyOp21
 70
     1
102
RTVSPropertyOp22
 70
     1
102
RTVSPropertyOp23
 70
     1
102
RTVSPropertyOp24
 70
     1
102
RTVSPropertyOp25
 70
     1
102
RTVSPropertyOp26
 70
     1
102
RTVSPropertyOp27
 70
     1
102
RTVSPropertyOp28
 70
     1
102
RTVSPropertyOp29
 70
     1
102
RTVSPropertyOp30
 70
     1
102
RTVSPropertyOp31
 70
     1
102
RTVSPropertyOp32
 70
     1
102
RTVSPropertyOp33
 70
     1
102
RTVSPropertyOp34
 70
     1
102
RTVSPropertyOp35
 70
     1
102
RTVSPropertyOp36
 70
     1
102
RTVSPropertyOp37
 70
     1
102
RTVSPropertyOp38
 70
     1
102
RTVSPropertyOp39
 70
     1
102
RTVSPropertyOp40
 70
     1
102
RTVSPropertyOp41
 70
     1
102
RTVSPropertyOp42
 70
     1
102
RTVSPropertyOp43
 70
     1
102
RTVSPropertyOp44
 70
     1
102
RTVSPropertyOp45
 70
     1
102
RTVSPropertyOp46
 70
     1
102
RTVSPropertyOp47
 70
     1
102
RTVSPropertyOp48
 70
     1
102
RTVSPropertyOp49
 70
     1
102
RTVSPropertyOp50
 70
     1
102
RTVSPropertyOp51
 70
     0
102
RTVSPropertyOp52
 70
     0
102
RTVSPropertyOp53
 70
     1
102
RTVSPropertyOp54
 70
     1
102
RTVSPropertyOp55
 70
     1
102
RTVSPropertyOp56
 70
     1
102
RTVSPropertyOp57
 70
     1
102
RTVSPost2010Prop28
280
     0
102
RTVSPost2010PropOp28
 70
     1
102
RTVSPost2010Prop29
280
     1
102
RTVSPost2010PropOp29
 70
     1
102
RTVSPost2010Prop30
280
     1
102
RTVSPost2010PropOp30
 70
     1
102
RTVSPost2010Prop31
280
     0
102
RTVSPost2010PropOp31
 70
     1
102
RTVSPost2010Prop32
280
     0
102
RTVSPost2010PropOp32
 70
     1
102
RTVSPost2010Prop33
280
     0
102
RTVSPost2010PropOp33
 70
     1
102
RTVSPost2010Prop34
280
     0
102
RTVSPost2010PropOp34
 70
     1
102
RTVSPost2010Prop35
280
     0
102
RTVSPost2010PropOp35
 70
     1
102
RTVSPost2010Prop36
280
     0
102
RTVSPost2010PropOp36
 70
     1
102
RTVSPost2010Prop37
 90
       50
102
RTVSPost2010PropOp37
 70
     1
102
RTVSPost2010Prop38
140
0.0
102
RTVSPost2010PropOp38
 70
     1
102
RTVSPost2010Prop39
140
1.0
102
RTVSPost2010PropOp39
 70
     1
102
RTVSPost2010Prop40
 90
        0
102
RTVSPost2010PropOp40
 70
     1
102
RTVSPost2010Prop41ColorIndex
 90
       18
102
RTVSPost2010Prop41ColorRGB
 90
        0
102
RTVSPost2010PropOp41
 70
     1
102
RTVSPost2010Prop42
 90
       50
102
RTVSPost2010PropOp42
 70
     1
102
RTVSPost2010Prop43
 90
        3
102
RTVSPost2010PropOp43
 70
     1
102
RTVSPost2010Prop44ColorIndex
 90
        5
102
RTVSPost2010Prop44ColorRGB
 90
      255
102
RTVSPost2010PropOp44
 70
     1
102
RTVSPost2010Prop45
280
     0
102
RTVSPost2010PropOp45
 70
     1
102
RTVSPost2010Prop46
 90
       50
102
RTVSPost2010PropOp46
 70
     1
102
RTVSPost2010Prop47
 90
       50
102
RTVSPost2010PropOp47
 70
     1
102
RTVSPost2010Prop48
 90
       50
102
RTVSPost2010PropOp48
 70
     1
102
RTVSPost2010Prop49
280
     0
102
RTVSPost2010PropOp49
 70
     1
102
RTVSPost2010Prop50
 90
       50
102
RTVSPost2010PropOp50
 70
     1
102
RTVSPost2010Prop51ColorIndex
 90
      256
102
RTVSPost2010Prop51ColorRGB
 90
-16777216
102
RTVSPost2010PropOp51
 70
     0
102
RTVSPost2010Prop52
140
1.0
102
RTVSPost2010PropOp52
 70
     0
102
RTVSPost2010Prop53
 90
        2
102
RTVSPost2010PropOp53
 70
     1
102
RTVSPost2010Prop54
  1
strokes_ogs.tif
102
RTVSPost2010PropOp54
 70
     1
102
RTVSPost2010Prop55
280
     0
102
RTVSPost2010PropOp55
 70
     1
102
RTVSPost2010Prop56
140
1.0
102
RTVSPost2010PropOp56
 70
     1
102
RTVSPost2010Prop57
140
1.0
102
RTVSPost2010PropOp57
 70
     1
  0
XRECORD
  5
9B702
102
{ACAD_REACTORS
330
9B701
102
}
330
9B701
100
AcDbXrecord
280
     1
102
RTVSPropertyOp0
 70
     1
102
RTVSPropertyOp1
 70
     1
102
RTVSPropertyOp2
 70
     1
102
RTVSPropertyOp3
 70
     1
102
RTVSPropertyOp4
 70
     1
102
RTVSPropertyOp5
 70
     1
102
RTVSPropertyOp6
 70
     1
102
RTVSPropertyOp7
 70
     1
102
RTVSPropertyOp8
 70
     1
102
RTVSPropertyOp9
 70
     1
102
RTVSPropertyOp10
 70
     1
102
RTVSPropertyOp11
 70
     1
102
RTVSPropertyOp12
 70
     1
102
RTVSPropertyOp13
 70
     1
102
RTVSPropertyOp14
 70
     1
102
RTVSPropertyOp15
 70
     1
102
RTVSPropertyOp16
 70
     1
102
RTVSPropertyOp17
 70
     1
102
RTVSPropertyOp18
 70
     1
102
RTVSPropertyOp19
 70
     1
102
RTVSPropertyOp20
 70
     1
102
RTVSPropertyOp21
 70
     1
102
RTVSPropertyOp22
 70
     1
102
RTVSPropertyOp23
 70
     1
102
RTVSPropertyOp24
 70
     1
102
RTVSPropertyOp25
 70
     1
102
RTVSPropertyOp26
 70
     1
102
RTVSPropertyOp27
 70
     1
102
RTVSPropertyOp28
 70
     1
102
RTVSPropertyOp29
 70
     1
102
RTVSPropertyOp30
 70
     1
102
RTVSPropertyOp31
 70
     1
102
RTVSPropertyOp32
 70
     1
102
RTVSPropertyOp33
 70
     1
102
RTVSPropertyOp34
 70
     1
102
RTVSPropertyOp35
 70
     1
102
RTVSPropertyOp36
 70
     1
102
RTVSPropertyOp37
 70
     1
102
RTVSPropertyOp38
 70
     1
102
RTVSPropertyOp39
 70
     1
102
RTVSPropertyOp40
 70
     1
102
RTVSPropertyOp41
 70
     1
102
RTVSPropertyOp42
 70
     1
102
RTVSPropertyOp43
 70
     1
102
RTVSPropertyOp44
 70
     1
102
RTVSPropertyOp45
 70
     1
102
RTVSPropertyOp46
 70
     1
102
RTVSPropertyOp47
 70
     1
102
RTVSPropertyOp48
 70
     1
102
RTVSPropertyOp49
 70
     1
102
RTVSPropertyOp50
 70
     1
102
RTVSPropertyOp51
 70
     0
102
RTVSPropertyOp52
 70
     0
102
RTVSPropertyOp53
 70
     1
102
RTVSPropertyOp54
 70
     1
102
RTVSPropertyOp55
 70
     1
102
RTVSPropertyOp56
 70
     1
102
RTVSPropertyOp57
 70
     1
102
RTVSPost2010Prop28
280
     0
102
RTVSPost2010PropOp28
 70
     1
102
RTVSPost2010Prop29
280
     1
102
RTVSPost2010PropOp29
 70
     1
102
RTVSPost2010Prop30
280
     1
102
RTVSPost2010PropOp30
 70
     1
102
RTVSPost2010Prop31
280
     0
102
RTVSPost2010PropOp31
 70
     1
102
RTVSPost2010Prop32
280
     0
102
RTVSPost2010PropOp32
 70
     1
102
RTVSPost2010Prop33
280
     0
102
RTVSPost2010PropOp33
 70
     1
102
RTVSPost2010Prop34
280
     0
102
RTVSPost2010PropOp34
 70
     1
102
RTVSPost2010Prop35
280
     0
102
RTVSPost2010PropOp35
 70
     1
102
RTVSPost2010Prop36
280
     0
102
RTVSPost2010PropOp36
 70
     1
102
RTVSPost2010Prop37
 90
       50
102
RTVSPost2010PropOp37
 70
     1
102
RTVSPost2010Prop38
140
0.0
102
RTVSPost2010PropOp38
 70
     1
102
RTVSPost2010Prop39
140
1.0
102
RTVSPost2010PropOp39
 70
     1
102
RTVSPost2010Prop40
 90
        0
102
RTVSPost2010PropOp40
 70
     1
102
RTVSPost2010Prop41ColorIndex
 90
       18
102
RTVSPost2010Prop41ColorRGB
 90
        0
102
RTVSPost2010PropOp41
 70
     1
102
RTVSPost2010Prop42
 90
       50
102
RTVSPost2010PropOp42
 70
     1
102
RTVSPost2010Prop43
 90
        3
102
RTVSPost2010PropOp43
 70
     1
102
RTVSPost2010Prop44ColorIndex
 90
        5
102
RTVSPost2010Prop44ColorRGB
 90
      255
102
RTVSPost2010PropOp44
 70
     1
102
RTVSPost2010Prop45
280
     0
102
RTVSPost2010PropOp45
 70
     1
102
RTVSPost2010Prop46
 90
       50
102
RTVSPost2010PropOp46
 70
     1
102
RTVSPost2010Prop47
 90
       50
102
RTVSPost2010PropOp47
 70
     1
102
RTVSPost2010Prop48
 90
       50
102
RTVSPost2010PropOp48
 70
     1
102
RTVSPost2010Prop49
280
     0
102
RTVSPost2010PropOp49
 70
     1
102
RTVSPost2010Prop50
 90
       50
102
RTVSPost2010PropOp50
 70
     1
102
RTVSPost2010Prop51ColorIndex
 90
      256
102
RTVSPost2010Prop51ColorRGB
 90
-16777216
102
RTVSPost2010PropOp51
 70
     0
102
RTVSPost2010Prop52
140
1.0
102
RTVSPost2010PropOp52
 70
     0
102
RTVSPost2010Prop53
 90
        2
102
RTVSPost2010PropOp53
 70
     1
102
RTVSPost2010Prop54
  1
strokes_ogs.tif
102
RTVSPost2010PropOp54
 70
     1
102
RTVSPost2010Prop55
280
     0
102
RTVSPost2010PropOp55
 70
     1
102
RTVSPost2010Prop56
140
1.0
102
RTVSPost2010PropOp56
 70
     1
102
RTVSPost2010Prop57
140
1.0
102
RTVSPost2010PropOp57
 70
     1
  0
XRECORD
  5
9B704
102
{ACAD_REACTORS
330
9B703
102
}
330
9B703
100
AcDbXrecord
280
     1
102
RTVSPropertyOp0
 70
     1
102
RTVSPropertyOp1
 70
     1
102
RTVSPropertyOp2
 70
     1
102
RTVSPropertyOp3
 70
     1
102
RTVSPropertyOp4
 70
     1
102
RTVSPropertyOp5
 70
     1
102
RTVSPropertyOp6
 70
     1
102
RTVSPropertyOp7
 70
     1
102
RTVSPropertyOp8
 70
     1
102
RTVSPropertyOp9
 70
     1
102
RTVSPropertyOp10
 70
     1
102
RTVSPropertyOp11
 70
     1
102
RTVSPropertyOp12
 70
     1
102
RTVSPropertyOp13
 70
     1
102
RTVSPropertyOp14
 70
     1
102
RTVSPropertyOp15
 70
     1
102
RTVSPropertyOp16
 70
     1
102
RTVSPropertyOp17
 70
     1
102
RTVSPropertyOp18
 70
     1
102
RTVSPropertyOp19
 70
     1
102
RTVSPropertyOp20
 70
     1
102
RTVSPropertyOp21
 70
     1
102
RTVSPropertyOp22
 70
     1
102
RTVSPropertyOp23
 70
     1
102
RTVSPropertyOp24
 70
     1
102
RTVSPropertyOp25
 70
     1
102
RTVSPropertyOp26
 70
     1
102
RTVSPropertyOp27
 70
     1
102
RTVSPropertyOp28
 70
     1
102
RTVSPropertyOp29
 70
     1
102
RTVSPropertyOp30
 70
     1
102
RTVSPropertyOp31
 70
     1
102
RTVSPropertyOp32
 70
     1
102
RTVSPropertyOp33
 70
     1
102
RTVSPropertyOp34
 70
     1
102
RTVSPropertyOp35
 70
     1
102
RTVSPropertyOp36
 70
     1
102
RTVSPropertyOp37
 70
     1
102
RTVSPropertyOp38
 70
     1
102
RTVSPropertyOp39
 70
     1
102
RTVSPropertyOp40
 70
     1
102
RTVSPropertyOp41
 70
     1
102
RTVSPropertyOp42
 70
     1
102
RTVSPropertyOp43
 70
     1
102
RTVSPropertyOp44
 70
     1
102
RTVSPropertyOp45
 70
     1
102
RTVSPropertyOp46
 70
     1
102
RTVSPropertyOp47
 70
     1
102
RTVSPropertyOp48
 70
     1
102
RTVSPropertyOp49
 70
     1
102
RTVSPropertyOp50
 70
     1
102
RTVSPropertyOp51
 70
     0
102
RTVSPropertyOp52
 70
     0
102
RTVSPropertyOp53
 70
     1
102
RTVSPropertyOp54
 70
     1
102
RTVSPropertyOp55
 70
     1
102
RTVSPropertyOp56
 70
     1
102
RTVSPropertyOp57
 70
     1
102
RTVSPost2010Prop28
280
     0
102
RTVSPost2010PropOp28
 70
     1
102
RTVSPost2010Prop29
280
     1
102
RTVSPost2010PropOp29
 70
     1
102
RTVSPost2010Prop30
280
     1
102
RTVSPost2010PropOp30
 70
     1
102
RTVSPost2010Prop31
280
     0
102
RTVSPost2010PropOp31
 70
     1
102
RTVSPost2010Prop32
280
     0
102
RTVSPost2010PropOp32
 70
     1
102
RTVSPost2010Prop33
280
     0
102
RTVSPost2010PropOp33
 70
     1
102
RTVSPost2010Prop34
280
     0
102
RTVSPost2010PropOp34
 70
     1
102
RTVSPost2010Prop35
280
     0
102
RTVSPost2010PropOp35
 70
     1
102
RTVSPost2010Prop36
280
     0
102
RTVSPost2010PropOp36
 70
     1
102
RTVSPost2010Prop37
 90
       50
102
RTVSPost2010PropOp37
 70
     1
102
RTVSPost2010Prop38
140
0.0
102
RTVSPost2010PropOp38
 70
     1
102
RTVSPost2010Prop39
140
1.0
102
RTVSPost2010PropOp39
 70
     1
102
RTVSPost2010Prop40
 90
        0
102
RTVSPost2010PropOp40
 70
     1
102
RTVSPost2010Prop41ColorIndex
 90
       18
102
RTVSPost2010Prop41ColorRGB
 90
        0
102
RTVSPost2010PropOp41
 70
     1
102
RTVSPost2010Prop42
 90
       50
102
RTVSPost2010PropOp42
 70
     1
102
RTVSPost2010Prop43
 90
        3
102
RTVSPost2010PropOp43
 70
     1
102
RTVSPost2010Prop44ColorIndex
 90
        5
102
RTVSPost2010Prop44ColorRGB
 90
      255
102
RTVSPost2010PropOp44
 70
     1
102
RTVSPost2010Prop45
280
     0
102
RTVSPost2010PropOp45
 70
     1
102
RTVSPost2010Prop46
 90
       50
102
RTVSPost2010PropOp46
 70
     1
102
RTVSPost2010Prop47
 90
       50
102
RTVSPost2010PropOp47
 70
     1
102
RTVSPost2010Prop48
 90
       50
102
RTVSPost2010PropOp48
 70
     1
102
RTVSPost2010Prop49
280
     0
102
RTVSPost2010PropOp49
 70
     1
102
RTVSPost2010Prop50
 90
       50
102
RTVSPost2010PropOp50
 70
     1
102
RTVSPost2010Prop51ColorIndex
 90
      256
102
RTVSPost2010Prop51ColorRGB
 90
-16777216
102
RTVSPost2010PropOp51
 70
     0
102
RTVSPost2010Prop52
140
1.0
102
RTVSPost2010PropOp52
 70
     0
102
RTVSPost2010Prop53
 90
        2
102
RTVSPost2010PropOp53
 70
     1
102
RTVSPost2010Prop54
  1
strokes_ogs.tif
102
RTVSPost2010PropOp54
 70
     1
102
RTVSPost2010Prop55
280
     0
102
RTVSPost2010PropOp55
 70
     1
102
RTVSPost2010Prop56
140
1.0
102
RTVSPost2010PropOp56
 70
     1
102
RTVSPost2010Prop57
140
1.0
102
RTVSPost2010PropOp57
 70
     1
  0
XRECORD
  5
9B706
102
{ACAD_REACTORS
330
9B705
102
}
330
9B705
100
AcDbXrecord
280
     1
102
RTVSPropertyOp0
 70
     1
102
RTVSPropertyOp1
 70
     1
102
RTVSPropertyOp2
 70
     1
102
RTVSPropertyOp3
 70
     1
102
RTVSPropertyOp4
 70
     1
102
RTVSPropertyOp5
 70
     1
102
RTVSPropertyOp6
 70
     1
102
RTVSPropertyOp7
 70
     1
102
RTVSPropertyOp8
 70
     1
102
RTVSPropertyOp9
 70
     1
102
RTVSPropertyOp10
 70
     1
102
RTVSPropertyOp11
 70
     1
102
RTVSPropertyOp12
 70
     1
102
RTVSPropertyOp13
 70
     1
102
RTVSPropertyOp14
 70
     1
102
RTVSPropertyOp15
 70
     1
102
RTVSPropertyOp16
 70
     1
102
RTVSPropertyOp17
 70
     1
102
RTVSPropertyOp18
 70
     1
102
RTVSPropertyOp19
 70
     1
102
RTVSPropertyOp20
 70
     1
102
RTVSPropertyOp21
 70
     1
102
RTVSPropertyOp22
 70
     1
102
RTVSPropertyOp23
 70
     1
102
RTVSPropertyOp24
 70
     1
102
RTVSPropertyOp25
 70
     1
102
RTVSPropertyOp26
 70
     1
102
RTVSPropertyOp27
 70
     1
102
RTVSPropertyOp28
 70
     1
102
RTVSPropertyOp29
 70
     1
102
RTVSPropertyOp30
 70
     1
102
RTVSPropertyOp31
 70
     1
102
RTVSPropertyOp32
 70
     1
102
RTVSPropertyOp33
 70
     1
102
RTVSPropertyOp34
 70
     1
102
RTVSPropertyOp35
 70
     1
102
RTVSPropertyOp36
 70
     1
102
RTVSPropertyOp37
 70
     1
102
RTVSPropertyOp38
 70
     1
102
RTVSPropertyOp39
 70
     1
102
RTVSPropertyOp40
 70
     1
102
RTVSPropertyOp41
 70
     1
102
RTVSPropertyOp42
 70
     1
102
RTVSPropertyOp43
 70
     1
102
RTVSPropertyOp44
 70
     1
102
RTVSPropertyOp45
 70
     1
102
RTVSPropertyOp46
 70
     1
102
RTVSPropertyOp47
 70
     1
102
RTVSPropertyOp48
 70
     1
102
RTVSPropertyOp49
 70
     1
102
RTVSPropertyOp50
 70
     1
102
RTVSPropertyOp51
 70
     0
102
RTVSPropertyOp52
 70
     0
102
RTVSPropertyOp53
 70
     1
102
RTVSPropertyOp54
 70
     1
102
RTVSPropertyOp55
 70
     1
102
RTVSPropertyOp56
 70
     1
102
RTVSPropertyOp57
 70
     1
102
RTVSPost2010Prop28
280
     0
102
RTVSPost2010PropOp28
 70
     1
102
RTVSPost2010Prop29
280
     1
102
RTVSPost2010PropOp29
 70
     1
102
RTVSPost2010Prop30
280
     1
102
RTVSPost2010PropOp30
 70
     1
102
RTVSPost2010Prop31
280
     0
102
RTVSPost2010PropOp31
 70
     1
102
RTVSPost2010Prop32
280
     0
102
RTVSPost2010PropOp32
 70
     1
102
RTVSPost2010Prop33
280
     0
102
RTVSPost2010PropOp33
 70
     1
102
RTVSPost2010Prop34
280
     0
102
RTVSPost2010PropOp34
 70
     1
102
RTVSPost2010Prop35
280
     0
102
RTVSPost2010PropOp35
 70
     1
102
RTVSPost2010Prop36
280
     0
102
RTVSPost2010PropOp36
 70
     1
102
RTVSPost2010Prop37
 90
       50
102
RTVSPost2010PropOp37
 70
     1
102
RTVSPost2010Prop38
140
0.0
102
RTVSPost2010PropOp38
 70
     1
102
RTVSPost2010Prop39
140
1.0
102
RTVSPost2010PropOp39
 70
     1
102
RTVSPost2010Prop40
 90
        0
102
RTVSPost2010PropOp40
 70
     1
102
RTVSPost2010Prop41ColorIndex
 90
       18
102
RTVSPost2010Prop41ColorRGB
 90
        0
102
RTVSPost2010PropOp41
 70
     1
102
RTVSPost2010Prop42
 90
       50
102
RTVSPost2010PropOp42
 70
     1
102
RTVSPost2010Prop43
 90
        3
102
RTVSPost2010PropOp43
 70
     1
102
RTVSPost2010Prop44ColorIndex
 90
        5
102
RTVSPost2010Prop44ColorRGB
 90
      255
102
RTVSPost2010PropOp44
 70
     1
102
RTVSPost2010Prop45
280
     0
102
RTVSPost2010PropOp45
 70
     1
102
RTVSPost2010Prop46
 90
       50
102
RTVSPost2010PropOp46
 70
     1
102
RTVSPost2010Prop47
 90
       50
102
RTVSPost2010PropOp47
 70
     1
102
RTVSPost2010Prop48
 90
       50
102
RTVSPost2010PropOp48
 70
     1
102
RTVSPost2010Prop49
280
     0
102
RTVSPost2010PropOp49
 70
     1
102
RTVSPost2010Prop50
 90
       50
102
RTVSPost2010PropOp50
 70
     1
102
RTVSPost2010Prop51ColorIndex
 90
      256
102
RTVSPost2010Prop51ColorRGB
 90
-16777216
102
RTVSPost2010PropOp51
 70
     0
102
RTVSPost2010Prop52
140
1.0
102
RTVSPost2010PropOp52
 70
     0
102
RTVSPost2010Prop53
 90
        2
102
RTVSPost2010PropOp53
 70
     1
102
RTVSPost2010Prop54
  1
strokes_ogs.tif
102
RTVSPost2010PropOp54
 70
     1
102
RTVSPost2010Prop55
280
     0
102
RTVSPost2010PropOp55
 70
     1
102
RTVSPost2010Prop56
140
1.0
102
RTVSPost2010PropOp56
 70
     1
102
RTVSPost2010Prop57
140
1.0
102
RTVSPost2010PropOp57
 70
     1
  0
ENDSEC
  0
EOF
