  0
SECTION
  2
HEADER
  9
$ACADVER
  1
AC1014
  9
$ACADMAINTVER
 70
     9
  9
$DWGCODEPAGE
  3
ANSI_932
  9
$INSBASE
 10
0.0
 20
0.0
 30
0.0
  9
$EXTMIN
 10
-1293.273902839602
 20
-736.8804767342298
 30
-0.0015258207003583
  9
$EXTMAX
 10
1388.122574878067
 20
1316.505444034124
 30
0.0000000349246037
  9
$LIMMIN
 10
-4200.0
 20
-2970.0
  9
$LIMMAX
 10
4200.0
 20
2970.0
  9
$ORTHOMODE
 70
     0
  9
$REGENMODE
 70
     1
  9
$FILLMODE
 70
     1
  9
$QTEXTMODE
 70
     0
  9
$MIRRTEXT
 70
     0
  9
$DRAGMODE
 70
     2
  9
$LTSCALE
 40
20.0
  9
$OSMODE
 70
    37
  9
$ATTMODE
 70
     1
  9
$TEXTSIZE
 40
64.0
  9
$TRACEWID
 40
0.05
  9
$TEXTSTYLE
  7
STANDARD
  9
$CLAYER
  8
0
  9
$CELTYPE
  6
CONTINUOUS
  9
$CECOLOR
 62
     7
  9
$CELTSCALE
 40
1.0
  9
$DELOBJ
 70
     1
  9
$DISPSILH
 70
     0
  9
$DIMSCALE
 40
1.0
  9
$DIMASZ
 40
10.0
  9
$DIMEXO
 40
20.0
  9
$DIMDLI
 40
200.0
  9
$DIMRND
 40
0.0
  9
$DIMDLE
 40
0.0
  9
$DIMEXE
 40
30.0
  9
$DIMTP
 40
0.0
  9
$DIMTM
 40
0.0
  9
$DIMTXT
 40
64.0
  9
$DIMCEN
 40
0.0
  9
$DIMTSZ
 40
0.0
  9
$DIMTOL
 70
     0
  9
$DIMLIM
 70
     0
  9
$DIMTIH
 70
     0
  9
$DIMTOH
 70
     0
  9
$DIMSE1
 70
     0
  9
$DIMSE2
 70
     0
  9
$DIMTAD
 70
     1
  9
$DIMZIN
 70
     8
  9
$DIMBLK
  1
DOTBLANK
  9
$DIMASO
 70
     1
  9
$DIMSHO
 70
     0
  9
$DIMPOST
  1

  9
$DIMAPOST
  1

  9
$DIMALT
 70
     0
  9
$DIMALTD
 70
     2
  9
$DIMALTF
 40
25.4
  9
$DIMLFAC
 40
1.0
  9
$DIMTOFL
 70
     1
  9
$DIMTVP
 40
0.0
  9
$DIMTIX
 70
     1
  9
$DIMSOXD
 70
     0
  9
$DIMSAH
 70
     0
  9
$DIMBLK1
  1
DOTBLANK
  9
$DIMBLK2
  1
ORIGIN
  9
$DIMSTYLE
  2
STANDARD
  9
$DIMCLRD
 70
     0
  9
$DIMCLRE
 70
     0
  9
$DIMCLRT
 70
     0
  9
$DIMTFAC
 40
1.0
  9
$DIMGAP
 40
0.09
  9
$DIMJUST
 70
     0
  9
$DIMSD1
 70
     0
  9
$DIMSD2
 70
     0
  9
$DIMTOLJ
 70
     1
  9
$DIMTZIN
 70
     0
  9
$DIMALTZ
 70
     0
  9
$DIMALTTZ
 70
     0
  9
$DIMFIT
 70
     3
  9
$DIMUPT
 70
     0
  9
$DIMUNIT
 70
     2
  9
$DIMDEC
 70
     4
  9
$DIMTDEC
 70
     4
  9
$DIMALTU
 70
     2
  9
$DIMALTTD
 70
     2
  9
$DIMTXSTY
  7
STANDARD
  9
$DIMAUNIT
 70
     0
  9
$LUNITS
 70
     2
  9
$LUPREC
 70
     4
  9
$SKETCHINC
 40
0.1
  9
$FILLETRAD
 40
0.0
  9
$AUNITS
 70
     1
  9
$AUPREC
 70
     3
  9
$MENU
  1
ACAD
  9
$ELEVATION
 40
0.0
  9
$PELEVATION
 40
0.0
  9
$THICKNESS
 40
0.0
  9
$LIMCHECK
 70
     0
  9
$BLIPMODE
 70
     0
  9
$CHAMFERA
 40
0.0
  9
$CHAMFERB
 40
0.0
  9
$CHAMFERC
 40
0.0
  9
$CHAMFERD
 40
0.0
  9
$SKPOLY
 70
     0
  9
$TDCREATE
 40
2449761.493622685
  9
$TDUPDATE
 40
2453973.710428680
  9
$TDINDWG
 40
0.9754312153
  9
$TDUSRTIMER
 40
0.9754310301
  9
$USRTIMER
 70
     1
  9
$ANGBASE
 50
0.0
  9
$ANGDIR
 70
     0
  9
$PDMODE
 70
    35
  9
$PDSIZE
 40
100.0
  9
$PLINEWID
 40
0.0
  9
$COORDS
 70
     2
  9
$SPLFRAME
 70
     0
  9
$SPLINETYPE
 70
     6
  9
$SPLINESEGS
 70
     8
  9
$ATTDIA
 70
     0
  9
$ATTREQ
 70
     1
  9
$HANDLING
 70
-16383
  9
$HANDSEED
  5
25E
  9
$SURFTAB1
 70
     6
  9
$SURFTAB2
 70
     6
  9
$SURFTYPE
 70
     6
  9
$SURFU
 70
     6
  9
$SURFV
 70
     6
  9
$UCSNAME
  2

  9
$UCSORG
 10
0.0
 20
0.0
 30
0.0
  9
$UCSXDIR
 10
1.0
 20
0.0
 30
0.0
  9
$UCSYDIR
 10
0.0
 20
1.0
 30
0.0
  9
$PUCSNAME
  2

  9
$PUCSORG
 10
0.0
 20
0.0
 30
0.0
  9
$PUCSXDIR
 10
1.0
 20
0.0
 30
0.0
  9
$PUCSYDIR
 10
0.0
 20
1.0
 30
0.0
  9
$USERI1
 70
     0
  9
$USERI2
 70
     0
  9
$USERI3
 70
     0
  9
$USERI4
 70
     0
  9
$USERI5
 70
     0
  9
$USERR1
 40
20.0
  9
$USERR2
 40
0.0
  9
$USERR3
 40
0.0
  9
$USERR4
 40
0.0
  9
$USERR5
 40
0.0
  9
$WORLDVIEW
 70
     1
  9
$SHADEDGE
 70
     3
  9
$SHADEDIF
 70
    70
  9
$TILEMODE
 70
     1
  9
$MAXACTVP
 70
    64
  9
$PINSBASE
 10
0.0
 20
0.0
 30
0.0
  9
$PLIMCHECK
 70
     0
  9
$PEXTMIN
 10
1.000000000000000E+20
 20
1.000000000000000E+20
 30
1.000000000000000E+20
  9
$PEXTMAX
 10
-1.000000000000000E+20
 20
-1.000000000000000E+20
 30
-1.000000000000000E+20
  9
$PLIMMIN
 10
0.0
 20
0.0
  9
$PLIMMAX
 10
12.0
 20
9.0
  9
$UNITMODE
 70
     0
  9
$VISRETAIN
 70
     1
  9
$PLINEGEN
 70
     0
  9
$PSLTSCALE
 70
     1
  9
$TREEDEPTH
 70
  3020
  9
$PICKSTYLE
 70
     0
  9
$CMLSTYLE
  2
STANDARD
  9
$CMLJUST
 70
     0
  9
$CMLSCALE
 40
1.0
  9
$PROXYGRAPHICS
 70
     1
  9
$MEASUREMENT
 70
     0
  0
ENDSEC
  0
SECTION
  2
CLASSES
  0
CLASS
  1
ACDBDICTIONARYWDFLT
  2
AcDbDictionaryWithDefault
  3
AutoCAD 2000
 90
        0
280
     0
281
     0
  0
CLASS
  1
ACDBPLACEHOLDER
  2
AcDbPlaceHolder
  3
AutoCAD 2000
 90
        0
280
     0
281
     0
  0
CLASS
  1
LAYOUT
  2
AcDbLayout
  3
AutoCAD 2000
 90
        0
280
     0
281
     0
  0
CLASS
  1
LONG_TRANSACTION
  2
AcDbLongTransaction
  3
AutoCAD 2000
 90
        0
280
     0
281
     0
  0
CLASS
  1
LWPOLYLINE
  2
AcDbPolyline
  3
AutoCAD 2000
 90
        0
280
     0
281
     1
  0
CLASS
  1
HATCH
  2
AcDbHatch
  3
AutoCAD 2000
 90
        0
280
     0
281
     1
  0
CLASS
  1
XRECORD
  2
AcDbXrecord
  3
AutoCAD 2000
 90
        0
280
     0
281
     0
  0
ENDSEC
  0
SECTION
  2
TABLES
  0
TABLE
  2
VPORT
  5
8
330
0
100
AcDbSymbolTable
 70
     3
  0
VPORT
  5
238
330
8
100
AcDbSymbolTableRecord
100
AcDbViewportTableRecord
  2
*ACTIVE
 70
     0
 10
0.0
 20
0.0
 11
1.0
 21
1.0
 12
47.42433601923233
 22
289.8124836499472
 13
0.0
 23
0.0
 14
50.0
 24
50.0
 15
100.0
 25
100.0
 16
0.0
 26
0.0
 36
1.0
 17
0.0
 27
0.0
 37
0.0
 40
2069.386330540575
 41
1.657997399219765
 42
50.0
 43
0.0
 44
0.0
 50
0.0
 51
0.0
 71
     0
 72
  1000
 73
     1
 74
     0
 75
     0
 76
     0
 77
     0
 78
     0
  0
ENDTAB
  0
TABLE
  2
LTYPE
  5
5
330
0
100
AcDbSymbolTable
 70
     2
  0
LTYPE
  5
13
330
5
100
AcDbSymbolTableRecord
100
AcDbLinetypeTableRecord
  2
BYBLOCK
 70
     0
  3

 72
    65
 73
     0
 40
0.0
  0
LTYPE
  5
14
330
5
100
AcDbSymbolTableRecord
100
AcDbLinetypeTableRecord
  2
BYLAYER
 70
     0
  3

 72
    65
 73
     0
 40
0.0
  0
LTYPE
  5
15
330
5
100
AcDbSymbolTableRecord
100
AcDbLinetypeTableRecord
  2
CONTINUOUS
 70
     0
  3
????
 72
    65
 73
     0
 40
0.0
  0
LTYPE
  5
22
330
5
100
AcDbSymbolTableRecord
100
AcDbLinetypeTableRecord
  2
DASHDOT
 70
     0
  3
____ _ ____ _ ____ _ ____ _ ____ _ ____ _ ____
 72
    65
 73
     4
 40
5.5
 49
4.0
 74
     0
 49
-0.6
 74
     0
 49
0.3
 74
     0
 49
-0.6
 74
     0
  0
ENDTAB
  0
TABLE
  2
LAYER
  5
2
330
0
100
AcDbSymbolTable
 70
    12
  0
LAYER
  5
10
330
2
100
AcDbSymbolTableRecord
100
AcDbLayerTableRecord
  2
0
 70
     0
 62
     7
  6
CONTINUOUS
  0
LAYER
  5
23
330
2
100
AcDbSymbolTableRecord
100
AcDbLayerTableRecord
  2
OUTLINE
 70
     0
 62
     3
  6
CONTINUOUS
  0
LAYER
  5
24
330
2
100
AcDbSymbolTableRecord
100
AcDbLayerTableRecord
  2
DETAIL
 70
     0
 62
     5
  6
CONTINUOUS
  0
LAYER
  5
25
330
2
100
AcDbSymbolTableRecord
100
AcDbLayerTableRecord
  2
BASIS
 70
     0
 62
     6
  6
DASHDOT
  0
LAYER
  5
26
330
2
100
AcDbSymbolTableRecord
100
AcDbLayerTableRecord
  2
SIZE
 70
     0
 62
    30
  6
CONTINUOUS
  0
LAYER
  5
27
330
2
100
AcDbSymbolTableRecord
100
AcDbLayerTableRecord
  2
NOTE
 70
     0
 62
     4
  6
CONTINUOUS
  0
LAYER
  5
28
330
2
100
AcDbSymbolTableRecord
100
AcDbLayerTableRecord
  2
ARRANGE
 70
     0
 62
     1
  6
CONTINUOUS
  0
LAYER
  5
29
330
2
100
AcDbSymbolTableRecord
100
AcDbLayerTableRecord
  2
FIX
 70
     0
 62
    11
  6
CONTINUOUS
  0
LAYER
  5
2A
330
2
100
AcDbSymbolTableRecord
100
AcDbLayerTableRecord
  2
SERVICESPACE
 70
     0
 62
     2
  6
DASHDOT
  0
LAYER
  5
2B
330
2
100
AcDbSymbolTableRecord
100
AcDbLayerTableRecord
  2
ETC
 70
     0
 62
    61
  6
CONTINUOUS
  0
LAYER
  5
2C
330
2
100
AcDbSymbolTableRecord
100
AcDbLayerTableRecord
  2
SYMBOLLINE
 70
     0
 62
    15
  6
CONTINUOUS
  0
LAYER
  5
2D
330
2
100
AcDbSymbolTableRecord
100
AcDbLayerTableRecord
  2
DEFPOINTS
 70
     0
 62
     7
  6
CONTINUOUS
  0
ENDTAB
  0
TABLE
  2
STYLE
  5
3
330
0
100
AcDbSymbolTable
 70
     2
  0
STYLE
  5
11
330
3
100
AcDbSymbolTableRecord
100
AcDbTextStyleTableRecord
  2
STANDARD
 70
     0
 40
0.0
 41
0.9
 50
0.0
 71
     0
 42
64.0
  3
SIMPLEX
  4
BIGFONT
  0
STYLE
  5
2E
330
3
100
AcDbSymbolTableRecord
100
AcDbTextStyleTableRecord
  2
STANDARD1
 70
     0
 40
0.0
 41
1.0
 50
0.0
 71
     0
 42
64.0
  3
MONOTXT
  4
BIGFONT
  0
ENDTAB
  0
TABLE
  2
VIEW
  5
6
330
0
100
AcDbSymbolTable
 70
     1
  0
VIEW
  5
2F
330
6
100
AcDbSymbolTableRecord
100
AcDbViewTableRecord
  2
ALL
 70
     0
 40
6056.230032000001
 10
0.0
 20
58.11501599999999
 41
8400.0
 11
0.0
 21
0.0
 31
1.0
 12
0.0
 22
0.0
 32
0.0
 42
50.0
 43
0.0
 44
0.0
 50
0.0
 71
     0
  0
ENDTAB
  0
TABLE
  2
UCS
  5
7
330
0
100
AcDbSymbolTable
 70
     0
  0
ENDTAB
  0
TABLE
  2
APPID
  5
9
330
0
100
AcDbSymbolTable
 70
     1
  0
APPID
  5
12
330
9
100
AcDbSymbolTableRecord
100
AcDbRegAppTableRecord
  2
ACAD
 70
     0
  0
ENDTAB
  0
TABLE
  2
DIMSTYLE
  5
A
330
0
100
AcDbSymbolTable
 70
     1
  0
DIMSTYLE
105
211
330
A
100
AcDbSymbolTableRecord
100
AcDbDimStyleTableRecord
  2
STANDARD
 70
     0
  3

  4

  5

  6

  7

 40
1.0
 41
0.18
 42
0.0625
 43
0.38
 44
0.18
 45
0.0
 46
0.0
 47
0.0
 48
0.0
140
0.18
141
0.09
142
0.0
143
25.4
144
1.0
145
0.0
146
1.0
147
0.09
 71
     0
 72
     0
 73
     1
 74
     1
 75
     0
 76
     0
 77
     0
 78
     0
170
     0
171
     2
172
     0
173
     0
174
     0
175
     0
176
     0
177
     0
178
     0
270
     2
271
     4
272
     4
273
     2
274
     2
340
11
275
     0
280
     0
281
     0
282
     0
283
     1
284
     0
285
     0
286
     0
287
     3
288
     0
  0
ENDTAB
  0
TABLE
  2
BLOCK_RECORD
  5
1
330
0
100
AcDbSymbolTable
 70
     2
  0
BLOCK_RECORD
  5
1E
102
{ACAD_XDICTIONARY
360
25C
102
}
330
1
100
AcDbSymbolTableRecord
100
AcDbBlockTableRecord
  2
*MODEL_SPACE
  0
BLOCK_RECORD
  5
1A
102
{ACAD_XDICTIONARY
360
25A
102
}
330
1
100
AcDbSymbolTableRecord
100
AcDbBlockTableRecord
  2
*PAPER_SPACE
  0
BLOCK_RECORD
  5
34
330
1
100
AcDbSymbolTableRecord
100
AcDbBlockTableRecord
  2
_ORIGIN
  0
BLOCK_RECORD
  5
39
330
1
100
AcDbSymbolTableRecord
100
AcDbBlockTableRecord
  2
_DOTBLANK
  0
ENDTAB
  0
ENDSEC
  0
SECTION
  2
BLOCKS
  0
BLOCK
  5
1F
330
1E
100
AcDbEntity
  8
0
100
AcDbBlockBegin
  2
*MODEL_SPACE
 70
     0
 10
0.0
 20
0.0
 30
0.0
  3
*MODEL_SPACE
  1

  0
ENDBLK
  5
20
330
1E
100
AcDbEntity
  8
0
100
AcDbBlockEnd
  0
BLOCK
  5
1B
330
1A
100
AcDbEntity
 67
     1
  8
0
100
AcDbBlockBegin
  2
*PAPER_SPACE
 70
     0
 10
0.0
 20
0.0
 30
0.0
  3
*PAPER_SPACE
  1

  0
ENDBLK
  5
1C
330
1A
100
AcDbEntity
 67
     1
  8
0
100
AcDbBlockEnd
  0
BLOCK
  5
35
330
34
100
AcDbEntity
  8
0
100
AcDbBlockBegin
  2
_ORIGIN
 70
     0
 10
0.0
 20
0.0
 30
0.0
  3
_ORIGIN
  1

  0
CIRCLE
  5
36
330
34
100
AcDbEntity
  8
0
  6
CONTINUOUS
 62
     7
100
AcDbCircle
 10
0.0
 20
0.0
 30
0.0
 40
0.5
  0
LINE
  5
37
330
34
100
AcDbEntity
  8
0
  6
CONTINUOUS
 62
     7
100
AcDbLine
 10
-0.5
 20
0.0
 30
0.0
 11
-1.0
 21
0.0
 31
0.0
  0
ENDBLK
  5
38
330
34
100
AcDbEntity
  8
0
100
AcDbBlockEnd
  0
BLOCK
  5
3A
330
39
100
AcDbEntity
  8
0
100
AcDbBlockBegin
  2
_DOTBLANK
 70
     0
 10
0.0
 20
0.0
 30
0.0
  3
_DOTBLANK
  1

  0
CIRCLE
  5
3B
330
39
100
AcDbEntity
  8
0
  6
CONTINUOUS
 62
     7
100
AcDbCircle
 10
0.0
 20
0.0
 30
0.0
 40
0.5
  0
LINE
  5
3C
330
39
100
AcDbEntity
  8
0
  6
CONTINUOUS
 62
     7
100
AcDbLine
 10
-0.5
 20
0.0
 30
0.0
 11
-1.0
 21
0.0
 31
0.0
  0
ENDBLK
  5
3D
330
39
100
AcDbEntity
  8
0
100
AcDbBlockEnd
  0
ENDSEC
  0
SECTION
  2
ENTITIES
  0
TEXT
  5
3E
330
1E
100
AcDbEntity
  8
0
  6
CONTINUOUS
 62
     7
100
AcDbText
 10
12761.29
 20
1934.172
 30
0.0
 40
3.2
  1
 
 50
0.000003
 41
0.5989580000000001
  7
STANDARD1
100
AcDbText
  0
LINE
  5
3F
330
1E
100
AcDbEntity
  8
DETAIL
  6
CONTINUOUS
 62
     5
100
AcDbLine
 10
387.999999999998
 20
338.0
 30
0.0
 11
-388.0000000000008
 21
337.9999999999995
 31
0.0
  0
CIRCLE
  5
40
330
1E
100
AcDbEntity
  8
ARRANGE
  6
CONTINUOUS
 62
     1
100
AcDbCircle
 10
0.0
 20
0.0
 30
0.0
 40
40.0
  0
LINE
  5
41
330
1E
100
AcDbEntity
  8
DETAIL
  6
CONTINUOUS
 62
     5
100
AcDbLine
 10
-388.0000000000008
 20
47.99999999999954
 30
0.0
 11
387.999999999998
 21
48.0
 31
0.0
  0
LINE
  5
42
330
1E
100
AcDbEntity
  8
DETAIL
  6
CONTINUOUS
 62
     5
100
AcDbLine
 10
507.9999999999994
 20
45.0
 30
0.0
 11
-508.0
 21
45.0
 31
0.0
  0
LINE
  5
43
330
1E
100
AcDbEntity
  8
DETAIL
  6
CONTINUOUS
 62
     5
100
AcDbLine
 10
539.9999999999996
 20
0.0
 30
0.0
 11
-540.0
 21
0.0
 31
0.0
  0
LINE
  5
44
330
1E
100
AcDbEntity
  8
DETAIL
  6
CONTINUOUS
 62
     5
100
AcDbLine
 10
532.9999999999996
 20
-8.0
 30
0.0
 11
-533.0
 21
-8.0
 31
0.0
  0
POINT
  5
45
330
1E
100
AcDbEntity
  8
ARRANGE
  6
CONTINUOUS
 62
     1
100
AcDbPoint
 10
0.0
 20
0.0
 30
0.0
  0
LINE
  5
46
330
1E
100
AcDbEntity
  8
DETAIL
  6
CONTINUOUS
 62
     5
100
AcDbLine
 10
-508.0
 20
45.0
 30
0.0
 11
-508.0
 21
0.0
 31
0.0
  0
LINE
  5
47
330
1E
100
AcDbEntity
  8
BASIS
  6
DASHDOT
 62
     6
100
AcDbLine
 10
0.0
 20
395.864066
 30
0.0
 11
0.0
 21
-76.41819699999998
 31
0.0
  0
ARC
  5
48
330
1E
100
AcDbEntity
  8
DETAIL
  6
CONTINUOUS
 62
     5
100
AcDbCircle
 10
-533.0
 20
-1.0
 30
0.0
 40
7.0
100
AcDbArc
 50
180.0
 51
270.0
  0
LINE
  5
49
330
1E
100
AcDbEntity
  8
DETAIL
  6
CONTINUOUS
 62
     5
100
AcDbLine
 10
-540.0
 20
-1.0
 30
0.0
 11
-540.0
 21
0.0
 31
0.0
  0
LINE
  5
4A
330
1E
100
AcDbEntity
  8
DETAIL
  6
CONTINUOUS
 62
     5
100
AcDbLine
 10
-388.0000000000008
 20
338.0
 30
0.0
 11
-388.0000000000008
 21
45.0
 31
0.0
  0
CIRCLE
  5
4B
330
1E
100
AcDbEntity
  8
FIX
  6
CONTINUOUS
 62
    11
100
AcDbCircle
 10
-412.0
 20
148.0
 30
0.0
 40
20.0
  0
LINE
  5
4C
330
1E
100
AcDbEntity
  8
NOTE
  6
CONTINUOUS
 62
     4
100
AcDbLine
 10
-392.0
 20
148.0
 30
0.0
 11
-432.0
 21
148.0
 31
0.0
  0
LWPOLYLINE
  5
4D
330
1E
100
AcDbEntity
  8
NOTE
  6
CONTINUOUS
 62
     4
100
AcDbPolyline
 90
        3
 70
     0
 43
0.0
 10
-419.6983773379129
 20
187.2521972717185
 10
-412.0
 20
148.0
 10
-438.2930889879853
 20
178.1442115709687
  0
LINE
  5
52
330
1E
100
AcDbEntity
  8
NOTE
  6
CONTINUOUS
 62
     4
100
AcDbLine
 10
-412.0
 20
148.0
 30
0.0
 11
-626.5672928158265
 21
586.3744267360134
 31
0.0
  0
LINE
  5
53
330
1E
100
AcDbEntity
  8
DETAIL
  6
CONTINUOUS
 62
     5
100
AcDbLine
 10
-388.0
 20
148.0
 30
0.0
 11
-438.0
 21
148.0
 31
0.0
  0
LINE
  5
54
330
1E
100
AcDbEntity
  8
DETAIL
  6
CONTINUOUS
 62
     5
100
AcDbLine
 10
-438.0
 20
148.0
 30
0.0
 11
-438.0
 21
145.7000000000001
 31
0.0
  0
LINE
  5
55
330
1E
100
AcDbEntity
  8
NOTE
  6
CONTINUOUS
 62
     4
100
AcDbLine
 10
-412.0
 20
128.0
 30
0.0
 11
-412.0
 21
168.0
 31
0.0
  0
LINE
  5
56
330
1E
100
AcDbEntity
  8
NOTE
  6
CONTINUOUS
 62
     4
100
AcDbLine
 10
501.9999999999985
 20
212.9999999999994
 30
0.0
 11
888.9036829999986
 21
-148.3351450000004
 31
0.0
  0
LINE
  5
57
330
1E
100
AcDbEntity
  8
NOTE
  6
CONTINUOUS
 62
     4
100
AcDbLine
 10
417.9999999999985
 20
71.99999999999954
 30
0.0
 11
832.4512243207564
 21
-575.3321279044643
 31
0.0
  0
LINE
  5
58
330
1E
100
AcDbEntity
  8
DETAIL
  6
CONTINUOUS
 62
     5
100
AcDbLine
 10
507.9999999999994
 20
44.99999999999952
 30
0.0
 11
507.9999999999994
 21
-0.0000000000004547
 31
0.0
  0
LINE
  5
59
330
1E
100
AcDbEntity
  8
NOTE
  6
CONTINUOUS
 62
     4
100
AcDbLine
 10
832.4512243207564
 20
-575.3321279044643
 30
0.0
 11
1010.442963320756
 21
-575.3321279044643
 31
0.0
  0
ARC
  5
5A
330
1E
100
AcDbEntity
  8
DETAIL
  6
CONTINUOUS
 62
     5
100
AcDbCircle
 10
532.9999999999996
 20
-1.000000000000454
 30
0.0
 40
7.0
100
AcDbArc
 50
270.0
 51
0.0
  0
LINE
  5
5B
330
1E
100
AcDbEntity
  8
DETAIL
  6
CONTINUOUS
 62
     5
100
AcDbLine
 10
539.9999999999996
 20
-0.0000000000004547
 30
0.0
 11
539.9999999999996
 21
-1.000000000000454
 31
0.0
  0
LINE
  5
5C
330
1E
100
AcDbEntity
  8
NOTE
  6
CONTINUOUS
 62
     4
100
AcDbLine
 10
888.9036829999986
 20
-148.3351450000004
 30
0.0
 11
1186.678999999998
 21
-148.3351450000004
 31
0.0
  0
TEXT
  5
5D
330
1E
100
AcDbEntity
  8
NOTE
  6
CONTINUOUS
 62
     4
100
AcDbText
 10
924.4936659104753
 20
-122.0872162825844
 30
0.0
 40
64.0
  1
CL,EL
 41
0.9
100
AcDbText
  0
TEXT
  5
5E
330
1E
100
AcDbEntity
  8
NOTE
  6
CONTINUOUS
 62
     4
100
AcDbText
 10
868.5946023207566
 20
-551.9962529044647
 30
0.0
 40
64.0
  1
D2
 41
0.9
100
AcDbText
  0
LINE
  5
5F
330
1E
100
AcDbEntity
  8
NOTE
  6
CONTINUOUS
 62
     4
100
AcDbLine
 10
454.9999999999985
 20
216.0
 30
0.0
 11
907.6977658081496
 21
583.7848652465035
 31
0.0
  0
LINE
  5
60
330
1E
100
AcDbEntity
  8
NOTE
  6
CONTINUOUS
 62
     4
100
AcDbLine
 10
460.9999999999985
 20
215.9999999999994
 30
0.0
 11
957.7576275354921
 21
-367.5340543476381
 31
0.0
  0
TEXT
  5
61
330
1E
100
AcDbEntity
  8
NOTE
  6
CONTINUOUS
 62
     4
100
AcDbText
 10
822.8590605253426
 20
806.7951478713142
 30
0.0
 40
64.0
  1
D1 VP-25
 41
0.9
100
AcDbText
  0
LINE
  5
62
330
1E
100
AcDbEntity
  8
NOTE
  6
CONTINUOUS
 62
     4
100
AcDbLine
 10
387.9999999999991
 20
277.9999999999994
 30
0.0
 11
789.1344389895674
 21
780.7862208713145
 31
0.0
  0
LINE
  5
63
330
1E
100
AcDbEntity
  8
NOTE
  6
CONTINUOUS
 62
     4
100
AcDbLine
 10
1264.649250989567
 20
780.7862208713145
 30
0.0
 11
789.1344389895674
 21
780.7862208713145
 31
0.0
  0
LINE
  5
64
330
1E
100
AcDbEntity
  8
DETAIL
  6
CONTINUOUS
 62
     5
100
AcDbLine
 10
387.9999999999985
 20
338.0
 30
0.0
 11
387.9999999999985
 21
45.0
 31
0.0
  0
LINE
  5
65
330
1E
100
AcDbEntity
  8
NOTE
  6
CONTINUOUS
 62
     4
100
AcDbLine
 10
521.9999999999985
 20
212.9999999999994
 30
0.0
 11
481.9999999999985
 21
212.9999999999994
 31
0.0
  0
LWPOLYLINE
  5
66
330
1E
100
AcDbEntity
  8
NOTE
  6
CONTINUOUS
 62
     4
100
AcDbPolyline
 90
        3
 70
     0
 43
0.0
 10
522.7224889999984
 20
178.7862829999994
 10
501.9999999999985
 20
212.9999999999994
 10
537.0530609999986
 20
193.7312959999993
  0
LINE
  5
6B
330
1E
100
AcDbEntity
  8
NOTE
  6
CONTINUOUS
 62
     4
100
AcDbLine
 10
501.9999999999985
 20
192.9999999999994
 30
0.0
 11
501.9999999999985
 21
232.9999999999994
 31
0.0
  0
LINE
  5
6C
330
1E
100
AcDbEntity
  8
DETAIL
  6
CONTINUOUS
 62
     5
100
AcDbLine
 10
501.9999999999988
 20
237.9999999999991
 30
0.0
 11
501.9999999999985
 21
187.9999999999994
 31
0.0
  0
LINE
  5
6D
330
1E
100
AcDbEntity
  8
DETAIL
  6
CONTINUOUS
 62
     5
100
AcDbLine
 10
387.999999999998
 20
59.49999999999954
 30
0.0
 11
417.9999999999985
 21
59.49999999999909
 31
0.0
  0
LINE
  5
6E
330
1E
100
AcDbEntity
  8
DETAIL
  6
CONTINUOUS
 62
     5
100
AcDbLine
 10
387.999999999998
 20
84.49999999999954
 30
0.0
 11
417.9999999999985
 21
84.49999999999906
 31
0.0
  0
LINE
  5
6F
330
1E
100
AcDbEntity
  8
NOTE
  6
CONTINUOUS
 62
     4
100
AcDbLine
 10
437.9999999999985
 20
71.99999999999954
 30
0.0
 11
397.9999999999985
 21
71.99999999999954
 31
0.0
  0
LINE
  5
70
330
1E
100
AcDbEntity
  8
NOTE
  6
CONTINUOUS
 62
     4
100
AcDbLine
 10
417.9999999999985
 20
51.99999999999954
 30
0.0
 11
417.9999999999985
 21
91.99999999999954
 31
0.0
  0
LWPOLYLINE
  5
71
330
1E
100
AcDbEntity
  8
NOTE
  6
CONTINUOUS
 62
     4
100
AcDbPolyline
 90
        3
 70
     0
 43
0.0
 10
430.0894404365557
 20
33.87067547728384
 10
417.9999999999985
 20
71.99999999999954
 10
447.5344252917437
 20
45.02375669835554
  0
LINE
  5
76
330
1E
100
AcDbEntity
  8
DETAIL
  6
CONTINUOUS
 62
     5
100
AcDbLine
 10
387.9999999999985
 20
237.9999999999991
 30
0.0
 11
501.9999999999988
 21
237.9999999999991
 31
0.0
  0
LINE
  5
77
330
1E
100
AcDbEntity
  8
DETAIL
  6
CONTINUOUS
 62
     5
100
AcDbLine
 10
417.9999999999985
 20
84.49999999999954
 30
0.0
 11
417.9999999999985
 21
59.49999999999954
 31
0.0
  0
CIRCLE
  5
78
330
1E
100
AcDbEntity
  8
FIX
  6
CONTINUOUS
 62
    11
100
AcDbCircle
 10
411.999999999998
 20
148.0
 30
0.0
 40
20.0
  0
LINE
  5
79
330
1E
100
AcDbEntity
  8
NOTE
  6
CONTINUOUS
 62
     4
100
AcDbLine
 10
431.999999999998
 20
148.0
 30
0.0
 11
391.999999999998
 21
148.0
 31
0.0
  0
LINE
  5
7A
330
1E
100
AcDbEntity
  8
DETAIL
  6
CONTINUOUS
 62
     5
100
AcDbLine
 10
437.9999999999982
 20
148.0
 30
0.0
 11
387.999999999998
 21
148.0
 31
0.0
  0
LINE
  5
7B
330
1E
100
AcDbEntity
  8
NOTE
  6
CONTINUOUS
 62
     4
100
AcDbLine
 10
411.999999999998
 20
128.0
 30
0.0
 11
411.999999999998
 21
168.0
 31
0.0
  0
LINE
  5
7C
330
1E
100
AcDbEntity
  8
NOTE
  6
CONTINUOUS
 62
     4
100
AcDbLine
 10
480.9999999999985
 20
216.0
 30
0.0
 11
440.9999999999985
 21
216.0
 31
0.0
  0
LINE
  5
7D
330
1E
100
AcDbEntity
  8
NOTE
  6
CONTINUOUS
 62
     4
100
AcDbLine
 10
460.9999999999985
 20
196.0
 30
0.0
 11
460.9999999999985
 21
236.0
 31
0.0
  0
LINE
  5
7E
330
1E
100
AcDbEntity
  8
NOTE
  6
CONTINUOUS
 62
     4
100
AcDbLine
 10
474.9999999999984
 20
216.0
 30
0.0
 11
434.9999999999985
 21
216.0
 31
0.0
  0
LINE
  5
7F
330
1E
100
AcDbEntity
  8
NOTE
  6
CONTINUOUS
 62
     4
100
AcDbLine
 10
454.9999999999985
 20
196.0
 30
0.0
 11
454.9999999999985
 21
236.0
 31
0.0
  0
LWPOLYLINE
  5
80
330
1E
100
AcDbEntity
  8
NOTE
  6
CONTINUOUS
 62
     4
100
AcDbPolyline
 90
        3
 70
     0
 43
0.0
 10
491.4872907671909
 20
232.3913885633441
 10
454.9999999999985
 20
216.0
 10
478.403226737956
 20
248.4390040129806
  0
LWPOLYLINE
  5
85
330
1E
100
AcDbEntity
  8
NOTE
  6
CONTINUOUS
 62
     4
100
AcDbPolyline
 90
        3
 70
     0
 43
0.0
 10
478.2066891758827
 20
179.8900313014087
 10
460.9999999999985
 20
215.9999999999994
 10
493.9564139115327
 20
193.3311940682196
  0
LINE
  5
8A
330
1E
100
AcDbEntity
  8
DETAIL
  6
CONTINUOUS
 62
     5
100
AcDbLine
 10
387.9999999999985
 20
156.0799999999999
 30
0.0
 11
501.9999999999988
 21
188.0
 31
0.0
  0
LINE
  5
8B
330
1E
100
AcDbEntity
  8
DETAIL
  6
CONTINUOUS
 62
     5
100
AcDbLine
 10
437.9999999999982
 20
148.0
 30
0.0
 11
437.9999999999982
 21
145.7000000000001
 31
0.0
  0
LWPOLYLINE
  5
8C
330
1E
100
AcDbEntity
  8
NOTE
  6
CONTINUOUS
 62
     4
100
AcDbPolyline
 90
        3
 70
     0
 43
0.0
 10
420.0006281124095
 20
301.9991628875331
 10
387.9999999999991
 20
277.9999999999994
 10
403.7137755867814
 20
314.7841982622903
  0
LINE
  5
91
330
1E
100
AcDbEntity
  8
NOTE
  6
CONTINUOUS
 62
     4
100
AcDbLine
 10
907.6977658081496
 20
583.7848652465035
 30
0.0
 11
1338.055205808148
 21
583.7848652465035
 31
0.0
  0
LINE
  5
92
330
1E
100
AcDbEntity
  8
NOTE
  6
CONTINUOUS
 62
     4
100
AcDbLine
 10
957.7576275354921
 20
-367.5340543476381
 30
0.0
 11
1388.114707535492
 21
-367.5340543476381
 31
0.0
  0
TEXT
  5
93
330
1E
100
AcDbEntity
  8
NOTE
  6
CONTINUOUS
 62
     4
100
AcDbText
 10
938.9490187331372
 20
612.411665542621
 30
0.0
 40
64.0
  1
RL %%c6.35
 41
0.9
100
AcDbText
  0
TEXT
  5
94
330
1E
100
AcDbEntity
  8
NOTE
  6
CONTINUOUS
 62
     4
100
AcDbText
 10
992.4595980264912
 20
-340.6585347506588
 30
0.0
 40
64.0
  1
RG %%c12.7
 41
0.9
100
AcDbText
  0
TEXT
  5
95
330
1E
100
AcDbEntity
  8
ETC
  6
CONTINUOUS
 62
    61
100
AcDbText
 10
311.5641032336425
 20
1252.054167374878
 30
0.0
 40
64.0
  1
PLFY-P20_40VLMD-E_5
 41
0.9
100
AcDbText
  0
LINE
  5
96
330
1E
100
AcDbEntity
  8
SERVICESPACE
  6
DASHDOT
 62
     2
100
AcDbLine
 10
-520.0
 20
0.0
 30
0.0
 11
-580.0
 21
0.0
 31
0.0
  0
LINE
  5
97
330
1E
100
AcDbEntity
  8
SERVICESPACE
  6
DASHDOT
 62
     2
100
AcDbLine
 10
-520.0
 20
20.0
 30
0.0
 11
-580.0
 21
20.0
 31
0.0
  0
LINE
  5
98
330
1E
100
AcDbEntity
  8
SERVICESPACE
  6
DASHDOT
 62
     2
100
AcDbLine
 10
-520.0
 20
20.0
 30
0.0
 11
-520.0
 21
0.0
 31
0.0
  0
LINE
  5
99
330
1E
100
AcDbEntity
  8
SERVICESPACE
  6
DASHDOT
 62
     2
100
AcDbLine
 10
579.9999999999996
 20
0.0
 30
0.0
 11
519.9999999999996
 21
0.0
 31
0.0
  0
LINE
  5
9A
330
1E
100
AcDbEntity
  8
SERVICESPACE
  6
DASHDOT
 62
     2
100
AcDbLine
 10
519.9999999999996
 20
20.0
 30
0.0
 11
519.9999999999996
 21
0.0
 31
0.0
  0
LINE
  5
9B
330
1E
100
AcDbEntity
  8
SERVICESPACE
  6
DASHDOT
 62
     2
100
AcDbLine
 10
579.9999999999996
 20
20.0
 30
0.0
 11
519.9999999999996
 21
20.0
 31
0.0
  0
LINE
  5
9C
330
1E
100
AcDbEntity
  8
NOTE
  6
CONTINUOUS
 62
     4
100
AcDbLine
 10
-248.0000000000008
 20
304.0
 30
0.0
 11
-288.0000000000008
 21
304.0
 31
0.0
  0
LINE
  5
9D
330
1E
100
AcDbEntity
  8
NOTE
  6
CONTINUOUS
 62
     4
100
AcDbLine
 10
-268.0000000000008
 20
284.0
 30
0.0
 11
-268.0000000000008
 21
324.0
 31
0.0
  0
LINE
  5
9E
330
1E
100
AcDbEntity
  8
NOTE
  6
CONTINUOUS
 62
     4
100
AcDbLine
 10
-30.50000000000091
 20
304.0
 30
0.0
 11
-70.50000000000091
 21
304.0
 31
0.0
  0
LINE
  5
9F
330
1E
100
AcDbEntity
  8
NOTE
  6
CONTINUOUS
 62
     4
100
AcDbLine
 10
-50.50000000000089
 20
284.0
 30
0.0
 11
-50.50000000000089
 21
324.0
 31
0.0
  0
LINE
  5
A0
330
1E
100
AcDbEntity
  8
NOTE
  6
CONTINUOUS
 62
     4
100
AcDbLine
 10
166.9999999999991
 20
284.0
 30
0.0
 11
166.9999999999991
 21
324.0
 31
0.0
  0
LINE
  5
A1
330
1E
100
AcDbEntity
  8
NOTE
  6
CONTINUOUS
 62
     4
100
AcDbLine
 10
186.9999999999991
 20
304.0
 30
0.0
 11
146.9999999999989
 21
304.0
 31
0.0
  0
LINE
  5
A2
330
1E
100
AcDbEntity
  8
NOTE
  6
CONTINUOUS
 62
     4
100
AcDbLine
 10
-248.0000000000008
 20
145.0
 30
0.0
 11
-288.0000000000008
 21
145.0
 31
0.0
  0
LINE
  5
A3
330
1E
100
AcDbEntity
  8
NOTE
  6
CONTINUOUS
 62
     4
100
AcDbLine
 10
-268.0000000000008
 20
125.0
 30
0.0
 11
-268.0000000000008
 21
165.0
 31
0.0
  0
LINE
  5
A4
330
1E
100
AcDbEntity
  8
NOTE
  6
CONTINUOUS
 62
     4
100
AcDbLine
 10
-30.50000000000091
 20
145.0
 30
0.0
 11
-70.50000000000091
 21
145.0
 31
0.0
  0
LINE
  5
A5
330
1E
100
AcDbEntity
  8
NOTE
  6
CONTINUOUS
 62
     4
100
AcDbLine
 10
-50.50000000000089
 20
125.0
 30
0.0
 11
-50.50000000000089
 21
165.0
 31
0.0
  0
LINE
  5
A6
330
1E
100
AcDbEntity
  8
NOTE
  6
CONTINUOUS
 62
     4
100
AcDbLine
 10
166.9999999999991
 20
125.0
 30
0.0
 11
166.9999999999991
 21
165.0
 31
0.0
  0
LINE
  5
A7
330
1E
100
AcDbEntity
  8
NOTE
  6
CONTINUOUS
 62
     4
100
AcDbLine
 10
186.9999999999991
 20
145.0
 30
0.0
 11
146.9999999999989
 21
145.0
 31
0.0
  0
LINE
  5
A8
330
1E
100
AcDbEntity
  8
NOTE
  6
CONTINUOUS
 62
     4
100
AcDbLine
 10
166.9999999999981
 20
303.9999999999985
 30
0.0
 11
596.4917744945787
 21
984.2995962983945
 31
0.0
  0
LWPOLYLINE
  5
A9
330
1E
100
AcDbEntity
  8
NOTE
  6
CONTINUOUS
 62
     4
100
AcDbPolyline
 90
        3
 70
     0
 43
0.0
 10
196.308996192577
 20
331.2209987260362
 10
166.9999999999981
 20
303.9999999999985
 10
178.7718350300455
 20
342.22857387501
  0
LINE
  5
AE
330
1E
100
AcDbEntity
  8
NOTE
  6
CONTINUOUS
 62
     4
100
AcDbLine
 10
387.9999999999985
 20
257.9999999999994
 30
0.0
 11
387.9999999999985
 21
297.9999999999995
 31
0.0
  0
LINE
  5
AF
330
1E
100
AcDbEntity
  8
NOTE
  6
CONTINUOUS
 62
     4
100
AcDbLine
 10
407.9999999999984
 20
277.9999999999994
 30
0.0
 11
367.9999999999985
 21
277.9999999999994
 31
0.0
  0
LINE
  5
B0
330
1E
100
AcDbEntity
  8
DETAIL
  6
CONTINUOUS
 62
     5
100
AcDbLine
 10
166.9999999999985
 20
285.9999999999994
 30
0.0
 11
-268.0000000000018
 21
286.0
 31
0.0
  0
LINE
  5
B1
330
1E
100
AcDbEntity
  8
DETAIL
  6
CONTINUOUS
 62
     5
100
AcDbLine
 10
166.9999999999985
 20
175.9999999999994
 30
0.0
 11
-268.0000000000018
 21
175.9999999999994
 31
0.0
  0
LINE
  5
B2
330
1E
100
AcDbEntity
  8
DETAIL
  6
CONTINUOUS
 62
     5
100
AcDbLine
 10
166.9999999999985
 20
285.9999999999994
 30
0.0
 11
166.9999999999985
 21
175.9999999999994
 31
0.0
  0
LINE
  5
B3
330
1E
100
AcDbEntity
  8
DETAIL
  6
CONTINUOUS
 62
     5
100
AcDbLine
 10
-268.0000000000013
 20
285.9999999999994
 30
0.0
 11
-268.0000000000013
 21
175.9999999999994
 31
0.0
  0
LINE
  5
B4
330
1E
100
AcDbEntity
  8
DETAIL
  6
CONTINUOUS
 62
     5
100
AcDbLine
 10
437.9999999999982
 20
145.6999999999998
 30
0.0
 11
387.999999999998
 21
145.6999999999998
 31
0.0
  0
LINE
  5
B5
330
1E
100
AcDbEntity
  8
DETAIL
  6
CONTINUOUS
 62
     5
100
AcDbLine
 10
-388.0
 20
145.6999999999998
 30
0.0
 11
-438.0
 21
145.6999999999998
 31
0.0
  0
LINE
  5
B6
330
1E
100
AcDbEntity
  8
SIZE
  6
CONTINUOUS
 62
    30
100
AcDbLine
 10
387.999999999998
 20
358.0
 30
0.0
 11
387.999999999998
 21
637.3869999999996
 31
0.0
  0
LINE
  5
B7
330
1E
100
AcDbEntity
  8
SIZE
  6
CONTINUOUS
 62
    30
100
AcDbLine
 10
166.9999999999991
 20
344.0
 30
0.0
 11
166.9999999999991
 21
637.3869999999996
 31
0.0
  0
LINE
  5
B8
330
1E
100
AcDbEntity
  8
SIZE
  6
CONTINUOUS
 62
    30
100
AcDbLine
 10
377.9999999999982
 20
607.3869999999995
 30
0.0
 11
176.999999999999
 21
607.3869999999995
 31
0.0
  0
CIRCLE
  5
B9
330
1E
100
AcDbEntity
  8
SIZE
  6
CONTINUOUS
 62
    30
100
AcDbCircle
 10
387.999999999998
 20
607.3869999999995
 30
0.0
 40
5.0
  0
LINE
  5
BA
330
1E
100
AcDbEntity
  8
SIZE
  6
CONTINUOUS
 62
    30
100
AcDbLine
 10
382.999999999998
 20
607.3869999999995
 30
0.0
 11
377.999999999998
 21
607.3869999999995
 31
0.0
  0
CIRCLE
  5
BB
330
1E
100
AcDbEntity
  8
SIZE
  6
CONTINUOUS
 62
    30
100
AcDbCircle
 10
166.9999999999991
 20
607.3869999999995
 30
0.0
 40
5.0
  0
LINE
  5
BC
330
1E
100
AcDbEntity
  8
SIZE
  6
CONTINUOUS
 62
    30
100
AcDbLine
 10
171.999999999999
 20
607.3869999999995
 30
0.0
 11
176.999999999999
 21
607.3869999999995
 31
0.0
  0
TEXT
  5
BD
330
1E
100
AcDbEntity
  8
SIZE
  6
CONTINUOUS
 62
    30
100
AcDbText
 10
210.3218968372334
 20
627.3869999999996
 30
0.0
 40
64.0
  1
221
 41
0.9
 72
     1
 11
272.0361825515191
 21
627.3869999999996
 31
0.0
100
AcDbText
  0
POINT
  5
BE
330
1E
100
AcDbEntity
  8
DEFPOINTS
  6
CONTINUOUS
 62
     7
100
AcDbPoint
 10
387.999999999998
 20
338.0
 30
0.0
  0
POINT
  5
BF
330
1E
100
AcDbEntity
  8
DEFPOINTS
  6
CONTINUOUS
 62
     7
100
AcDbPoint
 10
166.9999999999991
 20
324.0
 30
0.0
  0
POINT
  5
C0
330
1E
100
AcDbEntity
  8
DEFPOINTS
  6
CONTINUOUS
 62
     7
100
AcDbPoint
 10
166.9999999999991
 20
607.3869999999995
 30
0.0
  0
LINE
  5
C1
330
1E
100
AcDbEntity
  8
SIZE
  6
CONTINUOUS
 62
    30
100
AcDbLine
 10
-50.50000000000089
 20
344.0
 30
0.0
 11
-50.50000000000089
 21
509.7928008183465
 31
0.0
  0
LINE
  5
C2
330
1E
100
AcDbEntity
  8
SIZE
  6
CONTINUOUS
 62
    30
100
AcDbLine
 10
166.9999999999991
 20
344.0
 30
0.0
 11
166.9999999999991
 21
509.7928008183465
 31
0.0
  0
LINE
  5
C3
330
1E
100
AcDbEntity
  8
SIZE
  6
CONTINUOUS
 62
    30
100
AcDbLine
 10
-60.50000000000089
 20
479.7928008183466
 30
0.0
 11
-70.50000000000091
 21
479.7928008183466
 31
0.0
  0
LINE
  5
C4
330
1E
100
AcDbEntity
  8
SIZE
  6
CONTINUOUS
 62
    30
100
AcDbLine
 10
176.9999999999989
 20
479.7928008183466
 30
0.0
 11
186.9999999999991
 21
479.7928008183466
 31
0.0
  0
LINE
  5
C5
330
1E
100
AcDbEntity
  8
SIZE
  6
CONTINUOUS
 62
    30
100
AcDbLine
 10
-50.50000000000089
 20
479.7928008183466
 30
0.0
 11
166.9999999999991
 21
479.7928008183466
 31
0.0
  0
CIRCLE
  5
C6
330
1E
100
AcDbEntity
  8
SIZE
  6
CONTINUOUS
 62
    30
100
AcDbCircle
 10
-50.50000000000089
 20
479.7928008183466
 30
0.0
 40
5.0
  0
LINE
  5
C7
330
1E
100
AcDbEntity
  8
SIZE
  6
CONTINUOUS
 62
    30
100
AcDbLine
 10
-55.50000000000089
 20
479.7928008183466
 30
0.0
 11
-60.50000000000089
 21
479.7928008183466
 31
0.0
  0
CIRCLE
  5
C8
330
1E
100
AcDbEntity
  8
SIZE
  6
CONTINUOUS
 62
    30
100
AcDbCircle
 10
166.9999999999991
 20
479.7928008183466
 30
0.0
 40
5.0
  0
LINE
  5
C9
330
1E
100
AcDbEntity
  8
SIZE
  6
CONTINUOUS
 62
    30
100
AcDbLine
 10
171.999999999999
 20
479.7928008183466
 30
0.0
 11
176.999999999999
 21
479.7928008183466
 31
0.0
  0
TEXT
  5
CA
330
1E
100
AcDbEntity
  8
SIZE
  6
CONTINUOUS
 62
    30
100
AcDbText
 10
-51.46428571428661
 20
499.7928008183465
 30
0.0
 40
64.0
  1
217.5
 41
0.9
 72
     1
 11
58.24999999999909
 21
499.7928008183465
 31
0.0
100
AcDbText
  0
POINT
  5
CB
330
1E
100
AcDbEntity
  8
DEFPOINTS
  6
CONTINUOUS
 62
     7
100
AcDbPoint
 10
-50.50000000000089
 20
324.0
 30
0.0
  0
POINT
  5
CC
330
1E
100
AcDbEntity
  8
DEFPOINTS
  6
CONTINUOUS
 62
     7
100
AcDbPoint
 10
166.9999999999991
 20
324.0
 30
0.0
  0
POINT
  5
CD
330
1E
100
AcDbEntity
  8
DEFPOINTS
  6
CONTINUOUS
 62
     7
100
AcDbPoint
 10
166.9999999999991
 20
479.7928008183466
 30
0.0
  0
LINE
  5
CE
330
1E
100
AcDbEntity
  8
SIZE
  6
CONTINUOUS
 62
    30
100
AcDbLine
 10
166.9999999999991
 20
344.0
 30
0.0
 11
166.9999999999991
 21
637.3869999999996
 31
0.0
  0
LINE
  5
CF
330
1E
100
AcDbEntity
  8
SIZE
  6
CONTINUOUS
 62
    30
100
AcDbLine
 10
-268.0000000000008
 20
344.0
 30
0.0
 11
-268.0000000000008
 21
637.3869999999996
 31
0.0
  0
LINE
  5
D0
330
1E
100
AcDbEntity
  8
SIZE
  6
CONTINUOUS
 62
    30
100
AcDbLine
 10
156.999999999999
 20
607.3869999999995
 30
0.0
 11
-258.0000000000008
 21
607.3869999999995
 31
0.0
  0
CIRCLE
  5
D1
330
1E
100
AcDbEntity
  8
SIZE
  6
CONTINUOUS
 62
    30
100
AcDbCircle
 10
166.9999999999991
 20
607.3869999999995
 30
0.0
 40
5.0
  0
LINE
  5
D2
330
1E
100
AcDbEntity
  8
SIZE
  6
CONTINUOUS
 62
    30
100
AcDbLine
 10
161.9999999999991
 20
607.3869999999995
 30
0.0
 11
156.999999999999
 21
607.3869999999995
 31
0.0
  0
CIRCLE
  5
D3
330
1E
100
AcDbEntity
  8
SIZE
  6
CONTINUOUS
 62
    30
100
AcDbCircle
 10
-268.0000000000008
 20
607.3869999999995
 30
0.0
 40
5.0
  0
LINE
  5
D4
330
1E
100
AcDbEntity
  8
SIZE
  6
CONTINUOUS
 62
    30
100
AcDbLine
 10
-263.0000000000008
 20
607.3869999999995
 30
0.0
 11
-258.0000000000008
 21
607.3869999999995
 31
0.0
  0
TEXT
  5
D5
330
1E
100
AcDbEntity
  8
SIZE
  6
CONTINUOUS
 62
    30
100
AcDbText
 10
-182.8494190882164
 20
620.9134183568993
 30
0.0
 40
64.0
  1
435
 41
0.9
 72
     1
 11
-108.7922762310735
 21
620.9134183568993
 31
0.0
100
AcDbText
  0
POINT
  5
D6
330
1E
100
AcDbEntity
  8
DEFPOINTS
  6
CONTINUOUS
 62
     7
100
AcDbPoint
 10
166.9999999999991
 20
324.0
 30
0.0
  0
POINT
  5
D7
330
1E
100
AcDbEntity
  8
DEFPOINTS
  6
CONTINUOUS
 62
     7
100
AcDbPoint
 10
-268.0000000000008
 20
324.0
 30
0.0
  0
POINT
  5
D8
330
1E
100
AcDbEntity
  8
DEFPOINTS
  6
CONTINUOUS
 62
     7
100
AcDbPoint
 10
-268.0000000000008
 20
607.3869999999995
 30
0.0
  0
LINE
  5
D9
330
1E
100
AcDbEntity
  8
SIZE
  6
CONTINUOUS
 62
    30
100
AcDbLine
 10
-388.0000000000008
 20
357.9999999999994
 30
0.0
 11
-388.0000000000008
 21
871.6490106821749
 31
0.0
  0
LINE
  5
DA
330
1E
100
AcDbEntity
  8
SIZE
  6
CONTINUOUS
 62
    30
100
AcDbLine
 10
387.9999999999985
 20
357.9999999999994
 30
0.0
 11
387.9999999999985
 21
871.6490106821749
 31
0.0
  0
LINE
  5
DB
330
1E
100
AcDbEntity
  8
SIZE
  6
CONTINUOUS
 62
    30
100
AcDbLine
 10
-378.0000000000008
 20
841.6490106821752
 30
0.0
 11
377.9999999999985
 21
841.6490106821752
 31
0.0
  0
CIRCLE
  5
DC
330
1E
100
AcDbEntity
  8
SIZE
  6
CONTINUOUS
 62
    30
100
AcDbCircle
 10
-388.0000000000008
 20
841.6490106821752
 30
0.0
 40
5.0
  0
LINE
  5
DD
330
1E
100
AcDbEntity
  8
SIZE
  6
CONTINUOUS
 62
    30
100
AcDbLine
 10
-383.0000000000008
 20
841.6490106821752
 30
0.0
 11
-378.0000000000008
 21
841.6490106821752
 31
0.0
  0
CIRCLE
  5
DE
330
1E
100
AcDbEntity
  8
SIZE
  6
CONTINUOUS
 62
    30
100
AcDbCircle
 10
387.9999999999985
 20
841.6490106821752
 30
0.0
 40
5.0
  0
LINE
  5
DF
330
1E
100
AcDbEntity
  8
SIZE
  6
CONTINUOUS
 62
    30
100
AcDbLine
 10
382.9999999999985
 20
841.6490106821752
 30
0.0
 11
377.9999999999985
 21
841.6490106821752
 31
0.0
  0
TEXT
  5
E0
330
1E
100
AcDbEntity
  8
SIZE
  6
CONTINUOUS
 62
    30
100
AcDbText
 10
-72.68571428571537
 20
861.6490106821753
 30
0.0
 40
64.0
  1
776
 41
0.9
 72
     1
 11
-0.00000000000108
 21
861.6490106821753
 31
0.0
100
AcDbText
  0
POINT
  5
E1
330
1E
100
AcDbEntity
  8
DEFPOINTS
  6
CONTINUOUS
 62
     7
100
AcDbPoint
 10
-388.0000000000008
 20
337.9999999999995
 30
0.0
  0
POINT
  5
E2
330
1E
100
AcDbEntity
  8
DEFPOINTS
  6
CONTINUOUS
 62
     7
100
AcDbPoint
 10
387.9999999999985
 20
337.9999999999995
 30
0.0
  0
POINT
  5
E3
330
1E
100
AcDbEntity
  8
DEFPOINTS
  6
CONTINUOUS
 62
     7
100
AcDbPoint
 10
387.9999999999985
 20
841.6490106821752
 30
0.0
  0
LINE
  5
E4
330
1E
100
AcDbEntity
  8
SIZE
  6
CONTINUOUS
 62
    30
100
AcDbLine
 10
-520.0
 20
-20.0
 30
0.0
 11
-520.0
 21
-208.7615646318786
 31
0.0
  0
LINE
  5
E5
330
1E
100
AcDbEntity
  8
SIZE
  6
CONTINUOUS
 62
    30
100
AcDbLine
 10
519.9999999999996
 20
-20.0
 30
0.0
 11
519.9999999999996
 21
-208.7615646318786
 31
0.0
  0
LINE
  5
E6
330
1E
100
AcDbEntity
  8
SIZE
  6
CONTINUOUS
 62
    30
100
AcDbLine
 10
-510.0
 20
-178.7615646318785
 30
0.0
 11
509.9999999999995
 21
-178.7615646318785
 31
0.0
  0
CIRCLE
  5
E7
330
1E
100
AcDbEntity
  8
SIZE
  6
CONTINUOUS
 62
    30
100
AcDbCircle
 10
-520.0
 20
-178.7615646318785
 30
0.0
 40
5.0
  0
LINE
  5
E8
330
1E
100
AcDbEntity
  8
SIZE
  6
CONTINUOUS
 62
    30
100
AcDbLine
 10
-515.0
 20
-178.7615646318785
 30
0.0
 11
-510.0
 21
-178.7615646318785
 31
0.0
  0
CIRCLE
  5
E9
330
1E
100
AcDbEntity
  8
SIZE
  6
CONTINUOUS
 62
    30
100
AcDbCircle
 10
519.9999999999996
 20
-178.7615646318785
 30
0.0
 40
5.0
  0
LINE
  5
EA
330
1E
100
AcDbEntity
  8
SIZE
  6
CONTINUOUS
 62
    30
100
AcDbLine
 10
514.9999999999996
 20
-178.7615646318785
 30
0.0
 11
509.9999999999996
 21
-178.7615646318785
 31
0.0
  0
TEXT
  5
EB
330
1E
100
AcDbEntity
  8
SIZE
  6
CONTINUOUS
 62
    30
100
AcDbText
 10
-96.00000000000022
 20
-158.7615646318786
 30
0.0
 40
64.0
  1
1040
 41
0.9
 72
     1
 11
-0.0000000000002274
 21
-158.7615646318786
 31
0.0
100
AcDbText
  0
POINT
  5
EC
330
1E
100
AcDbEntity
  8
DEFPOINTS
  6
CONTINUOUS
 62
     7
100
AcDbPoint
 10
-520.0
 20
0.0
 30
0.0
  0
POINT
  5
ED
330
1E
100
AcDbEntity
  8
DEFPOINTS
  6
CONTINUOUS
 62
     7
100
AcDbPoint
 10
519.9999999999996
 20
0.0
 30
0.0
  0
POINT
  5
EE
330
1E
100
AcDbEntity
  8
DEFPOINTS
  6
CONTINUOUS
 62
     7
100
AcDbPoint
 10
519.9999999999996
 20
-178.7615646318785
 30
0.0
  0
LINE
  5
EF
330
1E
100
AcDbEntity
  8
SIZE
  6
CONTINUOUS
 62
    30
100
AcDbLine
 10
-520.0
 20
-20.0
 30
0.0
 11
-520.0
 21
-208.7615646318786
 31
0.0
  0
LINE
  5
F0
330
1E
100
AcDbEntity
  8
SIZE
  6
CONTINUOUS
 62
    30
100
AcDbLine
 10
-540.0
 20
-21.0
 30
0.0
 11
-540.0
 21
-208.7615646318786
 31
0.0
  0
LINE
  5
F1
330
1E
100
AcDbEntity
  8
SIZE
  6
CONTINUOUS
 62
    30
100
AcDbLine
 10
-510.0
 20
-178.7615646318785
 30
0.0
 11
-500.0
 21
-178.7615646318785
 31
0.0
  0
LINE
  5
F2
330
1E
100
AcDbEntity
  8
SIZE
  6
CONTINUOUS
 62
    30
100
AcDbLine
 10
-550.0
 20
-178.7615646318785
 30
0.0
 11
-693.2571428571427
 21
-178.7615646318785
 31
0.0
  0
LINE
  5
F3
330
1E
100
AcDbEntity
  8
SIZE
  6
CONTINUOUS
 62
    30
100
AcDbLine
 10
-520.0
 20
-178.7615646318785
 30
0.0
 11
-540.0
 21
-178.7615646318785
 31
0.0
  0
CIRCLE
  5
F4
330
1E
100
AcDbEntity
  8
SIZE
  6
CONTINUOUS
 62
    30
100
AcDbCircle
 10
-520.0
 20
-178.7615646318785
 30
0.0
 40
5.0
  0
LINE
  5
F5
330
1E
100
AcDbEntity
  8
SIZE
  6
CONTINUOUS
 62
    30
100
AcDbLine
 10
-515.0
 20
-178.7615646318785
 30
0.0
 11
-510.0
 21
-178.7615646318785
 31
0.0
  0
CIRCLE
  5
F6
330
1E
100
AcDbEntity
  8
SIZE
  6
CONTINUOUS
 62
    30
100
AcDbCircle
 10
-540.0
 20
-178.7615646318785
 30
0.0
 40
5.0
  0
LINE
  5
F7
330
1E
100
AcDbEntity
  8
SIZE
  6
CONTINUOUS
 62
    30
100
AcDbLine
 10
-545.0
 20
-178.7615646318785
 30
0.0
 11
-550.0
 21
-178.7615646318785
 31
0.0
  0
TEXT
  5
F8
330
1E
100
AcDbEntity
  8
SIZE
  6
CONTINUOUS
 62
    30
100
AcDbText
 10
-673.2571428571427
 20
-158.7615646318786
 30
0.0
 40
64.0
  1
20
 41
0.9
 72
     1
 11
-626.6285714285714
 21
-158.7615646318786
 31
0.0
100
AcDbText
  0
POINT
  5
F9
330
1E
100
AcDbEntity
  8
DEFPOINTS
  6
CONTINUOUS
 62
     7
100
AcDbPoint
 10
-520.0
 20
0.0
 30
0.0
  0
POINT
  5
FA
330
1E
100
AcDbEntity
  8
DEFPOINTS
  6
CONTINUOUS
 62
     7
100
AcDbPoint
 10
-540.0
 20
-1.0
 30
0.0
  0
POINT
  5
FB
330
1E
100
AcDbEntity
  8
DEFPOINTS
  6
CONTINUOUS
 62
     7
100
AcDbPoint
 10
-540.0
 20
-178.7615646318785
 30
0.0
  0
LINE
  5
FC
330
1E
100
AcDbEntity
  8
SIZE
  6
CONTINUOUS
 62
    30
100
AcDbLine
 10
519.9999999999996
 20
-20.0
 30
0.0
 11
519.9999999999996
 21
-208.7615646318786
 31
0.0
  0
LINE
  5
FD
330
1E
100
AcDbEntity
  8
SIZE
  6
CONTINUOUS
 62
    30
100
AcDbLine
 10
539.9999999999996
 20
-20.0
 30
0.0
 11
539.9999999999996
 21
-208.7615646318786
 31
0.0
  0
LINE
  5
FE
330
1E
100
AcDbEntity
  8
SIZE
  6
CONTINUOUS
 62
    30
100
AcDbLine
 10
509.9999999999995
 20
-178.7615646318785
 30
0.0
 11
499.9999999999994
 21
-178.7615646318785
 31
0.0
  0
LINE
  5
FF
330
1E
100
AcDbEntity
  8
SIZE
  6
CONTINUOUS
 62
    30
100
AcDbLine
 10
549.9999999999996
 20
-178.7615646318785
 30
0.0
 11
693.2571428571422
 21
-178.7615646318785
 31
0.0
  0
LINE
  5
100
330
1E
100
AcDbEntity
  8
SIZE
  6
CONTINUOUS
 62
    30
100
AcDbLine
 10
519.9999999999996
 20
-178.7615646318785
 30
0.0
 11
539.9999999999996
 21
-178.7615646318785
 31
0.0
  0
CIRCLE
  5
101
330
1E
100
AcDbEntity
  8
SIZE
  6
CONTINUOUS
 62
    30
100
AcDbCircle
 10
519.9999999999996
 20
-178.7615646318785
 30
0.0
 40
5.0
  0
LINE
  5
102
330
1E
100
AcDbEntity
  8
SIZE
  6
CONTINUOUS
 62
    30
100
AcDbLine
 10
514.9999999999996
 20
-178.7615646318785
 30
0.0
 11
509.9999999999996
 21
-178.7615646318785
 31
0.0
  0
CIRCLE
  5
103
330
1E
100
AcDbEntity
  8
SIZE
  6
CONTINUOUS
 62
    30
100
AcDbCircle
 10
539.9999999999996
 20
-178.7615646318785
 30
0.0
 40
5.0
  0
LINE
  5
104
330
1E
100
AcDbEntity
  8
SIZE
  6
CONTINUOUS
 62
    30
100
AcDbLine
 10
544.9999999999996
 20
-178.7615646318785
 30
0.0
 11
549.9999999999996
 21
-178.7615646318785
 31
0.0
  0
TEXT
  5
105
330
1E
100
AcDbEntity
  8
SIZE
  6
CONTINUOUS
 62
    30
100
AcDbText
 10
579.9999999999994
 20
-158.7615646318786
 30
0.0
 40
64.0
  1
20
 41
0.9
 72
     1
 11
626.6285714285707
 21
-158.7615646318786
 31
0.0
100
AcDbText
  0
POINT
  5
106
330
1E
100
AcDbEntity
  8
DEFPOINTS
  6
CONTINUOUS
 62
     7
100
AcDbPoint
 10
519.9999999999996
 20
0.0
 30
0.0
  0
POINT
  5
107
330
1E
100
AcDbEntity
  8
DEFPOINTS
  6
CONTINUOUS
 62
     7
100
AcDbPoint
 10
539.9999999999996
 20
0.0
 30
0.0
  0
POINT
  5
108
330
1E
100
AcDbEntity
  8
DEFPOINTS
  6
CONTINUOUS
 62
     7
100
AcDbPoint
 10
539.9999999999996
 20
-178.7615646318785
 30
0.0
  0
LINE
  5
109
330
1E
100
AcDbEntity
  8
SIZE
  6
CONTINUOUS
 62
    30
100
AcDbLine
 10
-540.0
 20
-20.0
 30
0.0
 11
-540.0
 21
-500.2444529999998
 31
0.0
  0
LINE
  5
10A
330
1E
100
AcDbEntity
  8
SIZE
  6
CONTINUOUS
 62
    30
100
AcDbLine
 10
539.9999999999996
 20
-20.0
 30
0.0
 11
539.9999999999996
 21
-500.2444529999998
 31
0.0
  0
LINE
  5
10B
330
1E
100
AcDbEntity
  8
SIZE
  6
CONTINUOUS
 62
    30
100
AcDbLine
 10
-530.0
 20
-470.2444529999998
 30
0.0
 11
529.9999999999996
 21
-470.2444529999998
 31
0.0
  0
CIRCLE
  5
10C
330
1E
100
AcDbEntity
  8
SIZE
  6
CONTINUOUS
 62
    30
100
AcDbCircle
 10
-540.0
 20
-470.2444529999998
 30
0.0
 40
5.0
  0
LINE
  5
10D
330
1E
100
AcDbEntity
  8
SIZE
  6
CONTINUOUS
 62
    30
100
AcDbLine
 10
-535.0
 20
-470.2444529999998
 30
0.0
 11
-530.0
 21
-470.2444529999998
 31
0.0
  0
CIRCLE
  5
10E
330
1E
100
AcDbEntity
  8
SIZE
  6
CONTINUOUS
 62
    30
100
AcDbCircle
 10
539.9999999999996
 20
-470.2444529999998
 30
0.0
 40
5.0
  0
LINE
  5
10F
330
1E
100
AcDbEntity
  8
SIZE
  6
CONTINUOUS
 62
    30
100
AcDbLine
 10
534.9999999999996
 20
-470.2444529999998
 30
0.0
 11
529.9999999999996
 21
-470.2444529999998
 31
0.0
  0
TEXT
  5
110
330
1E
100
AcDbEntity
  8
SIZE
  6
CONTINUOUS
 62
    30
100
AcDbText
 10
-96.00000000000024
 20
-450.2444529999997
 30
0.0
 40
64.0
  1
1080
 41
0.9
 72
     1
 11
-0.0000000000002274
 21
-450.2444529999997
 31
0.0
100
AcDbText
  0
POINT
  5
111
330
1E
100
AcDbEntity
  8
DEFPOINTS
  6
CONTINUOUS
 62
     7
100
AcDbPoint
 10
-540.0
 20
0.0
 30
0.0
  0
POINT
  5
112
330
1E
100
AcDbEntity
  8
DEFPOINTS
  6
CONTINUOUS
 62
     7
100
AcDbPoint
 10
539.9999999999996
 20
0.0
 30
0.0
  0
POINT
  5
113
330
1E
100
AcDbEntity
  8
DEFPOINTS
  6
CONTINUOUS
 62
     7
100
AcDbPoint
 10
539.9999999999996
 20
-470.2444529999998
 30
0.0
  0
LINE
  5
114
330
1E
100
AcDbEntity
  8
SIZE
  6
CONTINUOUS
 62
    30
100
AcDbLine
 10
-412.0
 20
108.0
 30
0.0
 11
-412.0
 21
-626.4517531121867
 31
0.0
  0
LINE
  5
115
330
1E
100
AcDbEntity
  8
SIZE
  6
CONTINUOUS
 62
    30
100
AcDbLine
 10
411.999999999998
 20
108.0
 30
0.0
 11
411.999999999998
 21
-626.4517531121867
 31
0.0
  0
LINE
  5
116
330
1E
100
AcDbEntity
  8
SIZE
  6
CONTINUOUS
 62
    30
100
AcDbLine
 10
-402.0
 20
-596.4517531121868
 30
0.0
 11
401.999999999998
 21
-596.4517531121868
 31
0.0
  0
CIRCLE
  5
117
330
1E
100
AcDbEntity
  8
SIZE
  6
CONTINUOUS
 62
    30
100
AcDbCircle
 10
-412.0
 20
-596.4517531121868
 30
0.0
 40
5.0
  0
LINE
  5
118
330
1E
100
AcDbEntity
  8
SIZE
  6
CONTINUOUS
 62
    30
100
AcDbLine
 10
-407.0
 20
-596.4517531121868
 30
0.0
 11
-402.0
 21
-596.4517531121868
 31
0.0
  0
CIRCLE
  5
119
330
1E
100
AcDbEntity
  8
SIZE
  6
CONTINUOUS
 62
    30
100
AcDbCircle
 10
411.999999999998
 20
-596.4517531121868
 30
0.0
 40
5.0
  0
LINE
  5
11A
330
1E
100
AcDbEntity
  8
SIZE
  6
CONTINUOUS
 62
    30
100
AcDbLine
 10
406.999999999998
 20
-596.4517531121868
 30
0.0
 11
401.999999999998
 21
-596.4517531121868
 31
0.0
  0
TEXT
  5
11B
330
1E
100
AcDbEntity
  8
SIZE
  6
CONTINUOUS
 62
    30
100
AcDbText
 10
-75.42857142857238
 20
-576.4517531121868
 30
0.0
 40
64.0
  1
824
 41
0.9
 72
     1
 11
-0.0000000000009663
 21
-576.4517531121868
 31
0.0
100
AcDbText
  0
POINT
  5
11C
330
1E
100
AcDbEntity
  8
DEFPOINTS
  6
CONTINUOUS
 62
     7
100
AcDbPoint
 10
-412.0
 20
128.0
 30
0.0
  0
POINT
  5
11D
330
1E
100
AcDbEntity
  8
DEFPOINTS
  6
CONTINUOUS
 62
     7
100
AcDbPoint
 10
411.999999999998
 20
128.0
 30
0.0
  0
POINT
  5
11E
330
1E
100
AcDbEntity
  8
DEFPOINTS
  6
CONTINUOUS
 62
     7
100
AcDbPoint
 10
411.999999999998
 20
-596.4517531121868
 30
0.0
  0
LINE
  5
11F
330
1E
100
AcDbEntity
  8
SIZE
  6
CONTINUOUS
 62
    30
100
AcDbLine
 10
-412.0
 20
108.0
 30
0.0
 11
-412.0
 21
-626.4517531121867
 31
0.0
  0
LINE
  5
120
330
1E
100
AcDbEntity
  8
SIZE
  6
CONTINUOUS
 62
    30
100
AcDbLine
 10
-520.0
 20
-20.0
 30
0.0
 11
-520.0
 21
-626.4517531121867
 31
0.0
  0
LINE
  5
121
330
1E
100
AcDbEntity
  8
SIZE
  6
CONTINUOUS
 62
    30
100
AcDbLine
 10
-422.0
 20
-596.4517531121868
 30
0.0
 11
-510.0
 21
-596.4517531121868
 31
0.0
  0
LINE
  5
122
330
1E
100
AcDbEntity
  8
SIZE
  6
CONTINUOUS
 62
    30
100
AcDbLine
 10
-520.0
 20
-596.4517531121868
 30
0.0
 11
-707.1428571428571
 21
-596.4517531121868
 31
0.0
  0
CIRCLE
  5
123
330
1E
100
AcDbEntity
  8
SIZE
  6
CONTINUOUS
 62
    30
100
AcDbCircle
 10
-412.0
 20
-596.4517531121868
 30
0.0
 40
5.0
  0
LINE
  5
124
330
1E
100
AcDbEntity
  8
SIZE
  6
CONTINUOUS
 62
    30
100
AcDbLine
 10
-417.0
 20
-596.4517531121868
 30
0.0
 11
-422.0
 21
-596.4517531121868
 31
0.0
  0
CIRCLE
  5
125
330
1E
100
AcDbEntity
  8
SIZE
  6
CONTINUOUS
 62
    30
100
AcDbCircle
 10
-520.0
 20
-596.4517531121868
 30
0.0
 40
5.0
  0
LINE
  5
126
330
1E
100
AcDbEntity
  8
SIZE
  6
CONTINUOUS
 62
    30
100
AcDbLine
 10
-515.0
 20
-596.4517531121868
 30
0.0
 11
-510.0
 21
-596.4517531121868
 31
0.0
  0
TEXT
  5
127
330
1E
100
AcDbEntity
  8
SIZE
  6
CONTINUOUS
 62
    30
100
AcDbText
 10
-687.142857142857
 20
-576.4517531121868
 30
0.0
 40
64.0
  1
108
 41
0.9
 72
     1
 11
-618.5714285714285
 21
-576.4517531121868
 31
0.0
100
AcDbText
  0
POINT
  5
128
330
1E
100
AcDbEntity
  8
DEFPOINTS
  6
CONTINUOUS
 62
     7
100
AcDbPoint
 10
-412.0
 20
128.0
 30
0.0
  0
POINT
  5
129
330
1E
100
AcDbEntity
  8
DEFPOINTS
  6
CONTINUOUS
 62
     7
100
AcDbPoint
 10
-520.0
 20
0.0
 30
0.0
  0
POINT
  5
12A
330
1E
100
AcDbEntity
  8
DEFPOINTS
  6
CONTINUOUS
 62
     7
100
AcDbPoint
 10
-520.0
 20
-596.4517531121868
 30
0.0
  0
LINE
  5
12B
330
1E
100
AcDbEntity
  8
SIZE
  6
CONTINUOUS
 62
    30
100
AcDbLine
 10
411.999999999998
 20
108.0
 30
0.0
 11
411.999999999998
 21
-626.4517531121867
 31
0.0
  0
LINE
  5
12C
330
1E
100
AcDbEntity
  8
SIZE
  6
CONTINUOUS
 62
    30
100
AcDbLine
 10
519.9999999999996
 20
-20.0
 30
0.0
 11
519.9999999999996
 21
-626.4517531121867
 31
0.0
  0
LINE
  5
12D
330
1E
100
AcDbEntity
  8
SIZE
  6
CONTINUOUS
 62
    30
100
AcDbLine
 10
421.9999999999981
 20
-596.4517531121868
 30
0.0
 11
509.9999999999995
 21
-596.4517531121868
 31
0.0
  0
LINE
  5
12E
330
1E
100
AcDbEntity
  8
SIZE
  6
CONTINUOUS
 62
    30
100
AcDbLine
 10
519.9999999999996
 20
-596.4517531121868
 30
0.0
 11
707.1428571428567
 21
-596.4517531121868
 31
0.0
  0
CIRCLE
  5
12F
330
1E
100
AcDbEntity
  8
SIZE
  6
CONTINUOUS
 62
    30
100
AcDbCircle
 10
411.999999999998
 20
-596.4517531121868
 30
0.0
 40
5.0
  0
LINE
  5
130
330
1E
100
AcDbEntity
  8
SIZE
  6
CONTINUOUS
 62
    30
100
AcDbLine
 10
416.999999999998
 20
-596.4517531121868
 30
0.0
 11
421.9999999999981
 21
-596.4517531121868
 31
0.0
  0
CIRCLE
  5
131
330
1E
100
AcDbEntity
  8
SIZE
  6
CONTINUOUS
 62
    30
100
AcDbCircle
 10
519.9999999999996
 20
-596.4517531121868
 30
0.0
 40
5.0
  0
LINE
  5
132
330
1E
100
AcDbEntity
  8
SIZE
  6
CONTINUOUS
 62
    30
100
AcDbLine
 10
514.9999999999996
 20
-596.4517531121868
 30
0.0
 11
509.9999999999996
 21
-596.4517531121868
 31
0.0
  0
TEXT
  5
133
330
1E
100
AcDbEntity
  8
SIZE
  6
CONTINUOUS
 62
    30
100
AcDbText
 10
549.9999999999995
 20
-576.4517531121868
 30
0.0
 40
64.0
  1
108
 41
0.9
 72
     1
 11
618.5714285714281
 21
-576.4517531121868
 31
0.0
100
AcDbText
  0
POINT
  5
134
330
1E
100
AcDbEntity
  8
DEFPOINTS
  6
CONTINUOUS
 62
     7
100
AcDbPoint
 10
411.999999999998
 20
128.0
 30
0.0
  0
POINT
  5
135
330
1E
100
AcDbEntity
  8
DEFPOINTS
  6
CONTINUOUS
 62
     7
100
AcDbPoint
 10
519.9999999999996
 20
0.0
 30
0.0
  0
POINT
  5
136
330
1E
100
AcDbEntity
  8
DEFPOINTS
  6
CONTINUOUS
 62
     7
100
AcDbPoint
 10
519.9999999999996
 20
-596.4517531121868
 30
0.0
  0
TEXT
  5
137
330
1E
100
AcDbEntity
  8
NOTE
  6
CONTINUOUS
 62
     4
100
AcDbText
 10
-339.9471710542789
 20
-280.6877366781449
 30
0.0
 40
64.0
  1
(Ceiling opening)
 41
0.9
100
AcDbText
  0
TEXT
  5
138
330
1E
100
AcDbEntity
  8
NOTE
  6
CONTINUOUS
 62
     4
100
AcDbText
 10
-385.8697897263176
 20
-715.500904883746
 30
0.0
 40
64.0
  1
(Lifting bolt pitch)
 41
0.9
100
AcDbText
  0
LINE
  5
139
330
1E
100
AcDbEntity
  8
SIZE
  6
CONTINUOUS
 62
    30
100
AcDbLine
 10
-408.0000000000008
 20
337.9999999999995
 30
0.0
 11
-782.6630526236612
 21
337.9999999999995
 31
0.0
  0
LINE
  5
13A
330
1E
100
AcDbEntity
  8
SIZE
  6
CONTINUOUS
 62
    30
100
AcDbLine
 10
-288.0000000000012
 20
285.9999999999994
 30
0.0
 11
-782.6630526236612
 21
285.9999999999997
 31
0.0
  0
LINE
  5
13B
330
1E
100
AcDbEntity
  8
SIZE
  6
CONTINUOUS
 62
    30
100
AcDbLine
 10
-752.6630526236612
 20
275.9999999999997
 30
0.0
 11
-752.6630526236612
 21
265.9999999999997
 31
0.0
  0
LINE
  5
13C
330
1E
100
AcDbEntity
  8
SIZE
  6
CONTINUOUS
 62
    30
100
AcDbLine
 10
-752.6630526236612
 20
347.9999999999995
 30
0.0
 11
-752.6630526236612
 21
491.2571428571424
 31
0.0
  0
LINE
  5
13D
330
1E
100
AcDbEntity
  8
SIZE
  6
CONTINUOUS
 62
    30
100
AcDbLine
 10
-752.6630526236612
 20
285.9999999999997
 30
0.0
 11
-752.6630526236612
 21
337.9999999999995
 31
0.0
  0
CIRCLE
  5
13E
330
1E
100
AcDbEntity
  8
SIZE
  6
CONTINUOUS
 62
    30
100
AcDbCircle
 10
-752.6630526236612
 20
285.9999999999997
 30
0.0
 40
5.0
  0
LINE
  5
13F
330
1E
100
AcDbEntity
  8
SIZE
  6
CONTINUOUS
 62
    30
100
AcDbLine
 10
-752.6630526236612
 20
280.9999999999997
 30
0.0
 11
-752.6630526236612
 21
275.9999999999997
 31
0.0
  0
CIRCLE
  5
140
330
1E
100
AcDbEntity
  8
SIZE
  6
CONTINUOUS
 62
    30
100
AcDbCircle
 10
-752.6630526236612
 20
337.9999999999995
 30
0.0
 40
5.0
  0
LINE
  5
141
330
1E
100
AcDbEntity
  8
SIZE
  6
CONTINUOUS
 62
    30
100
AcDbLine
 10
-752.6630526236612
 20
342.9999999999994
 30
0.0
 11
-752.6630526236612
 21
347.9999999999995
 31
0.0
  0
TEXT
  5
142
330
1E
100
AcDbEntity
  8
SIZE
  6
CONTINUOUS
 62
    30
100
AcDbText
 10
-772.6630526236612
 20
377.9999999999994
 30
0.0
 40
64.0
  1
52
 50
90.0
 41
0.9
 72
     1
 11
-772.6630526236612
 21
424.6285714285709
 31
0.0
100
AcDbText
  0
POINT
  5
143
330
1E
100
AcDbEntity
  8
DEFPOINTS
  6
CONTINUOUS
 62
     7
100
AcDbPoint
 10
-388.0000000000008
 20
337.9999999999995
 30
0.0
  0
POINT
  5
144
330
1E
100
AcDbEntity
  8
DEFPOINTS
  6
CONTINUOUS
 62
     7
100
AcDbPoint
 10
-268.0000000000013
 20
285.9999999999994
 30
0.0
  0
POINT
  5
145
330
1E
100
AcDbEntity
  8
DEFPOINTS
  6
CONTINUOUS
 62
     7
100
AcDbPoint
 10
-752.6630526236612
 20
285.9999999999997
 30
0.0
  0
LINE
  5
146
330
1E
100
AcDbEntity
  8
SIZE
  6
CONTINUOUS
 62
    30
100
AcDbLine
 10
-288.0000000000012
 20
285.9999999999994
 30
0.0
 11
-782.6630526236604
 21
285.9999999999997
 31
0.0
  0
LINE
  5
147
330
1E
100
AcDbEntity
  8
SIZE
  6
CONTINUOUS
 62
    30
100
AcDbLine
 10
-288.0000000000008
 20
175.9999999999994
 30
0.0
 11
-782.6630526236604
 21
175.9999999999995
 31
0.0
  0
LINE
  5
148
330
1E
100
AcDbEntity
  8
SIZE
  6
CONTINUOUS
 62
    30
100
AcDbLine
 10
-752.6630526236601
 20
275.9999999999997
 30
0.0
 11
-752.6630526236604
 21
185.9999999999995
 31
0.0
  0
CIRCLE
  5
149
330
1E
100
AcDbEntity
  8
SIZE
  6
CONTINUOUS
 62
    30
100
AcDbCircle
 10
-752.6630526236601
 20
285.9999999999997
 30
0.0
 40
5.0
  0
LINE
  5
14A
330
1E
100
AcDbEntity
  8
SIZE
  6
CONTINUOUS
 62
    30
100
AcDbLine
 10
-752.6630526236601
 20
280.9999999999997
 30
0.0
 11
-752.6630526236601
 21
275.9999999999997
 31
0.0
  0
CIRCLE
  5
14B
330
1E
100
AcDbEntity
  8
SIZE
  6
CONTINUOUS
 62
    30
100
AcDbCircle
 10
-752.6630526236604
 20
175.9999999999995
 30
0.0
 40
5.0
  0
LINE
  5
14C
330
1E
100
AcDbEntity
  8
SIZE
  6
CONTINUOUS
 62
    30
100
AcDbLine
 10
-752.6630526236604
 20
180.9999999999995
 30
0.0
 11
-752.6630526236604
 21
185.9999999999995
 31
0.0
  0
TEXT
  5
14D
330
1E
100
AcDbEntity
  8
SIZE
  6
CONTINUOUS
 62
    30
100
AcDbText
 10
-772.6630526236604
 20
167.9142857142853
 30
0.0
 40
64.0
  1
110
 50
90.0
 41
0.9
 72
     1
 11
-772.6630526236604
 21
230.9999999999995
 31
0.0
100
AcDbText
  0
POINT
  5
14E
330
1E
100
AcDbEntity
  8
DEFPOINTS
  6
CONTINUOUS
 62
     7
100
AcDbPoint
 10
-268.0000000000013
 20
285.9999999999994
 30
0.0
  0
POINT
  5
14F
330
1E
100
AcDbEntity
  8
DEFPOINTS
  6
CONTINUOUS
 62
     7
100
AcDbPoint
 10
-268.0000000000008
 20
175.9999999999994
 30
0.0
  0
POINT
  5
150
330
1E
100
AcDbEntity
  8
DEFPOINTS
  6
CONTINUOUS
 62
     7
100
AcDbPoint
 10
-752.6630526236604
 20
175.9999999999995
 30
0.0
  0
LINE
  5
151
330
1E
100
AcDbEntity
  8
SIZE
  6
CONTINUOUS
 62
    30
100
AcDbLine
 10
-408.0000000000008
 20
337.9999999999995
 30
0.0
 11
-891.4953017397291
 21
337.9999999999995
 31
0.0
  0
LINE
  5
152
330
1E
100
AcDbEntity
  8
SIZE
  6
CONTINUOUS
 62
    30
100
AcDbLine
 10
-452.0
 20
148.0
 30
0.0
 11
-891.4953017397293
 21
148.0000000000001
 31
0.0
  0
LINE
  5
153
330
1E
100
AcDbEntity
  8
SIZE
  6
CONTINUOUS
 62
    30
100
AcDbLine
 10
-861.4953017397292
 20
327.9999999999996
 30
0.0
 11
-861.4953017397292
 21
158.0000000000001
 31
0.0
  0
CIRCLE
  5
154
330
1E
100
AcDbEntity
  8
SIZE
  6
CONTINUOUS
 62
    30
100
AcDbCircle
 10
-861.4953017397292
 20
337.9999999999995
 30
0.0
 40
5.0
  0
LINE
  5
155
330
1E
100
AcDbEntity
  8
SIZE
  6
CONTINUOUS
 62
    30
100
AcDbLine
 10
-861.4953017397292
 20
332.9999999999996
 30
0.0
 11
-861.4953017397292
 21
327.9999999999996
 31
0.0
  0
CIRCLE
  5
156
330
1E
100
AcDbEntity
  8
SIZE
  6
CONTINUOUS
 62
    30
100
AcDbCircle
 10
-861.4953017397292
 20
148.0000000000001
 30
0.0
 40
5.0
  0
LINE
  5
157
330
1E
100
AcDbEntity
  8
SIZE
  6
CONTINUOUS
 62
    30
100
AcDbLine
 10
-861.4953017397292
 20
153.0000000000001
 30
0.0
 11
-861.4953017397292
 21
158.0000000000001
 31
0.0
  0
TEXT
  5
158
330
1E
100
AcDbEntity
  8
SIZE
  6
CONTINUOUS
 62
    30
100
AcDbText
 10
-881.4953017397291
 20
169.315461795971
 30
0.0
 40
64.0
  1
190
 50
90.0
 41
0.9
 72
     1
 11
-881.4953017397291
 21
237.8868903673996
 31
0.0
100
AcDbText
  0
POINT
  5
159
330
1E
100
AcDbEntity
  8
DEFPOINTS
  6
CONTINUOUS
 62
     7
100
AcDbPoint
 10
-388.0000000000008
 20
337.9999999999995
 30
0.0
  0
POINT
  5
15A
330
1E
100
AcDbEntity
  8
DEFPOINTS
  6
CONTINUOUS
 62
     7
100
AcDbPoint
 10
-432.0
 20
148.0
 30
0.0
  0
POINT
  5
15B
330
1E
100
AcDbEntity
  8
DEFPOINTS
  6
CONTINUOUS
 62
     7
100
AcDbPoint
 10
-861.4953017397292
 20
148.0000000000001
 30
0.0
  0
LINE
  5
15C
330
1E
100
AcDbEntity
  8
SIZE
  6
CONTINUOUS
 62
    30
100
AcDbLine
 10
-408.0000000000008
 20
338.0
 30
0.0
 11
-1005.880209331144
 21
338.0
 31
0.0
  0
LINE
  5
15D
330
1E
100
AcDbEntity
  8
SIZE
  6
CONTINUOUS
 62
    30
100
AcDbLine
 10
-408.0000000000008
 20
47.99999999999954
 30
0.0
 11
-1005.880209331144
 21
47.9999999999997
 31
0.0
  0
LINE
  5
15E
330
1E
100
AcDbEntity
  8
SIZE
  6
CONTINUOUS
 62
    30
100
AcDbLine
 10
-975.8802093311439
 20
328.0
 30
0.0
 11
-975.8802093311444
 21
57.9999999999997
 31
0.0
  0
CIRCLE
  5
15F
330
1E
100
AcDbEntity
  8
SIZE
  6
CONTINUOUS
 62
    30
100
AcDbCircle
 10
-975.8802093311439
 20
338.0
 30
0.0
 40
5.0
  0
LINE
  5
160
330
1E
100
AcDbEntity
  8
SIZE
  6
CONTINUOUS
 62
    30
100
AcDbLine
 10
-975.8802093311439
 20
333.0
 30
0.0
 11
-975.8802093311439
 21
328.0
 31
0.0
  0
CIRCLE
  5
161
330
1E
100
AcDbEntity
  8
SIZE
  6
CONTINUOUS
 62
    30
100
AcDbCircle
 10
-975.8802093311444
 20
47.9999999999997
 30
0.0
 40
5.0
  0
LINE
  5
162
330
1E
100
AcDbEntity
  8
SIZE
  6
CONTINUOUS
 62
    30
100
AcDbLine
 10
-975.8802093311444
 20
52.9999999999997
 30
0.0
 11
-975.8802093311444
 21
57.9999999999997
 31
0.0
  0
TEXT
  5
163
330
1E
100
AcDbEntity
  8
SIZE
  6
CONTINUOUS
 62
    30
100
AcDbText
 10
-995.880209331144
 20
124.9795423627486
 30
0.0
 40
64.0
  1
290
 50
90.0
 41
0.9
 72
     1
 11
-995.880209331144
 21
199.0366852198914
 31
0.0
100
AcDbText
  0
POINT
  5
164
330
1E
100
AcDbEntity
  8
DEFPOINTS
  6
CONTINUOUS
 62
     7
100
AcDbPoint
 10
-388.0000000000008
 20
338.0
 30
0.0
  0
POINT
  5
165
330
1E
100
AcDbEntity
  8
DEFPOINTS
  6
CONTINUOUS
 62
     7
100
AcDbPoint
 10
-388.0000000000008
 20
47.99999999999954
 30
0.0
  0
POINT
  5
166
330
1E
100
AcDbEntity
  8
DEFPOINTS
  6
CONTINUOUS
 62
     7
100
AcDbPoint
 10
-975.8802093311444
 20
47.9999999999997
 30
0.0
  0
LINE
  5
167
330
1E
100
AcDbEntity
  8
SIZE
  6
CONTINUOUS
 62
    30
100
AcDbLine
 10
-528.0
 20
45.0
 30
0.0
 11
-864.3874032420407
 21
45.00000000000009
 31
0.0
  0
LINE
  5
168
330
1E
100
AcDbEntity
  8
SIZE
  6
CONTINUOUS
 62
    30
100
AcDbLine
 10
-600.0
 20
0.0000000000000057
 30
0.0
 11
-864.3874032420407
 21
0.0000000000000806
 31
0.0
  0
LINE
  5
169
330
1E
100
AcDbEntity
  8
SIZE
  6
CONTINUOUS
 62
    30
100
AcDbLine
 10
-834.387403242041
 20
55.00000000000009
 30
0.0
 11
-834.387403242041
 21
65.0000000000001
 31
0.0
  0
LINE
  5
16A
330
1E
100
AcDbEntity
  8
SIZE
  6
CONTINUOUS
 62
    30
100
AcDbLine
 10
-834.387403242041
 20
-9.999999999999927
 30
0.0
 11
-834.387403242041
 21
-153.257142857143
 31
0.0
  0
LINE
  5
16B
330
1E
100
AcDbEntity
  8
SIZE
  6
CONTINUOUS
 62
    30
100
AcDbLine
 10
-834.387403242041
 20
45.00000000000009
 30
0.0
 11
-834.387403242041
 21
0.0000000000000721
 31
0.0
  0
CIRCLE
  5
16C
330
1E
100
AcDbEntity
  8
SIZE
  6
CONTINUOUS
 62
    30
100
AcDbCircle
 10
-834.387403242041
 20
45.00000000000009
 30
0.0
 40
5.0
  0
LINE
  5
16D
330
1E
100
AcDbEntity
  8
SIZE
  6
CONTINUOUS
 62
    30
100
AcDbLine
 10
-834.387403242041
 20
50.00000000000009
 30
0.0
 11
-834.387403242041
 21
55.00000000000009
 31
0.0
  0
CIRCLE
  5
16E
330
1E
100
AcDbEntity
  8
SIZE
  6
CONTINUOUS
 62
    30
100
AcDbCircle
 10
-834.387403242041
 20
0.0000000000000721
 30
0.0
 40
5.0
  0
LINE
  5
16F
330
1E
100
AcDbEntity
  8
SIZE
  6
CONTINUOUS
 62
    30
100
AcDbLine
 10
-834.387403242041
 20
-4.999999999999928
 30
0.0
 11
-834.387403242041
 21
-9.999999999999927
 31
0.0
  0
TEXT
  5
170
330
1E
100
AcDbEntity
  8
SIZE
  6
CONTINUOUS
 62
    30
100
AcDbText
 10
-854.3874032420406
 20
-133.2571428571432
 30
0.0
 40
64.0
  1
45
 50
90.0
 41
0.9
 72
     1
 11
-854.3874032420406
 21
-86.62857142857182
 31
0.0
100
AcDbText
  0
POINT
  5
171
330
1E
100
AcDbEntity
  8
DEFPOINTS
  6
CONTINUOUS
 62
     7
100
AcDbPoint
 10
-508.0
 20
45.0
 30
0.0
  0
POINT
  5
172
330
1E
100
AcDbEntity
  8
DEFPOINTS
  6
CONTINUOUS
 62
     7
100
AcDbPoint
 10
-580.0
 20
0.0
 30
0.0
  0
POINT
  5
173
330
1E
100
AcDbEntity
  8
DEFPOINTS
  6
CONTINUOUS
 62
     7
100
AcDbPoint
 10
-834.387403242041
 20
0.0000000000000721
 30
0.0
  0
LINE
  5
174
330
1E
100
AcDbEntity
  8
SIZE
  6
CONTINUOUS
 62
    30
100
AcDbLine
 10
407.9999999999982
 20
338.0
 30
0.0
 11
724.6873285929815
 21
337.9999999999999
 31
0.0
  0
LINE
  5
175
330
1E
100
AcDbEntity
  8
SIZE
  6
CONTINUOUS
 62
    30
100
AcDbLine
 10
427.9999999999985
 20
277.9999999999994
 30
0.0
 11
724.6873285929815
 21
277.9999999999993
 31
0.0
  0
LINE
  5
176
330
1E
100
AcDbEntity
  8
SIZE
  6
CONTINUOUS
 62
    30
100
AcDbLine
 10
694.6873285929815
 20
327.9999999999998
 30
0.0
 11
694.6873285929815
 21
287.9999999999995
 31
0.0
  0
CIRCLE
  5
177
330
1E
100
AcDbEntity
  8
SIZE
  6
CONTINUOUS
 62
    30
100
AcDbCircle
 10
694.6873285929815
 20
337.9999999999999
 30
0.0
 40
5.0
  0
LINE
  5
178
330
1E
100
AcDbEntity
  8
SIZE
  6
CONTINUOUS
 62
    30
100
AcDbLine
 10
694.6873285929815
 20
332.9999999999998
 30
0.0
 11
694.6873285929815
 21
327.9999999999998
 31
0.0
  0
CIRCLE
  5
179
330
1E
100
AcDbEntity
  8
SIZE
  6
CONTINUOUS
 62
    30
100
AcDbCircle
 10
694.6873285929815
 20
277.9999999999993
 30
0.0
 40
5.0
  0
LINE
  5
17A
330
1E
100
AcDbEntity
  8
SIZE
  6
CONTINUOUS
 62
    30
100
AcDbLine
 10
694.6873285929815
 20
282.9999999999993
 30
0.0
 11
694.6873285929815
 21
287.9999999999993
 31
0.0
  0
TEXT
  5
17B
330
1E
100
AcDbEntity
  8
SIZE
  6
CONTINUOUS
 62
    30
100
AcDbText
 10
674.6873285929815
 20
261.3714285714282
 30
0.0
 40
64.0
  1
60
 50
90.0
 41
0.9
 72
     1
 11
674.6873285929815
 21
307.9999999999997
 31
0.0
100
AcDbText
  0
POINT
  5
17C
330
1E
100
AcDbEntity
  8
DEFPOINTS
  6
CONTINUOUS
 62
     7
100
AcDbPoint
 10
387.999999999998
 20
338.0
 30
0.0
  0
POINT
  5
17D
330
1E
100
AcDbEntity
  8
DEFPOINTS
  6
CONTINUOUS
 62
     7
100
AcDbPoint
 10
407.9999999999984
 20
277.9999999999994
 30
0.0
  0
POINT
  5
17E
330
1E
100
AcDbEntity
  8
DEFPOINTS
  6
CONTINUOUS
 62
     7
100
AcDbPoint
 10
694.6873285929815
 20
277.9999999999993
 30
0.0
  0
LINE
  5
17F
330
1E
100
AcDbEntity
  8
SIZE
  6
CONTINUOUS
 62
    30
100
AcDbLine
 10
407.9999999999984
 20
338.0
 30
0.0
 11
845.3438659778639
 21
337.9999999999999
 31
0.0
  0
LINE
  5
180
330
1E
100
AcDbEntity
  8
SIZE
  6
CONTINUOUS
 62
    30
100
AcDbLine
 10
500.9999999999985
 20
216.0
 30
0.0
 11
845.3438659778639
 21
215.9999999999997
 31
0.0
  0
LINE
  5
181
330
1E
100
AcDbEntity
  8
SIZE
  6
CONTINUOUS
 62
    30
100
AcDbLine
 10
815.343865977864
 20
327.9999999999998
 30
0.0
 11
815.343865977864
 21
225.9999999999998
 31
0.0
  0
CIRCLE
  5
182
330
1E
100
AcDbEntity
  8
SIZE
  6
CONTINUOUS
 62
    30
100
AcDbCircle
 10
815.343865977864
 20
337.9999999999999
 30
0.0
 40
5.0
  0
LINE
  5
183
330
1E
100
AcDbEntity
  8
SIZE
  6
CONTINUOUS
 62
    30
100
AcDbLine
 10
815.343865977864
 20
332.9999999999998
 30
0.0
 11
815.343865977864
 21
327.9999999999998
 31
0.0
  0
CIRCLE
  5
184
330
1E
100
AcDbEntity
  8
SIZE
  6
CONTINUOUS
 62
    30
100
AcDbCircle
 10
815.343865977864
 20
215.9999999999998
 30
0.0
 40
5.0
  0
LINE
  5
185
330
1E
100
AcDbEntity
  8
SIZE
  6
CONTINUOUS
 62
    30
100
AcDbLine
 10
815.343865977864
 20
220.9999999999999
 30
0.0
 11
815.343865977864
 21
225.9999999999998
 31
0.0
  0
TEXT
  5
186
330
1E
100
AcDbEntity
  8
SIZE
  6
CONTINUOUS
 62
    30
100
AcDbText
 10
795.3438659778639
 20
208.4285714285714
 30
0.0
 40
64.0
  1
122
 50
90.0
 41
0.9
 72
     1
 11
795.3438659778639
 21
277.0
 31
0.0
100
AcDbText
  0
POINT
  5
187
330
1E
100
AcDbEntity
  8
DEFPOINTS
  6
CONTINUOUS
 62
     7
100
AcDbPoint
 10
387.9999999999985
 20
338.0
 30
0.0
  0
POINT
  5
188
330
1E
100
AcDbEntity
  8
DEFPOINTS
  6
CONTINUOUS
 62
     7
100
AcDbPoint
 10
480.9999999999985
 20
216.0
 30
0.0
  0
POINT
  5
189
330
1E
100
AcDbEntity
  8
DEFPOINTS
  6
CONTINUOUS
 62
     7
100
AcDbPoint
 10
815.343865977864
 20
215.9999999999998
 30
0.0
  0
LINE
  5
18A
330
1E
100
AcDbEntity
  8
SIZE
  6
CONTINUOUS
 62
    30
100
AcDbLine
 10
407.9999999999984
 20
338.0
 30
0.0
 11
953.6253680207394
 21
337.9999999999997
 31
0.0
  0
LINE
  5
18B
330
1E
100
AcDbEntity
  8
SIZE
  6
CONTINUOUS
 62
    30
100
AcDbLine
 10
541.9999999999985
 20
212.9999999999994
 30
0.0
 11
953.6253680207394
 21
212.9999999999994
 31
0.0
  0
LINE
  5
18C
330
1E
100
AcDbEntity
  8
SIZE
  6
CONTINUOUS
 62
    30
100
AcDbLine
 10
923.6253680207394
 20
327.9999999999997
 30
0.0
 11
923.6253680207394
 21
222.9999999999994
 31
0.0
  0
CIRCLE
  5
18D
330
1E
100
AcDbEntity
  8
SIZE
  6
CONTINUOUS
 62
    30
100
AcDbCircle
 10
923.6253680207394
 20
337.9999999999997
 30
0.0
 40
5.0
  0
LINE
  5
18E
330
1E
100
AcDbEntity
  8
SIZE
  6
CONTINUOUS
 62
    30
100
AcDbLine
 10
923.6253680207394
 20
332.9999999999997
 30
0.0
 11
923.6253680207394
 21
327.9999999999997
 31
0.0
  0
CIRCLE
  5
18F
330
1E
100
AcDbEntity
  8
SIZE
  6
CONTINUOUS
 62
    30
100
AcDbCircle
 10
923.6253680207394
 20
212.9999999999994
 30
0.0
 40
5.0
  0
LINE
  5
190
330
1E
100
AcDbEntity
  8
SIZE
  6
CONTINUOUS
 62
    30
100
AcDbLine
 10
923.6253680207394
 20
217.9999999999993
 30
0.0
 11
923.6253680207394
 21
222.9999999999994
 31
0.0
  0
TEXT
  5
191
330
1E
100
AcDbEntity
  8
SIZE
  6
CONTINUOUS
 62
    30
100
AcDbText
 10
903.6253680207394
 20
206.9285714285711
 30
0.0
 40
64.0
  1
125
 50
90.0
 41
0.9
 72
     1
 11
903.6253680207394
 21
275.4999999999997
 31
0.0
100
AcDbText
  0
POINT
  5
192
330
1E
100
AcDbEntity
  8
DEFPOINTS
  6
CONTINUOUS
 62
     7
100
AcDbPoint
 10
387.9999999999985
 20
338.0
 30
0.0
  0
POINT
  5
193
330
1E
100
AcDbEntity
  8
DEFPOINTS
  6
CONTINUOUS
 62
     7
100
AcDbPoint
 10
521.9999999999985
 20
212.9999999999994
 30
0.0
  0
POINT
  5
194
330
1E
100
AcDbEntity
  8
DEFPOINTS
  6
CONTINUOUS
 62
     7
100
AcDbPoint
 10
923.6253680207394
 20
212.9999999999994
 30
0.0
  0
LINE
  5
195
330
1E
100
AcDbEntity
  8
SIZE
  6
CONTINUOUS
 62
    30
100
AcDbLine
 10
407.9999999999984
 20
338.0
 30
0.0
 11
1087.172910418265
 21
337.9999999999997
 31
0.0
  0
LINE
  5
196
330
1E
100
AcDbEntity
  8
SIZE
  6
CONTINUOUS
 62
    30
100
AcDbLine
 10
457.9999999999984
 20
71.99999999999954
 30
0.0
 11
1087.172910418265
 21
71.99999999999936
 31
0.0
  0
LINE
  5
197
330
1E
100
AcDbEntity
  8
SIZE
  6
CONTINUOUS
 62
    30
100
AcDbLine
 10
1057.172910418264
 20
327.9999999999997
 30
0.0
 11
1057.172910418264
 21
81.99999999999937
 31
0.0
  0
CIRCLE
  5
198
330
1E
100
AcDbEntity
  8
SIZE
  6
CONTINUOUS
 62
    30
100
AcDbCircle
 10
1057.172910418264
 20
337.9999999999997
 30
0.0
 40
5.0
  0
LINE
  5
199
330
1E
100
AcDbEntity
  8
SIZE
  6
CONTINUOUS
 62
    30
100
AcDbLine
 10
1057.172910418264
 20
332.9999999999997
 30
0.0
 11
1057.172910418264
 21
327.9999999999997
 31
0.0
  0
CIRCLE
  5
19A
330
1E
100
AcDbEntity
  8
SIZE
  6
CONTINUOUS
 62
    30
100
AcDbCircle
 10
1057.172910418264
 20
71.99999999999936
 30
0.0
 40
5.0
  0
LINE
  5
19B
330
1E
100
AcDbEntity
  8
SIZE
  6
CONTINUOUS
 62
    30
100
AcDbLine
 10
1057.172910418264
 20
76.99999999999936
 30
0.0
 11
1057.172910418264
 21
81.99999999999937
 31
0.0
  0
TEXT
  5
19C
330
1E
100
AcDbEntity
  8
SIZE
  6
CONTINUOUS
 62
    30
100
AcDbText
 10
1037.172910418264
 20
127.339591480973
 30
0.0
 40
64.0
  1
266
 50
90.0
 41
0.9
 72
     1
 11
1037.172910418264
 21
200.0253057666873
 31
0.0
100
AcDbText
  0
POINT
  5
19D
330
1E
100
AcDbEntity
  8
DEFPOINTS
  6
CONTINUOUS
 62
     7
100
AcDbPoint
 10
387.9999999999985
 20
338.0
 30
0.0
  0
POINT
  5
19E
330
1E
100
AcDbEntity
  8
DEFPOINTS
  6
CONTINUOUS
 62
     7
100
AcDbPoint
 10
437.9999999999985
 20
71.99999999999954
 30
0.0
  0
POINT
  5
19F
330
1E
100
AcDbEntity
  8
DEFPOINTS
  6
CONTINUOUS
 62
     7
100
AcDbPoint
 10
1057.172910418264
 20
71.99999999999936
 30
0.0
  0
LINE
  5
1A0
330
1E
100
AcDbEntity
  8
SIZE
  6
CONTINUOUS
 62
    30
100
AcDbLine
 10
367.9999999999985
 20
337.9999999999995
 30
0.0
 11
289.5265561297911
 21
337.9999999999995
 31
0.0
  0
LINE
  5
1A1
330
1E
100
AcDbEntity
  8
SIZE
  6
CONTINUOUS
 62
    30
100
AcDbLine
 10
206.999999999999
 20
304.0
 30
0.0
 11
349.5265561297911
 21
304.0
 31
0.0
  0
LINE
  5
1A2
330
1E
100
AcDbEntity
  8
SIZE
  6
CONTINUOUS
 62
    30
100
AcDbLine
 10
319.5265561297911
 20
294.0
 30
0.0
 11
319.5265561297911
 21
284.0
 31
0.0
  0
LINE
  5
1A3
330
1E
100
AcDbEntity
  8
SIZE
  6
CONTINUOUS
 62
    30
100
AcDbLine
 10
319.5265561297911
 20
347.9999999999995
 30
0.0
 11
319.5265561297911
 21
493.9999999999995
 31
0.0
  0
LINE
  5
1A4
330
1E
100
AcDbEntity
  8
SIZE
  6
CONTINUOUS
 62
    30
100
AcDbLine
 10
319.5265561297911
 20
304.0
 30
0.0
 11
319.5265561297911
 21
337.9999999999995
 31
0.0
  0
CIRCLE
  5
1A5
330
1E
100
AcDbEntity
  8
SIZE
  6
CONTINUOUS
 62
    30
100
AcDbCircle
 10
319.5265561297911
 20
304.0
 30
0.0
 40
5.0
  0
LINE
  5
1A6
330
1E
100
AcDbEntity
  8
SIZE
  6
CONTINUOUS
 62
    30
100
AcDbLine
 10
319.5265561297911
 20
299.0
 30
0.0
 11
319.5265561297911
 21
294.0
 31
0.0
  0
CIRCLE
  5
1A7
330
1E
100
AcDbEntity
  8
SIZE
  6
CONTINUOUS
 62
    30
100
AcDbCircle
 10
319.5265561297911
 20
337.9999999999995
 30
0.0
 40
5.0
  0
LINE
  5
1A8
330
1E
100
AcDbEntity
  8
SIZE
  6
CONTINUOUS
 62
    30
100
AcDbLine
 10
319.5265561297911
 20
342.9999999999994
 30
0.0
 11
319.5265561297911
 21
347.9999999999995
 31
0.0
  0
TEXT
  5
1A9
330
1E
100
AcDbEntity
  8
SIZE
  6
CONTINUOUS
 62
    30
100
AcDbText
 10
299.526556129791
 20
377.9999999999996
 30
0.0
 40
64.0
  1
34
 50
90.0
 41
0.9
 72
     1
 11
299.526556129791
 21
425.9999999999996
 31
0.0
100
AcDbText
  0
POINT
  5
1AA
330
1E
100
AcDbEntity
  8
DEFPOINTS
  6
CONTINUOUS
 62
     7
100
AcDbPoint
 10
387.9999999999985
 20
337.9999999999995
 30
0.0
  0
POINT
  5
1AB
330
1E
100
AcDbEntity
  8
DEFPOINTS
  6
CONTINUOUS
 62
     7
100
AcDbPoint
 10
186.9999999999991
 20
304.0
 30
0.0
  0
POINT
  5
1AC
330
1E
100
AcDbEntity
  8
DEFPOINTS
  6
CONTINUOUS
 62
     7
100
AcDbPoint
 10
319.5265561297911
 20
304.0
 30
0.0
  0
LINE
  5
1AD
330
1E
100
AcDbEntity
  8
SIZE
  6
CONTINUOUS
 62
    30
100
AcDbLine
 10
206.999999999999
 20
304.0
 30
0.0
 11
349.526556129791
 21
304.0
 31
0.0
  0
LINE
  5
1AE
330
1E
100
AcDbEntity
  8
SIZE
  6
CONTINUOUS
 62
    30
100
AcDbLine
 10
206.999999999999
 20
144.9999999999998
 30
0.0
 11
349.526556129791
 21
144.9999999999998
 31
0.0
  0
LINE
  5
1AF
330
1E
100
AcDbEntity
  8
SIZE
  6
CONTINUOUS
 62
    30
100
AcDbLine
 10
319.5265561297909
 20
314.0
 30
0.0
 11
319.5265561297909
 21
324.0
 31
0.0
  0
LINE
  5
1B0
330
1E
100
AcDbEntity
  8
SIZE
  6
CONTINUOUS
 62
    30
100
AcDbLine
 10
319.5265561297909
 20
134.9999999999998
 30
0.0
 11
319.5265561297909
 21
124.9999999999999
 31
0.0
  0
LINE
  5
1B1
330
1E
100
AcDbEntity
  8
SIZE
  6
CONTINUOUS
 62
    30
100
AcDbLine
 10
319.5265561297909
 20
304.0
 30
0.0
 11
319.5265561297909
 21
144.9999999999998
 31
0.0
  0
CIRCLE
  5
1B2
330
1E
100
AcDbEntity
  8
SIZE
  6
CONTINUOUS
 62
    30
100
AcDbCircle
 10
319.5265561297909
 20
304.0
 30
0.0
 40
5.0
  0
LINE
  5
1B3
330
1E
100
AcDbEntity
  8
SIZE
  6
CONTINUOUS
 62
    30
100
AcDbLine
 10
319.5265561297909
 20
309.0
 30
0.0
 11
319.5265561297909
 21
314.0
 31
0.0
  0
CIRCLE
  5
1B4
330
1E
100
AcDbEntity
  8
SIZE
  6
CONTINUOUS
 62
    30
100
AcDbCircle
 10
319.5265561297909
 20
144.9999999999998
 30
0.0
 40
5.0
  0
LINE
  5
1B5
330
1E
100
AcDbEntity
  8
SIZE
  6
CONTINUOUS
 62
    30
100
AcDbLine
 10
319.5265561297909
 20
139.9999999999998
 30
0.0
 11
319.5265561297909
 21
134.9999999999998
 31
0.0
  0
TEXT
  5
1B6
330
1E
100
AcDbEntity
  8
SIZE
  6
CONTINUOUS
 62
    30
100
AcDbText
 10
299.5265561297908
 20
157.3
 30
0.0
 40
64.0
  1
159
 50
90.0
 41
0.9
 72
     1
 11
299.5265561297908
 21
224.5
 31
0.0
100
AcDbText
  0
POINT
  5
1B7
330
1E
100
AcDbEntity
  8
DEFPOINTS
  6
CONTINUOUS
 62
     7
100
AcDbPoint
 10
186.9999999999991
 20
304.0
 30
0.0
  0
POINT
  5
1B8
330
1E
100
AcDbEntity
  8
DEFPOINTS
  6
CONTINUOUS
 62
     7
100
AcDbPoint
 10
186.9999999999991
 20
145.0
 30
0.0
  0
POINT
  5
1B9
330
1E
100
AcDbEntity
  8
DEFPOINTS
  6
CONTINUOUS
 62
     7
100
AcDbPoint
 10
319.5265561297909
 20
144.9999999999998
 30
0.0
  0
TEXT
  5
1BA
330
1E
100
AcDbEntity
  8
NOTE
  6
CONTINUOUS
 62
     4
100
AcDbText
 10
640.1539661699761
 20
1004.734961046062
 30
0.0
 40
64.0
  1
6-%%c2.9
 41
0.9
100
AcDbText
  0
LINE
  5
1BB
330
1E
100
AcDbEntity
  8
NOTE
  6
CONTINUOUS
 62
     4
100
AcDbLine
 10
596.4917744945787
 20
984.2995962983945
 30
0.0
 11
1002.751969494577
 21
984.2995962983945
 31
0.0
  0
TEXT
  5
1BC
330
1E
100
AcDbEntity
  8
NOTE
  6
CONTINUOUS
 62
     4
100
AcDbText
 10
-1228.474654090198
 20
619.4407348637456
 30
0.0
 40
64.0
  1
AH 4-14X30
 41
0.9
100
AcDbText
  0
LINE
  5
1BD
330
1E
100
AcDbEntity
  8
NOTE
  6
CONTINUOUS
 62
     4
100
AcDbLine
 10
-1292.827487815825
 20
586.3744267360134
 30
0.0
 11
-626.5672928158265
 21
586.3744267360134
 31
0.0
  0
LINE
  5
1BE
330
1E
100
AcDbEntity
  8
SIZE
  6
CONTINUOUS
 62
    30
100
AcDbLine
 10
387.9999999999985
 20
357.9999999999994
 30
0.0
 11
387.9999999999985
 21
456.1000073814489
 31
0.0
  0
LINE
  5
1BF
330
1E
100
AcDbEntity
  8
SIZE
  6
CONTINUOUS
 62
    30
100
AcDbLine
 10
454.9999999999985
 20
256.0
 30
0.0
 11
454.9999999999985
 21
456.1000073814489
 31
0.0
  0
LINE
  5
1C0
330
1E
100
AcDbEntity
  8
SIZE
  6
CONTINUOUS
 62
    30
100
AcDbLine
 10
397.9999999999985
 20
426.1000073814488
 30
0.0
 11
444.9999999999985
 21
426.1000073814488
 31
0.0
  0
LINE
  5
1C1
330
1E
100
AcDbEntity
  8
SIZE
  6
CONTINUOUS
 62
    30
100
AcDbLine
 10
454.9999999999985
 20
426.1000073814488
 30
0.0
 11
598.2571428571413
 21
426.1000073814488
 31
0.0
  0
CIRCLE
  5
1C2
330
1E
100
AcDbEntity
  8
SIZE
  6
CONTINUOUS
 62
    30
100
AcDbCircle
 10
387.9999999999985
 20
426.1000073814488
 30
0.0
 40
5.0
  0
LINE
  5
1C3
330
1E
100
AcDbEntity
  8
SIZE
  6
CONTINUOUS
 62
    30
100
AcDbLine
 10
392.9999999999985
 20
426.1000073814488
 30
0.0
 11
397.9999999999985
 21
426.1000073814488
 31
0.0
  0
CIRCLE
  5
1C4
330
1E
100
AcDbEntity
  8
SIZE
  6
CONTINUOUS
 62
    30
100
AcDbCircle
 10
454.9999999999985
 20
426.1000073814488
 30
0.0
 40
5.0
  0
LINE
  5
1C5
330
1E
100
AcDbEntity
  8
SIZE
  6
CONTINUOUS
 62
    30
100
AcDbLine
 10
449.9999999999984
 20
426.1000073814488
 30
0.0
 11
444.9999999999985
 21
426.1000073814488
 31
0.0
  0
TEXT
  5
1C6
330
1E
100
AcDbEntity
  8
SIZE
  6
CONTINUOUS
 62
    30
100
AcDbText
 10
484.9999999999986
 20
446.1000073814489
 30
0.0
 40
64.0
  1
67
 41
0.9
 72
     1
 11
531.62857142857
 21
446.1000073814489
 31
0.0
100
AcDbText
  0
POINT
  5
1C7
330
1E
100
AcDbEntity
  8
DEFPOINTS
  6
CONTINUOUS
 62
     7
100
AcDbPoint
 10
387.9999999999985
 20
337.9999999999995
 30
0.0
  0
POINT
  5
1C8
330
1E
100
AcDbEntity
  8
DEFPOINTS
  6
CONTINUOUS
 62
     7
100
AcDbPoint
 10
454.9999999999985
 20
236.0
 30
0.0
  0
POINT
  5
1C9
330
1E
100
AcDbEntity
  8
DEFPOINTS
  6
CONTINUOUS
 62
     7
100
AcDbPoint
 10
454.9999999999985
 20
426.1000073814488
 30
0.0
  0
LINE
  5
1CA
330
1E
100
AcDbEntity
  8
SIZE
  6
CONTINUOUS
 62
    30
100
AcDbLine
 10
387.999999999998
 20
358.0
 30
0.0
 11
387.999999999998
 21
569.4071686758384
 31
0.0
  0
LINE
  5
1CB
330
1E
100
AcDbEntity
  8
SIZE
  6
CONTINUOUS
 62
    30
100
AcDbLine
 10
460.9999999999985
 20
256.0
 30
0.0
 11
460.9999999999985
 21
569.4071686758384
 31
0.0
  0
LINE
  5
1CC
330
1E
100
AcDbEntity
  8
SIZE
  6
CONTINUOUS
 62
    30
100
AcDbLine
 10
397.999999999998
 20
539.4071686758384
 30
0.0
 11
450.9999999999985
 21
539.4071686758384
 31
0.0
  0
LINE
  5
1CD
330
1E
100
AcDbEntity
  8
SIZE
  6
CONTINUOUS
 62
    30
100
AcDbLine
 10
460.9999999999985
 20
539.4071686758384
 30
0.0
 11
604.2571428571412
 21
539.4071686758384
 31
0.0
  0
CIRCLE
  5
1CE
330
1E
100
AcDbEntity
  8
SIZE
  6
CONTINUOUS
 62
    30
100
AcDbCircle
 10
387.999999999998
 20
539.4071686758384
 30
0.0
 40
5.0
  0
LINE
  5
1CF
330
1E
100
AcDbEntity
  8
SIZE
  6
CONTINUOUS
 62
    30
100
AcDbLine
 10
392.999999999998
 20
539.4071686758384
 30
0.0
 11
397.999999999998
 21
539.4071686758384
 31
0.0
  0
CIRCLE
  5
1D0
330
1E
100
AcDbEntity
  8
SIZE
  6
CONTINUOUS
 62
    30
100
AcDbCircle
 10
460.9999999999985
 20
539.4071686758384
 30
0.0
 40
5.0
  0
LINE
  5
1D1
330
1E
100
AcDbEntity
  8
SIZE
  6
CONTINUOUS
 62
    30
100
AcDbLine
 10
455.9999999999985
 20
539.4071686758384
 30
0.0
 11
450.9999999999985
 21
539.4071686758384
 31
0.0
  0
TEXT
  5
1D2
330
1E
100
AcDbEntity
  8
SIZE
  6
CONTINUOUS
 62
    30
100
AcDbText
 10
490.9999999999985
 20
559.4071686758383
 30
0.0
 40
64.0
  1
73
 41
0.9
 72
     1
 11
537.62857142857
 21
559.4071686758383
 31
0.0
100
AcDbText
  0
POINT
  5
1D3
330
1E
100
AcDbEntity
  8
DEFPOINTS
  6
CONTINUOUS
 62
     7
100
AcDbPoint
 10
387.999999999998
 20
338.0
 30
0.0
  0
POINT
  5
1D4
330
1E
100
AcDbEntity
  8
DEFPOINTS
  6
CONTINUOUS
 62
     7
100
AcDbPoint
 10
460.9999999999985
 20
236.0
 30
0.0
  0
POINT
  5
1D5
330
1E
100
AcDbEntity
  8
DEFPOINTS
  6
CONTINUOUS
 62
     7
100
AcDbPoint
 10
460.9999999999985
 20
539.4071686758384
 30
0.0
  0
LINE
  5
1D6
330
1E
100
AcDbEntity
  8
SIZE
  6
CONTINUOUS
 62
    30
100
AcDbLine
 10
417.9999999999985
 20
31.99999999999954
 30
0.0
 11
417.9999999999985
 21
-137.1193382366523
 31
0.0
  0
LINE
  5
1D7
330
1E
100
AcDbEntity
  8
SIZE
  6
CONTINUOUS
 62
    30
100
AcDbLine
 10
387.9999999999985
 20
25.0
 30
0.0
 11
387.9999999999985
 21
-137.1193382366523
 31
0.0
  0
LINE
  5
1D8
330
1E
100
AcDbEntity
  8
SIZE
  6
CONTINUOUS
 62
    30
100
AcDbLine
 10
427.9999999999985
 20
-107.1193382366522
 30
0.0
 11
437.9999999999985
 21
-107.1193382366522
 31
0.0
  0
LINE
  5
1D9
330
1E
100
AcDbEntity
  8
SIZE
  6
CONTINUOUS
 62
    30
100
AcDbLine
 10
377.9999999999985
 20
-107.1193382366522
 30
0.0
 11
234.7428571428558
 21
-107.1193382366522
 31
0.0
  0
LINE
  5
1DA
330
1E
100
AcDbEntity
  8
SIZE
  6
CONTINUOUS
 62
    30
100
AcDbLine
 10
417.9999999999985
 20
-107.1193382366522
 30
0.0
 11
387.9999999999985
 21
-107.1193382366522
 31
0.0
  0
CIRCLE
  5
1DB
330
1E
100
AcDbEntity
  8
SIZE
  6
CONTINUOUS
 62
    30
100
AcDbCircle
 10
417.9999999999985
 20
-107.1193382366522
 30
0.0
 40
5.0
  0
LINE
  5
1DC
330
1E
100
AcDbEntity
  8
SIZE
  6
CONTINUOUS
 62
    30
100
AcDbLine
 10
422.9999999999985
 20
-107.1193382366522
 30
0.0
 11
427.9999999999985
 21
-107.1193382366522
 31
0.0
  0
CIRCLE
  5
1DD
330
1E
100
AcDbEntity
  8
SIZE
  6
CONTINUOUS
 62
    30
100
AcDbCircle
 10
387.9999999999985
 20
-107.1193382366522
 30
0.0
 40
5.0
  0
LINE
  5
1DE
330
1E
100
AcDbEntity
  8
SIZE
  6
CONTINUOUS
 62
    30
100
AcDbLine
 10
382.9999999999985
 20
-107.1193382366522
 30
0.0
 11
377.9999999999985
 21
-107.1193382366522
 31
0.0
  0
TEXT
  5
1DF
330
1E
100
AcDbEntity
  8
SIZE
  6
CONTINUOUS
 62
    30
100
AcDbText
 10
254.7428571428557
 20
-87.1193382366523
 30
0.0
 40
64.0
  1
30
 41
0.9
 72
     1
 11
301.3714285714272
 21
-87.1193382366523
 31
0.0
100
AcDbText
  0
POINT
  5
1E0
330
1E
100
AcDbEntity
  8
DEFPOINTS
  6
CONTINUOUS
 62
     7
100
AcDbPoint
 10
417.9999999999985
 20
51.99999999999954
 30
0.0
  0
POINT
  5
1E1
330
1E
100
AcDbEntity
  8
DEFPOINTS
  6
CONTINUOUS
 62
     7
100
AcDbPoint
 10
387.9999999999985
 20
45.0
 30
0.0
  0
POINT
  5
1E2
330
1E
100
AcDbEntity
  8
DEFPOINTS
  6
CONTINUOUS
 62
     7
100
AcDbPoint
 10
387.9999999999985
 20
-107.1193382366522
 30
0.0
  0
LINE
  5
1E3
330
1E
100
AcDbEntity
  8
OUTLINE
  6
CONTINUOUS
 62
     3
100
AcDbLine
 10
532.9999999999996
 20
-8.0
 30
0.0
 11
-533.0
 21
-8.0
 31
0.0
  0
LINE
  5
1E4
330
1E
100
AcDbEntity
  8
OUTLINE
  6
CONTINUOUS
 62
     3
100
AcDbLine
 10
539.9999999999996
 20
0.0
 30
0.0
 11
-540.0
 21
0.0
 31
0.0
  0
LINE
  5
1E5
330
1E
100
AcDbEntity
  8
OUTLINE
  6
CONTINUOUS
 62
     3
100
AcDbLine
 10
507.9999999999994
 20
45.0
 30
0.0
 11
-508.0
 21
45.0
 31
0.0
  0
LINE
  5
1E6
330
1E
100
AcDbEntity
  8
OUTLINE
  6
CONTINUOUS
 62
     3
100
AcDbLine
 10
387.999999999998
 20
338.0
 30
0.0
 11
-388.0000000000008
 21
337.9999999999995
 31
0.0
  0
LINE
  5
1E7
330
1E
100
AcDbEntity
  8
OUTLINE
  6
CONTINUOUS
 62
     3
100
AcDbLine
 10
-388.0
 20
145.6999999999998
 30
0.0
 11
-438.0
 21
145.6999999999998
 31
0.0
  0
LINE
  5
1E8
330
1E
100
AcDbEntity
  8
OUTLINE
  6
CONTINUOUS
 62
     3
100
AcDbLine
 10
-388.0
 20
148.0
 30
0.0
 11
-438.0
 21
148.0
 31
0.0
  0
ARC
  5
1E9
330
1E
100
AcDbEntity
  8
OUTLINE
  6
CONTINUOUS
 62
     3
100
AcDbCircle
 10
-533.0
 20
-1.0
 30
0.0
 40
7.0
100
AcDbArc
 50
180.0
 51
270.0
  0
LINE
  5
1EA
330
1E
100
AcDbEntity
  8
OUTLINE
  6
CONTINUOUS
 62
     3
100
AcDbLine
 10
-540.0
 20
-1.0
 30
0.0
 11
-540.0
 21
0.0
 31
0.0
  0
LINE
  5
1EB
330
1E
100
AcDbEntity
  8
OUTLINE
  6
CONTINUOUS
 62
     3
100
AcDbLine
 10
-508.0
 20
45.0
 30
0.0
 11
-508.0
 21
0.0
 31
0.0
  0
LINE
  5
1EC
330
1E
100
AcDbEntity
  8
OUTLINE
  6
CONTINUOUS
 62
     3
100
AcDbLine
 10
-438.0
 20
148.0
 30
0.0
 11
-438.0
 21
145.7000000000001
 31
0.0
  0
LINE
  5
1ED
330
1E
100
AcDbEntity
  8
OUTLINE
  6
CONTINUOUS
 62
     3
100
AcDbLine
 10
-388.0000000000008
 20
338.0
 30
0.0
 11
-388.0000000000008
 21
45.0
 31
0.0
  0
LINE
  5
1EE
330
1E
100
AcDbEntity
  8
OUTLINE
  6
CONTINUOUS
 62
     3
100
AcDbLine
 10
387.9999999999985
 20
237.9999999999991
 30
0.0
 11
501.9999999999988
 21
237.9999999999991
 31
0.0
  0
LINE
  5
1EF
330
1E
100
AcDbEntity
  8
OUTLINE
  6
CONTINUOUS
 62
     3
100
AcDbLine
 10
387.9999999999985
 20
156.0799999999999
 30
0.0
 11
501.9999999999988
 21
188.0
 31
0.0
  0
LINE
  5
1F0
330
1E
100
AcDbEntity
  8
OUTLINE
  6
CONTINUOUS
 62
     3
100
AcDbLine
 10
387.9999999999985
 20
338.0
 30
0.0
 11
387.9999999999985
 21
45.0
 31
0.0
  0
LINE
  5
1F1
330
1E
100
AcDbEntity
  8
OUTLINE
  6
CONTINUOUS
 62
     3
100
AcDbLine
 10
387.999999999998
 20
59.49999999999954
 30
0.0
 11
417.9999999999985
 21
59.49999999999909
 31
0.0
  0
LINE
  5
1F2
330
1E
100
AcDbEntity
  8
OUTLINE
  6
CONTINUOUS
 62
     3
100
AcDbLine
 10
387.999999999998
 20
84.49999999999954
 30
0.0
 11
417.9999999999985
 21
84.49999999999906
 31
0.0
  0
LINE
  5
1F3
330
1E
100
AcDbEntity
  8
OUTLINE
  6
CONTINUOUS
 62
     3
100
AcDbLine
 10
417.9999999999985
 20
84.49999999999954
 30
0.0
 11
417.9999999999985
 21
59.49999999999954
 31
0.0
  0
LINE
  5
1F4
330
1E
100
AcDbEntity
  8
OUTLINE
  6
CONTINUOUS
 62
     3
100
AcDbLine
 10
437.9999999999982
 20
148.0
 30
0.0
 11
437.9999999999982
 21
145.7000000000001
 31
0.0
  0
LINE
  5
1F5
330
1E
100
AcDbEntity
  8
OUTLINE
  6
CONTINUOUS
 62
     3
100
AcDbLine
 10
437.9999999999982
 20
145.6999999999998
 30
0.0
 11
387.999999999998
 21
145.6999999999998
 31
0.0
  0
LINE
  5
1F6
330
1E
100
AcDbEntity
  8
OUTLINE
  6
CONTINUOUS
 62
     3
100
AcDbLine
 10
437.9999999999982
 20
148.0
 30
0.0
 11
387.999999999998
 21
148.0
 31
0.0
  0
LINE
  5
1F7
330
1E
100
AcDbEntity
  8
OUTLINE
  6
CONTINUOUS
 62
     3
100
AcDbLine
 10
507.9999999999994
 20
44.99999999999952
 30
0.0
 11
507.9999999999994
 21
-0.0000000000004547
 31
0.0
  0
ARC
  5
1F8
330
1E
100
AcDbEntity
  8
OUTLINE
  6
CONTINUOUS
 62
     3
100
AcDbCircle
 10
532.9999999999996
 20
-1.000000000000454
 30
0.0
 40
7.0
100
AcDbArc
 50
270.0
 51
0.0
  0
LINE
  5
1F9
330
1E
100
AcDbEntity
  8
OUTLINE
  6
CONTINUOUS
 62
     3
100
AcDbLine
 10
539.9999999999996
 20
-0.0000000000004547
 30
0.0
 11
539.9999999999996
 21
-1.000000000000454
 31
0.0
  0
LINE
  5
1FA
330
1E
100
AcDbEntity
  8
OUTLINE
  6
CONTINUOUS
 62
     3
100
AcDbLine
 10
501.9999999999988
 20
237.9999999999991
 30
0.0
 11
501.9999999999985
 21
187.9999999999994
 31
0.0
  0
LINE
  5
1FB
330
1E
100
AcDbEntity
  8
SIZE
  6
CONTINUOUS
 62
    30
100
AcDbLine
 10
0.0000000000000012
 20
415.8640660000001
 30
0.0
 11
0.0000000000000222
 21
758.1090150111398
 31
0.0
  0
LINE
  5
1FC
330
1E
100
AcDbEntity
  8
SIZE
  6
CONTINUOUS
 62
    30
100
AcDbLine
 10
387.9999999999985
 20
357.9999999999994
 30
0.0
 11
387.9999999999985
 21
758.1090150111398
 31
0.0
  0
LINE
  5
1FD
330
1E
100
AcDbEntity
  8
SIZE
  6
CONTINUOUS
 62
    30
100
AcDbLine
 10
10.00000000000001
 20
728.1090150111398
 30
0.0
 11
377.9999999999985
 21
728.1090150111398
 31
0.0
  0
CIRCLE
  5
1FE
330
1E
100
AcDbEntity
  8
SIZE
  6
CONTINUOUS
 62
    30
100
AcDbCircle
 10
0.0000000000000203
 20
728.1090150111398
 30
0.0
 40
5.0
  0
LINE
  5
1FF
330
1E
100
AcDbEntity
  8
SIZE
  6
CONTINUOUS
 62
    30
100
AcDbLine
 10
5.00000000000002
 20
728.1090150111398
 30
0.0
 11
10.00000000000001
 21
728.1090150111398
 31
0.0
  0
CIRCLE
  5
200
330
1E
100
AcDbEntity
  8
SIZE
  6
CONTINUOUS
 62
    30
100
AcDbCircle
 10
387.9999999999985
 20
728.1090150111398
 30
0.0
 40
5.0
  0
LINE
  5
201
330
1E
100
AcDbEntity
  8
SIZE
  6
CONTINUOUS
 62
    30
100
AcDbLine
 10
382.9999999999985
 20
728.1090150111398
 30
0.0
 11
377.9999999999985
 21
728.1090150111398
 31
0.0
  0
TEXT
  5
202
330
1E
100
AcDbEntity
  8
SIZE
  6
CONTINUOUS
 62
    30
100
AcDbText
 10
119.9428571428564
 20
748.1090150111398
 30
0.0
 40
64.0
  1
388
 41
0.9
 72
     1
 11
193.9999999999992
 21
748.1090150111398
 31
0.0
100
AcDbText
  0
POINT
  5
203
330
1E
100
AcDbEntity
  8
DEFPOINTS
  6
CONTINUOUS
 62
     7
100
AcDbPoint
 10
0.0
 20
395.864066
 30
0.0
  0
POINT
  5
204
330
1E
100
AcDbEntity
  8
DEFPOINTS
  6
CONTINUOUS
 62
     7
100
AcDbPoint
 10
387.9999999999985
 20
337.9999999999995
 30
0.0
  0
POINT
  5
205
330
1E
100
AcDbEntity
  8
DEFPOINTS
  6
CONTINUOUS
 62
     7
100
AcDbPoint
 10
387.9999999999985
 20
728.1090150111398
 30
0.0
  0
LINE
  5
206
330
1E
100
AcDbEntity
  8
SIZE
  6
CONTINUOUS
 62
    30
100
AcDbLine
 10
-268.0000000000013
 20
195.9999999999994
 30
0.0
 11
-268.0000000000013
 21
224.543880099622
 31
0.0
  0
LINE
  5
207
330
1E
100
AcDbEntity
  8
SIZE
  6
CONTINUOUS
 62
    30
100
AcDbLine
 10
166.9999999999981
 20
195.999999999999
 30
0.0
 11
166.9999999999981
 21
224.543880099622
 31
0.0
  0
LINE
  5
208
330
1E
100
AcDbEntity
  8
SIZE
  6
CONTINUOUS
 62
    30
100
AcDbLine
 10
-258.0000000000012
 20
194.543880099622
 30
0.0
 11
156.999999999998
 21
194.543880099622
 31
0.0
  0
CIRCLE
  5
209
330
1E
100
AcDbEntity
  8
SIZE
  6
CONTINUOUS
 62
    30
100
AcDbCircle
 10
-268.0000000000013
 20
194.543880099622
 30
0.0
 40
5.0
  0
LINE
  5
20A
330
1E
100
AcDbEntity
  8
SIZE
  6
CONTINUOUS
 62
    30
100
AcDbLine
 10
-263.0000000000013
 20
194.543880099622
 30
0.0
 11
-258.0000000000012
 21
194.543880099622
 31
0.0
  0
CIRCLE
  5
20B
330
1E
100
AcDbEntity
  8
SIZE
  6
CONTINUOUS
 62
    30
100
AcDbCircle
 10
166.9999999999981
 20
194.543880099622
 30
0.0
 40
5.0
  0
LINE
  5
20C
330
1E
100
AcDbEntity
  8
SIZE
  6
CONTINUOUS
 62
    30
100
AcDbLine
 10
161.9999999999981
 20
194.543880099622
 30
0.0
 11
156.999999999998
 21
194.543880099622
 31
0.0
  0
TEXT
  5
20D
330
1E
100
AcDbEntity
  8
SIZE
  6
CONTINUOUS
 62
    30
100
AcDbText
 10
-124.5571428571444
 20
214.5438800996221
 30
0.0
 40
64.0
  1
435
 41
0.9
 72
     1
 11
-50.50000000000159
 21
214.5438800996221
 31
0.0
100
AcDbText
  0
POINT
  5
20E
330
1E
100
AcDbEntity
  8
DEFPOINTS
  6
CONTINUOUS
 62
     7
100
AcDbPoint
 10
-268.0000000000013
 20
175.9999999999994
 30
0.0
  0
POINT
  5
20F
330
1E
100
AcDbEntity
  8
DEFPOINTS
  6
CONTINUOUS
 62
     7
100
AcDbPoint
 10
166.9999999999981
 20
175.999999999999
 30
0.0
  0
POINT
  5
210
330
1E
100
AcDbEntity
  8
DEFPOINTS
  6
CONTINUOUS
 62
     7
100
AcDbPoint
 10
166.9999999999981
 20
194.543880099622
 30
0.0
  0
ENDSEC
  0
SECTION
  2
OBJECTS
  0
DICTIONARY
  5
C
330
0
100
AcDbDictionary
  3
ACAD_GROUP
350
D
  3
ACAD_LAYOUT
350
19
  3
ACAD_MLINESTYLE
350
16
  3
ACAD_PLOTSETTINGS
350
18
  3
ACAD_PLOTSTYLENAME
350
E
  3
ACDBHEADERROUNDTRIPXREC
350
239
  0
DICTIONARY
  5
25C
330
1E
100
AcDbDictionary
280
     1
  3
ACAD_LAYOUTSELFREF
360
25D
  0
DICTIONARY
  5
25A
330
1A
100
AcDbDictionary
280
     1
  3
ACAD_LAYOUTSELFREF
360
25B
  0
DICTIONARY
  5
D
102
{ACAD_REACTORS
330
C
102
}
330
C
100
AcDbDictionary
  0
DICTIONARY
  5
19
102
{ACAD_REACTORS
330
C
102
}
330
C
100
AcDbDictionary
  0
DICTIONARY
  5
16
102
{ACAD_REACTORS
330
C
102
}
330
C
100
AcDbDictionary
  3
STANDARD
350
17
  0
DICTIONARY
  5
18
102
{ACAD_REACTORS
330
C
102
}
330
C
100
AcDbDictionary
  0
ACDBDICTIONARYWDFLT
  5
E
102
{ACAD_REACTORS
330
C
102
}
330
C
100
AcDbDictionary
281
     1
  3
Normal
350
F
100
AcDbDictionaryWithDefault
340
F
  0
DICTIONARY
  5
239
102
{ACAD_REACTORS
330
C
102
}
330
C
100
AcDbDictionary
  3
CEPSNTYPE
350
243
  3
DIMSTYLEDATA
350
247
  3
FINGERPRINTGUID
350
244
  3
HYPERLINKBASE
350
23C
  3
INSUNITS
350
242
  3
LAYOUTDICT
350
23E
  3
LWETCUNION
350
241
  3
PLOTSETDICT
350
23F
  3
PLOTSTYLNAMDICT
350
240
  3
PSVPSCALE
350
246
  3
PUCSBASE
350
24A
  3
PUCSORGBACK
350
250
  3
PUCSORGBOTTOM
350
24C
  3
PUCSORGFRONT
350
24F
  3
PUCSORGLEFT
350
24D
  3
PUCSORGRIGHT
350
24E
  3
PUCSORGTOP
350
24B
  3
PUCSORTHOREF
350
248
  3
PUCSORTHOVIEW
350
249
  3
STYLESHEET
350
23D
  3
TSTACKALIGN
350
23A
  3
TSTACKSIZE
350
23B
  3
UCSBASE
350
253
  3
UCSORGBACK
350
259
  3
UCSORGBOTTOM
350
255
  3
UCSORGFRONT
350
258
  3
UCSORGLEFT
350
256
  3
UCSORGRIGHT
350
257
  3
UCSORGTOP
350
254
  3
UCSORTHOREF
350
251
  3
UCSORTHOVIEW
350
252
  3
VERSIONGUID
350
245
  0
XRECORD
  5
25D
102
{ACAD_REACTORS
330
25C
102
}
330
25C
100
AcDbXrecord
340
1E
  0
XRECORD
  5
25B
102
{ACAD_REACTORS
330
25A
102
}
330
25A
100
AcDbXrecord
340
1A
  0
MLINESTYLE
  5
17
102
{ACAD_REACTORS
330
16
102
}
330
16
100
AcDbMlineStyle
  2
STANDARD
 70
     0
  3

 62
   256
 51
90.0
 52
90.0
 71
     2
 49
0.5
 62
   256
  6
BYLAYER
 49
-0.5
 62
   256
  6
BYLAYER
  0
ACDBPLACEHOLDER
  5
F
102
{ACAD_REACTORS
330
E
102
}
330
E
100
AcDbPlaceHolder
280
     0
  0
XRECORD
  5
243
102
{ACAD_REACTORS
330
239
102
}
330
239
100
AcDbXrecord
 90
        0
  0
XRECORD
  5
247
102
{ACAD_REACTORS
330
239
102
}
330
239
100
AcDbXrecord
1000
DSTYLE
1002
{
1070
   341
340
39
1070
   342
340
39
1070
   343
340
39
1070
   344
340
34
1002
}
  0
XRECORD
  5
244
102
{ACAD_REACTORS
330
239
102
}
330
239
100
AcDbXrecord
  1
{EF6A83D8-9A1C-473F-8BB8-1FEF529B42AC}
  0
XRECORD
  5
23C
102
{ACAD_REACTORS
330
239
102
}
330
239
100
AcDbXrecord
  1

  0
XRECORD
  5
242
102
{ACAD_REACTORS
330
239
102
}
330
239
100
AcDbXrecord
 90
        0
  0
XRECORD
  5
23E
102
{ACAD_REACTORS
330
239
102
}
330
239
100
AcDbXrecord
340
19
  0
XRECORD
  5
241
102
{ACAD_REACTORS
330
239
102
}
330
239
100
AcDbXrecord
 90
    10781
  0
XRECORD
  5
23F
102
{ACAD_REACTORS
330
239
102
}
330
239
100
AcDbXrecord
340
18
  0
XRECORD
  5
240
102
{ACAD_REACTORS
330
239
102
}
330
239
100
AcDbXrecord
340
E
  0
XRECORD
  5
246
102
{ACAD_REACTORS
330
239
102
}
330
239
100
AcDbXrecord
 40
0.0
  0
XRECORD
  5
24A
102
{ACAD_REACTORS
330
239
102
}
330
239
100
AcDbXrecord
340
0
  0
XRECORD
  5
250
102
{ACAD_REACTORS
330
239
102
}
330
239
100
AcDbXrecord
 10
0.0
 20
0.0
 30
0.0
  0
XRECORD
  5
24C
102
{ACAD_REACTORS
330
239
102
}
330
239
100
AcDbXrecord
 10
0.0
 20
0.0
 30
0.0
  0
XRECORD
  5
24F
102
{ACAD_REACTORS
330
239
102
}
330
239
100
AcDbXrecord
 10
0.0
 20
0.0
 30
0.0
  0
XRECORD
  5
24D
102
{ACAD_REACTORS
330
239
102
}
330
239
100
AcDbXrecord
 10
0.0
 20
0.0
 30
0.0
  0
XRECORD
  5
24E
102
{ACAD_REACTORS
330
239
102
}
330
239
100
AcDbXrecord
 10
0.0
 20
0.0
 30
0.0
  0
XRECORD
  5
24B
102
{ACAD_REACTORS
330
239
102
}
330
239
100
AcDbXrecord
 10
0.0
 20
0.0
 30
0.0
  0
XRECORD
  5
248
102
{ACAD_REACTORS
330
239
102
}
330
239
100
AcDbXrecord
340
0
  0
XRECORD
  5
249
102
{ACAD_REACTORS
330
239
102
}
330
239
100
AcDbXrecord
 70
     0
  0
XRECORD
  5
23D
102
{ACAD_REACTORS
330
239
102
}
330
239
100
AcDbXrecord
  1

  0
XRECORD
  5
23A
102
{ACAD_REACTORS
330
239
102
}
330
239
100
AcDbXrecord
 90
        1
  0
XRECORD
  5
23B
102
{ACAD_REACTORS
330
239
102
}
330
239
100
AcDbXrecord
 90
       70
  0
XRECORD
  5
253
102
{ACAD_REACTORS
330
239
102
}
330
239
100
AcDbXrecord
340
0
  0
XRECORD
  5
259
102
{ACAD_REACTORS
330
239
102
}
330
239
100
AcDbXrecord
 10
0.0
 20
0.0
 30
0.0
  0
XRECORD
  5
255
102
{ACAD_REACTORS
330
239
102
}
330
239
100
AcDbXrecord
 10
0.0
 20
0.0
 30
0.0
  0
XRECORD
  5
258
102
{ACAD_REACTORS
330
239
102
}
330
239
100
AcDbXrecord
 10
0.0
 20
0.0
 30
0.0
  0
XRECORD
  5
256
102
{ACAD_REACTORS
330
239
102
}
330
239
100
AcDbXrecord
 10
0.0
 20
0.0
 30
0.0
  0
XRECORD
  5
257
102
{ACAD_REACTORS
330
239
102
}
330
239
100
AcDbXrecord
 10
0.0
 20
0.0
 30
0.0
  0
XRECORD
  5
254
102
{ACAD_REACTORS
330
239
102
}
330
239
100
AcDbXrecord
 10
0.0
 20
0.0
 30
0.0
  0
XRECORD
  5
251
102
{ACAD_REACTORS
330
239
102
}
330
239
100
AcDbXrecord
340
0
  0
XRECORD
  5
252
102
{ACAD_REACTORS
330
239
102
}
330
239
100
AcDbXrecord
 70
     0
  0
XRECORD
  5
245
102
{ACAD_REACTORS
330
239
102
}
330
239
100
AcDbXrecord
  1
{92B5AA5E-1038-429B-8C27-3FB6C275E522}
  0
ENDSEC
  0
EOF
