  0
SECTION
  2
HEADER
  9
$ACADVER
  1
AC1014
  9
$ACADMAINTVER
 70
     9
  9
$DWGCODEPAGE
  3
ANSI_932
  9
$INSBASE
 10
0.0
 20
0.0
 30
0.0
  9
$EXTMIN
 10
-1146.990342192766
 20
-748.3021002594244
 30
0.0
  9
$EXTMAX
 10
1627.339641523247
 20
1141.547655062454
 30
0.0
  9
$LIMMIN
 10
-4200.0
 20
-2970.0
  9
$LIMMAX
 10
4200.0
 20
2970.0
  9
$ORTHOMODE
 70
     0
  9
$REGENMODE
 70
     1
  9
$FILLMODE
 70
     1
  9
$QTEXTMODE
 70
     0
  9
$MIRRTEXT
 70
     0
  9
$DRAGMODE
 70
     2
  9
$LTSCALE
 40
20.0
  9
$OSMODE
 70
    37
  9
$ATTMODE
 70
     1
  9
$TEXTSIZE
 40
64.0
  9
$TRACEWID
 40
0.05
  9
$TEXTSTYLE
  7
STANDARD
  9
$CLAYER
  8
0
  9
$CELTYPE
  6
CONTINUOUS
  9
$CECOLOR
 62
     7
  9
$CELTSCALE
 40
1.0
  9
$DELOBJ
 70
     1
  9
$DISPSILH
 70
     0
  9
$DIMSCALE
 40
1.0
  9
$DIMASZ
 40
10.0
  9
$DIMEXO
 40
20.0
  9
$DIMDLI
 40
200.0
  9
$DIMRND
 40
0.0
  9
$DIMDLE
 40
0.0
  9
$DIMEXE
 40
30.0
  9
$DIMTP
 40
0.0
  9
$DIMTM
 40
0.0
  9
$DIMTXT
 40
64.0
  9
$DIMCEN
 40
0.0
  9
$DIMTSZ
 40
0.0
  9
$DIMTOL
 70
     0
  9
$DIMLIM
 70
     0
  9
$DIMTIH
 70
     0
  9
$DIMTOH
 70
     0
  9
$DIMSE1
 70
     0
  9
$DIMSE2
 70
     0
  9
$DIMTAD
 70
     1
  9
$DIMZIN
 70
     8
  9
$DIMBLK
  1
DOTBLANK
  9
$DIMASO
 70
     1
  9
$DIMSHO
 70
     0
  9
$DIMPOST
  1

  9
$DIMAPOST
  1

  9
$DIMALT
 70
     0
  9
$DIMALTD
 70
     2
  9
$DIMALTF
 40
25.4
  9
$DIMLFAC
 40
1.0
  9
$DIMTOFL
 70
     1
  9
$DIMTVP
 40
0.0
  9
$DIMTIX
 70
     1
  9
$DIMSOXD
 70
     0
  9
$DIMSAH
 70
     0
  9
$DIMBLK1
  1
DOTBLANK
  9
$DIMBLK2
  1
ORIGIN
  9
$DIMSTYLE
  2
STANDARD
  9
$DIMCLRD
 70
     0
  9
$DIMCLRE
 70
     0
  9
$DIMCLRT
 70
     0
  9
$DIMTFAC
 40
1.0
  9
$DIMGAP
 40
0.09
  9
$DIMJUST
 70
     0
  9
$DIMSD1
 70
     0
  9
$DIMSD2
 70
     0
  9
$DIMTOLJ
 70
     1
  9
$DIMTZIN
 70
     0
  9
$DIMALTZ
 70
     0
  9
$DIMALTTZ
 70
     0
  9
$DIMFIT
 70
     3
  9
$DIMUPT
 70
     0
  9
$DIMUNIT
 70
     2
  9
$DIMDEC
 70
     4
  9
$DIMTDEC
 70
     4
  9
$DIMALTU
 70
     2
  9
$DIMALTTD
 70
     2
  9
$DIMTXSTY
  7
STANDARD
  9
$DIMAUNIT
 70
     0
  9
$LUNITS
 70
     2
  9
$LUPREC
 70
     4
  9
$SKETCHINC
 40
0.1
  9
$FILLETRAD
 40
0.0
  9
$AUNITS
 70
     1
  9
$AUPREC
 70
     3
  9
$MENU
  1
ACAD
  9
$ELEVATION
 40
0.0
  9
$PELEVATION
 40
0.0
  9
$THICKNESS
 40
0.0
  9
$LIMCHECK
 70
     0
  9
$BLIPMODE
 70
     0
  9
$CHAMFERA
 40
0.0
  9
$CHAMFERB
 40
0.0
  9
$CHAMFERC
 40
0.0
  9
$CHAMFERD
 40
0.0
  9
$SKPOLY
 70
     0
  9
$TDCREATE
 40
2449761.493622685
  9
$TDUPDATE
 40
2453973.709831168
  9
$TDINDWG
 40
0.9750273843
  9
$TDUSRTIMER
 40
0.9750272106
  9
$USRTIMER
 70
     1
  9
$ANGBASE
 50
0.0
  9
$ANGDIR
 70
     0
  9
$PDMODE
 70
    35
  9
$PDSIZE
 40
100.0
  9
$PLINEWID
 40
0.0
  9
$COORDS
 70
     2
  9
$SPLFRAME
 70
     0
  9
$SPLINETYPE
 70
     6
  9
$SPLINESEGS
 70
     8
  9
$ATTDIA
 70
     0
  9
$ATTREQ
 70
     1
  9
$HANDLING
 70
-16383
  9
$HANDSEED
  5
1DF
  9
$SURFTAB1
 70
     6
  9
$SURFTAB2
 70
     6
  9
$SURFTYPE
 70
     6
  9
$SURFU
 70
     6
  9
$SURFV
 70
     6
  9
$UCSNAME
  2

  9
$UCSORG
 10
0.0
 20
0.0
 30
0.0
  9
$UCSXDIR
 10
1.0
 20
0.0
 30
0.0
  9
$UCSYDIR
 10
0.0
 20
1.0
 30
0.0
  9
$PUCSNAME
  2

  9
$PUCSORG
 10
0.0
 20
0.0
 30
0.0
  9
$PUCSXDIR
 10
1.0
 20
0.0
 30
0.0
  9
$PUCSYDIR
 10
0.0
 20
1.0
 30
0.0
  9
$USERI1
 70
     0
  9
$USERI2
 70
     0
  9
$USERI3
 70
     0
  9
$USERI4
 70
     0
  9
$USERI5
 70
     0
  9
$USERR1
 40
20.0
  9
$USERR2
 40
0.0
  9
$USERR3
 40
0.0
  9
$USERR4
 40
0.0
  9
$USERR5
 40
0.0
  9
$WORLDVIEW
 70
     1
  9
$SHADEDGE
 70
     3
  9
$SHADEDIF
 70
    70
  9
$TILEMODE
 70
     1
  9
$MAXACTVP
 70
    64
  9
$PINSBASE
 10
0.0
 20
0.0
 30
0.0
  9
$PLIMCHECK
 70
     0
  9
$PEXTMIN
 10
1.000000000000000E+20
 20
1.000000000000000E+20
 30
1.000000000000000E+20
  9
$PEXTMAX
 10
-1.000000000000000E+20
 20
-1.000000000000000E+20
 30
-1.000000000000000E+20
  9
$PLIMMIN
 10
0.0
 20
0.0
  9
$PLIMMAX
 10
12.0
 20
9.0
  9
$UNITMODE
 70
     0
  9
$VISRETAIN
 70
     1
  9
$PLINEGEN
 70
     0
  9
$PSLTSCALE
 70
     1
  9
$TREEDEPTH
 70
  3020
  9
$PICKSTYLE
 70
     0
  9
$CMLSTYLE
  2
STANDARD
  9
$CMLJUST
 70
     0
  9
$CMLSCALE
 40
1.0
  9
$PROXYGRAPHICS
 70
     1
  9
$MEASUREMENT
 70
     0
  0
ENDSEC
  0
SECTION
  2
CLASSES
  0
CLASS
  1
ACDBDICTIONARYWDFLT
  2
AcDbDictionaryWithDefault
  3
AutoCAD 2000
 90
        0
280
     0
281
     0
  0
CLASS
  1
ACDBPLACEHOLDER
  2
AcDbPlaceHolder
  3
AutoCAD 2000
 90
        0
280
     0
281
     0
  0
CLASS
  1
LAYOUT
  2
AcDbLayout
  3
AutoCAD 2000
 90
        0
280
     0
281
     0
  0
CLASS
  1
LONG_TRANSACTION
  2
AcDbLongTransaction
  3
AutoCAD 2000
 90
        0
280
     0
281
     0
  0
CLASS
  1
LWPOLYLINE
  2
AcDbPolyline
  3
AutoCAD 2000
 90
        0
280
     0
281
     1
  0
CLASS
  1
HATCH
  2
AcDbHatch
  3
AutoCAD 2000
 90
        0
280
     0
281
     1
  0
CLASS
  1
XRECORD
  2
AcDbXrecord
  3
AutoCAD 2000
 90
        0
280
     0
281
     0
  0
ENDSEC
  0
SECTION
  2
TABLES
  0
TABLE
  2
VPORT
  5
8
330
0
100
AcDbSymbolTable
 70
     2
  0
VPORT
  5
1B9
330
8
100
AcDbSymbolTableRecord
100
AcDbViewportTableRecord
  2
*ACTIVE
 70
     0
 10
0.0
 20
0.0
 11
1.0
 21
1.0
 12
192.7103851601809
 22
196.6554816459718
 13
0.0
 23
0.0
 14
50.0
 24
50.0
 15
100.0
 25
100.0
 16
0.0
 26
0.0
 36
1.0
 17
0.0
 27
0.0
 37
0.0
 40
1905.719220826868
 41
1.657997399219765
 42
50.0
 43
0.0
 44
0.0
 50
0.0
 51
0.0
 71
     0
 72
  1000
 73
     1
 74
     0
 75
     0
 76
     0
 77
     0
 78
     0
  0
ENDTAB
  0
TABLE
  2
LTYPE
  5
5
330
0
100
AcDbSymbolTable
 70
     2
  0
LTYPE
  5
13
330
5
100
AcDbSymbolTableRecord
100
AcDbLinetypeTableRecord
  2
BYBLOCK
 70
     0
  3

 72
    65
 73
     0
 40
0.0
  0
LTYPE
  5
14
330
5
100
AcDbSymbolTableRecord
100
AcDbLinetypeTableRecord
  2
BYLAYER
 70
     0
  3

 72
    65
 73
     0
 40
0.0
  0
LTYPE
  5
15
330
5
100
AcDbSymbolTableRecord
100
AcDbLinetypeTableRecord
  2
CONTINUOUS
 70
     0
  3
????
 72
    65
 73
     0
 40
0.0
  0
LTYPE
  5
22
330
5
100
AcDbSymbolTableRecord
100
AcDbLinetypeTableRecord
  2
DASHDOT
 70
     0
  3
____ _ ____ _ ____ _ ____ _ ____ _ ____ _ ____
 72
    65
 73
     4
 40
5.5
 49
4.0
 74
     0
 49
-0.6
 74
     0
 49
0.3
 74
     0
 49
-0.6
 74
     0
  0
ENDTAB
  0
TABLE
  2
LAYER
  5
2
330
0
100
AcDbSymbolTable
 70
    12
  0
LAYER
  5
10
330
2
100
AcDbSymbolTableRecord
100
AcDbLayerTableRecord
  2
0
 70
     0
 62
     7
  6
CONTINUOUS
  0
LAYER
  5
23
330
2
100
AcDbSymbolTableRecord
100
AcDbLayerTableRecord
  2
OUTLINE
 70
     0
 62
     3
  6
CONTINUOUS
  0
LAYER
  5
24
330
2
100
AcDbSymbolTableRecord
100
AcDbLayerTableRecord
  2
DETAIL
 70
     0
 62
     5
  6
CONTINUOUS
  0
LAYER
  5
25
330
2
100
AcDbSymbolTableRecord
100
AcDbLayerTableRecord
  2
BASIS
 70
     0
 62
     6
  6
DASHDOT
  0
LAYER
  5
26
330
2
100
AcDbSymbolTableRecord
100
AcDbLayerTableRecord
  2
SIZE
 70
     0
 62
    30
  6
CONTINUOUS
  0
LAYER
  5
27
330
2
100
AcDbSymbolTableRecord
100
AcDbLayerTableRecord
  2
NOTE
 70
     0
 62
     4
  6
CONTINUOUS
  0
LAYER
  5
28
330
2
100
AcDbSymbolTableRecord
100
AcDbLayerTableRecord
  2
ARRANGE
 70
     0
 62
     1
  6
CONTINUOUS
  0
LAYER
  5
29
330
2
100
AcDbSymbolTableRecord
100
AcDbLayerTableRecord
  2
FIX
 70
     0
 62
    11
  6
CONTINUOUS
  0
LAYER
  5
2A
330
2
100
AcDbSymbolTableRecord
100
AcDbLayerTableRecord
  2
SERVICESPACE
 70
     0
 62
     2
  6
DASHDOT
  0
LAYER
  5
2B
330
2
100
AcDbSymbolTableRecord
100
AcDbLayerTableRecord
  2
ETC
 70
     0
 62
    61
  6
CONTINUOUS
  0
LAYER
  5
2C
330
2
100
AcDbSymbolTableRecord
100
AcDbLayerTableRecord
  2
SYMBOLLINE
 70
     0
 62
    15
  6
CONTINUOUS
  0
LAYER
  5
2D
330
2
100
AcDbSymbolTableRecord
100
AcDbLayerTableRecord
  2
DEFPOINTS
 70
     0
 62
     7
  6
CONTINUOUS
  0
ENDTAB
  0
TABLE
  2
STYLE
  5
3
330
0
100
AcDbSymbolTable
 70
     2
  0
STYLE
  5
11
330
3
100
AcDbSymbolTableRecord
100
AcDbTextStyleTableRecord
  2
STANDARD
 70
     0
 40
0.0
 41
0.9
 50
0.0
 71
     0
 42
64.0
  3
SIMPLEX
  4
BIGFONT
  0
STYLE
  5
2E
330
3
100
AcDbSymbolTableRecord
100
AcDbTextStyleTableRecord
  2
STANDARD1
 70
     0
 40
0.0
 41
1.0
 50
0.0
 71
     0
 42
64.0
  3
MONOTXT
  4
BIGFONT
  0
ENDTAB
  0
TABLE
  2
VIEW
  5
6
330
0
100
AcDbSymbolTable
 70
     1
  0
VIEW
  5
2F
330
6
100
AcDbSymbolTableRecord
100
AcDbViewTableRecord
  2
ALL
 70
     0
 40
6056.230032000001
 10
0.0
 20
58.11501599999999
 41
8400.0
 11
0.0
 21
0.0
 31
1.0
 12
0.0
 22
0.0
 32
0.0
 42
50.0
 43
0.0
 44
0.0
 50
0.0
 71
     0
  0
ENDTAB
  0
TABLE
  2
UCS
  5
7
330
0
100
AcDbSymbolTable
 70
     0
  0
ENDTAB
  0
TABLE
  2
APPID
  5
9
330
0
100
AcDbSymbolTable
 70
     1
  0
APPID
  5
12
330
9
100
AcDbSymbolTableRecord
100
AcDbRegAppTableRecord
  2
ACAD
 70
     0
  0
ENDTAB
  0
TABLE
  2
DIMSTYLE
  5
A
330
0
100
AcDbSymbolTable
 70
     1
  0
DIMSTYLE
105
1B8
330
A
100
AcDbSymbolTableRecord
100
AcDbDimStyleTableRecord
  2
STANDARD
 70
     0
  3

  4

  5

  6

  7

 40
1.0
 41
0.18
 42
0.0625
 43
0.38
 44
0.18
 45
0.0
 46
0.0
 47
0.0
 48
0.0
140
0.18
141
0.09
142
0.0
143
25.4
144
1.0
145
0.0
146
1.0
147
0.09
 71
     0
 72
     0
 73
     1
 74
     1
 75
     0
 76
     0
 77
     0
 78
     0
170
     0
171
     2
172
     0
173
     0
174
     0
175
     0
176
     0
177
     0
178
     0
270
     2
271
     4
272
     4
273
     2
274
     2
340
11
275
     0
280
     0
281
     0
282
     0
283
     1
284
     0
285
     0
286
     0
287
     3
288
     0
  0
ENDTAB
  0
TABLE
  2
BLOCK_RECORD
  5
1
330
0
100
AcDbSymbolTable
 70
     2
  0
BLOCK_RECORD
  5
1E
102
{ACAD_XDICTIONARY
360
1DD
102
}
330
1
100
AcDbSymbolTableRecord
100
AcDbBlockTableRecord
  2
*MODEL_SPACE
  0
BLOCK_RECORD
  5
1A
102
{ACAD_XDICTIONARY
360
1DB
102
}
330
1
100
AcDbSymbolTableRecord
100
AcDbBlockTableRecord
  2
*PAPER_SPACE
  0
BLOCK_RECORD
  5
34
330
1
100
AcDbSymbolTableRecord
100
AcDbBlockTableRecord
  2
_ORIGIN
  0
BLOCK_RECORD
  5
39
330
1
100
AcDbSymbolTableRecord
100
AcDbBlockTableRecord
  2
_DOTBLANK
  0
ENDTAB
  0
ENDSEC
  0
SECTION
  2
BLOCKS
  0
BLOCK
  5
1F
330
1E
100
AcDbEntity
  8
0
100
AcDbBlockBegin
  2
*MODEL_SPACE
 70
     0
 10
0.0
 20
0.0
 30
0.0
  3
*MODEL_SPACE
  1

  0
ENDBLK
  5
20
330
1E
100
AcDbEntity
  8
0
100
AcDbBlockEnd
  0
BLOCK
  5
1B
330
1A
100
AcDbEntity
 67
     1
  8
0
100
AcDbBlockBegin
  2
*PAPER_SPACE
 70
     0
 10
0.0
 20
0.0
 30
0.0
  3
*PAPER_SPACE
  1

  0
ENDBLK
  5
1C
330
1A
100
AcDbEntity
 67
     1
  8
0
100
AcDbBlockEnd
  0
BLOCK
  5
35
330
34
100
AcDbEntity
  8
0
100
AcDbBlockBegin
  2
_ORIGIN
 70
     0
 10
0.0
 20
0.0
 30
0.0
  3
_ORIGIN
  1

  0
CIRCLE
  5
36
330
34
100
AcDbEntity
  8
0
  6
CONTINUOUS
 62
     7
100
AcDbCircle
 10
0.0
 20
0.0
 30
0.0
 40
0.5
  0
LINE
  5
37
330
34
100
AcDbEntity
  8
0
  6
CONTINUOUS
 62
     7
100
AcDbLine
 10
-0.5
 20
0.0
 30
0.0
 11
-1.0
 21
0.0
 31
0.0
  0
ENDBLK
  5
38
330
34
100
AcDbEntity
  8
0
100
AcDbBlockEnd
  0
BLOCK
  5
3A
330
39
100
AcDbEntity
  8
0
100
AcDbBlockBegin
  2
_DOTBLANK
 70
     0
 10
0.0
 20
0.0
 30
0.0
  3
_DOTBLANK
  1

  0
CIRCLE
  5
3B
330
39
100
AcDbEntity
  8
0
  6
CONTINUOUS
 62
     7
100
AcDbCircle
 10
0.0
 20
0.0
 30
0.0
 40
0.5
  0
LINE
  5
3C
330
39
100
AcDbEntity
  8
0
  6
CONTINUOUS
 62
     7
100
AcDbLine
 10
-0.5
 20
0.0
 30
0.0
 11
-1.0
 21
0.0
 31
0.0
  0
ENDBLK
  5
3D
330
39
100
AcDbEntity
  8
0
100
AcDbBlockEnd
  0
ENDSEC
  0
SECTION
  2
ENTITIES
  0
TEXT
  5
3E
330
1E
100
AcDbEntity
  8
0
  6
CONTINUOUS
 62
     7
100
AcDbText
 10
12761.29
 20
1934.172
 30
0.0
 40
3.2
  1
 
 50
0.000003
 41
0.5989580000000001
  7
STANDARD1
100
AcDbText
  0
LINE
  5
3F
330
1E
100
AcDbEntity
  8
NOTE
  6
CONTINUOUS
 62
     4
100
AcDbLine
 10
665.2906717147487
 20
-438.4342028147544
 30
0.0
 11
1331.550866714746
 21
-438.4342028147512
 31
0.0
  0
LINE
  5
40
330
1E
100
AcDbEntity
  8
OUTLINE
  6
CONTINUOUS
 62
     3
100
AcDbLine
 10
-355.0
 20
0.000000000001819
 30
0.0
 11
355.0
 21
-0.000000000001819
 31
0.0
  0
LINE
  5
41
330
1E
100
AcDbEntity
  8
OUTLINE
  6
CONTINUOUS
 62
     3
100
AcDbLine
 10
-348.0
 20
-7.999999999998181
 30
0.0
 11
348.0
 21
-8.000000000001817
 31
0.0
  0
LWPOLYLINE
  5
42
330
1E
100
AcDbEntity
  8
NOTE
  6
CONTINUOUS
 62
     4
100
AcDbPolyline
 90
        3
 70
     0
 43
0.0
 10
351.2911351535057
 20
283.4058726976926
 10
316.999999999999
 20
304.0000000000004
 10
336.3999295351422
 20
269.0193954522874
  0
LINE
  5
47
330
1E
100
AcDbEntity
  8
NOTE
  6
CONTINUOUS
 62
     4
100
AcDbLine
 10
317.0000000000018
 20
303.9999999999985
 30
0.0
 11
849.644574075245
 21
-244.4505202860081
 31
0.0
  0
LINE
  5
48
330
1E
100
AcDbEntity
  8
SIZE
  6
CONTINUOUS
 62
    30
100
AcDbLine
 10
357.0000000000018
 20
303.999999999998
 30
0.0
 11
570.3454380000002
 21
303.999999999998
 31
0.0
  0
LINE
  5
49
330
1E
100
AcDbEntity
  8
SIZE
  6
CONTINUOUS
 62
    30
100
AcDbLine
 10
357.0
 20
144.9999999999981
 30
0.0
 11
570.3454380000001
 21
144.9999999999981
 31
0.0
  0
LINE
  5
4A
330
1E
100
AcDbEntity
  8
SIZE
  6
CONTINUOUS
 62
    30
100
AcDbLine
 10
540.3454380000002
 20
313.999999999998
 30
0.0
 11
540.3454380000002
 21
323.999999999998
 31
0.0
  0
LINE
  5
4B
330
1E
100
AcDbEntity
  8
SIZE
  6
CONTINUOUS
 62
    30
100
AcDbLine
 10
540.3454380000002
 20
134.999999999998
 30
0.0
 11
540.3454380000002
 21
124.999999999998
 31
0.0
  0
LINE
  5
4C
330
1E
100
AcDbEntity
  8
SIZE
  6
CONTINUOUS
 62
    30
100
AcDbLine
 10
540.3454380000002
 20
303.999999999998
 30
0.0
 11
540.3454380000002
 21
144.9999999999981
 31
0.0
  0
CIRCLE
  5
4D
330
1E
100
AcDbEntity
  8
SIZE
  6
CONTINUOUS
 62
    30
100
AcDbCircle
 10
540.3454380000002
 20
303.999999999998
 30
0.0
 40
5.0
  0
LINE
  5
4E
330
1E
100
AcDbEntity
  8
SIZE
  6
CONTINUOUS
 62
    30
100
AcDbLine
 10
540.3454380000002
 20
308.999999999998
 30
0.0
 11
540.3454380000002
 21
313.999999999998
 31
0.0
  0
CIRCLE
  5
4F
330
1E
100
AcDbEntity
  8
SIZE
  6
CONTINUOUS
 62
    30
100
AcDbCircle
 10
540.3454380000002
 20
144.9999999999981
 30
0.0
 40
5.0
  0
LINE
  5
50
330
1E
100
AcDbEntity
  8
SIZE
  6
CONTINUOUS
 62
    30
100
AcDbLine
 10
540.3454380000002
 20
139.9999999999981
 30
0.0
 11
540.3454380000002
 21
134.999999999998
 31
0.0
  0
TEXT
  5
51
330
1E
100
AcDbEntity
  8
SIZE
  6
CONTINUOUS
 62
    30
100
AcDbText
 10
520.3454380000001
 20
157.2999999999981
 30
0.0
 40
64.0
  1
159
 50
90.0
 41
0.9
 72
     1
 11
520.3454380000001
 21
224.4999999999981
 31
0.0
100
AcDbText
  0
POINT
  5
52
330
1E
100
AcDbEntity
  8
DEFPOINTS
  6
CONTINUOUS
 62
     7
100
AcDbPoint
 10
337.0000000000018
 20
303.999999999998
 30
0.0
  0
POINT
  5
53
330
1E
100
AcDbEntity
  8
DEFPOINTS
  6
CONTINUOUS
 62
     7
100
AcDbPoint
 10
337.0
 20
144.9999999999981
 30
0.0
  0
POINT
  5
54
330
1E
100
AcDbEntity
  8
DEFPOINTS
  6
CONTINUOUS
 62
     7
100
AcDbPoint
 10
540.3454380000002
 20
144.9999999999981
 30
0.0
  0
LINE
  5
55
330
1E
100
AcDbEntity
  8
SIZE
  6
CONTINUOUS
 62
    30
100
AcDbLine
 10
337.0000000000018
 20
337.999999999998
 30
0.0
 11
570.3454380000022
 21
337.999999999998
 31
0.0
  0
LINE
  5
56
330
1E
100
AcDbEntity
  8
SIZE
  6
CONTINUOUS
 62
    30
100
AcDbLine
 10
357.0000000000018
 20
303.999999999998
 30
0.0
 11
570.3454380000022
 21
303.999999999998
 31
0.0
  0
LINE
  5
57
330
1E
100
AcDbEntity
  8
SIZE
  6
CONTINUOUS
 62
    30
100
AcDbLine
 10
540.3454380000022
 20
293.999999999998
 30
0.0
 11
540.3454380000022
 21
283.999999999998
 31
0.0
  0
LINE
  5
58
330
1E
100
AcDbEntity
  8
SIZE
  6
CONTINUOUS
 62
    30
100
AcDbLine
 10
540.3454380000022
 20
347.999999999998
 30
0.0
 11
540.3454380000022
 21
493.9999999999999
 31
0.0
  0
LINE
  5
59
330
1E
100
AcDbEntity
  8
SIZE
  6
CONTINUOUS
 62
    30
100
AcDbLine
 10
540.3454380000022
 20
303.999999999998
 30
0.0
 11
540.3454380000022
 21
337.999999999998
 31
0.0
  0
CIRCLE
  5
5A
330
1E
100
AcDbEntity
  8
SIZE
  6
CONTINUOUS
 62
    30
100
AcDbCircle
 10
540.3454380000022
 20
303.999999999998
 30
0.0
 40
5.0
  0
LINE
  5
5B
330
1E
100
AcDbEntity
  8
SIZE
  6
CONTINUOUS
 62
    30
100
AcDbLine
 10
540.3454380000022
 20
298.999999999998
 30
0.0
 11
540.3454380000022
 21
293.999999999998
 31
0.0
  0
CIRCLE
  5
5C
330
1E
100
AcDbEntity
  8
SIZE
  6
CONTINUOUS
 62
    30
100
AcDbCircle
 10
540.3454380000022
 20
337.999999999998
 30
0.0
 40
5.0
  0
LINE
  5
5D
330
1E
100
AcDbEntity
  8
SIZE
  6
CONTINUOUS
 62
    30
100
AcDbLine
 10
540.3454380000022
 20
342.999999999998
 30
0.0
 11
540.3454380000022
 21
347.999999999998
 31
0.0
  0
TEXT
  5
5E
330
1E
100
AcDbEntity
  8
SIZE
  6
CONTINUOUS
 62
    30
100
AcDbText
 10
520.3454380000021
 20
378.0
 30
0.0
 40
64.0
  1
34
 50
90.0
 41
0.9
 72
     1
 11
520.3454380000021
 21
426.0
 31
0.0
100
AcDbText
  0
POINT
  5
5F
330
1E
100
AcDbEntity
  8
DEFPOINTS
  6
CONTINUOUS
 62
     7
100
AcDbPoint
 10
317.0000000000018
 20
337.999999999998
 30
0.0
  0
POINT
  5
60
330
1E
100
AcDbEntity
  8
DEFPOINTS
  6
CONTINUOUS
 62
     7
100
AcDbPoint
 10
337.0000000000018
 20
303.999999999998
 30
0.0
  0
POINT
  5
61
330
1E
100
AcDbEntity
  8
DEFPOINTS
  6
CONTINUOUS
 62
     7
100
AcDbPoint
 10
540.3454380000022
 20
303.999999999998
 30
0.0
  0
LINE
  5
62
330
1E
100
AcDbEntity
  8
SIZE
  6
CONTINUOUS
 62
    30
100
AcDbLine
 10
415.0
 20
-0.0000000000018247
 30
0.0
 11
689.9226060000001
 21
-0.0000000000019025
 31
0.0
  0
LINE
  5
63
330
1E
100
AcDbEntity
  8
SIZE
  6
CONTINUOUS
 62
    30
100
AcDbLine
 10
337.0
 20
44.99999999999907
 30
0.0
 11
689.9226060000001
 21
44.99999999999897
 31
0.0
  0
LINE
  5
64
330
1E
100
AcDbEntity
  8
SIZE
  6
CONTINUOUS
 62
    30
100
AcDbLine
 10
659.9226060000002
 20
54.99999999999899
 30
0.0
 11
659.9226060000002
 21
64.999999999999
 31
0.0
  0
LINE
  5
65
330
1E
100
AcDbEntity
  8
SIZE
  6
CONTINUOUS
 62
    30
100
AcDbLine
 10
659.9226060000002
 20
-10.00000000000188
 30
0.0
 11
659.9226060000002
 21
-153.257142857146
 31
0.0
  0
LINE
  5
66
330
1E
100
AcDbEntity
  8
SIZE
  6
CONTINUOUS
 62
    30
100
AcDbLine
 10
659.9226060000002
 20
44.99999999999899
 30
0.0
 11
659.9226060000002
 21
-0.000000000001894
 31
0.0
  0
CIRCLE
  5
67
330
1E
100
AcDbEntity
  8
SIZE
  6
CONTINUOUS
 62
    30
100
AcDbCircle
 10
659.9226060000002
 20
44.99999999999899
 30
0.0
 40
5.0
  0
LINE
  5
68
330
1E
100
AcDbEntity
  8
SIZE
  6
CONTINUOUS
 62
    30
100
AcDbLine
 10
659.9226060000002
 20
49.99999999999899
 30
0.0
 11
659.9226060000002
 21
54.99999999999899
 31
0.0
  0
CIRCLE
  5
69
330
1E
100
AcDbEntity
  8
SIZE
  6
CONTINUOUS
 62
    30
100
AcDbCircle
 10
659.9226060000002
 20
-0.000000000001894
 30
0.0
 40
5.0
  0
LINE
  5
6A
330
1E
100
AcDbEntity
  8
SIZE
  6
CONTINUOUS
 62
    30
100
AcDbLine
 10
659.9226060000002
 20
-5.000000000001893
 30
0.0
 11
659.9226060000002
 21
-10.00000000000189
 31
0.0
  0
TEXT
  5
6B
330
1E
100
AcDbEntity
  8
SIZE
  6
CONTINUOUS
 62
    30
100
AcDbText
 10
639.922606
 20
-133.257142857146
 30
0.0
 40
64.0
  1
45
 50
90.0
 41
0.9
 72
     1
 11
639.922606
 21
-86.62857142857456
 31
0.0
100
AcDbText
  0
POINT
  5
6C
330
1E
100
AcDbEntity
  8
DEFPOINTS
  6
CONTINUOUS
 62
     7
100
AcDbPoint
 10
395.0
 20
-0.000000000001819
 30
0.0
  0
POINT
  5
6D
330
1E
100
AcDbEntity
  8
DEFPOINTS
  6
CONTINUOUS
 62
     7
100
AcDbPoint
 10
317.0
 20
44.99999999999909
 30
0.0
  0
POINT
  5
6E
330
1E
100
AcDbEntity
  8
DEFPOINTS
  6
CONTINUOUS
 62
     7
100
AcDbPoint
 10
659.9226060000002
 20
44.99999999999899
 30
0.0
  0
LINE
  5
6F
330
1E
100
AcDbEntity
  8
SIZE
  6
CONTINUOUS
 62
    30
100
AcDbLine
 10
337.0000000000018
 20
337.999999999999
 30
0.0
 11
1121.00419376761
 21
337.9999999999988
 31
0.0
  0
LINE
  5
70
330
1E
100
AcDbEntity
  8
SIZE
  6
CONTINUOUS
 62
    30
100
AcDbLine
 10
337.0
 20
47.99999999999907
 30
0.0
 11
1121.00419376761
 21
47.99999999999886
 31
0.0
  0
LINE
  5
71
330
1E
100
AcDbEntity
  8
SIZE
  6
CONTINUOUS
 62
    30
100
AcDbLine
 10
1091.00419376761
 20
327.9999999999988
 30
0.0
 11
1091.00419376761
 21
57.99999999999887
 31
0.0
  0
CIRCLE
  5
72
330
1E
100
AcDbEntity
  8
SIZE
  6
CONTINUOUS
 62
    30
100
AcDbCircle
 10
1091.00419376761
 20
337.9999999999988
 30
0.0
 40
5.0
  0
LINE
  5
73
330
1E
100
AcDbEntity
  8
SIZE
  6
CONTINUOUS
 62
    30
100
AcDbLine
 10
1091.00419376761
 20
332.9999999999988
 30
0.0
 11
1091.00419376761
 21
327.9999999999988
 31
0.0
  0
CIRCLE
  5
74
330
1E
100
AcDbEntity
  8
SIZE
  6
CONTINUOUS
 62
    30
100
AcDbCircle
 10
1091.00419376761
 20
47.99999999999886
 30
0.0
 40
5.0
  0
LINE
  5
75
330
1E
100
AcDbEntity
  8
SIZE
  6
CONTINUOUS
 62
    30
100
AcDbLine
 10
1091.00419376761
 20
52.99999999999887
 30
0.0
 11
1091.00419376761
 21
57.99999999999887
 31
0.0
  0
TEXT
  5
76
330
1E
100
AcDbEntity
  8
SIZE
  6
CONTINUOUS
 62
    30
100
AcDbText
 10
1071.00419376761
 20
127.1841105568005
 30
0.0
 40
64.0
  1
290
 50
90.0
 41
0.9
 72
     1
 11
1071.00419376761
 21
201.2412534139434
 31
0.0
100
AcDbText
  0
POINT
  5
77
330
1E
100
AcDbEntity
  8
DEFPOINTS
  6
CONTINUOUS
 62
     7
100
AcDbPoint
 10
317.0000000000018
 20
337.999999999999
 30
0.0
  0
POINT
  5
78
330
1E
100
AcDbEntity
  8
DEFPOINTS
  6
CONTINUOUS
 62
     7
100
AcDbPoint
 10
317.0
 20
47.99999999999909
 30
0.0
  0
POINT
  5
79
330
1E
100
AcDbEntity
  8
DEFPOINTS
  6
CONTINUOUS
 62
     7
100
AcDbPoint
 10
1091.00419376761
 20
47.99999999999886
 30
0.0
  0
TEXT
  5
7A
330
1E
100
AcDbEntity
  8
NOTE
  6
CONTINUOUS
 62
     4
100
AcDbText
 10
-351.5611145776511
 20
-292.1555987204906
 30
0.0
 40
64.0
  1
(Ceiling opening)
 41
0.9
100
AcDbText
  0
TEXT
  5
7B
330
1E
100
AcDbEntity
  8
NOTE
  6
CONTINUOUS
 62
     4
100
AcDbText
 10
-375.8556387627594
 20
-726.9687669260914
 30
0.0
 40
64.0
  1
(Lifting bolt pitch)
 41
0.9
100
AcDbText
  0
LINE
  5
7C
330
1E
100
AcDbEntity
  8
SIZE
  6
CONTINUOUS
 62
    30
100
AcDbLine
 10
335.0
 20
-20.00000000000181
 30
0.0
 11
335.0
 21
-208.7615646318809
 31
0.0
  0
LINE
  5
7D
330
1E
100
AcDbEntity
  8
SIZE
  6
CONTINUOUS
 62
    30
100
AcDbLine
 10
355.0
 20
-20.00000000000181
 30
0.0
 11
355.0
 21
-208.7615646318809
 31
0.0
  0
LINE
  5
7E
330
1E
100
AcDbEntity
  8
SIZE
  6
CONTINUOUS
 62
    30
100
AcDbLine
 10
325.0
 20
-178.7615646318809
 30
0.0
 11
315.0
 21
-178.7615646318809
 31
0.0
  0
LINE
  5
7F
330
1E
100
AcDbEntity
  8
SIZE
  6
CONTINUOUS
 62
    30
100
AcDbLine
 10
365.0
 20
-178.7615646318809
 30
0.0
 11
508.2571428571427
 21
-178.7615646318809
 31
0.0
  0
LINE
  5
80
330
1E
100
AcDbEntity
  8
SIZE
  6
CONTINUOUS
 62
    30
100
AcDbLine
 10
335.0
 20
-178.7615646318809
 30
0.0
 11
355.0
 21
-178.7615646318809
 31
0.0
  0
CIRCLE
  5
81
330
1E
100
AcDbEntity
  8
SIZE
  6
CONTINUOUS
 62
    30
100
AcDbCircle
 10
335.0
 20
-178.7615646318809
 30
0.0
 40
5.0
  0
LINE
  5
82
330
1E
100
AcDbEntity
  8
SIZE
  6
CONTINUOUS
 62
    30
100
AcDbLine
 10
330.0
 20
-178.7615646318809
 30
0.0
 11
325.0
 21
-178.7615646318809
 31
0.0
  0
CIRCLE
  5
83
330
1E
100
AcDbEntity
  8
SIZE
  6
CONTINUOUS
 62
    30
100
AcDbCircle
 10
355.0
 20
-178.7615646318809
 30
0.0
 40
5.0
  0
LINE
  5
84
330
1E
100
AcDbEntity
  8
SIZE
  6
CONTINUOUS
 62
    30
100
AcDbLine
 10
360.0
 20
-178.7615646318809
 30
0.0
 11
365.0
 21
-178.7615646318809
 31
0.0
  0
TEXT
  5
85
330
1E
100
AcDbEntity
  8
SIZE
  6
CONTINUOUS
 62
    30
100
AcDbText
 10
394.9999999999999
 20
-158.7615646318809
 30
0.0
 40
64.0
  1
20
 41
0.9
 72
     1
 11
441.6285714285713
 21
-158.7615646318809
 31
0.0
100
AcDbText
  0
POINT
  5
86
330
1E
100
AcDbEntity
  8
DEFPOINTS
  6
CONTINUOUS
 62
     7
100
AcDbPoint
 10
335.0
 20
-0.000000000001819
 30
0.0
  0
POINT
  5
87
330
1E
100
AcDbEntity
  8
DEFPOINTS
  6
CONTINUOUS
 62
     7
100
AcDbPoint
 10
355.0
 20
-0.000000000001819
 30
0.0
  0
POINT
  5
88
330
1E
100
AcDbEntity
  8
DEFPOINTS
  6
CONTINUOUS
 62
     7
100
AcDbPoint
 10
355.0
 20
-178.7615646318809
 30
0.0
  0
LINE
  5
89
330
1E
100
AcDbEntity
  8
SIZE
  6
CONTINUOUS
 62
    30
100
AcDbLine
 10
355.0
 20
-20.00000000000181
 30
0.0
 11
354.9999999999998
 21
-500.2444529999979
 31
0.0
  0
LINE
  5
8A
330
1E
100
AcDbEntity
  8
SIZE
  6
CONTINUOUS
 62
    30
100
AcDbLine
 10
-355.0
 20
-19.99999999999818
 30
0.0
 11
-355.0
 21
-500.2444529999979
 31
0.0
  0
LINE
  5
8B
330
1E
100
AcDbEntity
  8
SIZE
  6
CONTINUOUS
 62
    30
100
AcDbLine
 10
344.9999999999998
 20
-470.2444529999978
 30
0.0
 11
-345.0
 21
-470.2444529999978
 31
0.0
  0
CIRCLE
  5
8C
330
1E
100
AcDbEntity
  8
SIZE
  6
CONTINUOUS
 62
    30
100
AcDbCircle
 10
354.9999999999998
 20
-470.2444529999978
 30
0.0
 40
5.0
  0
LINE
  5
8D
330
1E
100
AcDbEntity
  8
SIZE
  6
CONTINUOUS
 62
    30
100
AcDbLine
 10
349.9999999999998
 20
-470.2444529999978
 30
0.0
 11
344.9999999999998
 21
-470.2444529999978
 31
0.0
  0
CIRCLE
  5
8E
330
1E
100
AcDbEntity
  8
SIZE
  6
CONTINUOUS
 62
    30
100
AcDbCircle
 10
-355.0
 20
-470.2444529999978
 30
0.0
 40
5.0
  0
LINE
  5
8F
330
1E
100
AcDbEntity
  8
SIZE
  6
CONTINUOUS
 62
    30
100
AcDbLine
 10
-350.0
 20
-470.2444529999978
 30
0.0
 11
-345.0
 21
-470.2444529999978
 31
0.0
  0
TEXT
  5
90
330
1E
100
AcDbEntity
  8
SIZE
  6
CONTINUOUS
 62
    30
100
AcDbText
 10
-68.57142857142862
 20
-450.244452999998
 30
0.0
 40
64.0
  1
710
 41
0.9
 72
     1
 11
-0.0000000000000568
 21
-450.244452999998
 31
0.0
100
AcDbText
  0
POINT
  5
91
330
1E
100
AcDbEntity
  8
DEFPOINTS
  6
CONTINUOUS
 62
     7
100
AcDbPoint
 10
355.0
 20
-0.000000000001819
 30
0.0
  0
POINT
  5
92
330
1E
100
AcDbEntity
  8
DEFPOINTS
  6
CONTINUOUS
 62
     7
100
AcDbPoint
 10
-355.0
 20
0.000000000001819
 30
0.0
  0
POINT
  5
93
330
1E
100
AcDbEntity
  8
DEFPOINTS
  6
CONTINUOUS
 62
     7
100
AcDbPoint
 10
-355.0
 20
-470.2444529999978
 30
0.0
  0
LINE
  5
94
330
1E
100
AcDbEntity
  8
SIZE
  6
CONTINUOUS
 62
    30
100
AcDbLine
 10
335.0
 20
-20.00000000000181
 30
0.0
 11
335.0
 21
-208.7615646318786
 31
0.0
  0
LINE
  5
95
330
1E
100
AcDbEntity
  8
SIZE
  6
CONTINUOUS
 62
    30
100
AcDbLine
 10
-335.0
 20
-19.99999999999818
 30
0.0
 11
-335.0
 21
-208.7615646318786
 31
0.0
  0
LINE
  5
96
330
1E
100
AcDbEntity
  8
SIZE
  6
CONTINUOUS
 62
    30
100
AcDbLine
 10
325.0
 20
-178.7615646318785
 30
0.0
 11
-325.0
 21
-178.7615646318785
 31
0.0
  0
CIRCLE
  5
97
330
1E
100
AcDbEntity
  8
SIZE
  6
CONTINUOUS
 62
    30
100
AcDbCircle
 10
335.0
 20
-178.7615646318785
 30
0.0
 40
5.0
  0
LINE
  5
98
330
1E
100
AcDbEntity
  8
SIZE
  6
CONTINUOUS
 62
    30
100
AcDbLine
 10
330.0
 20
-178.7615646318785
 30
0.0
 11
325.0
 21
-178.7615646318785
 31
0.0
  0
CIRCLE
  5
99
330
1E
100
AcDbEntity
  8
SIZE
  6
CONTINUOUS
 62
    30
100
AcDbCircle
 10
-335.0
 20
-178.7615646318785
 30
0.0
 40
5.0
  0
LINE
  5
9A
330
1E
100
AcDbEntity
  8
SIZE
  6
CONTINUOUS
 62
    30
100
AcDbLine
 10
-330.0
 20
-178.7615646318785
 30
0.0
 11
-325.0
 21
-178.7615646318785
 31
0.0
  0
TEXT
  5
9B
330
1E
100
AcDbEntity
  8
SIZE
  6
CONTINUOUS
 62
    30
100
AcDbText
 10
-76.26066811256797
 20
-158.7615646318786
 30
0.0
 40
64.0
  1
670
 41
0.9
 72
     1
 11
-2.20352525542512
 21
-158.7615646318786
 31
0.0
100
AcDbText
  0
POINT
  5
9C
330
1E
100
AcDbEntity
  8
DEFPOINTS
  6
CONTINUOUS
 62
     7
100
AcDbPoint
 10
335.0
 20
-0.000000000001819
 30
0.0
  0
POINT
  5
9D
330
1E
100
AcDbEntity
  8
DEFPOINTS
  6
CONTINUOUS
 62
     7
100
AcDbPoint
 10
-335.0
 20
0.000000000001819
 30
0.0
  0
POINT
  5
9E
330
1E
100
AcDbEntity
  8
DEFPOINTS
  6
CONTINUOUS
 62
     7
100
AcDbPoint
 10
-335.0
 20
-178.7615646318785
 30
0.0
  0
LINE
  5
9F
330
1E
100
AcDbEntity
  8
SIZE
  6
CONTINUOUS
 62
    30
100
AcDbLine
 10
337.0000000000018
 20
337.999999999998
 30
0.0
 11
710.9832300000016
 21
337.999999999998
 31
0.0
  0
LINE
  5
A0
330
1E
100
AcDbEntity
  8
SIZE
  6
CONTINUOUS
 62
    30
100
AcDbLine
 10
327.0
 20
147.9999999999985
 30
0.0
 11
710.9832300000016
 21
147.9999999999984
 31
0.0
  0
LINE
  5
A1
330
1E
100
AcDbEntity
  8
SIZE
  6
CONTINUOUS
 62
    30
100
AcDbLine
 10
680.9832300000017
 20
327.999999999998
 30
0.0
 11
680.9832300000016
 21
157.9999999999984
 31
0.0
  0
CIRCLE
  5
A2
330
1E
100
AcDbEntity
  8
SIZE
  6
CONTINUOUS
 62
    30
100
AcDbCircle
 10
680.9832300000017
 20
337.999999999998
 30
0.0
 40
5.0
  0
LINE
  5
A3
330
1E
100
AcDbEntity
  8
SIZE
  6
CONTINUOUS
 62
    30
100
AcDbLine
 10
680.9832300000017
 20
332.999999999998
 30
0.0
 11
680.9832300000017
 21
327.999999999998
 31
0.0
  0
CIRCLE
  5
A4
330
1E
100
AcDbEntity
  8
SIZE
  6
CONTINUOUS
 62
    30
100
AcDbCircle
 10
680.9832300000016
 20
147.9999999999984
 30
0.0
 40
5.0
  0
LINE
  5
A5
330
1E
100
AcDbEntity
  8
SIZE
  6
CONTINUOUS
 62
    30
100
AcDbLine
 10
680.9832300000016
 20
152.9999999999984
 30
0.0
 11
680.9832300000016
 21
157.9999999999984
 31
0.0
  0
TEXT
  5
A6
330
1E
100
AcDbEntity
  8
SIZE
  6
CONTINUOUS
 62
    30
100
AcDbText
 10
660.9832300000016
 20
182.6575123455385
 30
0.0
 40
64.0
  1
190
 50
90.0
 41
0.9
 72
     1
 11
660.9832300000016
 21
251.2289409169671
 31
0.0
100
AcDbText
  0
POINT
  5
A7
330
1E
100
AcDbEntity
  8
DEFPOINTS
  6
CONTINUOUS
 62
     7
100
AcDbPoint
 10
317.0000000000018
 20
337.999999999998
 30
0.0
  0
POINT
  5
A8
330
1E
100
AcDbEntity
  8
DEFPOINTS
  6
CONTINUOUS
 62
     7
100
AcDbPoint
 10
307.0
 20
147.9999999999985
 30
0.0
  0
POINT
  5
A9
330
1E
100
AcDbEntity
  8
DEFPOINTS
  6
CONTINUOUS
 62
     7
100
AcDbPoint
 10
680.9832300000016
 20
147.9999999999984
 30
0.0
  0
LINE
  5
AA
330
1E
100
AcDbEntity
  8
SERVICESPACE
  6
DASHDOT
 62
     2
100
AcDbLine
 10
335.0
 20
-0.000000000001819
 30
0.0
 11
395.0
 21
-0.000000000001819
 31
0.0
  0
LINE
  5
AB
330
1E
100
AcDbEntity
  8
SERVICESPACE
  6
DASHDOT
 62
     2
100
AcDbLine
 10
335.0
 20
19.99999999999818
 30
0.0
 11
395.0
 21
19.99999999999818
 31
0.0
  0
LINE
  5
AC
330
1E
100
AcDbEntity
  8
DETAIL
  6
CONTINUOUS
 62
     5
100
AcDbLine
 10
-348.0
 20
-7.999999999998181
 30
0.0
 11
348.0
 21
-8.000000000001817
 31
0.0
  0
LINE
  5
AD
330
1E
100
AcDbEntity
  8
DETAIL
  6
CONTINUOUS
 62
     5
100
AcDbLine
 10
-355.0
 20
0.000000000001819
 30
0.0
 11
355.0
 21
-0.000000000001819
 31
0.0
  0
TEXT
  5
AE
330
1E
100
AcDbEntity
  8
NOTE
  6
CONTINUOUS
 62
     4
100
AcDbText
 10
916.6403428392687
 20
-222.349261617784
 30
0.0
 40
64.0
  1
6-%%c2.9
 41
0.9
100
AcDbText
  0
LINE
  5
AF
330
1E
100
AcDbEntity
  8
NOTE
  6
CONTINUOUS
 62
     4
100
AcDbLine
 10
849.644574075245
 20
-244.4505202860081
 30
0.0
 11
1275.904769075244
 21
-244.45052028601
 31
0.0
  0
LINE
  5
B0
330
1E
100
AcDbEntity
  8
OUTLINE
  6
CONTINUOUS
 62
     3
100
AcDbLine
 10
355.0
 20
-1.000000000001818
 30
0.0
 11
355.0
 21
-0.000000000001819
 31
0.0
  0
ARC
  5
B1
330
1E
100
AcDbEntity
  8
OUTLINE
  6
CONTINUOUS
 62
     3
100
AcDbCircle
 10
348.0
 20
-1.000000000001818
 30
0.0
 40
7.0
100
AcDbArc
 50
269.9999999999997
 51
0.0
  0
LINE
  5
B2
330
1E
100
AcDbEntity
  8
DETAIL
  6
CONTINUOUS
 62
     5
100
AcDbLine
 10
355.0
 20
-1.000000000001818
 30
0.0
 11
355.0
 21
-0.000000000001819
 31
0.0
  0
ARC
  5
B3
330
1E
100
AcDbEntity
  8
DETAIL
  6
CONTINUOUS
 62
     5
100
AcDbCircle
 10
348.0
 20
-1.000000000001818
 30
0.0
 40
7.0
100
AcDbArc
 50
269.9999999999997
 51
0.0
  0
TEXT
  5
B4
330
1E
100
AcDbEntity
  8
NOTE
  6
CONTINUOUS
 62
     4
100
AcDbText
 10
738.8962107090919
 20
-411.5334469695753
 30
0.0
 40
64.0
  1
AH 4-14X30
 50
0.0000000000003197
 41
0.9
100
AcDbText
  0
LINE
  5
B5
330
1E
100
AcDbEntity
  8
SIZE
  6
CONTINUOUS
 62
    30
100
AcDbLine
 10
-335.0
 20
-19.99999999999818
 30
0.0
 11
-335.0
 21
-208.7615646318762
 31
0.0
  0
LINE
  5
B6
330
1E
100
AcDbEntity
  8
SIZE
  6
CONTINUOUS
 62
    30
100
AcDbLine
 10
-355.0
 20
-19.99999999999818
 30
0.0
 11
-355.0
 21
-208.7615646318762
 31
0.0
  0
LINE
  5
B7
330
1E
100
AcDbEntity
  8
SIZE
  6
CONTINUOUS
 62
    30
100
AcDbLine
 10
-325.0
 20
-178.7615646318762
 30
0.0
 11
-315.0
 21
-178.7615646318762
 31
0.0
  0
LINE
  5
B8
330
1E
100
AcDbEntity
  8
SIZE
  6
CONTINUOUS
 62
    30
100
AcDbLine
 10
-365.0
 20
-178.7615646318762
 30
0.0
 11
-508.2571428571444
 21
-178.7615646318762
 31
0.0
  0
LINE
  5
B9
330
1E
100
AcDbEntity
  8
SIZE
  6
CONTINUOUS
 62
    30
100
AcDbLine
 10
-335.0
 20
-178.7615646318762
 30
0.0
 11
-355.0
 21
-178.7615646318762
 31
0.0
  0
CIRCLE
  5
BA
330
1E
100
AcDbEntity
  8
SIZE
  6
CONTINUOUS
 62
    30
100
AcDbCircle
 10
-335.0
 20
-178.7615646318762
 30
0.0
 40
5.0
  0
LINE
  5
BB
330
1E
100
AcDbEntity
  8
SIZE
  6
CONTINUOUS
 62
    30
100
AcDbLine
 10
-330.0
 20
-178.7615646318762
 30
0.0
 11
-325.0
 21
-178.7615646318762
 31
0.0
  0
CIRCLE
  5
BC
330
1E
100
AcDbEntity
  8
SIZE
  6
CONTINUOUS
 62
    30
100
AcDbCircle
 10
-355.0
 20
-178.7615646318762
 30
0.0
 40
5.0
  0
LINE
  5
BD
330
1E
100
AcDbEntity
  8
SIZE
  6
CONTINUOUS
 62
    30
100
AcDbLine
 10
-360.0
 20
-178.7615646318762
 30
0.0
 11
-365.0
 21
-178.7615646318762
 31
0.0
  0
TEXT
  5
BE
330
1E
100
AcDbEntity
  8
SIZE
  6
CONTINUOUS
 62
    30
100
AcDbText
 10
-488.2571428571445
 20
-158.7615646318763
 30
0.0
 40
64.0
  1
20
 41
0.9
 72
     1
 11
-441.6285714285731
 21
-158.7615646318763
 31
0.0
100
AcDbText
  0
POINT
  5
BF
330
1E
100
AcDbEntity
  8
DEFPOINTS
  6
CONTINUOUS
 62
     7
100
AcDbPoint
 10
-335.0
 20
0.000000000001819
 30
0.0
  0
POINT
  5
C0
330
1E
100
AcDbEntity
  8
DEFPOINTS
  6
CONTINUOUS
 62
     7
100
AcDbPoint
 10
-355.0
 20
0.000000000001819
 30
0.0
  0
POINT
  5
C1
330
1E
100
AcDbEntity
  8
DEFPOINTS
  6
CONTINUOUS
 62
     7
100
AcDbPoint
 10
-355.0
 20
-178.7615646318762
 30
0.0
  0
LINE
  5
C2
330
1E
100
AcDbEntity
  8
SIZE
  6
CONTINUOUS
 62
    30
100
AcDbLine
 10
287.0
 20
107.9999999999985
 30
0.0
 11
286.9999999999998
 21
-626.451753112185
 31
0.0
  0
LINE
  5
C3
330
1E
100
AcDbEntity
  8
SIZE
  6
CONTINUOUS
 62
    30
100
AcDbLine
 10
-287.0
 20
108.0000000000012
 30
0.0
 11
-287.0
 21
-626.451753112185
 31
0.0
  0
LINE
  5
C4
330
1E
100
AcDbEntity
  8
SIZE
  6
CONTINUOUS
 62
    30
100
AcDbLine
 10
276.9999999999999
 20
-596.4517531121849
 30
0.0
 11
-277.0
 21
-596.4517531121849
 31
0.0
  0
CIRCLE
  5
C5
330
1E
100
AcDbEntity
  8
SIZE
  6
CONTINUOUS
 62
    30
100
AcDbCircle
 10
286.9999999999998
 20
-596.4517531121849
 30
0.0
 40
5.0
  0
LINE
  5
C6
330
1E
100
AcDbEntity
  8
SIZE
  6
CONTINUOUS
 62
    30
100
AcDbLine
 10
281.9999999999998
 20
-596.4517531121849
 30
0.0
 11
276.9999999999999
 21
-596.4517531121849
 31
0.0
  0
CIRCLE
  5
C7
330
1E
100
AcDbEntity
  8
SIZE
  6
CONTINUOUS
 62
    30
100
AcDbCircle
 10
-287.0
 20
-596.4517531121849
 30
0.0
 40
5.0
  0
LINE
  5
C8
330
1E
100
AcDbEntity
  8
SIZE
  6
CONTINUOUS
 62
    30
100
AcDbLine
 10
-282.0
 20
-596.4517531121849
 30
0.0
 11
-277.0
 21
-596.4517531121849
 31
0.0
  0
TEXT
  5
C9
330
1E
100
AcDbEntity
  8
SIZE
  6
CONTINUOUS
 62
    30
100
AcDbText
 10
-75.42857142857148
 20
-576.451753112185
 30
0.0
 40
64.0
  1
574
 41
0.9
 72
     1
 11
-0.0000000000000568
 21
-576.451753112185
 31
0.0
100
AcDbText
  0
POINT
  5
CA
330
1E
100
AcDbEntity
  8
DEFPOINTS
  6
CONTINUOUS
 62
     7
100
AcDbPoint
 10
287.0
 20
127.9999999999986
 30
0.0
  0
POINT
  5
CB
330
1E
100
AcDbEntity
  8
DEFPOINTS
  6
CONTINUOUS
 62
     7
100
AcDbPoint
 10
-287.0
 20
128.0000000000013
 30
0.0
  0
POINT
  5
CC
330
1E
100
AcDbEntity
  8
DEFPOINTS
  6
CONTINUOUS
 62
     7
100
AcDbPoint
 10
-287.0
 20
-596.4517531121849
 30
0.0
  0
LINE
  5
CD
330
1E
100
AcDbEntity
  8
NOTE
  6
CONTINUOUS
 62
     4
100
AcDbLine
 10
287.0000000000063
 20
148.0000000000048
 30
0.0
 11
665.2906717147487
 21
-438.4342028147544
 31
0.0
  0
LINE
  5
CE
330
1E
100
AcDbEntity
  8
NOTE
  6
CONTINUOUS
 62
     4
100
AcDbLine
 10
-316.999999999998
 20
304.0000000000018
 30
0.0
 11
-740.7301471927675
 21
30.13020332884844
 31
0.0
  0
LINE
  5
CF
330
1E
100
AcDbEntity
  8
SIZE
  6
CONTINUOUS
 62
    30
100
AcDbLine
 10
-356.9999999999982
 20
304.0000000000018
 30
0.0
 11
-629.4499953371849
 21
304.0000000000018
 31
0.0
  0
LINE
  5
D0
330
1E
100
AcDbEntity
  8
SIZE
  6
CONTINUOUS
 62
    30
100
AcDbLine
 10
-357.0
 20
145.0000000000018
 30
0.0
 11
-629.4499953371849
 21
145.0000000000019
 31
0.0
  0
LINE
  5
D1
330
1E
100
AcDbEntity
  8
SIZE
  6
CONTINUOUS
 62
    30
100
AcDbLine
 10
-599.449995337185
 20
314.0000000000018
 30
0.0
 11
-599.449995337185
 21
324.0000000000018
 31
0.0
  0
LINE
  5
D2
330
1E
100
AcDbEntity
  8
SIZE
  6
CONTINUOUS
 62
    30
100
AcDbLine
 10
-599.4499953371851
 20
135.0000000000017
 30
0.0
 11
-599.4499953371851
 21
125.0000000000017
 31
0.0
  0
LINE
  5
D3
330
1E
100
AcDbEntity
  8
SIZE
  6
CONTINUOUS
 62
    30
100
AcDbLine
 10
-599.449995337185
 20
304.0000000000018
 30
0.0
 11
-599.4499953371851
 21
145.0000000000019
 31
0.0
  0
CIRCLE
  5
D4
330
1E
100
AcDbEntity
  8
SIZE
  6
CONTINUOUS
 62
    30
100
AcDbCircle
 10
-599.449995337185
 20
304.0000000000018
 30
0.0
 40
5.0
  0
LINE
  5
D5
330
1E
100
AcDbEntity
  8
SIZE
  6
CONTINUOUS
 62
    30
100
AcDbLine
 10
-599.449995337185
 20
309.0000000000018
 30
0.0
 11
-599.449995337185
 21
314.0000000000018
 31
0.0
  0
CIRCLE
  5
D6
330
1E
100
AcDbEntity
  8
SIZE
  6
CONTINUOUS
 62
    30
100
AcDbCircle
 10
-599.4499953371851
 20
145.0000000000019
 30
0.0
 40
5.0
  0
LINE
  5
D7
330
1E
100
AcDbEntity
  8
SIZE
  6
CONTINUOUS
 62
    30
100
AcDbLine
 10
-599.4499953371851
 20
140.0000000000019
 30
0.0
 11
-599.4499953371851
 21
135.0000000000018
 31
0.0
  0
TEXT
  5
D8
330
1E
100
AcDbEntity
  8
SIZE
  6
CONTINUOUS
 62
    30
100
AcDbText
 10
-619.4499953371851
 20
157.3000000000016
 30
0.0
 40
64.0
  1
159
 50
90.0
 41
0.9
 72
     1
 11
-619.4499953371851
 21
224.5000000000016
 31
0.0
100
AcDbText
  0
POINT
  5
D9
330
1E
100
AcDbEntity
  8
DEFPOINTS
  6
CONTINUOUS
 62
     7
100
AcDbPoint
 10
-336.999999999998
 20
304.0000000000018
 30
0.0
  0
POINT
  5
DA
330
1E
100
AcDbEntity
  8
DEFPOINTS
  6
CONTINUOUS
 62
     7
100
AcDbPoint
 10
-337.0
 20
145.0000000000018
 30
0.0
  0
POINT
  5
DB
330
1E
100
AcDbEntity
  8
DEFPOINTS
  6
CONTINUOUS
 62
     7
100
AcDbPoint
 10
-599.4499953371851
 20
145.0000000000019
 30
0.0
  0
LINE
  5
DC
330
1E
100
AcDbEntity
  8
SIZE
  6
CONTINUOUS
 62
    30
100
AcDbLine
 10
-336.999999999998
 20
338.0000000000012
 30
0.0
 11
-629.4499953371849
 21
338.0000000000014
 31
0.0
  0
LINE
  5
DD
330
1E
100
AcDbEntity
  8
SIZE
  6
CONTINUOUS
 62
    30
100
AcDbLine
 10
-356.9999999999982
 20
304.0000000000018
 30
0.0
 11
-629.4499953371849
 21
304.0000000000018
 31
0.0
  0
LINE
  5
DE
330
1E
100
AcDbEntity
  8
SIZE
  6
CONTINUOUS
 62
    30
100
AcDbLine
 10
-599.449995337185
 20
294.0000000000018
 30
0.0
 11
-599.449995337185
 21
284.0000000000019
 31
0.0
  0
LINE
  5
DF
330
1E
100
AcDbEntity
  8
SIZE
  6
CONTINUOUS
 62
    30
100
AcDbLine
 10
-599.449995337185
 20
348.0000000000014
 30
0.0
 11
-599.449995337185
 21
494.0000000000032
 31
0.0
  0
LINE
  5
E0
330
1E
100
AcDbEntity
  8
SIZE
  6
CONTINUOUS
 62
    30
100
AcDbLine
 10
-599.449995337185
 20
304.0000000000018
 30
0.0
 11
-599.449995337185
 21
338.0000000000014
 31
0.0
  0
CIRCLE
  5
E1
330
1E
100
AcDbEntity
  8
SIZE
  6
CONTINUOUS
 62
    30
100
AcDbCircle
 10
-599.449995337185
 20
304.0000000000018
 30
0.0
 40
5.0
  0
LINE
  5
E2
330
1E
100
AcDbEntity
  8
SIZE
  6
CONTINUOUS
 62
    30
100
AcDbLine
 10
-599.449995337185
 20
299.0000000000018
 30
0.0
 11
-599.449995337185
 21
294.0000000000018
 31
0.0
  0
CIRCLE
  5
E3
330
1E
100
AcDbEntity
  8
SIZE
  6
CONTINUOUS
 62
    30
100
AcDbCircle
 10
-599.449995337185
 20
338.0000000000014
 30
0.0
 40
5.0
  0
LINE
  5
E4
330
1E
100
AcDbEntity
  8
SIZE
  6
CONTINUOUS
 62
    30
100
AcDbLine
 10
-599.449995337185
 20
343.0000000000014
 30
0.0
 11
-599.449995337185
 21
348.0000000000014
 31
0.0
  0
TEXT
  5
E5
330
1E
100
AcDbEntity
  8
SIZE
  6
CONTINUOUS
 62
    30
100
AcDbText
 10
-619.4499953371851
 20
378.0000000000031
 30
0.0
 40
64.0
  1
34
 50
90.0
 41
0.9
 72
     1
 11
-619.4499953371851
 21
426.0000000000031
 31
0.0
100
AcDbText
  0
POINT
  5
E6
330
1E
100
AcDbEntity
  8
DEFPOINTS
  6
CONTINUOUS
 62
     7
100
AcDbPoint
 10
-316.999999999998
 20
338.0000000000012
 30
0.0
  0
POINT
  5
E7
330
1E
100
AcDbEntity
  8
DEFPOINTS
  6
CONTINUOUS
 62
     7
100
AcDbPoint
 10
-336.999999999998
 20
304.0000000000018
 30
0.0
  0
POINT
  5
E8
330
1E
100
AcDbEntity
  8
DEFPOINTS
  6
CONTINUOUS
 62
     7
100
AcDbPoint
 10
-599.449995337185
 20
304.0000000000018
 30
0.0
  0
LINE
  5
E9
330
1E
100
AcDbEntity
  8
SIZE
  6
CONTINUOUS
 62
    30
100
AcDbLine
 10
317.0000000000018
 20
357.999999999998
 30
0.0
 11
317.0000000000018
 21
792.4357018800398
 31
0.0
  0
LINE
  5
EA
330
1E
100
AcDbEntity
  8
SIZE
  6
CONTINUOUS
 62
    30
100
AcDbLine
 10
-316.999999999998
 20
358.0000000000012
 30
0.0
 11
-316.999999999998
 21
792.4357018800398
 31
0.0
  0
LINE
  5
EB
330
1E
100
AcDbEntity
  8
SIZE
  6
CONTINUOUS
 62
    30
100
AcDbLine
 10
307.0000000000018
 20
762.4357018800395
 30
0.0
 11
-306.9999999999982
 21
762.4357018800395
 31
0.0
  0
CIRCLE
  5
EC
330
1E
100
AcDbEntity
  8
SIZE
  6
CONTINUOUS
 62
    30
100
AcDbCircle
 10
317.0000000000018
 20
762.4357018800395
 30
0.0
 40
5.0
  0
LINE
  5
ED
330
1E
100
AcDbEntity
  8
SIZE
  6
CONTINUOUS
 62
    30
100
AcDbLine
 10
312.0000000000018
 20
762.4357018800395
 30
0.0
 11
307.0000000000018
 21
762.4357018800395
 31
0.0
  0
CIRCLE
  5
EE
330
1E
100
AcDbEntity
  8
SIZE
  6
CONTINUOUS
 62
    30
100
AcDbCircle
 10
-316.999999999998
 20
762.4357018800395
 30
0.0
 40
5.0
  0
LINE
  5
EF
330
1E
100
AcDbEntity
  8
SIZE
  6
CONTINUOUS
 62
    30
100
AcDbLine
 10
-311.999999999998
 20
762.4357018800395
 30
0.0
 11
-306.999999999998
 21
762.4357018800395
 31
0.0
  0
TEXT
  5
F0
330
1E
100
AcDbEntity
  8
SIZE
  6
CONTINUOUS
 62
    30
100
AcDbText
 10
-57.46588977782344
 20
782.4357018800398
 30
0.0
 40
64.0
  1
634
 41
0.9
 72
     1
 11
17.96268165074798
 21
782.4357018800398
 31
0.0
100
AcDbText
  0
POINT
  5
F1
330
1E
100
AcDbEntity
  8
DEFPOINTS
  6
CONTINUOUS
 62
     7
100
AcDbPoint
 10
317.0000000000018
 20
337.999999999998
 30
0.0
  0
POINT
  5
F2
330
1E
100
AcDbEntity
  8
DEFPOINTS
  6
CONTINUOUS
 62
     7
100
AcDbPoint
 10
-316.999999999998
 20
338.0000000000012
 30
0.0
  0
POINT
  5
F3
330
1E
100
AcDbEntity
  8
DEFPOINTS
  6
CONTINUOUS
 62
     7
100
AcDbPoint
 10
-316.999999999998
 20
762.4357018800395
 30
0.0
  0
LINE
  5
F4
330
1E
100
AcDbEntity
  8
OUTLINE
  6
CONTINUOUS
 62
     3
100
AcDbLine
 10
-316.999999999998
 20
338.0000000000018
 30
0.0
 11
317.0000000000018
 21
337.999999999999
 31
0.0
  0
LINE
  5
F5
330
1E
100
AcDbEntity
  8
DETAIL
  6
CONTINUOUS
 62
     5
100
AcDbLine
 10
-317.0
 20
45.00000000000181
 30
0.0
 11
317.0
 21
44.99999999999909
 31
0.0
  0
LINE
  5
F6
330
1E
100
AcDbEntity
  8
DETAIL
  6
CONTINUOUS
 62
     5
100
AcDbLine
 10
-317.0
 20
48.00000000000181
 30
0.0
 11
317.0
 21
47.99999999999909
 31
0.0
  0
LINE
  5
F7
330
1E
100
AcDbEntity
  8
DETAIL
  6
CONTINUOUS
 62
     5
100
AcDbLine
 10
-316.999999999998
 20
338.0000000000018
 30
0.0
 11
317.0000000000018
 21
337.999999999999
 31
0.0
  0
LINE
  5
F8
330
1E
100
AcDbEntity
  8
OUTLINE
  6
CONTINUOUS
 62
     3
100
AcDbLine
 10
317.0
 20
-0.000000000001819
 30
0.0
 11
317.0000000000018
 21
337.999999999998
 31
0.0
  0
LINE
  5
F9
330
1E
100
AcDbEntity
  8
NOTE
  6
CONTINUOUS
 62
     4
100
AcDbLine
 10
317.0000000000018
 20
283.9999999999985
 30
0.0
 11
317.0000000000018
 21
323.9999999999985
 31
0.0
  0
LINE
  5
FA
330
1E
100
AcDbEntity
  8
BASIS
  6
DASHDOT
 62
     6
100
AcDbLine
 10
0.0
 20
-65.75558099999989
 30
0.0
 11
0.000000000001819
 21
414.2172749999999
 31
0.0
  0
LINE
  5
FB
330
1E
100
AcDbEntity
  8
DETAIL
  6
CONTINUOUS
 62
     5
100
AcDbLine
 10
317.0
 20
-0.000000000001819
 30
0.0
 11
317.0000000000018
 21
337.999999999998
 31
0.0
  0
LINE
  5
FC
330
1E
100
AcDbEntity
  8
SERVICESPACE
  6
DASHDOT
 62
     2
100
AcDbLine
 10
335.0
 20
19.99999999999818
 30
0.0
 11
335.0
 21
-0.000000000001819
 31
0.0
  0
LINE
  5
FD
330
1E
100
AcDbEntity
  8
NOTE
  6
CONTINUOUS
 62
     4
100
AcDbLine
 10
317.0
 20
124.9999999999986
 30
0.0
 11
317.0000000000018
 21
164.9999999999985
 31
0.0
  0
LINE
  5
FE
330
1E
100
AcDbEntity
  8
NOTE
  6
CONTINUOUS
 62
     4
100
AcDbLine
 10
337.0
 20
144.9999999999981
 30
0.0
 11
297.0
 21
144.9999999999985
 31
0.0
  0
LINE
  5
FF
330
1E
100
AcDbEntity
  8
DETAIL
  6
CONTINUOUS
 62
     5
100
AcDbLine
 10
312.0
 20
145.6999999999984
 30
0.0
 11
262.0
 21
145.6999999999984
 31
0.0
  0
LINE
  5
100
330
1E
100
AcDbEntity
  8
NOTE
  6
CONTINUOUS
 62
     4
100
AcDbLine
 10
307.0
 20
147.9999999999985
 30
0.0
 11
267.0
 21
147.9999999999985
 31
0.0
  0
LINE
  5
101
330
1E
100
AcDbEntity
  8
DETAIL
  6
CONTINUOUS
 62
     5
100
AcDbLine
 10
312.0
 20
147.9999999999985
 30
0.0
 11
262.0
 21
147.9999999999985
 31
0.0
  0
LINE
  5
102
330
1E
100
AcDbEntity
  8
NOTE
  6
CONTINUOUS
 62
     4
100
AcDbLine
 10
287.0
 20
127.9999999999986
 30
0.0
 11
287.0000000000018
 21
167.9999999999985
 31
0.0
  0
LINE
  5
103
330
1E
100
AcDbEntity
  8
NOTE
  6
CONTINUOUS
 62
     4
100
AcDbLine
 10
307.0
 20
147.9999999999985
 30
0.0
 11
267.0
 21
147.9999999999985
 31
0.0
  0
CIRCLE
  5
104
330
1E
100
AcDbEntity
  8
FIX
  6
CONTINUOUS
 62
    11
100
AcDbCircle
 10
287.0
 20
147.9999999999985
 30
0.0
 40
20.0
  0
LINE
  5
105
330
1E
100
AcDbEntity
  8
DETAIL
  6
CONTINUOUS
 62
     5
100
AcDbLine
 10
312.0
 20
107.9999999999985
 30
0.0
 11
262.0
 21
107.9999999999985
 31
0.0
  0
LINE
  5
106
330
1E
100
AcDbEntity
  8
DETAIL
  6
CONTINUOUS
 62
     5
100
AcDbLine
 10
312.0
 20
107.9999999999985
 30
0.0
 11
312.0
 21
147.9999999999985
 31
0.0
  0
LINE
  5
107
330
1E
100
AcDbEntity
  8
DETAIL
  6
CONTINUOUS
 62
     5
100
AcDbLine
 10
262.0
 20
107.9999999999985
 30
0.0
 11
262.0
 21
147.9999999999985
 31
0.0
  0
POINT
  5
108
330
1E
100
AcDbEntity
  8
ARRANGE
  6
CONTINUOUS
 62
     1
100
AcDbPoint
 10
0.0
 20
0.0
 30
0.0
  0
CIRCLE
  5
109
330
1E
100
AcDbEntity
  8
ARRANGE
  6
CONTINUOUS
 62
     1
100
AcDbCircle
 10
0.0
 20
0.0
 30
0.0
 40
40.0
  0
LINE
  5
10A
330
1E
100
AcDbEntity
  8
NOTE
  6
CONTINUOUS
 62
     4
100
AcDbLine
 10
337.0000000000018
 20
303.999999999998
 30
0.0
 11
297.0000000000018
 21
303.9999999999985
 31
0.0
  0
LINE
  5
10B
330
1E
100
AcDbEntity
  8
OUTLINE
  6
CONTINUOUS
 62
     3
100
AcDbLine
 10
-317.0
 20
0.000000000001819
 30
0.0
 11
-316.999999999998
 21
338.0000000000018
 31
0.0
  0
LWPOLYLINE
  5
10C
330
1E
100
AcDbEntity
  8
NOTE
  6
CONTINUOUS
 62
     4
100
AcDbPolyline
 90
        3
 70
     0
 43
0.0
 10
-355.0366813706967
 20
291.6221609412872
 10
-316.9999999999963
 20
304.0000000000022
 10
-343.751811758022
 20
274.2621364561118
  0
LINE
  5
111
330
1E
100
AcDbEntity
  8
NOTE
  6
CONTINUOUS
 62
     4
100
AcDbLine
 10
-316.999999999998
 20
284.0000000000017
 30
0.0
 11
-316.999999999998
 21
324.0000000000018
 31
0.0
  0
LINE
  5
112
330
1E
100
AcDbEntity
  8
DETAIL
  6
CONTINUOUS
 62
     5
100
AcDbLine
 10
-317.0
 20
0.000000000001819
 30
0.0
 11
-316.999999999998
 21
338.0000000000018
 31
0.0
  0
LINE
  5
113
330
1E
100
AcDbEntity
  8
NOTE
  6
CONTINUOUS
 62
     4
100
AcDbLine
 10
-297.0
 20
145.0000000000013
 30
0.0
 11
-337.0
 21
145.0000000000018
 31
0.0
  0
LWPOLYLINE
  5
114
330
1E
100
AcDbEntity
  8
NOTE
  6
CONTINUOUS
 62
     4
100
AcDbPolyline
 90
        3
 70
     0
 43
0.0
 10
316.7974423902177
 20
121.3145651103372
 10
287.0000000000063
 20
148.0000000000048
 10
299.4626245989702
 20
109.9910138468199
  0
LINE
  5
119
330
1E
100
AcDbEntity
  8
NOTE
  6
CONTINUOUS
 62
     4
100
AcDbLine
 10
-317.0
 20
125.0000000000017
 30
0.0
 11
-316.999999999998
 21
165.0000000000018
 31
0.0
  0
LINE
  5
11A
330
1E
100
AcDbEntity
  8
DETAIL
  6
CONTINUOUS
 62
     5
100
AcDbLine
 10
-261.999999999998
 20
145.700000000001
 30
0.0
 11
-311.999999999998
 21
145.7000000000016
 31
0.0
  0
LINE
  5
11B
330
1E
100
AcDbEntity
  8
NOTE
  6
CONTINUOUS
 62
     4
100
AcDbLine
 10
-266.999999999998
 20
148.0000000000013
 30
0.0
 11
-306.9999999999982
 21
148.0000000000013
 31
0.0
  0
LINE
  5
11C
330
1E
100
AcDbEntity
  8
NOTE
  6
CONTINUOUS
 62
     4
100
AcDbLine
 10
-266.999999999998
 20
148.0000000000013
 30
0.0
 11
-306.9999999999982
 21
148.0000000000013
 31
0.0
  0
LINE
  5
11D
330
1E
100
AcDbEntity
  8
DETAIL
  6
CONTINUOUS
 62
     5
100
AcDbLine
 10
-261.999999999998
 20
148.0000000000013
 30
0.0
 11
-311.999999999998
 21
148.0000000000018
 31
0.0
  0
LINE
  5
11E
330
1E
100
AcDbEntity
  8
NOTE
  6
CONTINUOUS
 62
     4
100
AcDbLine
 10
-287.0
 20
128.0000000000013
 30
0.0
 11
-286.999999999998
 21
168.0000000000013
 31
0.0
  0
LINE
  5
11F
330
1E
100
AcDbEntity
  8
NOTE
  6
CONTINUOUS
 62
     4
100
AcDbLine
 10
-266.999999999998
 20
148.0000000000013
 30
0.0
 11
-306.9999999999982
 21
148.0000000000013
 31
0.0
  0
CIRCLE
  5
120
330
1E
100
AcDbEntity
  8
FIX
  6
CONTINUOUS
 62
    11
100
AcDbCircle
 10
-286.999999999998
 20
148.0000000000013
 30
0.0
 40
20.0
  0
LINE
  5
121
330
1E
100
AcDbEntity
  8
DETAIL
  6
CONTINUOUS
 62
     5
100
AcDbLine
 10
-262.0
 20
108.0000000000012
 30
0.0
 11
-312.0
 21
108.0000000000017
 31
0.0
  0
LINE
  5
122
330
1E
100
AcDbEntity
  8
DETAIL
  6
CONTINUOUS
 62
     5
100
AcDbLine
 10
-262.0
 20
108.0000000000012
 30
0.0
 11
-261.999999999998
 21
148.0000000000013
 31
0.0
  0
LINE
  5
123
330
1E
100
AcDbEntity
  8
DETAIL
  6
CONTINUOUS
 62
     5
100
AcDbLine
 10
-312.0
 20
108.0000000000017
 30
0.0
 11
-311.999999999998
 21
148.0000000000018
 31
0.0
  0
LINE
  5
124
330
1E
100
AcDbEntity
  8
OUTLINE
  6
CONTINUOUS
 62
     3
100
AcDbLine
 10
-355.0
 20
-0.9999999999981808
 30
0.0
 11
-355.0
 21
0.000000000001819
 31
0.0
  0
ARC
  5
125
330
1E
100
AcDbEntity
  8
OUTLINE
  6
CONTINUOUS
 62
     3
100
AcDbCircle
 10
-348.0
 20
-0.9999999999981808
 30
0.0
 40
7.0
100
AcDbArc
 50
179.9999999999996
 51
269.9999999999997
  0
LINE
  5
126
330
1E
100
AcDbEntity
  8
SERVICESPACE
  6
DASHDOT
 62
     2
100
AcDbLine
 10
-395.0
 20
0.000000000001819
 30
0.0
 11
-335.0
 21
0.000000000001819
 31
0.0
  0
LINE
  5
127
330
1E
100
AcDbEntity
  8
SERVICESPACE
  6
DASHDOT
 62
     2
100
AcDbLine
 10
-395.0
 20
20.00000000000181
 30
0.0
 11
-335.0
 21
20.00000000000181
 31
0.0
  0
LINE
  5
128
330
1E
100
AcDbEntity
  8
SERVICESPACE
  6
DASHDOT
 62
     2
100
AcDbLine
 10
-335.0
 20
20.00000000000181
 30
0.0
 11
-335.0
 21
0.000000000001819
 31
0.0
  0
LINE
  5
129
330
1E
100
AcDbEntity
  8
DETAIL
  6
CONTINUOUS
 62
     5
100
AcDbLine
 10
-355.0
 20
-0.9999999999981808
 30
0.0
 11
-355.0
 21
0.000000000001819
 31
0.0
  0
ARC
  5
12A
330
1E
100
AcDbEntity
  8
DETAIL
  6
CONTINUOUS
 62
     5
100
AcDbCircle
 10
-348.0
 20
-0.9999999999981808
 30
0.0
 40
7.0
100
AcDbArc
 50
179.9999999999996
 51
269.9999999999997
  0
LINE
  5
12B
330
1E
100
AcDbEntity
  8
NOTE
  6
CONTINUOUS
 62
     4
100
AcDbLine
 10
-296.999999999998
 20
304.0000000000012
 30
0.0
 11
-336.999999999998
 21
304.0000000000018
 31
0.0
  0
LINE
  5
12C
330
1E
100
AcDbEntity
  8
NOTE
  6
CONTINUOUS
 62
     4
100
AcDbLine
 10
-740.7301471927675
 20
30.13020332884844
 30
0.0
 11
-1146.990342192766
 21
30.13020332885071
 31
0.0
  0
TEXT
  5
12D
330
1E
100
AcDbEntity
  8
NOTE
  6
CONTINUOUS
 62
     4
100
AcDbText
 10
-1080.620910296737
 20
50.5655680765194
 30
0.0
 40
64.0
  1
6-%%c2.9
 41
0.9
100
AcDbText
  0
TEXT
  5
12E
330
1E
100
AcDbEntity
  8
ETC
  6
CONTINUOUS
 62
    61
100
AcDbText
 10
552.1396415232483
 20
1077.547655062452
 30
0.0
 40
64.0
  1
PLFY-P20_40VLMD-E_3
 41
0.9
100
AcDbText
  0
LINE
  5
12F
330
1E
100
AcDbEntity
  8
NOTE
  6
CONTINUOUS
 62
     4
100
AcDbLine
 10
95.00000000000179
 20
115.9999999999991
 30
0.0
 11
95.00000000000179
 21
155.999999999999
 31
0.0
  0
LINE
  5
130
330
1E
100
AcDbEntity
  8
NOTE
  6
CONTINUOUS
 62
     4
100
AcDbLine
 10
115.0000000000017
 20
135.9999999999985
 30
0.0
 11
75.00000000000182
 21
135.999999999999
 31
0.0
  0
LINE
  5
131
330
1E
100
AcDbEntity
  8
NOTE
  6
CONTINUOUS
 62
     4
100
AcDbLine
 10
-74.99999999999818
 20
135.9999999999985
 30
0.0
 11
-114.9999999999981
 21
135.999999999999
 31
0.0
  0
LINE
  5
132
330
1E
100
AcDbEntity
  8
NOTE
  6
CONTINUOUS
 62
     4
100
AcDbLine
 10
-94.99999999999818
 20
115.9999999999991
 30
0.0
 11
-94.99999999999818
 21
155.999999999999
 31
0.0
  0
LINE
  5
133
330
1E
100
AcDbEntity
  8
NOTE
  6
CONTINUOUS
 62
     4
100
AcDbLine
 10
-74.99999999999818
 20
62.99999999999863
 30
0.0
 11
-114.9999999999981
 21
62.99999999999909
 31
0.0
  0
LINE
  5
134
330
1E
100
AcDbEntity
  8
NOTE
  6
CONTINUOUS
 62
     4
100
AcDbLine
 10
-94.99999999999818
 20
42.99999999999909
 30
0.0
 11
-94.99999999999818
 21
82.9999999999991
 31
0.0
  0
LINE
  5
135
330
1E
100
AcDbEntity
  8
NOTE
  6
CONTINUOUS
 62
     4
100
AcDbLine
 10
115.0000000000017
 20
62.99999999999863
 30
0.0
 11
75.00000000000182
 21
62.99999999999909
 31
0.0
  0
LINE
  5
136
330
1E
100
AcDbEntity
  8
NOTE
  6
CONTINUOUS
 62
     4
100
AcDbLine
 10
95.00000000000179
 20
42.99999999999909
 30
0.0
 11
95.00000000000179
 21
82.9999999999991
 31
0.0
  0
LINE
  5
137
330
1E
100
AcDbEntity
  8
DETAIL
  6
CONTINUOUS
 62
     5
100
AcDbLine
 10
-119.999999999999
 20
122.0000000000009
 30
0.0
 11
120.0
 21
121.9999999999995
 31
0.0
  0
LINE
  5
138
330
1E
100
AcDbEntity
  8
DETAIL
  6
CONTINUOUS
 62
     5
100
AcDbLine
 10
-119.999999999999
 20
77.00000000000091
 30
0.0
 11
120.0
 21
76.99999999999954
 31
0.0
  0
LINE
  5
139
330
1E
100
AcDbEntity
  8
DETAIL
  6
CONTINUOUS
 62
     5
100
AcDbLine
 10
120.0
 20
77.0
 30
0.0
 11
120.0
 21
121.9999999999995
 31
0.0
  0
LINE
  5
13A
330
1E
100
AcDbEntity
  8
DETAIL
  6
CONTINUOUS
 62
     5
100
AcDbLine
 10
-120.0
 20
77.0
 30
0.0
 11
-119.999999999999
 21
122.0000000000009
 31
0.0
  0
LINE
  5
13B
330
1E
100
AcDbEntity
  8
SIZE
  6
CONTINUOUS
 62
    30
100
AcDbLine
 10
337.0000000000018
 20
337.999999999998
 30
0.0
 11
841.7287813251206
 21
337.999999999998
 31
0.0
  0
LINE
  5
13C
330
1E
100
AcDbEntity
  8
SIZE
  6
CONTINUOUS
 62
    30
100
AcDbLine
 10
135.0000000000017
 20
135.9999999999985
 30
0.0
 11
841.7287813251205
 21
135.9999999999984
 31
0.0
  0
LINE
  5
13D
330
1E
100
AcDbEntity
  8
SIZE
  6
CONTINUOUS
 62
    30
100
AcDbLine
 10
811.7287813251207
 20
327.999999999998
 30
0.0
 11
811.7287813251207
 21
145.9999999999984
 31
0.0
  0
CIRCLE
  5
13E
330
1E
100
AcDbEntity
  8
SIZE
  6
CONTINUOUS
 62
    30
100
AcDbCircle
 10
811.7287813251207
 20
337.999999999998
 30
0.0
 40
5.0
  0
LINE
  5
13F
330
1E
100
AcDbEntity
  8
SIZE
  6
CONTINUOUS
 62
    30
100
AcDbLine
 10
811.7287813251207
 20
332.999999999998
 30
0.0
 11
811.7287813251207
 21
327.999999999998
 31
0.0
  0
CIRCLE
  5
140
330
1E
100
AcDbEntity
  8
SIZE
  6
CONTINUOUS
 62
    30
100
AcDbCircle
 10
811.7287813251207
 20
135.9999999999984
 30
0.0
 40
5.0
  0
LINE
  5
141
330
1E
100
AcDbEntity
  8
SIZE
  6
CONTINUOUS
 62
    30
100
AcDbLine
 10
811.7287813251207
 20
140.9999999999984
 30
0.0
 11
811.7287813251207
 21
145.9999999999984
 31
0.0
  0
TEXT
  5
142
330
1E
100
AcDbEntity
  8
SIZE
  6
CONTINUOUS
 62
    30
100
AcDbText
 10
791.7287813251205
 20
162.9428571428554
 30
0.0
 40
64.0
  1
202
 50
90.0
 41
0.9
 72
     1
 11
791.7287813251205
 21
236.9999999999982
 31
0.0
100
AcDbText
  0
POINT
  5
143
330
1E
100
AcDbEntity
  8
DEFPOINTS
  6
CONTINUOUS
 62
     7
100
AcDbPoint
 10
317.0000000000018
 20
337.999999999998
 30
0.0
  0
POINT
  5
144
330
1E
100
AcDbEntity
  8
DEFPOINTS
  6
CONTINUOUS
 62
     7
100
AcDbPoint
 10
115.0000000000017
 20
135.9999999999985
 30
0.0
  0
POINT
  5
145
330
1E
100
AcDbEntity
  8
DEFPOINTS
  6
CONTINUOUS
 62
     7
100
AcDbPoint
 10
811.7287813251207
 20
135.9999999999984
 30
0.0
  0
LINE
  5
146
330
1E
100
AcDbEntity
  8
SIZE
  6
CONTINUOUS
 62
    30
100
AcDbLine
 10
135.0000000000017
 20
135.9999999999985
 30
0.0
 11
841.7287813251205
 21
135.9999999999984
 31
0.0
  0
LINE
  5
147
330
1E
100
AcDbEntity
  8
SIZE
  6
CONTINUOUS
 62
    30
100
AcDbLine
 10
135.0
 20
62.99999999999863
 30
0.0
 11
841.7287813251205
 21
62.99999999999844
 31
0.0
  0
LINE
  5
148
330
1E
100
AcDbEntity
  8
SIZE
  6
CONTINUOUS
 62
    30
100
AcDbLine
 10
811.7287813251207
 20
125.9999999999984
 30
0.0
 11
811.7287813251207
 21
72.99999999999844
 31
0.0
  0
LINE
  5
149
330
1E
100
AcDbEntity
  8
SIZE
  6
CONTINUOUS
 62
    30
100
AcDbLine
 10
811.7287813251207
 20
62.99999999999844
 30
0.0
 11
811.7287813251207
 21
-80.25714285714444
 31
0.0
  0
CIRCLE
  5
14A
330
1E
100
AcDbEntity
  8
SIZE
  6
CONTINUOUS
 62
    30
100
AcDbCircle
 10
811.7287813251207
 20
135.9999999999984
 30
0.0
 40
5.0
  0
LINE
  5
14B
330
1E
100
AcDbEntity
  8
SIZE
  6
CONTINUOUS
 62
    30
100
AcDbLine
 10
811.7287813251207
 20
130.9999999999984
 30
0.0
 11
811.7287813251207
 21
125.9999999999984
 31
0.0
  0
CIRCLE
  5
14C
330
1E
100
AcDbEntity
  8
SIZE
  6
CONTINUOUS
 62
    30
100
AcDbCircle
 10
811.7287813251207
 20
62.99999999999844
 30
0.0
 40
5.0
  0
LINE
  5
14D
330
1E
100
AcDbEntity
  8
SIZE
  6
CONTINUOUS
 62
    30
100
AcDbLine
 10
811.7287813251207
 20
67.99999999999844
 30
0.0
 11
811.7287813251207
 21
72.99999999999844
 31
0.0
  0
TEXT
  5
14E
330
1E
100
AcDbEntity
  8
SIZE
  6
CONTINUOUS
 62
    30
100
AcDbText
 10
791.7287813251205
 20
-60.25714285714428
 30
0.0
 40
64.0
  1
73
 50
90.0
 41
0.9
 72
     1
 11
791.7287813251205
 21
-13.62857142857285
 31
0.0
100
AcDbText
  0
POINT
  5
14F
330
1E
100
AcDbEntity
  8
DEFPOINTS
  6
CONTINUOUS
 62
     7
100
AcDbPoint
 10
115.0000000000017
 20
135.9999999999985
 30
0.0
  0
POINT
  5
150
330
1E
100
AcDbEntity
  8
DEFPOINTS
  6
CONTINUOUS
 62
     7
100
AcDbPoint
 10
115.0
 20
62.99999999999863
 30
0.0
  0
POINT
  5
151
330
1E
100
AcDbEntity
  8
DEFPOINTS
  6
CONTINUOUS
 62
     7
100
AcDbPoint
 10
811.7287813251207
 20
62.99999999999844
 30
0.0
  0
LINE
  5
152
330
1E
100
AcDbEntity
  8
SIZE
  6
CONTINUOUS
 62
    30
100
AcDbLine
 10
337.0000000000018
 20
337.999999999998
 30
0.0
 11
977.2418475635896
 21
337.9999999999978
 31
0.0
  0
LINE
  5
153
330
1E
100
AcDbEntity
  8
SIZE
  6
CONTINUOUS
 62
    30
100
AcDbLine
 10
140.0
 20
121.9999999999995
 30
0.0
 11
977.2418475635896
 21
121.9999999999992
 31
0.0
  0
LINE
  5
154
330
1E
100
AcDbEntity
  8
SIZE
  6
CONTINUOUS
 62
    30
100
AcDbLine
 10
947.2418475635896
 20
327.9999999999978
 30
0.0
 11
947.2418475635896
 21
131.9999999999992
 31
0.0
  0
CIRCLE
  5
155
330
1E
100
AcDbEntity
  8
SIZE
  6
CONTINUOUS
 62
    30
100
AcDbCircle
 10
947.2418475635896
 20
337.9999999999978
 30
0.0
 40
5.0
  0
LINE
  5
156
330
1E
100
AcDbEntity
  8
SIZE
  6
CONTINUOUS
 62
    30
100
AcDbLine
 10
947.2418475635896
 20
332.9999999999978
 30
0.0
 11
947.2418475635896
 21
327.9999999999978
 31
0.0
  0
CIRCLE
  5
157
330
1E
100
AcDbEntity
  8
SIZE
  6
CONTINUOUS
 62
    30
100
AcDbCircle
 10
947.2418475635896
 20
121.9999999999992
 30
0.0
 40
5.0
  0
LINE
  5
158
330
1E
100
AcDbEntity
  8
SIZE
  6
CONTINUOUS
 62
    30
100
AcDbLine
 10
947.2418475635896
 20
126.9999999999992
 30
0.0
 11
947.2418475635896
 21
131.9999999999993
 31
0.0
  0
TEXT
  5
159
330
1E
100
AcDbEntity
  8
SIZE
  6
CONTINUOUS
 62
    30
100
AcDbText
 10
927.2418475635895
 20
162.7999999999988
 30
0.0
 40
64.0
  1
216
 50
90.0
 41
0.9
 72
     1
 11
927.2418475635895
 21
229.9999999999988
 31
0.0
100
AcDbText
  0
POINT
  5
15A
330
1E
100
AcDbEntity
  8
DEFPOINTS
  6
CONTINUOUS
 62
     7
100
AcDbPoint
 10
317.0000000000018
 20
337.999999999998
 30
0.0
  0
POINT
  5
15B
330
1E
100
AcDbEntity
  8
DEFPOINTS
  6
CONTINUOUS
 62
     7
100
AcDbPoint
 10
120.0
 20
121.9999999999995
 30
0.0
  0
POINT
  5
15C
330
1E
100
AcDbEntity
  8
DEFPOINTS
  6
CONTINUOUS
 62
     7
100
AcDbPoint
 10
947.2418475635896
 20
121.9999999999992
 30
0.0
  0
LINE
  5
15D
330
1E
100
AcDbEntity
  8
SIZE
  6
CONTINUOUS
 62
    30
100
AcDbLine
 10
140.0
 20
121.9999999999995
 30
0.0
 11
977.2418475635896
 21
121.9999999999992
 31
0.0
  0
LINE
  5
15E
330
1E
100
AcDbEntity
  8
SIZE
  6
CONTINUOUS
 62
    30
100
AcDbLine
 10
140.0
 20
77.0
 30
0.0
 11
977.2418475635896
 21
76.99999999999973
 31
0.0
  0
LINE
  5
15F
330
1E
100
AcDbEntity
  8
SIZE
  6
CONTINUOUS
 62
    30
100
AcDbLine
 10
947.2418475635896
 20
131.9999999999992
 30
0.0
 11
947.2418475635896
 21
141.9999999999992
 31
0.0
  0
LINE
  5
160
330
1E
100
AcDbEntity
  8
SIZE
  6
CONTINUOUS
 62
    30
100
AcDbLine
 10
947.2418475635896
 20
66.99999999999976
 30
0.0
 11
947.2418475635896
 21
-76.25714285714308
 31
0.0
  0
LINE
  5
161
330
1E
100
AcDbEntity
  8
SIZE
  6
CONTINUOUS
 62
    30
100
AcDbLine
 10
947.2418475635896
 20
121.9999999999992
 30
0.0
 11
947.2418475635896
 21
76.99999999999973
 31
0.0
  0
CIRCLE
  5
162
330
1E
100
AcDbEntity
  8
SIZE
  6
CONTINUOUS
 62
    30
100
AcDbCircle
 10
947.2418475635896
 20
121.9999999999992
 30
0.0
 40
5.0
  0
LINE
  5
163
330
1E
100
AcDbEntity
  8
SIZE
  6
CONTINUOUS
 62
    30
100
AcDbLine
 10
947.2418475635896
 20
126.9999999999992
 30
0.0
 11
947.2418475635896
 21
131.9999999999993
 31
0.0
  0
CIRCLE
  5
164
330
1E
100
AcDbEntity
  8
SIZE
  6
CONTINUOUS
 62
    30
100
AcDbCircle
 10
947.2418475635896
 20
76.99999999999973
 30
0.0
 40
5.0
  0
LINE
  5
165
330
1E
100
AcDbEntity
  8
SIZE
  6
CONTINUOUS
 62
    30
100
AcDbLine
 10
947.2418475635896
 20
71.99999999999976
 30
0.0
 11
947.2418475635896
 21
66.99999999999976
 31
0.0
  0
TEXT
  5
166
330
1E
100
AcDbEntity
  8
SIZE
  6
CONTINUOUS
 62
    30
100
AcDbText
 10
927.2418475635895
 20
-56.25714285714292
 30
0.0
 40
64.0
  1
45
 50
90.0
 41
0.9
 72
     1
 11
927.2418475635895
 21
-9.628571428571502
 31
0.0
100
AcDbText
  0
POINT
  5
167
330
1E
100
AcDbEntity
  8
DEFPOINTS
  6
CONTINUOUS
 62
     7
100
AcDbPoint
 10
120.0
 20
121.9999999999995
 30
0.0
  0
POINT
  5
168
330
1E
100
AcDbEntity
  8
DEFPOINTS
  6
CONTINUOUS
 62
     7
100
AcDbPoint
 10
120.0
 20
77.0
 30
0.0
  0
POINT
  5
169
330
1E
100
AcDbEntity
  8
DEFPOINTS
  6
CONTINUOUS
 62
     7
100
AcDbPoint
 10
947.2418475635896
 20
76.99999999999973
 30
0.0
  0
LINE
  5
16A
330
1E
100
AcDbEntity
  8
SIZE
  6
CONTINUOUS
 62
    30
100
AcDbLine
 10
317.0000000000018
 20
357.999999999998
 30
0.0
 11
317.0000000000018
 21
540.8692921909746
 31
0.0
  0
LINE
  5
16B
330
1E
100
AcDbEntity
  8
SIZE
  6
CONTINUOUS
 62
    30
100
AcDbLine
 10
95.00000000000179
 20
175.999999999999
 30
0.0
 11
95.00000000000184
 21
540.8692921909746
 31
0.0
  0
LINE
  5
16C
330
1E
100
AcDbEntity
  8
SIZE
  6
CONTINUOUS
 62
    30
100
AcDbLine
 10
307.0000000000018
 20
510.8692921909746
 30
0.0
 11
105.0000000000018
 21
510.8692921909746
 31
0.0
  0
CIRCLE
  5
16D
330
1E
100
AcDbEntity
  8
SIZE
  6
CONTINUOUS
 62
    30
100
AcDbCircle
 10
317.0000000000018
 20
510.8692921909746
 30
0.0
 40
5.0
  0
LINE
  5
16E
330
1E
100
AcDbEntity
  8
SIZE
  6
CONTINUOUS
 62
    30
100
AcDbLine
 10
312.0000000000018
 20
510.8692921909746
 30
0.0
 11
307.0000000000018
 21
510.8692921909746
 31
0.0
  0
CIRCLE
  5
16F
330
1E
100
AcDbEntity
  8
SIZE
  6
CONTINUOUS
 62
    30
100
AcDbCircle
 10
95.00000000000184
 20
510.8692921909746
 30
0.0
 40
5.0
  0
LINE
  5
170
330
1E
100
AcDbEntity
  8
SIZE
  6
CONTINUOUS
 62
    30
100
AcDbLine
 10
100.0000000000018
 20
510.8692921909746
 30
0.0
 11
105.0000000000018
 21
510.8692921909746
 31
0.0
  0
TEXT
  5
171
330
1E
100
AcDbEntity
  8
SIZE
  6
CONTINUOUS
 62
    30
100
AcDbText
 10
134.7988730162788
 20
530.8692921909746
 30
0.0
 40
64.0
  1
222
 41
0.9
 72
     1
 11
208.8560158734217
 21
530.8692921909746
 31
0.0
100
AcDbText
  0
POINT
  5
172
330
1E
100
AcDbEntity
  8
DEFPOINTS
  6
CONTINUOUS
 62
     7
100
AcDbPoint
 10
317.0000000000018
 20
337.999999999998
 30
0.0
  0
POINT
  5
173
330
1E
100
AcDbEntity
  8
DEFPOINTS
  6
CONTINUOUS
 62
     7
100
AcDbPoint
 10
95.00000000000179
 20
155.999999999999
 30
0.0
  0
POINT
  5
174
330
1E
100
AcDbEntity
  8
DEFPOINTS
  6
CONTINUOUS
 62
     7
100
AcDbPoint
 10
95.00000000000184
 20
510.8692921909746
 30
0.0
  0
LINE
  5
175
330
1E
100
AcDbEntity
  8
SIZE
  6
CONTINUOUS
 62
    30
100
AcDbLine
 10
95.00000000000179
 20
175.999999999999
 30
0.0
 11
95.00000000000184
 21
540.8692921909746
 31
0.0
  0
LINE
  5
176
330
1E
100
AcDbEntity
  8
SIZE
  6
CONTINUOUS
 62
    30
100
AcDbLine
 10
-94.99999999999818
 20
175.999999999999
 30
0.0
 11
-94.99999999999815
 21
540.8692921909746
 31
0.0
  0
LINE
  5
177
330
1E
100
AcDbEntity
  8
SIZE
  6
CONTINUOUS
 62
    30
100
AcDbLine
 10
85.00000000000182
 20
510.8692921909746
 30
0.0
 11
-84.99999999999813
 21
510.8692921909746
 31
0.0
  0
CIRCLE
  5
178
330
1E
100
AcDbEntity
  8
SIZE
  6
CONTINUOUS
 62
    30
100
AcDbCircle
 10
95.00000000000184
 20
510.8692921909746
 30
0.0
 40
5.0
  0
LINE
  5
179
330
1E
100
AcDbEntity
  8
SIZE
  6
CONTINUOUS
 62
    30
100
AcDbLine
 10
90.00000000000182
 20
510.8692921909746
 30
0.0
 11
85.00000000000182
 21
510.8692921909746
 31
0.0
  0
CIRCLE
  5
17A
330
1E
100
AcDbEntity
  8
SIZE
  6
CONTINUOUS
 62
    30
100
AcDbCircle
 10
-94.99999999999815
 20
510.8692921909746
 30
0.0
 40
5.0
  0
LINE
  5
17B
330
1E
100
AcDbEntity
  8
SIZE
  6
CONTINUOUS
 62
    30
100
AcDbLine
 10
-89.99999999999815
 20
510.8692921909746
 30
0.0
 11
-84.99999999999813
 21
510.8692921909746
 31
0.0
  0
TEXT
  5
17C
330
1E
100
AcDbEntity
  8
SIZE
  6
CONTINUOUS
 62
    30
100
AcDbText
 10
-63.75666427472346
 20
530.8692921909746
 30
0.0
 40
64.0
  1
190
 41
0.9
 72
     1
 11
4.814764296705106
 21
530.8692921909746
 31
0.0
100
AcDbText
  0
POINT
  5
17D
330
1E
100
AcDbEntity
  8
DEFPOINTS
  6
CONTINUOUS
 62
     7
100
AcDbPoint
 10
95.00000000000179
 20
155.999999999999
 30
0.0
  0
POINT
  5
17E
330
1E
100
AcDbEntity
  8
DEFPOINTS
  6
CONTINUOUS
 62
     7
100
AcDbPoint
 10
-94.99999999999818
 20
155.999999999999
 30
0.0
  0
POINT
  5
17F
330
1E
100
AcDbEntity
  8
DEFPOINTS
  6
CONTINUOUS
 62
     7
100
AcDbPoint
 10
-94.99999999999815
 20
510.8692921909746
 30
0.0
  0
LINE
  5
180
330
1E
100
AcDbEntity
  8
SIZE
  6
CONTINUOUS
 62
    30
100
AcDbLine
 10
317.0000000000018
 20
357.9999999999991
 30
0.0
 11
317.0000000000018
 21
666.1097079962416
 31
0.0
  0
LINE
  5
181
330
1E
100
AcDbEntity
  8
SIZE
  6
CONTINUOUS
 62
    30
100
AcDbLine
 10
120.0
 20
141.9999999999994
 30
0.0
 11
120.0
 21
666.1097079962416
 31
0.0
  0
LINE
  5
182
330
1E
100
AcDbEntity
  8
SIZE
  6
CONTINUOUS
 62
    30
100
AcDbLine
 10
307.0000000000018
 20
636.1097079962413
 30
0.0
 11
130.0
 21
636.1097079962413
 31
0.0
  0
CIRCLE
  5
183
330
1E
100
AcDbEntity
  8
SIZE
  6
CONTINUOUS
 62
    30
100
AcDbCircle
 10
317.0000000000018
 20
636.1097079962413
 30
0.0
 40
5.0
  0
LINE
  5
184
330
1E
100
AcDbEntity
  8
SIZE
  6
CONTINUOUS
 62
    30
100
AcDbLine
 10
312.0000000000018
 20
636.1097079962413
 30
0.0
 11
307.0000000000018
 21
636.1097079962413
 31
0.0
  0
CIRCLE
  5
185
330
1E
100
AcDbEntity
  8
SIZE
  6
CONTINUOUS
 62
    30
100
AcDbCircle
 10
120.0
 20
636.1097079962413
 30
0.0
 40
5.0
  0
LINE
  5
186
330
1E
100
AcDbEntity
  8
SIZE
  6
CONTINUOUS
 62
    30
100
AcDbLine
 10
125.0
 20
636.1097079962413
 30
0.0
 11
130.0
 21
636.1097079962413
 31
0.0
  0
TEXT
  5
187
330
1E
100
AcDbEntity
  8
SIZE
  6
CONTINUOUS
 62
    30
100
AcDbText
 10
148.0731810830499
 20
656.1097079962413
 30
0.0
 40
64.0
  1
197
 41
0.9
 72
     1
 11
216.6446096544785
 21
656.1097079962413
 31
0.0
100
AcDbText
  0
POINT
  5
188
330
1E
100
AcDbEntity
  8
DEFPOINTS
  6
CONTINUOUS
 62
     7
100
AcDbPoint
 10
317.0000000000018
 20
337.999999999999
 30
0.0
  0
POINT
  5
189
330
1E
100
AcDbEntity
  8
DEFPOINTS
  6
CONTINUOUS
 62
     7
100
AcDbPoint
 10
120.0
 20
121.9999999999995
 30
0.0
  0
POINT
  5
18A
330
1E
100
AcDbEntity
  8
DEFPOINTS
  6
CONTINUOUS
 62
     7
100
AcDbPoint
 10
120.0
 20
636.1097079962413
 30
0.0
  0
LINE
  5
18B
330
1E
100
AcDbEntity
  8
SIZE
  6
CONTINUOUS
 62
    30
100
AcDbLine
 10
120.0
 20
141.9999999999994
 30
0.0
 11
120.0
 21
666.1097079962416
 31
0.0
  0
LINE
  5
18C
330
1E
100
AcDbEntity
  8
SIZE
  6
CONTINUOUS
 62
    30
100
AcDbLine
 10
-119.999999999999
 20
142.0000000000008
 30
0.0
 11
-119.999999999999
 21
666.1097079962416
 31
0.0
  0
LINE
  5
18D
330
1E
100
AcDbEntity
  8
SIZE
  6
CONTINUOUS
 62
    30
100
AcDbLine
 10
110.0
 20
636.1097079962413
 30
0.0
 11
-109.999999999999
 21
636.1097079962413
 31
0.0
  0
CIRCLE
  5
18E
330
1E
100
AcDbEntity
  8
SIZE
  6
CONTINUOUS
 62
    30
100
AcDbCircle
 10
120.0
 20
636.1097079962413
 30
0.0
 40
5.0
  0
LINE
  5
18F
330
1E
100
AcDbEntity
  8
SIZE
  6
CONTINUOUS
 62
    30
100
AcDbLine
 10
115.0
 20
636.1097079962413
 30
0.0
 11
110.0
 21
636.1097079962413
 31
0.0
  0
CIRCLE
  5
190
330
1E
100
AcDbEntity
  8
SIZE
  6
CONTINUOUS
 62
    30
100
AcDbCircle
 10
-119.999999999999
 20
636.1097079962413
 30
0.0
 40
5.0
  0
LINE
  5
191
330
1E
100
AcDbEntity
  8
SIZE
  6
CONTINUOUS
 62
    30
100
AcDbLine
 10
-114.999999999999
 20
636.1097079962413
 30
0.0
 11
-109.999999999999
 21
636.1097079962413
 31
0.0
  0
TEXT
  5
192
330
1E
100
AcDbEntity
  8
SIZE
  6
CONTINUOUS
 62
    30
100
AcDbText
 10
-67.03046711833749
 20
656.1097079962413
 30
0.0
 40
64.0
  1
240
 41
0.9
 72
     1
 11
7.026675738805352
 21
656.1097079962413
 31
0.0
100
AcDbText
  0
POINT
  5
193
330
1E
100
AcDbEntity
  8
DEFPOINTS
  6
CONTINUOUS
 62
     7
100
AcDbPoint
 10
120.0
 20
121.9999999999995
 30
0.0
  0
POINT
  5
194
330
1E
100
AcDbEntity
  8
DEFPOINTS
  6
CONTINUOUS
 62
     7
100
AcDbPoint
 10
-119.999999999999
 20
122.0000000000009
 30
0.0
  0
POINT
  5
195
330
1E
100
AcDbEntity
  8
DEFPOINTS
  6
CONTINUOUS
 62
     7
100
AcDbPoint
 10
-119.999999999999
 20
636.1097079962413
 30
0.0
  0
LWPOLYLINE
  5
196
330
1E
100
AcDbEntity
  8
NOTE
  6
CONTINUOUS
 62
     4
100
AcDbPolyline
 90
        3
 70
     0
 43
0.0
 10
109.775337617454
 20
173.1710828815224
 10
95.00000000000179
 20
135.9999999999985
 10
126.3813592219694
 20
160.8034334951294
  0
LINE
  5
19B
330
1E
100
AcDbEntity
  8
NOTE
  6
CONTINUOUS
 62
     4
100
AcDbLine
 10
95.00000000000179
 20
135.9999999999985
 30
0.0
 11
446.1254401366248
 21
607.737181599367
 31
0.0
  0
TEXT
  5
19C
330
1E
100
AcDbEntity
  8
NOTE
  6
CONTINUOUS
 62
     4
100
AcDbText
 10
519.7585156967114
 20
640.8034897270985
 30
0.0
 40
64.0
  1
4-%%c2.9
 41
0.9
100
AcDbText
  0
LINE
  5
19D
330
1E
100
AcDbEntity
  8
NOTE
  6
CONTINUOUS
 62
     4
100
AcDbLine
 10
912.3856351366256
 20
607.7371815993642
 30
0.0
 11
446.1254401366248
 21
607.737181599367
 31
0.0
  0
LINE
  5
19E
330
1E
100
AcDbEntity
  8
SIZE
  6
CONTINUOUS
 62
    30
100
AcDbLine
 10
287.0
 20
107.9999999999985
 30
0.0
 11
286.9999999999998
 21
-626.4517531121879
 31
0.0
  0
LINE
  5
19F
330
1E
100
AcDbEntity
  8
SIZE
  6
CONTINUOUS
 62
    30
100
AcDbLine
 10
335.0
 20
-20.00000000000181
 30
0.0
 11
334.9999999999998
 21
-626.4517531121879
 31
0.0
  0
LINE
  5
1A0
330
1E
100
AcDbEntity
  8
SIZE
  6
CONTINUOUS
 62
    30
100
AcDbLine
 10
276.9999999999999
 20
-596.4517531121876
 30
0.0
 11
266.9999999999999
 21
-596.4517531121876
 31
0.0
  0
LINE
  5
1A1
330
1E
100
AcDbEntity
  8
SIZE
  6
CONTINUOUS
 62
    30
100
AcDbLine
 10
344.9999999999998
 20
-596.4517531121876
 30
0.0
 11
488.2571428571428
 21
-596.4517531121876
 31
0.0
  0
LINE
  5
1A2
330
1E
100
AcDbEntity
  8
SIZE
  6
CONTINUOUS
 62
    30
100
AcDbLine
 10
286.9999999999998
 20
-596.4517531121876
 30
0.0
 11
334.9999999999998
 21
-596.4517531121876
 31
0.0
  0
CIRCLE
  5
1A3
330
1E
100
AcDbEntity
  8
SIZE
  6
CONTINUOUS
 62
    30
100
AcDbCircle
 10
286.9999999999998
 20
-596.4517531121876
 30
0.0
 40
5.0
  0
LINE
  5
1A4
330
1E
100
AcDbEntity
  8
SIZE
  6
CONTINUOUS
 62
    30
100
AcDbLine
 10
281.9999999999998
 20
-596.4517531121876
 30
0.0
 11
276.9999999999999
 21
-596.4517531121876
 31
0.0
  0
CIRCLE
  5
1A5
330
1E
100
AcDbEntity
  8
SIZE
  6
CONTINUOUS
 62
    30
100
AcDbCircle
 10
334.9999999999998
 20
-596.4517531121876
 30
0.0
 40
5.0
  0
LINE
  5
1A6
330
1E
100
AcDbEntity
  8
SIZE
  6
CONTINUOUS
 62
    30
100
AcDbLine
 10
339.9999999999999
 20
-596.4517531121876
 30
0.0
 11
344.9999999999998
 21
-596.4517531121876
 31
0.0
  0
TEXT
  5
1A7
330
1E
100
AcDbEntity
  8
SIZE
  6
CONTINUOUS
 62
    30
100
AcDbText
 10
374.9999999999999
 20
-576.4517531121879
 30
0.0
 40
64.0
  1
48
 41
0.9
 72
     1
 11
421.6285714285714
 21
-576.4517531121879
 31
0.0
100
AcDbText
  0
POINT
  5
1A8
330
1E
100
AcDbEntity
  8
DEFPOINTS
  6
CONTINUOUS
 62
     7
100
AcDbPoint
 10
287.0
 20
127.9999999999986
 30
0.0
  0
POINT
  5
1A9
330
1E
100
AcDbEntity
  8
DEFPOINTS
  6
CONTINUOUS
 62
     7
100
AcDbPoint
 10
335.0
 20
-0.000000000001819
 30
0.0
  0
POINT
  5
1AA
330
1E
100
AcDbEntity
  8
DEFPOINTS
  6
CONTINUOUS
 62
     7
100
AcDbPoint
 10
334.9999999999998
 20
-596.4517531121876
 30
0.0
  0
LINE
  5
1AB
330
1E
100
AcDbEntity
  8
SIZE
  6
CONTINUOUS
 62
    30
100
AcDbLine
 10
-335.0
 20
-19.99999999999818
 30
0.0
 11
-335.0
 21
-626.451753112185
 31
0.0
  0
LINE
  5
1AC
330
1E
100
AcDbEntity
  8
SIZE
  6
CONTINUOUS
 62
    30
100
AcDbLine
 10
-287.0
 20
108.0000000000012
 30
0.0
 11
-287.0
 21
-626.451753112185
 31
0.0
  0
LINE
  5
1AD
330
1E
100
AcDbEntity
  8
SIZE
  6
CONTINUOUS
 62
    30
100
AcDbLine
 10
-277.0
 20
-596.4517531121849
 30
0.0
 11
-267.0
 21
-596.4517531121849
 31
0.0
  0
LINE
  5
1AE
330
1E
100
AcDbEntity
  8
SIZE
  6
CONTINUOUS
 62
    30
100
AcDbLine
 10
-345.0
 20
-596.4517531121849
 30
0.0
 11
-488.2571428571428
 21
-596.4517531121849
 31
0.0
  0
LINE
  5
1AF
330
1E
100
AcDbEntity
  8
SIZE
  6
CONTINUOUS
 62
    30
100
AcDbLine
 10
-287.0
 20
-596.4517531121849
 30
0.0
 11
-335.0
 21
-596.4517531121849
 31
0.0
  0
CIRCLE
  5
1B0
330
1E
100
AcDbEntity
  8
SIZE
  6
CONTINUOUS
 62
    30
100
AcDbCircle
 10
-287.0
 20
-596.4517531121849
 30
0.0
 40
5.0
  0
LINE
  5
1B1
330
1E
100
AcDbEntity
  8
SIZE
  6
CONTINUOUS
 62
    30
100
AcDbLine
 10
-282.0
 20
-596.4517531121849
 30
0.0
 11
-277.0
 21
-596.4517531121849
 31
0.0
  0
CIRCLE
  5
1B2
330
1E
100
AcDbEntity
  8
SIZE
  6
CONTINUOUS
 62
    30
100
AcDbCircle
 10
-335.0
 20
-596.4517531121849
 30
0.0
 40
5.0
  0
LINE
  5
1B3
330
1E
100
AcDbEntity
  8
SIZE
  6
CONTINUOUS
 62
    30
100
AcDbLine
 10
-340.0
 20
-596.4517531121849
 30
0.0
 11
-345.0
 21
-596.4517531121849
 31
0.0
  0
TEXT
  5
1B4
330
1E
100
AcDbEntity
  8
SIZE
  6
CONTINUOUS
 62
    30
100
AcDbText
 10
-468.2571428571429
 20
-576.451753112185
 30
0.0
 40
64.0
  1
48
 41
0.9
 72
     1
 11
-421.6285714285715
 21
-576.451753112185
 31
0.0
100
AcDbText
  0
POINT
  5
1B5
330
1E
100
AcDbEntity
  8
DEFPOINTS
  6
CONTINUOUS
 62
     7
100
AcDbPoint
 10
-335.0
 20
0.000000000001819
 30
0.0
  0
POINT
  5
1B6
330
1E
100
AcDbEntity
  8
DEFPOINTS
  6
CONTINUOUS
 62
     7
100
AcDbPoint
 10
-287.0
 20
128.0000000000013
 30
0.0
  0
POINT
  5
1B7
330
1E
100
AcDbEntity
  8
DEFPOINTS
  6
CONTINUOUS
 62
     7
100
AcDbPoint
 10
-287.0
 20
-596.4517531121849
 30
0.0
  0
ENDSEC
  0
SECTION
  2
OBJECTS
  0
DICTIONARY
  5
C
330
0
100
AcDbDictionary
  3
ACAD_GROUP
350
D
  3
ACAD_LAYOUT
350
19
  3
ACAD_MLINESTYLE
350
16
  3
ACAD_PLOTSETTINGS
350
18
  3
ACAD_PLOTSTYLENAME
350
E
  3
ACDBHEADERROUNDTRIPXREC
350
1BA
  0
DICTIONARY
  5
1DD
330
1E
100
AcDbDictionary
280
     1
  3
ACAD_LAYOUTSELFREF
360
1DE
  0
DICTIONARY
  5
1DB
330
1A
100
AcDbDictionary
280
     1
  3
ACAD_LAYOUTSELFREF
360
1DC
  0
DICTIONARY
  5
D
102
{ACAD_REACTORS
330
C
102
}
330
C
100
AcDbDictionary
  0
DICTIONARY
  5
19
102
{ACAD_REACTORS
330
C
102
}
330
C
100
AcDbDictionary
  0
DICTIONARY
  5
16
102
{ACAD_REACTORS
330
C
102
}
330
C
100
AcDbDictionary
  3
STANDARD
350
17
  0
DICTIONARY
  5
18
102
{ACAD_REACTORS
330
C
102
}
330
C
100
AcDbDictionary
  0
ACDBDICTIONARYWDFLT
  5
E
102
{ACAD_REACTORS
330
C
102
}
330
C
100
AcDbDictionary
281
     1
  3
Normal
350
F
100
AcDbDictionaryWithDefault
340
F
  0
DICTIONARY
  5
1BA
102
{ACAD_REACTORS
330
C
102
}
330
C
100
AcDbDictionary
  3
CEPSNTYPE
350
1C4
  3
DIMSTYLEDATA
350
1C8
  3
FINGERPRINTGUID
350
1C5
  3
HYPERLINKBASE
350
1BD
  3
INSUNITS
350
1C3
  3
LAYOUTDICT
350
1BF
  3
LWETCUNION
350
1C2
  3
PLOTSETDICT
350
1C0
  3
PLOTSTYLNAMDICT
350
1C1
  3
PSVPSCALE
350
1C7
  3
PUCSBASE
350
1CB
  3
PUCSORGBACK
350
1D1
  3
PUCSORGBOTTOM
350
1CD
  3
PUCSORGFRONT
350
1D0
  3
PUCSORGLEFT
350
1CE
  3
PUCSORGRIGHT
350
1CF
  3
PUCSORGTOP
350
1CC
  3
PUCSORTHOREF
350
1C9
  3
PUCSORTHOVIEW
350
1CA
  3
STYLESHEET
350
1BE
  3
TSTACKALIGN
350
1BB
  3
TSTACKSIZE
350
1BC
  3
UCSBASE
350
1D4
  3
UCSORGBACK
350
1DA
  3
UCSORGBOTTOM
350
1D6
  3
UCSORGFRONT
350
1D9
  3
UCSORGLEFT
350
1D7
  3
UCSORGRIGHT
350
1D8
  3
UCSORGTOP
350
1D5
  3
UCSORTHOREF
350
1D2
  3
UCSORTHOVIEW
350
1D3
  3
VERSIONGUID
350
1C6
  0
XRECORD
  5
1DE
102
{ACAD_REACTORS
330
1DD
102
}
330
1DD
100
AcDbXrecord
340
1E
  0
XRECORD
  5
1DC
102
{ACAD_REACTORS
330
1DB
102
}
330
1DB
100
AcDbXrecord
340
1A
  0
MLINESTYLE
  5
17
102
{ACAD_REACTORS
330
16
102
}
330
16
100
AcDbMlineStyle
  2
STANDARD
 70
     0
  3

 62
   256
 51
90.0
 52
90.0
 71
     2
 49
0.5
 62
   256
  6
BYLAYER
 49
-0.5
 62
   256
  6
BYLAYER
  0
ACDBPLACEHOLDER
  5
F
102
{ACAD_REACTORS
330
E
102
}
330
E
100
AcDbPlaceHolder
280
     0
  0
XRECORD
  5
1C4
102
{ACAD_REACTORS
330
1BA
102
}
330
1BA
100
AcDbXrecord
 90
        0
  0
XRECORD
  5
1C8
102
{ACAD_REACTORS
330
1BA
102
}
330
1BA
100
AcDbXrecord
1000
DSTYLE
1002
{
1070
   341
340
39
1070
   342
340
39
1070
   343
340
39
1070
   344
340
34
1002
}
  0
XRECORD
  5
1C5
102
{ACAD_REACTORS
330
1BA
102
}
330
1BA
100
AcDbXrecord
  1
{22682557-A86B-454C-827D-660D4D439D3F}
  0
XRECORD
  5
1BD
102
{ACAD_REACTORS
330
1BA
102
}
330
1BA
100
AcDbXrecord
  1

  0
XRECORD
  5
1C3
102
{ACAD_REACTORS
330
1BA
102
}
330
1BA
100
AcDbXrecord
 90
        0
  0
XRECORD
  5
1BF
102
{ACAD_REACTORS
330
1BA
102
}
330
1BA
100
AcDbXrecord
340
19
  0
XRECORD
  5
1C2
102
{ACAD_REACTORS
330
1BA
102
}
330
1BA
100
AcDbXrecord
 90
    10781
  0
XRECORD
  5
1C0
102
{ACAD_REACTORS
330
1BA
102
}
330
1BA
100
AcDbXrecord
340
18
  0
XRECORD
  5
1C1
102
{ACAD_REACTORS
330
1BA
102
}
330
1BA
100
AcDbXrecord
340
E
  0
XRECORD
  5
1C7
102
{ACAD_REACTORS
330
1BA
102
}
330
1BA
100
AcDbXrecord
 40
0.0
  0
XRECORD
  5
1CB
102
{ACAD_REACTORS
330
1BA
102
}
330
1BA
100
AcDbXrecord
340
0
  0
XRECORD
  5
1D1
102
{ACAD_REACTORS
330
1BA
102
}
330
1BA
100
AcDbXrecord
 10
0.0
 20
0.0
 30
0.0
  0
XRECORD
  5
1CD
102
{ACAD_REACTORS
330
1BA
102
}
330
1BA
100
AcDbXrecord
 10
0.0
 20
0.0
 30
0.0
  0
XRECORD
  5
1D0
102
{ACAD_REACTORS
330
1BA
102
}
330
1BA
100
AcDbXrecord
 10
0.0
 20
0.0
 30
0.0
  0
XRECORD
  5
1CE
102
{ACAD_REACTORS
330
1BA
102
}
330
1BA
100
AcDbXrecord
 10
0.0
 20
0.0
 30
0.0
  0
XRECORD
  5
1CF
102
{ACAD_REACTORS
330
1BA
102
}
330
1BA
100
AcDbXrecord
 10
0.0
 20
0.0
 30
0.0
  0
XRECORD
  5
1CC
102
{ACAD_REACTORS
330
1BA
102
}
330
1BA
100
AcDbXrecord
 10
0.0
 20
0.0
 30
0.0
  0
XRECORD
  5
1C9
102
{ACAD_REACTORS
330
1BA
102
}
330
1BA
100
AcDbXrecord
340
0
  0
XRECORD
  5
1CA
102
{ACAD_REACTORS
330
1BA
102
}
330
1BA
100
AcDbXrecord
 70
     0
  0
XRECORD
  5
1BE
102
{ACAD_REACTORS
330
1BA
102
}
330
1BA
100
AcDbXrecord
  1

  0
XRECORD
  5
1BB
102
{ACAD_REACTORS
330
1BA
102
}
330
1BA
100
AcDbXrecord
 90
        1
  0
XRECORD
  5
1BC
102
{ACAD_REACTORS
330
1BA
102
}
330
1BA
100
AcDbXrecord
 90
       70
  0
XRECORD
  5
1D4
102
{ACAD_REACTORS
330
1BA
102
}
330
1BA
100
AcDbXrecord
340
0
  0
XRECORD
  5
1DA
102
{ACAD_REACTORS
330
1BA
102
}
330
1BA
100
AcDbXrecord
 10
0.0
 20
0.0
 30
0.0
  0
XRECORD
  5
1D6
102
{ACAD_REACTORS
330
1BA
102
}
330
1BA
100
AcDbXrecord
 10
0.0
 20
0.0
 30
0.0
  0
XRECORD
  5
1D9
102
{ACAD_REACTORS
330
1BA
102
}
330
1BA
100
AcDbXrecord
 10
0.0
 20
0.0
 30
0.0
  0
XRECORD
  5
1D7
102
{ACAD_REACTORS
330
1BA
102
}
330
1BA
100
AcDbXrecord
 10
0.0
 20
0.0
 30
0.0
  0
XRECORD
  5
1D8
102
{ACAD_REACTORS
330
1BA
102
}
330
1BA
100
AcDbXrecord
 10
0.0
 20
0.0
 30
0.0
  0
XRECORD
  5
1D5
102
{ACAD_REACTORS
330
1BA
102
}
330
1BA
100
AcDbXrecord
 10
0.0
 20
0.0
 30
0.0
  0
XRECORD
  5
1D2
102
{ACAD_REACTORS
330
1BA
102
}
330
1BA
100
AcDbXrecord
340
0
  0
XRECORD
  5
1D3
102
{ACAD_REACTORS
330
1BA
102
}
330
1BA
100
AcDbXrecord
 70
     0
  0
XRECORD
  5
1C6
102
{ACAD_REACTORS
330
1BA
102
}
330
1BA
100
AcDbXrecord
  1
{FBF0E093-5AAC-47D8-8E98-252DCB0D0ED8}
  0
ENDSEC
  0
EOF
