  0
SECTION
  2
HEADER
  9
$ACADVER
  1
AC1014
  9
$ACADMAINTVER
 70
     9
  9
$DWGCODEPAGE
  3
ANSI_932
  9
$INSBASE
 10
0.0
 20
0.0
 30
0.0
  9
$EXTMIN
 10
-1366.868522015351
 20
-1429.578
 30
0.0
  9
$EXTMAX
 10
1809.761910714285
 20
1227.760700924169
 30
0.0
  9
$LIMMIN
 10
-4200.0
 20
-2970.0
  9
$LIMMAX
 10
4200.0
 20
2970.0
  9
$ORTHOMODE
 70
     0
  9
$REGENMODE
 70
     1
  9
$FILLMODE
 70
     1
  9
$QTEXTMODE
 70
     0
  9
$MIRRTEXT
 70
     0
  9
$DRAGMODE
 70
     2
  9
$LTSCALE
 40
20.0
  9
$OSMODE
 70
    37
  9
$ATTMODE
 70
     1
  9
$TEXTSIZE
 40
64.0
  9
$TRACEWID
 40
0.05
  9
$TEXTSTYLE
  7
STANDARD
  9
$CLAYER
  8
0
  9
$CELTYPE
  6
CONTINUOUS
  9
$CECOLOR
 62
     7
  9
$CELTSCALE
 40
1.0
  9
$DELOBJ
 70
     1
  9
$DISPSILH
 70
     0
  9
$DIMSCALE
 40
1.0
  9
$DIMASZ
 40
10.0
  9
$DIMEXO
 40
20.0
  9
$DIMDLI
 40
200.0
  9
$DIMRND
 40
0.0
  9
$DIMDLE
 40
0.0
  9
$DIMEXE
 40
30.0
  9
$DIMTP
 40
0.0
  9
$DIMTM
 40
0.0
  9
$DIMTXT
 40
64.0
  9
$DIMCEN
 40
0.0
  9
$DIMTSZ
 40
0.0
  9
$DIMTOL
 70
     0
  9
$DIMLIM
 70
     0
  9
$DIMTIH
 70
     0
  9
$DIMTOH
 70
     0
  9
$DIMSE1
 70
     0
  9
$DIMSE2
 70
     0
  9
$DIMTAD
 70
     1
  9
$DIMZIN
 70
     8
  9
$DIMBLK
  1
DOTBLANK
  9
$DIMASO
 70
     1
  9
$DIMSHO
 70
     0
  9
$DIMPOST
  1

  9
$DIMAPOST
  1

  9
$DIMALT
 70
     0
  9
$DIMALTD
 70
     2
  9
$DIMALTF
 40
25.4
  9
$DIMLFAC
 40
1.0
  9
$DIMTOFL
 70
     1
  9
$DIMTVP
 40
0.0
  9
$DIMTIX
 70
     1
  9
$DIMSOXD
 70
     0
  9
$DIMSAH
 70
     0
  9
$DIMBLK1
  1
DOTBLANK
  9
$DIMBLK2
  1
ORIGIN
  9
$DIMSTYLE
  2
STANDARD
  9
$DIMCLRD
 70
     0
  9
$DIMCLRE
 70
     0
  9
$DIMCLRT
 70
     0
  9
$DIMTFAC
 40
1.0
  9
$DIMGAP
 40
0.09
  9
$DIMJUST
 70
     0
  9
$DIMSD1
 70
     0
  9
$DIMSD2
 70
     0
  9
$DIMTOLJ
 70
     1
  9
$DIMTZIN
 70
     0
  9
$DIMALTZ
 70
     0
  9
$DIMALTTZ
 70
     0
  9
$DIMFIT
 70
     3
  9
$DIMUPT
 70
     0
  9
$DIMUNIT
 70
     2
  9
$DIMDEC
 70
     4
  9
$DIMTDEC
 70
     4
  9
$DIMALTU
 70
     2
  9
$DIMALTTD
 70
     2
  9
$DIMTXSTY
  7
STANDARD
  9
$DIMAUNIT
 70
     0
  9
$LUNITS
 70
     2
  9
$LUPREC
 70
     4
  9
$SKETCHINC
 40
0.1
  9
$FILLETRAD
 40
0.0
  9
$AUNITS
 70
     1
  9
$AUPREC
 70
     3
  9
$MENU
  1
ACAD
  9
$ELEVATION
 40
0.0
  9
$PELEVATION
 40
0.0
  9
$THICKNESS
 40
0.0
  9
$LIMCHECK
 70
     0
  9
$BLIPMODE
 70
     0
  9
$CHAMFERA
 40
0.0
  9
$CHAMFERB
 40
0.0
  9
$CHAMFERC
 40
0.0
  9
$CHAMFERD
 40
0.0
  9
$SKPOLY
 70
     0
  9
$TDCREATE
 40
2449761.493622685
  9
$TDUPDATE
 40
2453973.709121886
  9
$TDINDWG
 40
0.9749040394
  9
$TDUSRTIMER
 40
0.9749040394
  9
$USRTIMER
 70
     1
  9
$ANGBASE
 50
0.0
  9
$ANGDIR
 70
     0
  9
$PDMODE
 70
    35
  9
$PDSIZE
 40
100.0
  9
$PLINEWID
 40
0.0
  9
$COORDS
 70
     2
  9
$SPLFRAME
 70
     0
  9
$SPLINETYPE
 70
     6
  9
$SPLINESEGS
 70
     8
  9
$ATTDIA
 70
     0
  9
$ATTREQ
 70
     1
  9
$HANDLING
 70
-16383
  9
$HANDSEED
  5
2CF
  9
$SURFTAB1
 70
     6
  9
$SURFTAB2
 70
     6
  9
$SURFTYPE
 70
     6
  9
$SURFU
 70
     6
  9
$SURFV
 70
     6
  9
$UCSNAME
  2

  9
$UCSORG
 10
0.0
 20
0.0
 30
0.0
  9
$UCSXDIR
 10
1.0
 20
0.0
 30
0.0
  9
$UCSYDIR
 10
0.0
 20
1.0
 30
0.0
  9
$PUCSNAME
  2

  9
$PUCSORG
 10
0.0
 20
0.0
 30
0.0
  9
$PUCSXDIR
 10
1.0
 20
0.0
 30
0.0
  9
$PUCSYDIR
 10
0.0
 20
1.0
 30
0.0
  9
$USERI1
 70
     0
  9
$USERI2
 70
     0
  9
$USERI3
 70
     0
  9
$USERI4
 70
     0
  9
$USERI5
 70
     0
  9
$USERR1
 40
20.0
  9
$USERR2
 40
0.0
  9
$USERR3
 40
0.0
  9
$USERR4
 40
0.0
  9
$USERR5
 40
0.0
  9
$WORLDVIEW
 70
     1
  9
$SHADEDGE
 70
     3
  9
$SHADEDIF
 70
    70
  9
$TILEMODE
 70
     1
  9
$MAXACTVP
 70
    64
  9
$PINSBASE
 10
0.0
 20
0.0
 30
0.0
  9
$PLIMCHECK
 70
     0
  9
$PEXTMIN
 10
1.000000000000000E+20
 20
1.000000000000000E+20
 30
1.000000000000000E+20
  9
$PEXTMAX
 10
-1.000000000000000E+20
 20
-1.000000000000000E+20
 30
-1.000000000000000E+20
  9
$PLIMMIN
 10
0.0
 20
0.0
  9
$PLIMMAX
 10
12.0
 20
9.0
  9
$UNITMODE
 70
     0
  9
$VISRETAIN
 70
     1
  9
$PLINEGEN
 70
     0
  9
$PSLTSCALE
 70
     1
  9
$TREEDEPTH
 70
  3020
  9
$PICKSTYLE
 70
     0
  9
$CMLSTYLE
  2
STANDARD
  9
$CMLJUST
 70
     0
  9
$CMLSCALE
 40
1.0
  9
$PROXYGRAPHICS
 70
     1
  9
$MEASUREMENT
 70
     0
  0
ENDSEC
  0
SECTION
  2
CLASSES
  0
CLASS
  1
ACDBDICTIONARYWDFLT
  2
AcDbDictionaryWithDefault
  3
AutoCAD 2000
 90
        0
280
     0
281
     0
  0
CLASS
  1
ACDBPLACEHOLDER
  2
AcDbPlaceHolder
  3
AutoCAD 2000
 90
        0
280
     0
281
     0
  0
CLASS
  1
LAYOUT
  2
AcDbLayout
  3
AutoCAD 2000
 90
        0
280
     0
281
     0
  0
CLASS
  1
LONG_TRANSACTION
  2
AcDbLongTransaction
  3
AutoCAD 2000
 90
        0
280
     0
281
     0
  0
CLASS
  1
LWPOLYLINE
  2
AcDbPolyline
  3
AutoCAD 2000
 90
        0
280
     0
281
     1
  0
CLASS
  1
HATCH
  2
AcDbHatch
  3
AutoCAD 2000
 90
        0
280
     0
281
     1
  0
CLASS
  1
XRECORD
  2
AcDbXrecord
  3
AutoCAD 2000
 90
        0
280
     0
281
     0
  0
ENDSEC
  0
SECTION
  2
TABLES
  0
TABLE
  2
VPORT
  5
8
330
0
100
AcDbSymbolTable
 70
     2
  0
VPORT
  5
2A9
330
8
100
AcDbSymbolTableRecord
100
AcDbViewportTableRecord
  2
*ACTIVE
 70
     0
 10
0.0
 20
0.0
 11
1.0
 21
1.0
 12
155.3807060039444
 22
-101.1131485013884
 13
0.0
 23
0.0
 14
50.0
 24
50.0
 15
100.0
 25
100.0
 16
0.0
 26
0.0
 36
1.0
 17
0.0
 27
0.0
 37
0.0
 40
2679.123609529606
 41
1.657997399219765
 42
50.0
 43
0.0
 44
0.0
 50
0.0
 51
0.0
 71
     0
 72
  1000
 73
     1
 74
     0
 75
     0
 76
     0
 77
     0
 78
     0
  0
ENDTAB
  0
TABLE
  2
LTYPE
  5
5
330
0
100
AcDbSymbolTable
 70
     2
  0
LTYPE
  5
13
330
5
100
AcDbSymbolTableRecord
100
AcDbLinetypeTableRecord
  2
BYBLOCK
 70
     0
  3

 72
    65
 73
     0
 40
0.0
  0
LTYPE
  5
14
330
5
100
AcDbSymbolTableRecord
100
AcDbLinetypeTableRecord
  2
BYLAYER
 70
     0
  3

 72
    65
 73
     0
 40
0.0
  0
LTYPE
  5
15
330
5
100
AcDbSymbolTableRecord
100
AcDbLinetypeTableRecord
  2
CONTINUOUS
 70
     0
  3
????
 72
    65
 73
     0
 40
0.0
  0
LTYPE
  5
22
330
5
100
AcDbSymbolTableRecord
100
AcDbLinetypeTableRecord
  2
DASHDOT
 70
     0
  3
____ _ ____ _ ____ _ ____ _ ____ _ ____ _ ____
 72
    65
 73
     4
 40
5.5
 49
4.0
 74
     0
 49
-0.6
 74
     0
 49
0.3
 74
     0
 49
-0.6
 74
     0
  0
ENDTAB
  0
TABLE
  2
LAYER
  5
2
330
0
100
AcDbSymbolTable
 70
    12
  0
LAYER
  5
10
330
2
100
AcDbSymbolTableRecord
100
AcDbLayerTableRecord
  2
0
 70
     0
 62
     7
  6
CONTINUOUS
  0
LAYER
  5
23
330
2
100
AcDbSymbolTableRecord
100
AcDbLayerTableRecord
  2
OUTLINE
 70
     0
 62
     3
  6
CONTINUOUS
  0
LAYER
  5
24
330
2
100
AcDbSymbolTableRecord
100
AcDbLayerTableRecord
  2
DETAIL
 70
     0
 62
     5
  6
CONTINUOUS
  0
LAYER
  5
25
330
2
100
AcDbSymbolTableRecord
100
AcDbLayerTableRecord
  2
BASIS
 70
     0
 62
     6
  6
DASHDOT
  0
LAYER
  5
26
330
2
100
AcDbSymbolTableRecord
100
AcDbLayerTableRecord
  2
SIZE
 70
     0
 62
    30
  6
CONTINUOUS
  0
LAYER
  5
27
330
2
100
AcDbSymbolTableRecord
100
AcDbLayerTableRecord
  2
NOTE
 70
     0
 62
     4
  6
CONTINUOUS
  0
LAYER
  5
28
330
2
100
AcDbSymbolTableRecord
100
AcDbLayerTableRecord
  2
ARRANGE
 70
     0
 62
     1
  6
CONTINUOUS
  0
LAYER
  5
29
330
2
100
AcDbSymbolTableRecord
100
AcDbLayerTableRecord
  2
FIX
 70
     0
 62
    11
  6
CONTINUOUS
  0
LAYER
  5
2A
330
2
100
AcDbSymbolTableRecord
100
AcDbLayerTableRecord
  2
SERVICESPACE
 70
     0
 62
     2
  6
DASHDOT
  0
LAYER
  5
2B
330
2
100
AcDbSymbolTableRecord
100
AcDbLayerTableRecord
  2
ETC
 70
     0
 62
    61
  6
CONTINUOUS
  0
LAYER
  5
2C
330
2
100
AcDbSymbolTableRecord
100
AcDbLayerTableRecord
  2
SYMBOLLINE
 70
     0
 62
    15
  6
CONTINUOUS
  0
LAYER
  5
2D
330
2
100
AcDbSymbolTableRecord
100
AcDbLayerTableRecord
  2
DEFPOINTS
 70
     0
 62
     7
  6
CONTINUOUS
  0
ENDTAB
  0
TABLE
  2
STYLE
  5
3
330
0
100
AcDbSymbolTable
 70
     2
  0
STYLE
  5
11
330
3
100
AcDbSymbolTableRecord
100
AcDbTextStyleTableRecord
  2
STANDARD
 70
     0
 40
0.0
 41
0.9
 50
0.0
 71
     0
 42
64.0
  3
SIMPLEX
  4
BIGFONT
  0
STYLE
  5
2E
330
3
100
AcDbSymbolTableRecord
100
AcDbTextStyleTableRecord
  2
STANDARD1
 70
     0
 40
0.0
 41
1.0
 50
0.0
 71
     0
 42
64.0
  3
MONOTXT
  4
BIGFONT
  0
ENDTAB
  0
TABLE
  2
VIEW
  5
6
330
0
100
AcDbSymbolTable
 70
     1
  0
VIEW
  5
2F
330
6
100
AcDbSymbolTableRecord
100
AcDbViewTableRecord
  2
ALL
 70
     0
 40
6056.230032000001
 10
0.0
 20
58.11501599999999
 41
8400.0
 11
0.0
 21
0.0
 31
1.0
 12
0.0
 22
0.0
 32
0.0
 42
50.0
 43
0.0
 44
0.0
 50
0.0
 71
     0
  0
ENDTAB
  0
TABLE
  2
UCS
  5
7
330
0
100
AcDbSymbolTable
 70
     0
  0
ENDTAB
  0
TABLE
  2
APPID
  5
9
330
0
100
AcDbSymbolTable
 70
     1
  0
APPID
  5
12
330
9
100
AcDbSymbolTableRecord
100
AcDbRegAppTableRecord
  2
ACAD
 70
     0
  0
ENDTAB
  0
TABLE
  2
DIMSTYLE
  5
A
330
0
100
AcDbSymbolTable
 70
     1
  0
DIMSTYLE
105
2A8
330
A
100
AcDbSymbolTableRecord
100
AcDbDimStyleTableRecord
  2
STANDARD
 70
     0
  3

  4

  5

  6

  7

 40
1.0
 41
0.18
 42
0.0625
 43
0.38
 44
0.18
 45
0.0
 46
0.0
 47
0.0
 48
0.0
140
0.18
141
0.09
142
0.0
143
25.4
144
1.0
145
0.0
146
1.0
147
0.09
 71
     0
 72
     0
 73
     1
 74
     1
 75
     0
 76
     0
 77
     0
 78
     0
170
     0
171
     2
172
     0
173
     0
174
     0
175
     0
176
     0
177
     0
178
     0
270
     2
271
     4
272
     4
273
     2
274
     2
340
11
275
     0
280
     0
281
     0
282
     0
283
     1
284
     0
285
     0
286
     0
287
     3
288
     0
  0
ENDTAB
  0
TABLE
  2
BLOCK_RECORD
  5
1
330
0
100
AcDbSymbolTable
 70
     2
  0
BLOCK_RECORD
  5
1E
102
{ACAD_XDICTIONARY
360
2CD
102
}
330
1
100
AcDbSymbolTableRecord
100
AcDbBlockTableRecord
  2
*MODEL_SPACE
  0
BLOCK_RECORD
  5
1A
102
{ACAD_XDICTIONARY
360
2CB
102
}
330
1
100
AcDbSymbolTableRecord
100
AcDbBlockTableRecord
  2
*PAPER_SPACE
  0
BLOCK_RECORD
  5
34
330
1
100
AcDbSymbolTableRecord
100
AcDbBlockTableRecord
  2
_ORIGIN
  0
BLOCK_RECORD
  5
39
330
1
100
AcDbSymbolTableRecord
100
AcDbBlockTableRecord
  2
_DOTBLANK
  0
ENDTAB
  0
ENDSEC
  0
SECTION
  2
BLOCKS
  0
BLOCK
  5
1F
330
1E
100
AcDbEntity
  8
0
100
AcDbBlockBegin
  2
*MODEL_SPACE
 70
     0
 10
0.0
 20
0.0
 30
0.0
  3
*MODEL_SPACE
  1

  0
ENDBLK
  5
20
330
1E
100
AcDbEntity
  8
0
100
AcDbBlockEnd
  0
BLOCK
  5
1B
330
1A
100
AcDbEntity
 67
     1
  8
0
100
AcDbBlockBegin
  2
*PAPER_SPACE
 70
     0
 10
0.0
 20
0.0
 30
0.0
  3
*PAPER_SPACE
  1

  0
ENDBLK
  5
1C
330
1A
100
AcDbEntity
 67
     1
  8
0
100
AcDbBlockEnd
  0
BLOCK
  5
35
330
34
100
AcDbEntity
  8
0
100
AcDbBlockBegin
  2
_ORIGIN
 70
     0
 10
0.0
 20
0.0
 30
0.0
  3
_ORIGIN
  1

  0
CIRCLE
  5
36
330
34
100
AcDbEntity
  8
0
  6
CONTINUOUS
 62
     7
100
AcDbCircle
 10
0.0
 20
0.0
 30
0.0
 40
0.5
  0
LINE
  5
37
330
34
100
AcDbEntity
  8
0
  6
CONTINUOUS
 62
     7
100
AcDbLine
 10
-0.5
 20
0.0
 30
0.0
 11
-1.0
 21
0.0
 31
0.0
  0
ENDBLK
  5
38
330
34
100
AcDbEntity
  8
0
100
AcDbBlockEnd
  0
BLOCK
  5
3A
330
39
100
AcDbEntity
  8
0
100
AcDbBlockBegin
  2
_DOTBLANK
 70
     0
 10
0.0
 20
0.0
 30
0.0
  3
_DOTBLANK
  1

  0
CIRCLE
  5
3B
330
39
100
AcDbEntity
  8
0
  6
CONTINUOUS
 62
     7
100
AcDbCircle
 10
0.0
 20
0.0
 30
0.0
 40
0.5
  0
LINE
  5
3C
330
39
100
AcDbEntity
  8
0
  6
CONTINUOUS
 62
     7
100
AcDbLine
 10
-0.5
 20
0.0
 30
0.0
 11
-1.0
 21
0.0
 31
0.0
  0
ENDBLK
  5
3D
330
39
100
AcDbEntity
  8
0
100
AcDbBlockEnd
  0
ENDSEC
  0
SECTION
  2
ENTITIES
  0
LINE
  5
3E
330
1E
100
AcDbEntity
  8
BASIS
  6
DASHDOT
 62
     6
100
AcDbLine
 10
-427.1626369999999
 20
0.0
 30
0.0
 11
416.9682179999999
 21
0.0
 31
0.0
  0
POINT
  5
3F
330
1E
100
AcDbEntity
  8
ARRANGE
  6
CONTINUOUS
 62
     1
100
AcDbPoint
 10
0.0
 20
0.0
 30
0.0
  0
LINE
  5
40
330
1E
100
AcDbEntity
  8
BASIS
  6
DASHDOT
 62
     6
100
AcDbLine
 10
0.0
 20
-621.740033
 30
0.0
 11
0.0
 21
639.9562249999998
 31
0.0
  0
LINE
  5
41
330
1E
100
AcDbEntity
  8
DETAIL
  6
CONTINUOUS
 62
     5
100
AcDbLine
 10
317.0
 20
-508.0
 30
0.0
 11
317.0
 21
508.0
 31
0.0
  0
LINE
  5
42
330
1E
100
AcDbEntity
  8
DETAIL
  6
CONTINUOUS
 62
     5
100
AcDbLine
 10
-317.0
 20
-507.9999999999997
 30
0.0
 11
-317.0
 21
508.0000000000001
 31
0.0
  0
CIRCLE
  5
43
330
1E
100
AcDbEntity
  8
ARRANGE
  6
CONTINUOUS
 62
     1
100
AcDbCircle
 10
0.0
 20
0.0
 30
0.0
 40
40.0
  0
TEXT
  5
44
330
1E
100
AcDbEntity
  8
ETC
  6
CONTINUOUS
 62
    61
100
AcDbText
 10
759.2476249999998
 20
1018.080999999998
 30
0.0
 40
64.0
  1
PLFY-P20_40VLMD-E_1
 41
0.9
100
AcDbText
  0
LINE
  5
45
330
1E
100
AcDbEntity
  8
DETAIL
  6
CONTINUOUS
 62
     5
100
AcDbLine
 10
338.9999999999998
 20
539.9999999999997
 30
0.0
 11
-339.0
 21
539.9999999999997
 31
0.0
  0
LINE
  5
46
330
1E
100
AcDbEntity
  8
DETAIL
  6
CONTINUOUS
 62
     5
100
AcDbLine
 10
338.9999999999998
 20
-540.0
 30
0.0
 11
-339.0
 21
-540.0
 31
0.0
  0
LINE
  5
47
330
1E
100
AcDbEntity
  8
DETAIL
  6
CONTINUOUS
 62
     5
100
AcDbLine
 10
317.0
 20
388.0000000000007
 30
0.0
 11
-317.0
 21
388.0000000000007
 31
0.0
  0
LINE
  5
48
330
1E
100
AcDbEntity
  8
DETAIL
  6
CONTINUOUS
 62
     5
100
AcDbLine
 10
317.0
 20
-387.9999999999988
 30
0.0
 11
-317.0
 21
-387.9999999999988
 31
0.0
  0
LINE
  5
49
330
1E
100
AcDbEntity
  8
DETAIL
  6
CONTINUOUS
 62
     5
100
AcDbLine
 10
354.9999999999998
 20
-524.0
 30
0.0
 11
354.9999999999998
 21
524.0
 31
0.0
  0
LINE
  5
4A
330
1E
100
AcDbEntity
  8
DETAIL
  6
CONTINUOUS
 62
     5
100
AcDbLine
 10
-355.0
 20
-524.0
 30
0.0
 11
-355.0
 21
524.0
 31
0.0
  0
ARC
  5
4B
330
1E
100
AcDbEntity
  8
DETAIL
  6
CONTINUOUS
 62
     5
100
AcDbCircle
 10
-339.0
 20
524.0
 30
0.0
 40
16.0
100
AcDbArc
 50
90.0
 51
180.0
  0
ARC
  5
4C
330
1E
100
AcDbEntity
  8
DETAIL
  6
CONTINUOUS
 62
     5
100
AcDbCircle
 10
338.9999999999998
 20
524.0
 30
0.0
 40
16.0
100
AcDbArc
 50
0.0
 51
90.0
  0
ARC
  5
4D
330
1E
100
AcDbEntity
  8
DETAIL
  6
CONTINUOUS
 62
     5
100
AcDbCircle
 10
338.9999999999998
 20
-524.0
 30
0.0
 40
16.0
100
AcDbArc
 50
270.0
 51
0.0
  0
ARC
  5
4E
330
1E
100
AcDbEntity
  8
DETAIL
  6
CONTINUOUS
 62
     5
100
AcDbCircle
 10
-339.0
 20
-524.0
 30
0.0
 40
16.0
100
AcDbArc
 50
180.0
 51
270.0
  0
LINE
  5
4F
330
1E
100
AcDbEntity
  8
DETAIL
  6
CONTINUOUS
 62
     5
100
AcDbLine
 10
317.0
 20
507.9999999999999
 30
0.0
 11
-317.0
 21
507.9999999999999
 31
0.0
  0
LINE
  5
50
330
1E
100
AcDbEntity
  8
DETAIL
  6
CONTINUOUS
 62
     5
100
AcDbLine
 10
317.0
 20
-508.0
 30
0.0
 11
-317.0
 21
-507.9999999999997
 31
0.0
  0
LINE
  5
51
330
1E
100
AcDbEntity
  8
DETAIL
  6
CONTINUOUS
 62
     5
100
AcDbLine
 10
-312.0
 20
388.0000000000009
 30
0.0
 11
-312.0
 21
438.0000000000007
 31
0.0
  0
LINE
  5
52
330
1E
100
AcDbEntity
  8
DETAIL
  6
CONTINUOUS
 62
     5
100
AcDbLine
 10
-262.0
 20
388.0000000000009
 30
0.0
 11
-262.0
 21
438.0000000000007
 31
0.0
  0
LINE
  5
53
330
1E
100
AcDbEntity
  8
DETAIL
  6
CONTINUOUS
 62
     5
100
AcDbLine
 10
312.0
 20
388.0000000000007
 30
0.0
 11
312.0
 21
438.0
 31
0.0
  0
LINE
  5
54
330
1E
100
AcDbEntity
  8
DETAIL
  6
CONTINUOUS
 62
     5
100
AcDbLine
 10
262.0
 20
388.0000000000007
 30
0.0
 11
262.0
 21
438.0
 31
0.0
  0
LINE
  5
55
330
1E
100
AcDbEntity
  8
DETAIL
  6
CONTINUOUS
 62
     5
100
AcDbLine
 10
261.9999999999998
 20
-387.9999999999988
 30
0.0
 11
261.9999999999998
 21
-438.0
 31
0.0
  0
LINE
  5
56
330
1E
100
AcDbEntity
  8
DETAIL
  6
CONTINUOUS
 62
     5
100
AcDbLine
 10
311.9999999999998
 20
-387.9999999999988
 30
0.0
 11
311.9999999999997
 21
-438.0
 31
0.0
  0
LINE
  5
57
330
1E
100
AcDbEntity
  8
DETAIL
  6
CONTINUOUS
 62
     5
100
AcDbLine
 10
-262.0
 20
-387.9999999999985
 30
0.0
 11
-262.0
 21
-438.0000000000008
 31
0.0
  0
LINE
  5
58
330
1E
100
AcDbEntity
  8
DETAIL
  6
CONTINUOUS
 62
     5
100
AcDbLine
 10
-312.0
 20
-387.9999999999985
 30
0.0
 11
-312.0
 21
-438.000000000001
 31
0.0
  0
LINE
  5
59
330
1E
100
AcDbEntity
  8
DETAIL
  6
CONTINUOUS
 62
     5
100
AcDbLine
 10
-292.9999999999994
 20
438.0000000000007
 30
0.0
 11
-292.9999999999994
 21
419.0
 31
0.0
  0
LINE
  5
5A
330
1E
100
AcDbEntity
  8
DETAIL
  6
CONTINUOUS
 62
     5
100
AcDbLine
 10
-280.9999999999993
 20
438.0000000000007
 30
0.0
 11
-280.9999999999993
 21
419.0
 31
0.0
  0
LINE
  5
5B
330
1E
100
AcDbEntity
  8
SERVICESPACE
  6
DASHDOT
 62
     2
100
AcDbLine
 10
-335.0
 20
519.9999999999999
 30
0.0
 11
334.9999999999998
 21
519.9999999999999
 31
0.0
  0
LINE
  5
5C
330
1E
100
AcDbEntity
  8
SERVICESPACE
  6
DASHDOT
 62
     2
100
AcDbLine
 10
-335.0
 20
-520.0
 30
0.0
 11
334.9999999999998
 21
-520.0
 31
0.0
  0
LINE
  5
5D
330
1E
100
AcDbEntity
  8
SERVICESPACE
  6
DASHDOT
 62
     2
100
AcDbLine
 10
334.9999999999998
 20
-520.0
 30
0.0
 11
334.9999999999998
 21
520.0
 31
0.0
  0
LINE
  5
5E
330
1E
100
AcDbEntity
  8
SERVICESPACE
  6
DASHDOT
 62
     2
100
AcDbLine
 10
-335.0
 20
520.0
 30
0.0
 11
-335.0
 21
-520.0
 31
0.0
  0
LINE
  5
5F
330
1E
100
AcDbEntity
  8
NOTE
  6
CONTINUOUS
 62
     4
100
AcDbLine
 10
101.0000000000008
 20
-454.9999999999992
 30
0.0
 11
523.4401975722273
 21
-1138.849869259956
 31
0.0
  0
LINE
  5
60
330
1E
100
AcDbEntity
  8
NOTE
  6
CONTINUOUS
 62
     4
100
AcDbLine
 10
567.652178999999
 20
-952.0565989999981
 30
0.0
 11
969.7138329999988
 21
-952.0565989999981
 31
0.0
  0
TEXT
  5
61
330
1E
100
AcDbEntity
  8
NOTE
  6
CONTINUOUS
 62
     4
100
AcDbText
 10
584.379094999999
 20
-935.3292769999983
 30
0.0
 40
64.0
  1
RG %%c12.7
 41
0.9
100
AcDbText
  0
LINE
  5
62
330
1E
100
AcDbEntity
  8
NOTE
  6
CONTINUOUS
 62
     4
100
AcDbLine
 10
170.999999999999
 20
-460.9999999999977
 30
0.0
 11
567.652178999999
 21
-952.0565989999981
 31
0.0
  0
LINE
  5
63
330
1E
100
AcDbEntity
  8
NOTE
  6
CONTINUOUS
 62
     4
100
AcDbLine
 10
523.4401975722273
 20
-1138.849869259956
 30
0.0
 11
928.2796305722275
 21
-1138.849869259956
 31
0.0
  0
TEXT
  5
64
330
1E
100
AcDbEntity
  8
NOTE
  6
CONTINUOUS
 62
     4
100
AcDbText
 10
544.4542535722274
 20
-1120.583704259955
 30
0.0
 40
64.0
  1
RL %%c6.35
 41
0.9
100
AcDbText
  0
LINE
  5
65
330
1E
100
AcDbEntity
  8
NOTE
  6
CONTINUOUS
 62
     4
100
AcDbLine
 10
-179.9999999999986
 20
-387.9999999999978
 30
0.0
 11
-636.9285920255727
 21
-787.2902802975535
 31
0.0
  0
LINE
  5
66
330
1E
100
AcDbEntity
  8
NOTE
  6
CONTINUOUS
 62
     4
100
AcDbLine
 10
-636.9285920255727
 20
-787.2902802975535
 30
0.0
 11
-1141.980546025572
 21
-787.2902802975535
 31
0.0
  0
TEXT
  5
67
330
1E
100
AcDbEntity
  8
NOTE
  6
CONTINUOUS
 62
     4
100
AcDbText
 10
-1112.451218862933
 20
-760.6215847690033
 30
0.0
 40
64.0
  1
D1 VP-25
 41
0.9
100
AcDbText
  0
LINE
  5
68
330
1E
100
AcDbEntity
  8
DETAIL
  6
CONTINUOUS
 62
     5
100
AcDbLine
 10
30.0
 20
-501.9999999999988
 30
0.0
 11
30.0
 21
-387.9999999999988
 31
0.0
  0
LINE
  5
69
330
1E
100
AcDbEntity
  8
NOTE
  6
CONTINUOUS
 62
     4
100
AcDbLine
 10
-68.00000000000058
 20
-502.0
 30
0.0
 11
-513.6917621004864
 21
-1144.614073874844
 31
0.0
  0
LINE
  5
6A
330
1E
100
AcDbEntity
  8
NOTE
  6
CONTINUOUS
 62
     4
100
AcDbLine
 10
-513.6917621004864
 20
-1144.614073874844
 30
0.0
 11
-649.3958161004865
 21
-1144.614073874844
 31
0.0
  0
TEXT
  5
6B
330
1E
100
AcDbEntity
  8
NOTE
  6
CONTINUOUS
 62
     4
100
AcDbText
 10
-622.3362071004864
 20
-1124.513555874844
 30
0.0
 40
64.0
  1
CL
 41
0.9
100
AcDbText
  0
LINE
  5
6C
330
1E
100
AcDbEntity
  8
NOTE
  6
CONTINUOUS
 62
     4
100
AcDbLine
 10
-827.1833311886764
 20
-982.2086989328509
 30
0.0
 11
-648.1692181886764
 21
-982.2086989328509
 31
0.0
  0
TEXT
  5
6D
330
1E
100
AcDbEntity
  8
NOTE
  6
CONTINUOUS
 62
     4
100
AcDbText
 10
-779.6427775658046
 20
-957.9222874647255
 30
0.0
 40
64.0
  1
D2
 41
0.9
100
AcDbText
  0
TEXT
  5
6E
330
1E
100
AcDbEntity
  8
NOTE
  6
CONTINUOUS
 62
     4
100
AcDbText
 10
-938.3582261843804
 20
-293.6727071894018
 30
0.0
 40
64.0
  1
(Ceiling opening)
 50
90.0
 41
0.9
100
AcDbText
  0
LINE
  5
6F
330
1E
100
AcDbEntity
  8
NOTE
  6
CONTINUOUS
 62
     4
100
AcDbLine
 10
287.0000000000002
 20
412.0000000000007
 30
0.0
 11
679.4201655534716
 21
789.519306028401
 31
0.0
  0
LINE
  5
70
330
1E
100
AcDbEntity
  8
NOTE
  6
CONTINUOUS
 62
     4
100
AcDbLine
 10
-9.999999999999282
 20
-502.0
 30
0.0
 11
-446.766724643929
 21
-1311.85714451829
 31
0.0
  0
LINE
  5
71
330
1E
100
AcDbEntity
  8
NOTE
  6
CONTINUOUS
 62
     4
100
AcDbLine
 10
-446.766724643929
 20
-1311.85714451829
 30
0.0
 11
-584.9908826439291
 21
-1311.85714451829
 31
0.0
  0
TEXT
  5
72
330
1E
100
AcDbEntity
  8
NOTE
  6
CONTINUOUS
 62
     4
100
AcDbText
 10
-557.0717936439291
 20
-1293.20224351829
 30
0.0
 40
64.0
  1
EL
 41
0.9
100
AcDbText
  0
LWPOLYLINE
  5
73
330
1E
100
AcDbEntity
  8
NOTE
  6
CONTINUOUS
 62
     4
100
AcDbPolyline
 90
        3
 70
     0
 43
0.0
 10
-19.37617115930005
 20
-540.8855680664986
 10
-9.99999999999917
 20
-502.0000000000004
 10
-37.56278625292241
 20
-530.9878040249368
  0
LWPOLYLINE
  5
78
330
1E
100
AcDbEntity
  8
NOTE
  6
CONTINUOUS
 62
     4
100
AcDbPolyline
 90
        3
 70
     0
 43
0.0
 10
307.7561481725341
 20
446.1933084462351
 10
287.0
 20
412.0000000000001
 10
322.0720053789992
 20
431.2341986884639
  0
LWPOLYLINE
  5
7D
330
1E
100
AcDbEntity
  8
NOTE
  6
CONTINUOUS
 62
     4
100
AcDbPolyline
 90
        3
 70
     0
 43
0.0
 10
-81.98645156076155
 20
-539.475047061547
 10
-68.00000000000048
 20
-502.0000000000004
 10
-98.85014626411846
 20
-527.4611165028153
  0
LWPOLYLINE
  5
82
330
1E
100
AcDbEntity
  8
NOTE
  6
CONTINUOUS
 62
     4
100
AcDbPolyline
 90
        3
 70
     0
 43
0.0
 10
-202.0904619999988
 20
-421.3468359999983
 10
-179.9999999999986
 20
-387.9999999999983
 10
-215.8043189999987
 20
-405.833975999998
  0
LWPOLYLINE
  5
87
330
1E
100
AcDbEntity
  8
NOTE
  6
CONTINUOUS
 62
     4
100
AcDbPolyline
 90
        3
 70
     0
 43
0.0
 10
203.193292999999
 20
-484.740089999998
 10
170.999999999999
 20
-460.999999999998
 10
187.010163999999
 20
-497.6561679999981
  0
LWPOLYLINE
  5
8C
330
1E
100
AcDbEntity
  8
NOTE
  6
CONTINUOUS
 62
     4
100
AcDbPolyline
 90
        3
 70
     0
 43
0.0
 10
130.0737412546033
 20
-482.4721232162876
 10
101.0000000000007
 20
-454.9999999999998
 10
112.4425372679648
 20
-493.3284270497314
  0
LINE
  5
91
330
1E
100
AcDbEntity
  8
NOTE
  6
CONTINUOUS
 62
     4
100
AcDbLine
 10
-287.0
 20
-431.9999999999985
 30
0.0
 11
-287.0
 21
-391.9999999999985
 31
0.0
  0
LINE
  5
92
330
1E
100
AcDbEntity
  8
NOTE
  6
CONTINUOUS
 62
     4
100
AcDbLine
 10
-307.0
 20
-411.9999999999985
 30
0.0
 11
-267.0
 21
-411.9999999999985
 31
0.0
  0
LINE
  5
93
330
1E
100
AcDbEntity
  8
NOTE
  6
CONTINUOUS
 62
     4
100
AcDbLine
 10
286.9999999999998
 20
-431.9999999999987
 30
0.0
 11
286.9999999999998
 21
-391.9999999999987
 31
0.0
  0
LINE
  5
94
330
1E
100
AcDbEntity
  8
NOTE
  6
CONTINUOUS
 62
     4
100
AcDbLine
 10
266.9999999999999
 20
-411.9999999999988
 30
0.0
 11
306.9999999999998
 21
-411.9999999999988
 31
0.0
  0
LINE
  5
95
330
1E
100
AcDbEntity
  8
NOTE
  6
CONTINUOUS
 62
     4
100
AcDbLine
 10
287.0
 20
392.0000000000007
 30
0.0
 11
287.0
 21
432.0000000000008
 31
0.0
  0
LINE
  5
96
330
1E
100
AcDbEntity
  8
NOTE
  6
CONTINUOUS
 62
     4
100
AcDbLine
 10
267.0
 20
412.0000000000008
 30
0.0
 11
307.0
 21
412.0000000000008
 31
0.0
  0
LINE
  5
97
330
1E
100
AcDbEntity
  8
NOTE
  6
CONTINUOUS
 62
     4
100
AcDbLine
 10
-286.9999999999993
 20
392.0
 30
0.0
 11
-286.9999999999993
 21
432.0
 31
0.0
  0
LINE
  5
98
330
1E
100
AcDbEntity
  8
NOTE
  6
CONTINUOUS
 62
     4
100
AcDbLine
 10
-306.9999999999993
 20
412.0
 30
0.0
 11
-266.9999999999995
 21
412.0
 31
0.0
  0
TEXT
  5
99
330
1E
100
AcDbEntity
  8
0
  6
CONTINUOUS
 62
     7
100
AcDbText
 10
12761.29
 20
1934.172
 30
0.0
 40
3.2
  1
 
 50
0.000003
 41
0.5989580000000001
  7
STANDARD1
100
AcDbText
  0
CIRCLE
  5
9A
330
1E
100
AcDbEntity
  8
FIX
  6
CONTINUOUS
 62
    11
100
AcDbCircle
 10
-286.9999999999993
 20
412.0
 30
0.0
 40
20.0
  0
CIRCLE
  5
9B
330
1E
100
AcDbEntity
  8
FIX
  6
CONTINUOUS
 62
    11
100
AcDbCircle
 10
287.0
 20
412.0000000000008
 30
0.0
 40
20.0
  0
CIRCLE
  5
9C
330
1E
100
AcDbEntity
  8
FIX
  6
CONTINUOUS
 62
    11
100
AcDbCircle
 10
-287.0
 20
-411.9999999999985
 30
0.0
 40
20.0
  0
CIRCLE
  5
9D
330
1E
100
AcDbEntity
  8
FIX
  6
CONTINUOUS
 62
    11
100
AcDbCircle
 10
286.9999999999998
 20
-411.9999999999988
 30
0.0
 40
20.0
  0
LINE
  5
9E
330
1E
100
AcDbEntity
  8
SIZE
  6
CONTINUOUS
 62
    30
100
AcDbLine
 10
-355.0
 20
519.9999999999999
 30
0.0
 11
-849.7089385941873
 21
520.0
 31
0.0
  0
LINE
  5
9F
330
1E
100
AcDbEntity
  8
SIZE
  6
CONTINUOUS
 62
    30
100
AcDbLine
 10
-355.0
 20
-520.0
 30
0.0
 11
-849.7089385941873
 21
-519.9999999999999
 31
0.0
  0
LINE
  5
A0
330
1E
100
AcDbEntity
  8
SIZE
  6
CONTINUOUS
 62
    30
100
AcDbLine
 10
-819.7089385941874
 20
509.9999999999999
 30
0.0
 11
-819.7089385941874
 21
-509.9999999999999
 31
0.0
  0
CIRCLE
  5
A1
330
1E
100
AcDbEntity
  8
SIZE
  6
CONTINUOUS
 62
    30
100
AcDbCircle
 10
-819.7089385941874
 20
520.0
 30
0.0
 40
5.0
  0
LINE
  5
A2
330
1E
100
AcDbEntity
  8
SIZE
  6
CONTINUOUS
 62
    30
100
AcDbLine
 10
-819.7089385941874
 20
515.0
 30
0.0
 11
-819.7089385941874
 21
510.0
 31
0.0
  0
CIRCLE
  5
A3
330
1E
100
AcDbEntity
  8
SIZE
  6
CONTINUOUS
 62
    30
100
AcDbCircle
 10
-819.7089385941874
 20
-519.9999999999999
 30
0.0
 40
5.0
  0
LINE
  5
A4
330
1E
100
AcDbEntity
  8
SIZE
  6
CONTINUOUS
 62
    30
100
AcDbLine
 10
-819.7089385941874
 20
-514.9999999999998
 30
0.0
 11
-819.7089385941874
 21
-509.9999999999999
 31
0.0
  0
TEXT
  5
A5
330
1E
100
AcDbEntity
  8
SIZE
  6
CONTINUOUS
 62
    30
100
AcDbText
 10
-839.7089385941873
 20
-104.3288045611679
 30
0.0
 40
64.0
  1
1040
 50
90.0
 41
0.9
 72
     1
 11
-839.7089385941873
 21
-8.328804561167991
 31
0.0
100
AcDbText
  0
POINT
  5
A6
330
1E
100
AcDbEntity
  8
DEFPOINTS
  6
CONTINUOUS
 62
     7
100
AcDbPoint
 10
-335.0
 20
519.9999999999999
 30
0.0
  0
POINT
  5
A7
330
1E
100
AcDbEntity
  8
DEFPOINTS
  6
CONTINUOUS
 62
     7
100
AcDbPoint
 10
-335.0
 20
-520.0
 30
0.0
  0
POINT
  5
A8
330
1E
100
AcDbEntity
  8
DEFPOINTS
  6
CONTINUOUS
 62
     7
100
AcDbPoint
 10
-819.7089385941874
 20
-519.9999999999999
 30
0.0
  0
LINE
  5
A9
330
1E
100
AcDbEntity
  8
SIZE
  6
CONTINUOUS
 62
    30
100
AcDbLine
 10
335.0
 20
412.0000000000008
 30
0.0
 11
1279.882061852944
 21
412.0000000000005
 31
0.0
  0
LINE
  5
AA
330
1E
100
AcDbEntity
  8
SIZE
  6
CONTINUOUS
 62
    30
100
AcDbLine
 10
334.9999999999997
 20
-411.9999999999988
 30
0.0
 11
1279.882061852944
 21
-411.9999999999991
 31
0.0
  0
LINE
  5
AB
330
1E
100
AcDbEntity
  8
SIZE
  6
CONTINUOUS
 62
    30
100
AcDbLine
 10
1249.882061852944
 20
402.0000000000004
 30
0.0
 11
1249.882061852944
 21
-401.9999999999991
 31
0.0
  0
CIRCLE
  5
AC
330
1E
100
AcDbEntity
  8
SIZE
  6
CONTINUOUS
 62
    30
100
AcDbCircle
 10
1249.882061852944
 20
412.0000000000005
 30
0.0
 40
5.0
  0
LINE
  5
AD
330
1E
100
AcDbEntity
  8
SIZE
  6
CONTINUOUS
 62
    30
100
AcDbLine
 10
1249.882061852944
 20
407.0000000000005
 30
0.0
 11
1249.882061852944
 21
402.0000000000004
 31
0.0
  0
CIRCLE
  5
AE
330
1E
100
AcDbEntity
  8
SIZE
  6
CONTINUOUS
 62
    30
100
AcDbCircle
 10
1249.882061852944
 20
-411.9999999999991
 30
0.0
 40
5.0
  0
LINE
  5
AF
330
1E
100
AcDbEntity
  8
SIZE
  6
CONTINUOUS
 62
    30
100
AcDbLine
 10
1249.882061852944
 20
-406.9999999999991
 30
0.0
 11
1249.882061852944
 21
-401.9999999999991
 31
0.0
  0
TEXT
  5
B0
330
1E
100
AcDbEntity
  8
SIZE
  6
CONTINUOUS
 62
    30
100
AcDbText
 10
1229.882061852944
 20
-66.0479736794085
 30
0.0
 40
64.0
  1
824
 50
90.0
 41
0.9
 72
     1
 11
1229.882061852944
 21
9.380597749162921
 31
0.0
100
AcDbText
  0
POINT
  5
B1
330
1E
100
AcDbEntity
  8
DEFPOINTS
  6
CONTINUOUS
 62
     7
100
AcDbPoint
 10
315.0
 20
412.0000000000008
 30
0.0
  0
POINT
  5
B2
330
1E
100
AcDbEntity
  8
DEFPOINTS
  6
CONTINUOUS
 62
     7
100
AcDbPoint
 10
314.9999999999999
 20
-411.9999999999988
 30
0.0
  0
POINT
  5
B3
330
1E
100
AcDbEntity
  8
DEFPOINTS
  6
CONTINUOUS
 62
     7
100
AcDbPoint
 10
1249.882061852944
 20
-411.9999999999991
 30
0.0
  0
LINE
  5
B4
330
1E
100
AcDbEntity
  8
SIZE
  6
CONTINUOUS
 62
    30
100
AcDbLine
 10
354.9999999999998
 20
-520.0
 30
0.0
 11
1279.882061852944
 21
-520.0000000000001
 31
0.0
  0
LINE
  5
B5
330
1E
100
AcDbEntity
  8
SIZE
  6
CONTINUOUS
 62
    30
100
AcDbLine
 10
334.9999999999997
 20
-411.9999999999988
 30
0.0
 11
1279.882061852944
 21
-411.9999999999991
 31
0.0
  0
LINE
  5
B6
330
1E
100
AcDbEntity
  8
SIZE
  6
CONTINUOUS
 62
    30
100
AcDbLine
 10
1249.882061852944
 20
-421.9999999999991
 30
0.0
 11
1249.882061852944
 21
-510.0
 31
0.0
  0
LINE
  5
B7
330
1E
100
AcDbEntity
  8
SIZE
  6
CONTINUOUS
 62
    30
100
AcDbLine
 10
1249.882061852944
 20
-520.0000000000001
 30
0.0
 11
1249.882061852944
 21
-707.1428571428572
 31
0.0
  0
CIRCLE
  5
B8
330
1E
100
AcDbEntity
  8
SIZE
  6
CONTINUOUS
 62
    30
100
AcDbCircle
 10
1249.882061852944
 20
-411.9999999999991
 30
0.0
 40
5.0
  0
LINE
  5
B9
330
1E
100
AcDbEntity
  8
SIZE
  6
CONTINUOUS
 62
    30
100
AcDbLine
 10
1249.882061852944
 20
-416.9999999999991
 30
0.0
 11
1249.882061852944
 21
-421.9999999999991
 31
0.0
  0
CIRCLE
  5
BA
330
1E
100
AcDbEntity
  8
SIZE
  6
CONTINUOUS
 62
    30
100
AcDbCircle
 10
1249.882061852944
 20
-520.0000000000001
 30
0.0
 40
5.0
  0
LINE
  5
BB
330
1E
100
AcDbEntity
  8
SIZE
  6
CONTINUOUS
 62
    30
100
AcDbLine
 10
1249.882061852944
 20
-515.0000000000001
 30
0.0
 11
1249.882061852944
 21
-510.0
 31
0.0
  0
TEXT
  5
BC
330
1E
100
AcDbEntity
  8
SIZE
  6
CONTINUOUS
 62
    30
100
AcDbText
 10
1229.882061852944
 20
-687.142857142857
 30
0.0
 40
64.0
  1
108
 50
90.0
 41
0.9
 72
     1
 11
1229.882061852944
 21
-618.5714285714285
 31
0.0
100
AcDbText
  0
POINT
  5
BD
330
1E
100
AcDbEntity
  8
DEFPOINTS
  6
CONTINUOUS
 62
     7
100
AcDbPoint
 10
334.9999999999998
 20
-520.0
 30
0.0
  0
POINT
  5
BE
330
1E
100
AcDbEntity
  8
DEFPOINTS
  6
CONTINUOUS
 62
     7
100
AcDbPoint
 10
314.9999999999999
 20
-411.9999999999988
 30
0.0
  0
POINT
  5
BF
330
1E
100
AcDbEntity
  8
DEFPOINTS
  6
CONTINUOUS
 62
     7
100
AcDbPoint
 10
1249.882061852944
 20
-411.9999999999991
 30
0.0
  0
LINE
  5
C0
330
1E
100
AcDbEntity
  8
SIZE
  6
CONTINUOUS
 62
    30
100
AcDbLine
 10
335.0
 20
412.0000000000008
 30
0.0
 11
1279.882061852944
 21
412.0000000000005
 31
0.0
  0
LINE
  5
C1
330
1E
100
AcDbEntity
  8
SIZE
  6
CONTINUOUS
 62
    30
100
AcDbLine
 10
354.9999999999998
 20
519.9999999999999
 30
0.0
 11
1279.882061852944
 21
519.9999999999996
 31
0.0
  0
LINE
  5
C2
330
1E
100
AcDbEntity
  8
SIZE
  6
CONTINUOUS
 62
    30
100
AcDbLine
 10
1249.882061852944
 20
422.0000000000005
 30
0.0
 11
1249.882061852944
 21
509.9999999999996
 31
0.0
  0
LINE
  5
C3
330
1E
100
AcDbEntity
  8
SIZE
  6
CONTINUOUS
 62
    30
100
AcDbLine
 10
1249.882061852944
 20
519.9999999999996
 30
0.0
 11
1249.882061852944
 21
707.1428571428569
 31
0.0
  0
CIRCLE
  5
C4
330
1E
100
AcDbEntity
  8
SIZE
  6
CONTINUOUS
 62
    30
100
AcDbCircle
 10
1249.882061852944
 20
412.0000000000005
 30
0.0
 40
5.0
  0
LINE
  5
C5
330
1E
100
AcDbEntity
  8
SIZE
  6
CONTINUOUS
 62
    30
100
AcDbLine
 10
1249.882061852944
 20
417.0000000000005
 30
0.0
 11
1249.882061852944
 21
422.0000000000005
 31
0.0
  0
CIRCLE
  5
C6
330
1E
100
AcDbEntity
  8
SIZE
  6
CONTINUOUS
 62
    30
100
AcDbCircle
 10
1249.882061852944
 20
519.9999999999996
 30
0.0
 40
5.0
  0
LINE
  5
C7
330
1E
100
AcDbEntity
  8
SIZE
  6
CONTINUOUS
 62
    30
100
AcDbLine
 10
1249.882061852944
 20
514.9999999999996
 30
0.0
 11
1249.882061852944
 21
509.9999999999996
 31
0.0
  0
TEXT
  5
C8
330
1E
100
AcDbEntity
  8
SIZE
  6
CONTINUOUS
 62
    30
100
AcDbText
 10
1229.882061852944
 20
550.0
 30
0.0
 40
64.0
  1
108
 50
90.0
 41
0.9
 72
     1
 11
1229.882061852944
 21
618.5714285714285
 31
0.0
100
AcDbText
  0
POINT
  5
C9
330
1E
100
AcDbEntity
  8
DEFPOINTS
  6
CONTINUOUS
 62
     7
100
AcDbPoint
 10
315.0
 20
412.0000000000008
 30
0.0
  0
POINT
  5
CA
330
1E
100
AcDbEntity
  8
DEFPOINTS
  6
CONTINUOUS
 62
     7
100
AcDbPoint
 10
334.9999999999998
 20
519.9999999999999
 30
0.0
  0
POINT
  5
CB
330
1E
100
AcDbEntity
  8
DEFPOINTS
  6
CONTINUOUS
 62
     7
100
AcDbPoint
 10
1249.882061852944
 20
519.9999999999996
 30
0.0
  0
TEXT
  5
CC
330
1E
100
AcDbEntity
  8
NOTE
  6
CONTINUOUS
 62
     4
100
AcDbText
 10
-384.5393073073158
 20
864.303028328711
 30
0.0
 40
64.0
  1
(Lifting bolt pitch)
 41
0.9
100
AcDbText
  0
TEXT
  5
CD
330
1E
100
AcDbEntity
  8
NOTE
  6
CONTINUOUS
 62
     4
100
AcDbText
 10
1374.693553540011
 20
-389.5693998528813
 30
0.0
 40
64.0
  1
(Lifting bolt pitch)
 50
90.0
 41
0.9
100
AcDbText
  0
TEXT
  5
CE
330
1E
100
AcDbEntity
  8
NOTE
  6
CONTINUOUS
 62
     4
100
AcDbText
 10
-351.8598500335559
 20
1151.570224733691
 30
0.0
 40
64.0
  1
(Ceiling opening)
 41
0.9
100
AcDbText
  0
LINE
  5
CF
330
1E
100
AcDbEntity
  8
SIZE
  6
CONTINUOUS
 62
    30
100
AcDbLine
 10
358.9999999999998
 20
539.9999999999997
 30
0.0
 11
1161.009694905444
 21
539.9999999999996
 31
0.0
  0
LINE
  5
D0
330
1E
100
AcDbEntity
  8
SIZE
  6
CONTINUOUS
 62
    30
100
AcDbLine
 10
358.9999999999998
 20
-540.0
 30
0.0
 11
1161.009694905444
 21
-540.0000000000001
 31
0.0
  0
LINE
  5
D1
330
1E
100
AcDbEntity
  8
SIZE
  6
CONTINUOUS
 62
    30
100
AcDbLine
 10
1131.009694905444
 20
529.9999999999998
 30
0.0
 11
1131.009694905442
 21
-530.0000000000001
 31
0.0
  0
CIRCLE
  5
D2
330
1E
100
AcDbEntity
  8
SIZE
  6
CONTINUOUS
 62
    30
100
AcDbCircle
 10
1131.009694905444
 20
539.9999999999996
 30
0.0
 40
5.0
  0
LINE
  5
D3
330
1E
100
AcDbEntity
  8
SIZE
  6
CONTINUOUS
 62
    30
100
AcDbLine
 10
1131.009694905444
 20
534.9999999999996
 30
0.0
 11
1131.009694905444
 21
529.9999999999996
 31
0.0
  0
CIRCLE
  5
D4
330
1E
100
AcDbEntity
  8
SIZE
  6
CONTINUOUS
 62
    30
100
AcDbCircle
 10
1131.009694905442
 20
-540.0000000000001
 30
0.0
 40
5.0
  0
LINE
  5
D5
330
1E
100
AcDbEntity
  8
SIZE
  6
CONTINUOUS
 62
    30
100
AcDbLine
 10
1131.009694905442
 20
-535.0000000000001
 30
0.0
 11
1131.009694905442
 21
-530.0000000000001
 31
0.0
  0
TEXT
  5
D6
330
1E
100
AcDbEntity
  8
SIZE
  6
CONTINUOUS
 62
    30
100
AcDbText
 10
1111.009694905444
 20
-92.56020713888757
 30
0.0
 40
64.0
  1
1080
 50
90.0
 41
0.9
 72
     1
 11
1111.009694905444
 21
3.43979286111244
 31
0.0
100
AcDbText
  0
POINT
  5
D7
330
1E
100
AcDbEntity
  8
DEFPOINTS
  6
CONTINUOUS
 62
     7
100
AcDbPoint
 10
338.9999999999998
 20
539.9999999999997
 30
0.0
  0
POINT
  5
D8
330
1E
100
AcDbEntity
  8
DEFPOINTS
  6
CONTINUOUS
 62
     7
100
AcDbPoint
 10
338.9999999999998
 20
-540.0
 30
0.0
  0
POINT
  5
D9
330
1E
100
AcDbEntity
  8
DEFPOINTS
  6
CONTINUOUS
 62
     7
100
AcDbPoint
 10
1131.009694905442
 20
-540.0000000000001
 30
0.0
  0
LINE
  5
DA
330
1E
100
AcDbEntity
  8
SIZE
  6
CONTINUOUS
 62
    30
100
AcDbLine
 10
343.0
 20
388.0000000000007
 30
0.0
 11
1030.250082444913
 21
388.0000000000005
 31
0.0
  0
LINE
  5
DB
330
1E
100
AcDbEntity
  8
SIZE
  6
CONTINUOUS
 62
    30
100
AcDbLine
 10
342.9999999999997
 20
-387.9999999999988
 30
0.0
 11
1030.250082444913
 21
-387.9999999999991
 31
0.0
  0
LINE
  5
DC
330
1E
100
AcDbEntity
  8
SIZE
  6
CONTINUOUS
 62
    30
100
AcDbLine
 10
1000.250082444914
 20
378.0000000000005
 30
0.0
 11
1000.250082444914
 21
-377.9999999999989
 31
0.0
  0
CIRCLE
  5
DD
330
1E
100
AcDbEntity
  8
SIZE
  6
CONTINUOUS
 62
    30
100
AcDbCircle
 10
1000.250082444914
 20
388.0000000000005
 30
0.0
 40
5.0
  0
LINE
  5
DE
330
1E
100
AcDbEntity
  8
SIZE
  6
CONTINUOUS
 62
    30
100
AcDbLine
 10
1000.250082444914
 20
383.0000000000005
 30
0.0
 11
1000.250082444914
 21
378.0000000000005
 31
0.0
  0
CIRCLE
  5
DF
330
1E
100
AcDbEntity
  8
SIZE
  6
CONTINUOUS
 62
    30
100
AcDbCircle
 10
1000.250082444914
 20
-387.9999999999991
 30
0.0
 40
5.0
  0
LINE
  5
E0
330
1E
100
AcDbEntity
  8
SIZE
  6
CONTINUOUS
 62
    30
100
AcDbLine
 10
1000.250082444914
 20
-382.9999999999991
 30
0.0
 11
1000.250082444914
 21
-377.9999999999991
 31
0.0
  0
TEXT
  5
E1
330
1E
100
AcDbEntity
  8
SIZE
  6
CONTINUOUS
 62
    30
100
AcDbText
 10
980.2500824449142
 20
-57.36433057911288
 30
0.0
 40
64.0
  1
776
 50
90.0
 41
0.9
 72
     1
 11
980.2500824449142
 21
15.3213837066014
 31
0.0
100
AcDbText
  0
POINT
  5
E2
330
1E
100
AcDbEntity
  8
DEFPOINTS
  6
CONTINUOUS
 62
     7
100
AcDbPoint
 10
323.0
 20
388.0000000000007
 30
0.0
  0
POINT
  5
E3
330
1E
100
AcDbEntity
  8
DEFPOINTS
  6
CONTINUOUS
 62
     7
100
AcDbPoint
 10
322.9999999999999
 20
-387.9999999999988
 30
0.0
  0
POINT
  5
E4
330
1E
100
AcDbEntity
  8
DEFPOINTS
  6
CONTINUOUS
 62
     7
100
AcDbPoint
 10
1000.250082444914
 20
-387.9999999999991
 30
0.0
  0
LINE
  5
E5
330
1E
100
AcDbEntity
  8
SIZE
  6
CONTINUOUS
 62
    30
100
AcDbLine
 10
-355.0
 20
519.9999999999999
 30
0.0
 11
-849.7089385941873
 21
520.0
 31
0.0
  0
LINE
  5
E6
330
1E
100
AcDbEntity
  8
SIZE
  6
CONTINUOUS
 62
    30
100
AcDbLine
 10
-359.0
 20
539.9999999999997
 30
0.0
 11
-849.7089385941873
 21
540.0
 31
0.0
  0
LINE
  5
E7
330
1E
100
AcDbEntity
  8
SIZE
  6
CONTINUOUS
 62
    30
100
AcDbLine
 10
-819.7089385941874
 20
509.9999999999999
 30
0.0
 11
-819.7089385941874
 21
499.9999999999999
 31
0.0
  0
LINE
  5
E8
330
1E
100
AcDbEntity
  8
SIZE
  6
CONTINUOUS
 62
    30
100
AcDbLine
 10
-819.7089385941874
 20
550.0
 30
0.0
 11
-819.7089385941874
 21
693.257142857143
 31
0.0
  0
LINE
  5
E9
330
1E
100
AcDbEntity
  8
SIZE
  6
CONTINUOUS
 62
    30
100
AcDbLine
 10
-819.7089385941874
 20
520.0
 30
0.0
 11
-819.7089385941874
 21
540.0
 31
0.0
  0
CIRCLE
  5
EA
330
1E
100
AcDbEntity
  8
SIZE
  6
CONTINUOUS
 62
    30
100
AcDbCircle
 10
-819.7089385941874
 20
520.0
 30
0.0
 40
5.0
  0
LINE
  5
EB
330
1E
100
AcDbEntity
  8
SIZE
  6
CONTINUOUS
 62
    30
100
AcDbLine
 10
-819.7089385941874
 20
515.0
 30
0.0
 11
-819.7089385941874
 21
510.0
 31
0.0
  0
CIRCLE
  5
EC
330
1E
100
AcDbEntity
  8
SIZE
  6
CONTINUOUS
 62
    30
100
AcDbCircle
 10
-819.7089385941874
 20
540.0
 30
0.0
 40
5.0
  0
LINE
  5
ED
330
1E
100
AcDbEntity
  8
SIZE
  6
CONTINUOUS
 62
    30
100
AcDbLine
 10
-819.7089385941874
 20
545.0
 30
0.0
 11
-819.7089385941874
 21
550.0
 31
0.0
  0
TEXT
  5
EE
330
1E
100
AcDbEntity
  8
SIZE
  6
CONTINUOUS
 62
    30
100
AcDbText
 10
-839.7089385941873
 20
579.9999999999998
 30
0.0
 40
64.0
  1
20
 50
90.0
 41
0.9
 72
     1
 11
-839.7089385941873
 21
626.6285714285713
 31
0.0
100
AcDbText
  0
POINT
  5
EF
330
1E
100
AcDbEntity
  8
DEFPOINTS
  6
CONTINUOUS
 62
     7
100
AcDbPoint
 10
-335.0
 20
519.9999999999999
 30
0.0
  0
POINT
  5
F0
330
1E
100
AcDbEntity
  8
DEFPOINTS
  6
CONTINUOUS
 62
     7
100
AcDbPoint
 10
-339.0
 20
539.9999999999997
 30
0.0
  0
POINT
  5
F1
330
1E
100
AcDbEntity
  8
DEFPOINTS
  6
CONTINUOUS
 62
     7
100
AcDbPoint
 10
-819.7089385941874
 20
540.0
 30
0.0
  0
LINE
  5
F2
330
1E
100
AcDbEntity
  8
SIZE
  6
CONTINUOUS
 62
    30
100
AcDbLine
 10
-355.0
 20
-520.0
 30
0.0
 11
-849.7089385941873
 21
-519.9999999999999
 31
0.0
  0
LINE
  5
F3
330
1E
100
AcDbEntity
  8
SIZE
  6
CONTINUOUS
 62
    30
100
AcDbLine
 10
-355.0
 20
-540.0
 30
0.0
 11
-849.7089385941873
 21
-539.9999999999997
 31
0.0
  0
LINE
  5
F4
330
1E
100
AcDbEntity
  8
SIZE
  6
CONTINUOUS
 62
    30
100
AcDbLine
 10
-819.7089385941874
 20
-509.9999999999999
 30
0.0
 11
-819.7089385941874
 21
-499.9999999999999
 31
0.0
  0
LINE
  5
F5
330
1E
100
AcDbEntity
  8
SIZE
  6
CONTINUOUS
 62
    30
100
AcDbLine
 10
-819.7089385941874
 20
-549.9999999999999
 30
0.0
 11
-819.7089385941874
 21
-693.2571428571427
 31
0.0
  0
LINE
  5
F6
330
1E
100
AcDbEntity
  8
SIZE
  6
CONTINUOUS
 62
    30
100
AcDbLine
 10
-819.7089385941874
 20
-519.9999999999999
 30
0.0
 11
-819.7089385941874
 21
-539.9999999999997
 31
0.0
  0
CIRCLE
  5
F7
330
1E
100
AcDbEntity
  8
SIZE
  6
CONTINUOUS
 62
    30
100
AcDbCircle
 10
-819.7089385941874
 20
-519.9999999999999
 30
0.0
 40
5.0
  0
LINE
  5
F8
330
1E
100
AcDbEntity
  8
SIZE
  6
CONTINUOUS
 62
    30
100
AcDbLine
 10
-819.7089385941874
 20
-514.9999999999998
 30
0.0
 11
-819.7089385941874
 21
-509.9999999999999
 31
0.0
  0
CIRCLE
  5
F9
330
1E
100
AcDbEntity
  8
SIZE
  6
CONTINUOUS
 62
    30
100
AcDbCircle
 10
-819.7089385941874
 20
-539.9999999999997
 30
0.0
 40
5.0
  0
LINE
  5
FA
330
1E
100
AcDbEntity
  8
SIZE
  6
CONTINUOUS
 62
    30
100
AcDbLine
 10
-819.7089385941874
 20
-544.9999999999997
 30
0.0
 11
-819.7089385941874
 21
-549.9999999999998
 31
0.0
  0
TEXT
  5
FB
330
1E
100
AcDbEntity
  8
SIZE
  6
CONTINUOUS
 62
    30
100
AcDbText
 10
-839.7089385941873
 20
-673.2571428571427
 30
0.0
 40
64.0
  1
20
 50
90.0
 41
0.9
 72
     1
 11
-839.7089385941873
 21
-626.6285714285714
 31
0.0
100
AcDbText
  0
POINT
  5
FC
330
1E
100
AcDbEntity
  8
DEFPOINTS
  6
CONTINUOUS
 62
     7
100
AcDbPoint
 10
-335.0
 20
-520.0
 30
0.0
  0
POINT
  5
FD
330
1E
100
AcDbEntity
  8
DEFPOINTS
  6
CONTINUOUS
 62
     7
100
AcDbPoint
 10
-335.0
 20
-540.0
 30
0.0
  0
POINT
  5
FE
330
1E
100
AcDbEntity
  8
DEFPOINTS
  6
CONTINUOUS
 62
     7
100
AcDbPoint
 10
-819.7089385941874
 20
-539.9999999999997
 30
0.0
  0
LINE
  5
FF
330
1E
100
AcDbEntity
  8
SIZE
  6
CONTINUOUS
 62
    30
100
AcDbLine
 10
-355.0
 20
-544.0
 30
0.0
 11
-355.0
 21
-1429.578
 31
0.0
  0
LINE
  5
100
330
1E
100
AcDbEntity
  8
SIZE
  6
CONTINUOUS
 62
    30
100
AcDbLine
 10
354.9999999999998
 20
-544.0
 30
0.0
 11
354.9999999999997
 21
-1429.578
 31
0.0
  0
LINE
  5
101
330
1E
100
AcDbEntity
  8
SIZE
  6
CONTINUOUS
 62
    30
100
AcDbLine
 10
-345.0
 20
-1399.577999999999
 30
0.0
 11
344.9999999999997
 21
-1399.577999999999
 31
0.0
  0
CIRCLE
  5
102
330
1E
100
AcDbEntity
  8
SIZE
  6
CONTINUOUS
 62
    30
100
AcDbCircle
 10
-355.0
 20
-1399.577999999999
 30
0.0
 40
5.0
  0
LINE
  5
103
330
1E
100
AcDbEntity
  8
SIZE
  6
CONTINUOUS
 62
    30
100
AcDbLine
 10
-350.0
 20
-1399.577999999999
 30
0.0
 11
-345.0
 21
-1399.577999999999
 31
0.0
  0
CIRCLE
  5
104
330
1E
100
AcDbEntity
  8
SIZE
  6
CONTINUOUS
 62
    30
100
AcDbCircle
 10
354.9999999999997
 20
-1399.577999999999
 30
0.0
 40
5.0
  0
LINE
  5
105
330
1E
100
AcDbEntity
  8
SIZE
  6
CONTINUOUS
 62
    30
100
AcDbLine
 10
349.9999999999997
 20
-1399.577999999999
 30
0.0
 11
344.9999999999997
 21
-1399.577999999999
 31
0.0
  0
TEXT
  5
106
330
1E
100
AcDbEntity
  8
SIZE
  6
CONTINUOUS
 62
    30
100
AcDbText
 10
-68.57142857142865
 20
-1379.578
 30
0.0
 40
64.0
  1
710
 41
0.9
 72
     1
 11
-0.0000000000000853
 21
-1379.578
 31
0.0
100
AcDbText
  0
POINT
  5
107
330
1E
100
AcDbEntity
  8
DEFPOINTS
  6
CONTINUOUS
 62
     7
100
AcDbPoint
 10
-355.0
 20
-524.0
 30
0.0
  0
POINT
  5
108
330
1E
100
AcDbEntity
  8
DEFPOINTS
  6
CONTINUOUS
 62
     7
100
AcDbPoint
 10
354.9999999999998
 20
-524.0
 30
0.0
  0
POINT
  5
109
330
1E
100
AcDbEntity
  8
DEFPOINTS
  6
CONTINUOUS
 62
     7
100
AcDbPoint
 10
354.9999999999997
 20
-1399.577999999999
 30
0.0
  0
LINE
  5
10A
330
1E
100
AcDbEntity
  8
SIZE
  6
CONTINUOUS
 62
    30
100
AcDbLine
 10
-287.0
 20
452.0000000000009
 30
0.0
 11
-287.0
 21
744.9070319999989
 31
0.0
  0
LINE
  5
10B
330
1E
100
AcDbEntity
  8
SIZE
  6
CONTINUOUS
 62
    30
100
AcDbLine
 10
287.0
 20
452.0000000000008
 30
0.0
 11
287.0
 21
744.9070319999989
 31
0.0
  0
LINE
  5
10C
330
1E
100
AcDbEntity
  8
SIZE
  6
CONTINUOUS
 62
    30
100
AcDbLine
 10
-277.0
 20
714.907031999999
 30
0.0
 11
277.0
 21
714.907031999999
 31
0.0
  0
CIRCLE
  5
10D
330
1E
100
AcDbEntity
  8
SIZE
  6
CONTINUOUS
 62
    30
100
AcDbCircle
 10
-287.0
 20
714.907031999999
 30
0.0
 40
5.0
  0
LINE
  5
10E
330
1E
100
AcDbEntity
  8
SIZE
  6
CONTINUOUS
 62
    30
100
AcDbLine
 10
-282.0
 20
714.907031999999
 30
0.0
 11
-277.0
 21
714.907031999999
 31
0.0
  0
CIRCLE
  5
10F
330
1E
100
AcDbEntity
  8
SIZE
  6
CONTINUOUS
 62
    30
100
AcDbCircle
 10
287.0
 20
714.907031999999
 30
0.0
 40
5.0
  0
LINE
  5
110
330
1E
100
AcDbEntity
  8
SIZE
  6
CONTINUOUS
 62
    30
100
AcDbLine
 10
282.0
 20
714.907031999999
 30
0.0
 11
277.0
 21
714.907031999999
 31
0.0
  0
TEXT
  5
111
330
1E
100
AcDbEntity
  8
SIZE
  6
CONTINUOUS
 62
    30
100
AcDbText
 10
-75.42857142857139
 20
734.9070319999989
 30
0.0
 40
64.0
  1
574
 41
0.9
 72
     1
 11
0.0000000000000284
 21
734.9070319999989
 31
0.0
100
AcDbText
  0
POINT
  5
112
330
1E
100
AcDbEntity
  8
DEFPOINTS
  6
CONTINUOUS
 62
     7
100
AcDbPoint
 10
-287.0
 20
432.0000000000009
 30
0.0
  0
POINT
  5
113
330
1E
100
AcDbEntity
  8
DEFPOINTS
  6
CONTINUOUS
 62
     7
100
AcDbPoint
 10
287.0
 20
432.0000000000008
 30
0.0
  0
POINT
  5
114
330
1E
100
AcDbEntity
  8
DEFPOINTS
  6
CONTINUOUS
 62
     7
100
AcDbPoint
 10
287.0
 20
714.907031999999
 30
0.0
  0
LINE
  5
115
330
1E
100
AcDbEntity
  8
SIZE
  6
CONTINUOUS
 62
    30
100
AcDbLine
 10
-335.0
 20
540.0
 30
0.0
 11
-334.9999999999998
 21
1034.633812723136
 31
0.0
  0
LINE
  5
116
330
1E
100
AcDbEntity
  8
SIZE
  6
CONTINUOUS
 62
    30
100
AcDbLine
 10
334.9999999999998
 20
539.9999999999997
 30
0.0
 11
335.0
 21
1034.633812723136
 31
0.0
  0
LINE
  5
117
330
1E
100
AcDbEntity
  8
SIZE
  6
CONTINUOUS
 62
    30
100
AcDbLine
 10
-324.9999999999999
 20
1004.633812723137
 30
0.0
 11
325.0
 21
1004.633812723137
 31
0.0
  0
CIRCLE
  5
118
330
1E
100
AcDbEntity
  8
SIZE
  6
CONTINUOUS
 62
    30
100
AcDbCircle
 10
-334.9999999999998
 20
1004.633812723137
 30
0.0
 40
5.0
  0
LINE
  5
119
330
1E
100
AcDbEntity
  8
SIZE
  6
CONTINUOUS
 62
    30
100
AcDbLine
 10
-329.9999999999998
 20
1004.633812723137
 30
0.0
 11
-324.9999999999999
 21
1004.633812723137
 31
0.0
  0
CIRCLE
  5
11A
330
1E
100
AcDbEntity
  8
SIZE
  6
CONTINUOUS
 62
    30
100
AcDbCircle
 10
335.0
 20
1004.633812723137
 30
0.0
 40
5.0
  0
LINE
  5
11B
330
1E
100
AcDbEntity
  8
SIZE
  6
CONTINUOUS
 62
    30
100
AcDbLine
 10
330.0
 20
1004.633812723137
 30
0.0
 11
325.0
 21
1004.633812723137
 31
0.0
  0
TEXT
  5
11C
330
1E
100
AcDbEntity
  8
SIZE
  6
CONTINUOUS
 62
    30
100
AcDbText
 10
-74.05714285714282
 20
1024.633812723137
 30
0.0
 40
64.0
  1
670
 41
0.9
 72
     1
 11
0.0000000000000284
 21
1024.633812723137
 31
0.0
100
AcDbText
  0
POINT
  5
11D
330
1E
100
AcDbEntity
  8
DEFPOINTS
  6
CONTINUOUS
 62
     7
100
AcDbPoint
 10
-335.0
 20
520.0
 30
0.0
  0
POINT
  5
11E
330
1E
100
AcDbEntity
  8
DEFPOINTS
  6
CONTINUOUS
 62
     7
100
AcDbPoint
 10
334.9999999999998
 20
519.9999999999999
 30
0.0
  0
POINT
  5
11F
330
1E
100
AcDbEntity
  8
DEFPOINTS
  6
CONTINUOUS
 62
     7
100
AcDbPoint
 10
335.0
 20
1004.633812723137
 30
0.0
  0
LINE
  5
120
330
1E
100
AcDbEntity
  8
SIZE
  6
CONTINUOUS
 62
    30
100
AcDbLine
 10
-287.0
 20
452.0000000000009
 30
0.0
 11
-287.0
 21
744.9070319999989
 31
0.0
  0
LINE
  5
121
330
1E
100
AcDbEntity
  8
SIZE
  6
CONTINUOUS
 62
    30
100
AcDbLine
 10
-335.0
 20
539.9999999999997
 30
0.0
 11
-335.0
 21
744.9070319999989
 31
0.0
  0
LINE
  5
122
330
1E
100
AcDbEntity
  8
SIZE
  6
CONTINUOUS
 62
    30
100
AcDbLine
 10
-277.0
 20
714.907031999999
 30
0.0
 11
-267.0
 21
714.907031999999
 31
0.0
  0
LINE
  5
123
330
1E
100
AcDbEntity
  8
SIZE
  6
CONTINUOUS
 62
    30
100
AcDbLine
 10
-345.0
 20
714.907031999999
 30
0.0
 11
-488.2571428571428
 21
714.907031999999
 31
0.0
  0
LINE
  5
124
330
1E
100
AcDbEntity
  8
SIZE
  6
CONTINUOUS
 62
    30
100
AcDbLine
 10
-287.0
 20
714.907031999999
 30
0.0
 11
-335.0
 21
714.907031999999
 31
0.0
  0
CIRCLE
  5
125
330
1E
100
AcDbEntity
  8
SIZE
  6
CONTINUOUS
 62
    30
100
AcDbCircle
 10
-287.0
 20
714.907031999999
 30
0.0
 40
5.0
  0
LINE
  5
126
330
1E
100
AcDbEntity
  8
SIZE
  6
CONTINUOUS
 62
    30
100
AcDbLine
 10
-282.0
 20
714.907031999999
 30
0.0
 11
-277.0
 21
714.907031999999
 31
0.0
  0
CIRCLE
  5
127
330
1E
100
AcDbEntity
  8
SIZE
  6
CONTINUOUS
 62
    30
100
AcDbCircle
 10
-335.0
 20
714.907031999999
 30
0.0
 40
5.0
  0
LINE
  5
128
330
1E
100
AcDbEntity
  8
SIZE
  6
CONTINUOUS
 62
    30
100
AcDbLine
 10
-340.0
 20
714.907031999999
 30
0.0
 11
-345.0
 21
714.907031999999
 31
0.0
  0
TEXT
  5
129
330
1E
100
AcDbEntity
  8
SIZE
  6
CONTINUOUS
 62
    30
100
AcDbText
 10
-468.2571428571428
 20
734.9070319999989
 30
0.0
 40
64.0
  1
48
 41
0.9
 72
     1
 11
-421.6285714285714
 21
734.9070319999989
 31
0.0
100
AcDbText
  0
POINT
  5
12A
330
1E
100
AcDbEntity
  8
DEFPOINTS
  6
CONTINUOUS
 62
     7
100
AcDbPoint
 10
-287.0
 20
432.0000000000009
 30
0.0
  0
POINT
  5
12B
330
1E
100
AcDbEntity
  8
DEFPOINTS
  6
CONTINUOUS
 62
     7
100
AcDbPoint
 10
-335.0
 20
519.9999999999999
 30
0.0
  0
POINT
  5
12C
330
1E
100
AcDbEntity
  8
DEFPOINTS
  6
CONTINUOUS
 62
     7
100
AcDbPoint
 10
-335.0
 20
714.907031999999
 30
0.0
  0
LINE
  5
12D
330
1E
100
AcDbEntity
  8
SIZE
  6
CONTINUOUS
 62
    30
100
AcDbLine
 10
287.0
 20
452.0000000000008
 30
0.0
 11
287.0
 21
744.9070319999989
 31
0.0
  0
LINE
  5
12E
330
1E
100
AcDbEntity
  8
SIZE
  6
CONTINUOUS
 62
    30
100
AcDbLine
 10
334.9999999999998
 20
539.9999999999997
 30
0.0
 11
334.9999999999998
 21
744.9070319999989
 31
0.0
  0
LINE
  5
12F
330
1E
100
AcDbEntity
  8
SIZE
  6
CONTINUOUS
 62
    30
100
AcDbLine
 10
277.0
 20
714.907031999999
 30
0.0
 11
267.0
 21
714.907031999999
 31
0.0
  0
LINE
  5
130
330
1E
100
AcDbEntity
  8
SIZE
  6
CONTINUOUS
 62
    30
100
AcDbLine
 10
344.9999999999998
 20
714.907031999999
 30
0.0
 11
488.2571428571428
 21
714.907031999999
 31
0.0
  0
LINE
  5
131
330
1E
100
AcDbEntity
  8
SIZE
  6
CONTINUOUS
 62
    30
100
AcDbLine
 10
287.0
 20
714.907031999999
 30
0.0
 11
334.9999999999998
 21
714.907031999999
 31
0.0
  0
CIRCLE
  5
132
330
1E
100
AcDbEntity
  8
SIZE
  6
CONTINUOUS
 62
    30
100
AcDbCircle
 10
287.0
 20
714.907031999999
 30
0.0
 40
5.0
  0
LINE
  5
133
330
1E
100
AcDbEntity
  8
SIZE
  6
CONTINUOUS
 62
    30
100
AcDbLine
 10
282.0
 20
714.907031999999
 30
0.0
 11
277.0
 21
714.907031999999
 31
0.0
  0
CIRCLE
  5
134
330
1E
100
AcDbEntity
  8
SIZE
  6
CONTINUOUS
 62
    30
100
AcDbCircle
 10
334.9999999999998
 20
714.907031999999
 30
0.0
 40
5.0
  0
LINE
  5
135
330
1E
100
AcDbEntity
  8
SIZE
  6
CONTINUOUS
 62
    30
100
AcDbLine
 10
339.9999999999999
 20
714.907031999999
 30
0.0
 11
344.9999999999998
 21
714.907031999999
 31
0.0
  0
TEXT
  5
136
330
1E
100
AcDbEntity
  8
SIZE
  6
CONTINUOUS
 62
    30
100
AcDbText
 10
374.9999999999999
 20
734.9070319999989
 30
0.0
 40
64.0
  1
48
 41
0.9
 72
     1
 11
421.6285714285714
 21
734.9070319999989
 31
0.0
100
AcDbText
  0
POINT
  5
137
330
1E
100
AcDbEntity
  8
DEFPOINTS
  6
CONTINUOUS
 62
     7
100
AcDbPoint
 10
287.0
 20
432.0000000000008
 30
0.0
  0
POINT
  5
138
330
1E
100
AcDbEntity
  8
DEFPOINTS
  6
CONTINUOUS
 62
     7
100
AcDbPoint
 10
334.9999999999998
 20
519.9999999999999
 30
0.0
  0
POINT
  5
139
330
1E
100
AcDbEntity
  8
DEFPOINTS
  6
CONTINUOUS
 62
     7
100
AcDbPoint
 10
334.9999999999998
 20
714.907031999999
 30
0.0
  0
LINE
  5
13A
330
1E
100
AcDbEntity
  8
SIZE
  6
CONTINUOUS
 62
    30
100
AcDbLine
 10
-355.0
 20
544.0
 30
0.0
 11
-354.9999999999998
 21
1034.633812723136
 31
0.0
  0
LINE
  5
13B
330
1E
100
AcDbEntity
  8
SIZE
  6
CONTINUOUS
 62
    30
100
AcDbLine
 10
-335.0
 20
539.9999999999997
 30
0.0
 11
-334.9999999999998
 21
1034.633812723136
 31
0.0
  0
LINE
  5
13C
330
1E
100
AcDbEntity
  8
SIZE
  6
CONTINUOUS
 62
    30
100
AcDbLine
 10
-324.9999999999999
 20
1004.633812723137
 30
0.0
 11
-314.9999999999999
 21
1004.633812723137
 31
0.0
  0
LINE
  5
13D
330
1E
100
AcDbEntity
  8
SIZE
  6
CONTINUOUS
 62
    30
100
AcDbLine
 10
-364.9999999999999
 20
1004.633812723137
 30
0.0
 11
-508.2571428571426
 21
1004.633812723137
 31
0.0
  0
LINE
  5
13E
330
1E
100
AcDbEntity
  8
SIZE
  6
CONTINUOUS
 62
    30
100
AcDbLine
 10
-334.9999999999998
 20
1004.633812723137
 30
0.0
 11
-354.9999999999998
 21
1004.633812723137
 31
0.0
  0
CIRCLE
  5
13F
330
1E
100
AcDbEntity
  8
SIZE
  6
CONTINUOUS
 62
    30
100
AcDbCircle
 10
-334.9999999999998
 20
1004.633812723137
 30
0.0
 40
5.0
  0
LINE
  5
140
330
1E
100
AcDbEntity
  8
SIZE
  6
CONTINUOUS
 62
    30
100
AcDbLine
 10
-329.9999999999998
 20
1004.633812723137
 30
0.0
 11
-324.9999999999999
 21
1004.633812723137
 31
0.0
  0
CIRCLE
  5
141
330
1E
100
AcDbEntity
  8
SIZE
  6
CONTINUOUS
 62
    30
100
AcDbCircle
 10
-354.9999999999998
 20
1004.633812723137
 30
0.0
 40
5.0
  0
LINE
  5
142
330
1E
100
AcDbEntity
  8
SIZE
  6
CONTINUOUS
 62
    30
100
AcDbLine
 10
-359.9999999999998
 20
1004.633812723137
 30
0.0
 11
-364.9999999999999
 21
1004.633812723137
 31
0.0
  0
TEXT
  5
143
330
1E
100
AcDbEntity
  8
SIZE
  6
CONTINUOUS
 62
    30
100
AcDbText
 10
-488.2571428571426
 20
1024.633812723137
 30
0.0
 40
64.0
  1
20
 41
0.9
 72
     1
 11
-441.6285714285712
 21
1024.633812723137
 31
0.0
100
AcDbText
  0
POINT
  5
144
330
1E
100
AcDbEntity
  8
DEFPOINTS
  6
CONTINUOUS
 62
     7
100
AcDbPoint
 10
-355.0
 20
524.0
 30
0.0
  0
POINT
  5
145
330
1E
100
AcDbEntity
  8
DEFPOINTS
  6
CONTINUOUS
 62
     7
100
AcDbPoint
 10
-335.0
 20
519.9999999999999
 30
0.0
  0
POINT
  5
146
330
1E
100
AcDbEntity
  8
DEFPOINTS
  6
CONTINUOUS
 62
     7
100
AcDbPoint
 10
-334.9999999999998
 20
1004.633812723137
 30
0.0
  0
LINE
  5
147
330
1E
100
AcDbEntity
  8
SIZE
  6
CONTINUOUS
 62
    30
100
AcDbLine
 10
334.9999999999998
 20
539.9999999999997
 30
0.0
 11
335.0
 21
1034.633812723136
 31
0.0
  0
LINE
  5
148
330
1E
100
AcDbEntity
  8
SIZE
  6
CONTINUOUS
 62
    30
100
AcDbLine
 10
354.9999999999998
 20
544.0
 30
0.0
 11
355.0
 21
1034.633812723136
 31
0.0
  0
LINE
  5
149
330
1E
100
AcDbEntity
  8
SIZE
  6
CONTINUOUS
 62
    30
100
AcDbLine
 10
325.0
 20
1004.633812723137
 30
0.0
 11
315.0
 21
1004.633812723137
 31
0.0
  0
LINE
  5
14A
330
1E
100
AcDbEntity
  8
SIZE
  6
CONTINUOUS
 62
    30
100
AcDbLine
 10
365.0
 20
1004.633812723137
 30
0.0
 11
508.2571428571427
 21
1004.633812723137
 31
0.0
  0
LINE
  5
14B
330
1E
100
AcDbEntity
  8
SIZE
  6
CONTINUOUS
 62
    30
100
AcDbLine
 10
335.0
 20
1004.633812723137
 30
0.0
 11
355.0
 21
1004.633812723137
 31
0.0
  0
CIRCLE
  5
14C
330
1E
100
AcDbEntity
  8
SIZE
  6
CONTINUOUS
 62
    30
100
AcDbCircle
 10
335.0
 20
1004.633812723137
 30
0.0
 40
5.0
  0
LINE
  5
14D
330
1E
100
AcDbEntity
  8
SIZE
  6
CONTINUOUS
 62
    30
100
AcDbLine
 10
330.0
 20
1004.633812723137
 30
0.0
 11
325.0
 21
1004.633812723137
 31
0.0
  0
CIRCLE
  5
14E
330
1E
100
AcDbEntity
  8
SIZE
  6
CONTINUOUS
 62
    30
100
AcDbCircle
 10
355.0
 20
1004.633812723137
 30
0.0
 40
5.0
  0
LINE
  5
14F
330
1E
100
AcDbEntity
  8
SIZE
  6
CONTINUOUS
 62
    30
100
AcDbLine
 10
360.0
 20
1004.633812723137
 30
0.0
 11
365.0
 21
1004.633812723137
 31
0.0
  0
TEXT
  5
150
330
1E
100
AcDbEntity
  8
SIZE
  6
CONTINUOUS
 62
    30
100
AcDbText
 10
394.9999999999999
 20
1024.633812723137
 30
0.0
 40
64.0
  1
20
 41
0.9
 72
     1
 11
441.6285714285713
 21
1024.633812723137
 31
0.0
100
AcDbText
  0
POINT
  5
151
330
1E
100
AcDbEntity
  8
DEFPOINTS
  6
CONTINUOUS
 62
     7
100
AcDbPoint
 10
334.9999999999998
 20
519.9999999999999
 30
0.0
  0
POINT
  5
152
330
1E
100
AcDbEntity
  8
DEFPOINTS
  6
CONTINUOUS
 62
     7
100
AcDbPoint
 10
354.9999999999998
 20
524.0
 30
0.0
  0
POINT
  5
153
330
1E
100
AcDbEntity
  8
DEFPOINTS
  6
CONTINUOUS
 62
     7
100
AcDbPoint
 10
355.0
 20
1004.633812723137
 30
0.0
  0
LINE
  5
154
330
1E
100
AcDbEntity
  8
SIZE
  6
CONTINUOUS
 62
    30
100
AcDbLine
 10
-317.0
 20
-527.9999999999996
 30
0.0
 11
-317.0
 21
-1296.89901
 31
0.0
  0
LINE
  5
155
330
1E
100
AcDbEntity
  8
SIZE
  6
CONTINUOUS
 62
    30
100
AcDbLine
 10
317.0
 20
-528.0
 30
0.0
 11
316.9999999999999
 21
-1296.89901
 31
0.0
  0
LINE
  5
156
330
1E
100
AcDbEntity
  8
SIZE
  6
CONTINUOUS
 62
    30
100
AcDbLine
 10
-307.0
 20
-1266.89901
 30
0.0
 11
306.9999999999998
 21
-1266.89901
 31
0.0
  0
CIRCLE
  5
157
330
1E
100
AcDbEntity
  8
SIZE
  6
CONTINUOUS
 62
    30
100
AcDbCircle
 10
-317.0
 20
-1266.89901
 30
0.0
 40
5.0
  0
LINE
  5
158
330
1E
100
AcDbEntity
  8
SIZE
  6
CONTINUOUS
 62
    30
100
AcDbLine
 10
-312.0
 20
-1266.89901
 30
0.0
 11
-307.0
 21
-1266.89901
 31
0.0
  0
CIRCLE
  5
159
330
1E
100
AcDbEntity
  8
SIZE
  6
CONTINUOUS
 62
    30
100
AcDbCircle
 10
316.9999999999999
 20
-1266.89901
 30
0.0
 40
5.0
  0
LINE
  5
15A
330
1E
100
AcDbEntity
  8
SIZE
  6
CONTINUOUS
 62
    30
100
AcDbLine
 10
311.9999999999998
 20
-1266.89901
 30
0.0
 11
306.9999999999998
 21
-1266.89901
 31
0.0
  0
TEXT
  5
15B
330
1E
100
AcDbEntity
  8
SIZE
  6
CONTINUOUS
 62
    30
100
AcDbText
 10
-75.42857142857148
 20
-1246.89901
 30
0.0
 40
64.0
  1
634
 41
0.9
 72
     1
 11
-0.0000000000000568
 21
-1246.89901
 31
0.0
100
AcDbText
  0
POINT
  5
15C
330
1E
100
AcDbEntity
  8
DEFPOINTS
  6
CONTINUOUS
 62
     7
100
AcDbPoint
 10
-317.0
 20
-507.9999999999997
 30
0.0
  0
POINT
  5
15D
330
1E
100
AcDbEntity
  8
DEFPOINTS
  6
CONTINUOUS
 62
     7
100
AcDbPoint
 10
317.0
 20
-508.0
 30
0.0
  0
POINT
  5
15E
330
1E
100
AcDbEntity
  8
DEFPOINTS
  6
CONTINUOUS
 62
     7
100
AcDbPoint
 10
316.9999999999999
 20
-1266.89901
 30
0.0
  0
LINE
  5
15F
330
1E
100
AcDbEntity
  8
SERVICESPACE
  6
DASHDOT
 62
     2
100
AcDbLine
 10
-335.0
 20
519.9999999999999
 30
0.0
 11
334.9999999999998
 21
-520.0
 31
0.0
  0
LINE
  5
160
330
1E
100
AcDbEntity
  8
SERVICESPACE
  6
DASHDOT
 62
     2
100
AcDbLine
 10
-335.0
 20
-520.0
 30
0.0
 11
334.9999999999998
 21
519.9999999999999
 31
0.0
  0
LINE
  5
161
330
1E
100
AcDbEntity
  8
DETAIL
  6
CONTINUOUS
 62
     5
100
AcDbLine
 10
-262.0
 20
438.0000000000007
 30
0.0
 11
-280.9999999999993
 21
438.0000000000007
 31
0.0
  0
LINE
  5
162
330
1E
100
AcDbEntity
  8
DETAIL
  6
CONTINUOUS
 62
     5
100
AcDbLine
 10
-292.9999999999994
 20
438.0000000000008
 30
0.0
 11
-312.0
 21
438.0000000000008
 31
0.0
  0
ARC
  5
163
330
1E
100
AcDbEntity
  8
DETAIL
  6
CONTINUOUS
 62
     5
100
AcDbCircle
 10
-294.9999999999993
 20
412.0
 30
0.0
 40
7.0
100
AcDbArc
 50
90.0
 51
270.0
  0
ARC
  5
164
330
1E
100
AcDbEntity
  8
DETAIL
  6
CONTINUOUS
 62
     5
100
AcDbCircle
 10
-278.9999999999995
 20
412.0
 30
0.0
 40
7.0
100
AcDbArc
 50
270.0
 51
90.0
  0
LINE
  5
165
330
1E
100
AcDbEntity
  8
DETAIL
  6
CONTINUOUS
 62
     5
100
AcDbLine
 10
-294.9999999999993
 20
405.0
 30
0.0
 11
-278.9999999999995
 21
405.0
 31
0.0
  0
LINE
  5
166
330
1E
100
AcDbEntity
  8
DETAIL
  6
CONTINUOUS
 62
     5
100
AcDbLine
 10
-294.9999999999993
 20
419.0
 30
0.0
 11
-292.9999999999994
 21
419.0
 31
0.0
  0
LINE
  5
167
330
1E
100
AcDbEntity
  8
DETAIL
  6
CONTINUOUS
 62
     5
100
AcDbLine
 10
-280.9999999999993
 20
419.0
 30
0.0
 11
-278.9999999999995
 21
419.0
 31
0.0
  0
LINE
  5
168
330
1E
100
AcDbEntity
  8
DETAIL
  6
CONTINUOUS
 62
     5
100
AcDbLine
 10
281.0000000000012
 20
438.0
 30
0.0
 11
262.0000000000006
 21
438.0
 31
0.0
  0
LINE
  5
169
330
1E
100
AcDbEntity
  8
DETAIL
  6
CONTINUOUS
 62
     5
100
AcDbLine
 10
281.0000000000012
 20
438.0
 30
0.0
 11
281.0000000000012
 21
418.9999999999992
 31
0.0
  0
ARC
  5
16A
330
1E
100
AcDbEntity
  8
DETAIL
  6
CONTINUOUS
 62
     5
100
AcDbCircle
 10
279.0000000000012
 20
411.9999999999993
 30
0.0
 40
7.0
100
AcDbArc
 50
90.0
 51
270.0
  0
LINE
  5
16B
330
1E
100
AcDbEntity
  8
DETAIL
  6
CONTINUOUS
 62
     5
100
AcDbLine
 10
279.0000000000012
 20
418.9999999999992
 30
0.0
 11
281.0000000000012
 21
418.9999999999992
 31
0.0
  0
LINE
  5
16C
330
1E
100
AcDbEntity
  8
DETAIL
  6
CONTINUOUS
 62
     5
100
AcDbLine
 10
279.0000000000012
 20
404.9999999999992
 30
0.0
 11
295.0000000000012
 21
404.9999999999992
 31
0.0
  0
ARC
  5
16D
330
1E
100
AcDbEntity
  8
DETAIL
  6
CONTINUOUS
 62
     5
100
AcDbCircle
 10
295.0000000000012
 20
411.9999999999993
 30
0.0
 40
7.0
100
AcDbArc
 50
270.0
 51
90.0
  0
LINE
  5
16E
330
1E
100
AcDbEntity
  8
DETAIL
  6
CONTINUOUS
 62
     5
100
AcDbLine
 10
293.0000000000012
 20
418.9999999999992
 30
0.0
 11
295.0000000000012
 21
418.9999999999992
 31
0.0
  0
LINE
  5
16F
330
1E
100
AcDbEntity
  8
DETAIL
  6
CONTINUOUS
 62
     5
100
AcDbLine
 10
293.0000000000012
 20
438.0
 30
0.0
 11
293.0000000000012
 21
418.9999999999992
 31
0.0
  0
LINE
  5
170
330
1E
100
AcDbEntity
  8
DETAIL
  6
CONTINUOUS
 62
     5
100
AcDbLine
 10
312.0000000000006
 20
438.0
 30
0.0
 11
293.0000000000012
 21
438.0
 31
0.0
  0
LINE
  5
171
330
1E
100
AcDbEntity
  8
DETAIL
  6
CONTINUOUS
 62
     5
100
AcDbLine
 10
-292.9999999999994
 20
-438.0000000000008
 30
0.0
 11
-312.0
 21
-438.0000000000008
 31
0.0
  0
LINE
  5
172
330
1E
100
AcDbEntity
  8
DETAIL
  6
CONTINUOUS
 62
     5
100
AcDbLine
 10
-292.9999999999994
 20
-438.0000000000008
 30
0.0
 11
-292.9999999999994
 21
-419.0
 31
0.0
  0
LINE
  5
173
330
1E
100
AcDbEntity
  8
DETAIL
  6
CONTINUOUS
 62
     5
100
AcDbLine
 10
-294.9999999999993
 20
-419.0
 30
0.0
 11
-292.9999999999994
 21
-419.0
 31
0.0
  0
ARC
  5
174
330
1E
100
AcDbEntity
  8
DETAIL
  6
CONTINUOUS
 62
     5
100
AcDbCircle
 10
-294.9999999999993
 20
-412.0
 30
0.0
 40
7.0
100
AcDbArc
 50
90.00000000000005
 51
270.0
  0
LINE
  5
175
330
1E
100
AcDbEntity
  8
DETAIL
  6
CONTINUOUS
 62
     5
100
AcDbLine
 10
-280.9999999999993
 20
-438.0000000000008
 30
0.0
 11
-280.9999999999993
 21
-419.0
 31
0.0
  0
LINE
  5
176
330
1E
100
AcDbEntity
  8
DETAIL
  6
CONTINUOUS
 62
     5
100
AcDbLine
 10
-280.9999999999993
 20
-419.0
 30
0.0
 11
-278.9999999999995
 21
-419.0
 31
0.0
  0
ARC
  5
177
330
1E
100
AcDbEntity
  8
DETAIL
  6
CONTINUOUS
 62
     5
100
AcDbCircle
 10
-278.9999999999995
 20
-412.0
 30
0.0
 40
7.0
100
AcDbArc
 50
270.0
 51
90.00000000000005
  0
LINE
  5
178
330
1E
100
AcDbEntity
  8
DETAIL
  6
CONTINUOUS
 62
     5
100
AcDbLine
 10
-262.0
 20
-438.0000000000008
 30
0.0
 11
-280.9999999999993
 21
-438.0000000000008
 31
0.0
  0
LINE
  5
179
330
1E
100
AcDbEntity
  8
DETAIL
  6
CONTINUOUS
 62
     5
100
AcDbLine
 10
-294.9999999999993
 20
-405.0
 30
0.0
 11
-278.9999999999995
 21
-405.0
 31
0.0
  0
LINE
  5
17A
330
1E
100
AcDbEntity
  8
DETAIL
  6
CONTINUOUS
 62
     5
100
AcDbLine
 10
281.0000000000012
 20
-438.0
 30
0.0
 11
262.0000000000006
 21
-438.0
 31
0.0
  0
LINE
  5
17B
330
1E
100
AcDbEntity
  8
DETAIL
  6
CONTINUOUS
 62
     5
100
AcDbLine
 10
312.0000000000006
 20
-438.0
 30
0.0
 11
293.0000000000012
 21
-438.0
 31
0.0
  0
LINE
  5
17C
330
1E
100
AcDbEntity
  8
DETAIL
  6
CONTINUOUS
 62
     5
100
AcDbLine
 10
281.0000000000012
 20
-438.0
 30
0.0
 11
281.0000000000012
 21
-418.9999999999992
 31
0.0
  0
LINE
  5
17D
330
1E
100
AcDbEntity
  8
DETAIL
  6
CONTINUOUS
 62
     5
100
AcDbLine
 10
293.0000000000012
 20
-438.0
 30
0.0
 11
293.0000000000012
 21
-418.9999999999992
 31
0.0
  0
ARC
  5
17E
330
1E
100
AcDbEntity
  8
DETAIL
  6
CONTINUOUS
 62
     5
100
AcDbCircle
 10
279.0000000000012
 20
-411.9999999999993
 30
0.0
 40
7.0
100
AcDbArc
 50
90.00000000000005
 51
270.0
  0
LINE
  5
17F
330
1E
100
AcDbEntity
  8
DETAIL
  6
CONTINUOUS
 62
     5
100
AcDbLine
 10
279.0000000000012
 20
-418.9999999999992
 30
0.0
 11
281.0000000000012
 21
-418.9999999999992
 31
0.0
  0
ARC
  5
180
330
1E
100
AcDbEntity
  8
DETAIL
  6
CONTINUOUS
 62
     5
100
AcDbCircle
 10
295.0000000000012
 20
-411.9999999999993
 30
0.0
 40
7.0
100
AcDbArc
 50
270.0
 51
90.00000000000005
  0
LINE
  5
181
330
1E
100
AcDbEntity
  8
DETAIL
  6
CONTINUOUS
 62
     5
100
AcDbLine
 10
293.0000000000012
 20
-418.9999999999992
 30
0.0
 11
295.0000000000012
 21
-418.9999999999992
 31
0.0
  0
LINE
  5
182
330
1E
100
AcDbEntity
  8
DETAIL
  6
CONTINUOUS
 62
     5
100
AcDbLine
 10
279.0000000000012
 20
-404.9999999999992
 30
0.0
 11
295.0000000000012
 21
-404.9999999999992
 31
0.0
  0
LINE
  5
183
330
1E
100
AcDbEntity
  8
NOTE
  6
CONTINUOUS
 62
     4
100
AcDbLine
 10
151.0
 20
-460.9999999999987
 30
0.0
 11
191.0
 21
-460.9999999999987
 31
0.0
  0
LINE
  5
184
330
1E
100
AcDbEntity
  8
NOTE
  6
CONTINUOUS
 62
     4
100
AcDbLine
 10
171.0
 20
-480.9999999999988
 30
0.0
 11
171.0
 21
-440.9999999999988
 31
0.0
  0
LINE
  5
185
330
1E
100
AcDbEntity
  8
NOTE
  6
CONTINUOUS
 62
     4
100
AcDbLine
 10
-200.0
 20
-387.9999999999988
 30
0.0
 11
-160.0
 21
-387.9999999999988
 31
0.0
  0
LINE
  5
186
330
1E
100
AcDbEntity
  8
NOTE
  6
CONTINUOUS
 62
     4
100
AcDbLine
 10
-180.0
 20
-407.9999999999988
 30
0.0
 11
-180.0
 21
-367.9999999999988
 31
0.0
  0
LINE
  5
187
330
1E
100
AcDbEntity
  8
NOTE
  6
CONTINUOUS
 62
     4
100
AcDbLine
 10
-210.0
 20
-417.9999999999989
 30
0.0
 11
-170.0
 21
-417.9999999999989
 31
0.0
  0
LINE
  5
188
330
1E
100
AcDbEntity
  8
NOTE
  6
CONTINUOUS
 62
     4
100
AcDbLine
 10
-190.0
 20
-437.9999999999988
 30
0.0
 11
-190.0
 21
-397.9999999999987
 31
0.0
  0
LINE
  5
189
330
1E
100
AcDbEntity
  8
NOTE
  6
CONTINUOUS
 62
     4
100
AcDbLine
 10
101.0
 20
-474.9999999999988
 30
0.0
 11
101.0
 21
-434.9999999999988
 31
0.0
  0
LINE
  5
18A
330
1E
100
AcDbEntity
  8
NOTE
  6
CONTINUOUS
 62
     4
100
AcDbLine
 10
81.0
 20
-454.9999999999989
 30
0.0
 11
121.0
 21
-454.9999999999989
 31
0.0
  0
LINE
  5
18B
330
1E
100
AcDbEntity
  8
DETAIL
  6
CONTINUOUS
 62
     5
100
AcDbLine
 10
-177.5
 20
-417.9999999999989
 30
0.0
 11
-177.5
 21
-387.9999999999991
 31
0.0
  0
LINE
  5
18C
330
1E
100
AcDbEntity
  8
DETAIL
  6
CONTINUOUS
 62
     5
100
AcDbLine
 10
-202.4999999999999
 20
-417.9999999999989
 30
0.0
 11
-202.4999999999999
 21
-387.9999999999991
 31
0.0
  0
LINE
  5
18D
330
1E
100
AcDbEntity
  8
DETAIL
  6
CONTINUOUS
 62
     5
100
AcDbLine
 10
-202.4999999999999
 20
-417.9999999999989
 30
0.0
 11
-177.5
 21
-417.9999999999989
 31
0.0
  0
LINE
  5
18E
330
1E
100
AcDbEntity
  8
NOTE
  6
CONTINUOUS
 62
     4
100
AcDbLine
 10
-189.9999999999992
 20
-417.9999999999968
 30
0.0
 11
-648.1692181886764
 21
-982.2086989328509
 31
0.0
  0
LWPOLYLINE
  5
18F
330
1E
100
AcDbEntity
  8
NOTE
  6
CONTINUOUS
 62
     4
100
AcDbPolyline
 90
        3
 70
     0
 43
0.0
 10
-206.1096507501426
 20
-454.6125543399057
 10
-189.9999999999991
 20
-417.9999999999973
 10
-222.2576437152866
 20
-441.6525766241177
  0
LINE
  5
194
330
1E
100
AcDbEntity
  8
DETAIL
  6
CONTINUOUS
 62
     5
100
AcDbLine
 10
164.65
 20
-460.9999999999987
 30
0.0
 11
164.65
 21
-387.9999999999988
 31
0.0
  0
LINE
  5
195
330
1E
100
AcDbEntity
  8
DETAIL
  6
CONTINUOUS
 62
     5
100
AcDbLine
 10
177.35
 20
-460.9999999999987
 30
0.0
 11
177.35
 21
-387.9999999999988
 31
0.0
  0
LINE
  5
196
330
1E
100
AcDbEntity
  8
DETAIL
  6
CONTINUOUS
 62
     5
100
AcDbLine
 10
104.1749999999999
 20
-454.9999999999989
 30
0.0
 11
104.1749999999999
 21
-387.9999999999988
 31
0.0
  0
LINE
  5
197
330
1E
100
AcDbEntity
  8
DETAIL
  6
CONTINUOUS
 62
     5
100
AcDbLine
 10
97.825
 20
-454.9999999999989
 30
0.0
 11
97.825
 21
-387.9999999999988
 31
0.0
  0
LINE
  5
198
330
1E
100
AcDbEntity
  8
DETAIL
  6
CONTINUOUS
 62
     5
100
AcDbLine
 10
97.825
 20
-454.9999999999989
 30
0.0
 11
104.1749999999999
 21
-454.9999999999989
 31
0.0
  0
LINE
  5
199
330
1E
100
AcDbEntity
  8
DETAIL
  6
CONTINUOUS
 62
     5
100
AcDbLine
 10
164.65
 20
-460.9999999999987
 30
0.0
 11
177.35
 21
-460.9999999999987
 31
0.0
  0
LINE
  5
19A
330
1E
100
AcDbEntity
  8
NOTE
  6
CONTINUOUS
 62
     4
100
AcDbLine
 10
679.4201655534716
 20
789.519306028401
 30
0.0
 11
1345.680360553471
 21
789.519306028401
 31
0.0
  0
TEXT
  5
19B
330
1E
100
AcDbEntity
  8
NOTE
  6
CONTINUOUS
 62
     4
100
AcDbText
 10
753.0257045478149
 20
816.4200618735797
 30
0.0
 40
64.0
  1
AH 4-14X30
 41
0.9
100
AcDbText
  0
LINE
  5
19C
330
1E
100
AcDbEntity
  8
NOTE
  6
CONTINUOUS
 62
     4
100
AcDbLine
 10
-30.0
 20
-501.9999999999988
 30
0.0
 11
10.0
 21
-501.9999999999988
 31
0.0
  0
LINE
  5
19D
330
1E
100
AcDbEntity
  8
NOTE
  6
CONTINUOUS
 62
     4
100
AcDbLine
 10
-10.0
 20
-521.9999999999989
 30
0.0
 11
-10.0
 21
-481.9999999999987
 31
0.0
  0
LINE
  5
19E
330
1E
100
AcDbEntity
  8
NOTE
  6
CONTINUOUS
 62
     4
100
AcDbLine
 10
-88.0
 20
-501.9999999999988
 30
0.0
 11
-48.0
 21
-501.9999999999988
 31
0.0
  0
LINE
  5
19F
330
1E
100
AcDbEntity
  8
NOTE
  6
CONTINUOUS
 62
     4
100
AcDbLine
 10
-68.0
 20
-521.9999999999989
 30
0.0
 11
-68.0
 21
-481.9999999999987
 31
0.0
  0
LINE
  5
1A0
330
1E
100
AcDbEntity
  8
DETAIL
  6
CONTINUOUS
 62
     5
100
AcDbLine
 10
30.0
 20
-501.9999999999988
 30
0.0
 11
-108.0
 21
-501.9999999999988
 31
0.0
  0
LINE
  5
1A1
330
1E
100
AcDbEntity
  8
DETAIL
  6
CONTINUOUS
 62
     5
100
AcDbLine
 10
-108.0
 20
-501.9999999999988
 30
0.0
 11
-108.0
 21
-387.9999999999988
 31
0.0
  0
LINE
  5
1A2
330
1E
100
AcDbEntity
  8
SIZE
  6
CONTINUOUS
 62
    30
100
AcDbLine
 10
317.0
 20
-528.0
 30
0.0
 11
316.9999999999999
 21
-1160.208
 31
0.0
  0
LINE
  5
1A3
330
1E
100
AcDbEntity
  8
SIZE
  6
CONTINUOUS
 62
    30
100
AcDbLine
 10
-190.0
 20
-457.9999999999988
 30
0.0
 11
-190.0
 21
-1160.208
 31
0.0
  0
LINE
  5
1A4
330
1E
100
AcDbEntity
  8
SIZE
  6
CONTINUOUS
 62
    30
100
AcDbLine
 10
306.9999999999998
 20
-1130.208
 30
0.0
 11
-180.0
 21
-1130.208
 31
0.0
  0
CIRCLE
  5
1A5
330
1E
100
AcDbEntity
  8
SIZE
  6
CONTINUOUS
 62
    30
100
AcDbCircle
 10
316.9999999999999
 20
-1130.208
 30
0.0
 40
5.0
  0
LINE
  5
1A6
330
1E
100
AcDbEntity
  8
SIZE
  6
CONTINUOUS
 62
    30
100
AcDbLine
 10
311.9999999999998
 20
-1130.208
 30
0.0
 11
306.9999999999998
 21
-1130.208
 31
0.0
  0
CIRCLE
  5
1A7
330
1E
100
AcDbEntity
  8
SIZE
  6
CONTINUOUS
 62
    30
100
AcDbCircle
 10
-190.0
 20
-1130.208
 30
0.0
 40
5.0
  0
LINE
  5
1A8
330
1E
100
AcDbEntity
  8
SIZE
  6
CONTINUOUS
 62
    30
100
AcDbLine
 10
-185.0
 20
-1130.208
 30
0.0
 11
-180.0
 21
-1130.208
 31
0.0
  0
TEXT
  5
1A9
330
1E
100
AcDbEntity
  8
SIZE
  6
CONTINUOUS
 62
    30
100
AcDbText
 10
-10.55714285714288
 20
-1110.208
 30
0.0
 40
64.0
  1
507
 41
0.9
 72
     1
 11
63.49999999999996
 21
-1110.208
 31
0.0
100
AcDbText
  0
POINT
  5
1AA
330
1E
100
AcDbEntity
  8
DEFPOINTS
  6
CONTINUOUS
 62
     7
100
AcDbPoint
 10
317.0
 20
-508.0
 30
0.0
  0
POINT
  5
1AB
330
1E
100
AcDbEntity
  8
DEFPOINTS
  6
CONTINUOUS
 62
     7
100
AcDbPoint
 10
-190.0
 20
-437.9999999999988
 30
0.0
  0
POINT
  5
1AC
330
1E
100
AcDbEntity
  8
DEFPOINTS
  6
CONTINUOUS
 62
     7
100
AcDbPoint
 10
-190.0
 20
-1130.208
 30
0.0
  0
LINE
  5
1AD
330
1E
100
AcDbEntity
  8
SIZE
  6
CONTINUOUS
 62
    30
100
AcDbLine
 10
-180.0
 20
-427.9999999999987
 30
0.0
 11
-180.0
 21
-1017.82075
 31
0.0
  0
LINE
  5
1AE
330
1E
100
AcDbEntity
  8
SIZE
  6
CONTINUOUS
 62
    30
100
AcDbLine
 10
317.0
 20
-528.0
 30
0.0
 11
316.9999999999999
 21
-1017.82075
 31
0.0
  0
LINE
  5
1AF
330
1E
100
AcDbEntity
  8
SIZE
  6
CONTINUOUS
 62
    30
100
AcDbLine
 10
-170.0
 20
-987.8207500000007
 30
0.0
 11
306.9999999999998
 21
-987.8207500000007
 31
0.0
  0
CIRCLE
  5
1B0
330
1E
100
AcDbEntity
  8
SIZE
  6
CONTINUOUS
 62
    30
100
AcDbCircle
 10
-180.0
 20
-987.8207500000007
 30
0.0
 40
5.0
  0
LINE
  5
1B1
330
1E
100
AcDbEntity
  8
SIZE
  6
CONTINUOUS
 62
    30
100
AcDbLine
 10
-175.0
 20
-987.8207500000007
 30
0.0
 11
-170.0
 21
-987.8207500000007
 31
0.0
  0
CIRCLE
  5
1B2
330
1E
100
AcDbEntity
  8
SIZE
  6
CONTINUOUS
 62
    30
100
AcDbCircle
 10
316.9999999999999
 20
-987.8207500000007
 30
0.0
 40
5.0
  0
LINE
  5
1B3
330
1E
100
AcDbEntity
  8
SIZE
  6
CONTINUOUS
 62
    30
100
AcDbLine
 10
311.9999999999998
 20
-987.8207500000007
 30
0.0
 11
306.9999999999998
 21
-987.8207500000007
 31
0.0
  0
TEXT
  5
1B4
330
1E
100
AcDbEntity
  8
SIZE
  6
CONTINUOUS
 62
    30
100
AcDbText
 10
-5.557142857142892
 20
-967.8207500000006
 30
0.0
 40
64.0
  1
497
 41
0.9
 72
     1
 11
68.49999999999996
 21
-967.8207500000006
 31
0.0
100
AcDbText
  0
POINT
  5
1B5
330
1E
100
AcDbEntity
  8
DEFPOINTS
  6
CONTINUOUS
 62
     7
100
AcDbPoint
 10
-180.0
 20
-407.9999999999988
 30
0.0
  0
POINT
  5
1B6
330
1E
100
AcDbEntity
  8
DEFPOINTS
  6
CONTINUOUS
 62
     7
100
AcDbPoint
 10
317.0
 20
-508.0
 30
0.0
  0
POINT
  5
1B7
330
1E
100
AcDbEntity
  8
DEFPOINTS
  6
CONTINUOUS
 62
     7
100
AcDbPoint
 10
316.9999999999999
 20
-987.8207500000007
 30
0.0
  0
LINE
  5
1B8
330
1E
100
AcDbEntity
  8
SIZE
  6
CONTINUOUS
 62
    30
100
AcDbLine
 10
317.0
 20
-528.0
 30
0.0
 11
317.0
 21
-864.8935380000001
 31
0.0
  0
LINE
  5
1B9
330
1E
100
AcDbEntity
  8
SIZE
  6
CONTINUOUS
 62
    30
100
AcDbLine
 10
-10.0
 20
-541.9999999999987
 30
0.0
 11
-10.00000000000001
 21
-864.8935380000001
 31
0.0
  0
LINE
  5
1BA
330
1E
100
AcDbEntity
  8
SIZE
  6
CONTINUOUS
 62
    30
100
AcDbLine
 10
307.0
 20
-834.8935380000002
 30
0.0
 11
-0.0000000000000195
 21
-834.8935380000002
 31
0.0
  0
CIRCLE
  5
1BB
330
1E
100
AcDbEntity
  8
SIZE
  6
CONTINUOUS
 62
    30
100
AcDbCircle
 10
317.0
 20
-834.8935380000002
 30
0.0
 40
5.0
  0
LINE
  5
1BC
330
1E
100
AcDbEntity
  8
SIZE
  6
CONTINUOUS
 62
    30
100
AcDbLine
 10
312.0
 20
-834.8935380000002
 30
0.0
 11
307.0
 21
-834.8935380000002
 31
0.0
  0
CIRCLE
  5
1BD
330
1E
100
AcDbEntity
  8
SIZE
  6
CONTINUOUS
 62
    30
100
AcDbCircle
 10
-10.00000000000001
 20
-834.8935380000002
 30
0.0
 40
5.0
  0
LINE
  5
1BE
330
1E
100
AcDbEntity
  8
SIZE
  6
CONTINUOUS
 62
    30
100
AcDbLine
 10
-5.00000000000001
 20
-834.8935380000002
 30
0.0
 11
-0.0000000000000107
 21
-834.8935380000002
 31
0.0
  0
TEXT
  5
1BF
330
1E
100
AcDbEntity
  8
SIZE
  6
CONTINUOUS
 62
    30
100
AcDbText
 10
79.44285714285715
 20
-814.8935380000001
 30
0.0
 40
64.0
  1
327
 41
0.9
 72
     1
 11
153.5
 21
-814.8935380000001
 31
0.0
100
AcDbText
  0
POINT
  5
1C0
330
1E
100
AcDbEntity
  8
DEFPOINTS
  6
CONTINUOUS
 62
     7
100
AcDbPoint
 10
317.0
 20
-508.0
 30
0.0
  0
POINT
  5
1C1
330
1E
100
AcDbEntity
  8
DEFPOINTS
  6
CONTINUOUS
 62
     7
100
AcDbPoint
 10
-10.0
 20
-521.9999999999989
 30
0.0
  0
POINT
  5
1C2
330
1E
100
AcDbEntity
  8
DEFPOINTS
  6
CONTINUOUS
 62
     7
100
AcDbPoint
 10
-10.00000000000001
 20
-834.8935380000002
 30
0.0
  0
LINE
  5
1C3
330
1E
100
AcDbEntity
  8
SIZE
  6
CONTINUOUS
 62
    30
100
AcDbLine
 10
-10.0
 20
-541.9999999999987
 30
0.0
 11
-10.00000000000001
 21
-864.8935380000001
 31
0.0
  0
LINE
  5
1C4
330
1E
100
AcDbEntity
  8
SIZE
  6
CONTINUOUS
 62
    30
100
AcDbLine
 10
-68.0
 20
-541.9999999999987
 30
0.0
 11
-68.00000000000001
 21
-864.8935380000001
 31
0.0
  0
LINE
  5
1C5
330
1E
100
AcDbEntity
  8
SIZE
  6
CONTINUOUS
 62
    30
100
AcDbLine
 10
-0.0000000000000195
 20
-834.8935380000002
 30
0.0
 11
9.99999999999998
 21
-834.8935380000002
 31
0.0
  0
LINE
  5
1C6
330
1E
100
AcDbEntity
  8
SIZE
  6
CONTINUOUS
 62
    30
100
AcDbLine
 10
-78.00000000000001
 20
-834.8935380000002
 30
0.0
 11
-88.00000000000002
 21
-834.8935380000002
 31
0.0
  0
LINE
  5
1C7
330
1E
100
AcDbEntity
  8
SIZE
  6
CONTINUOUS
 62
    30
100
AcDbLine
 10
-10.00000000000001
 20
-834.8935380000002
 30
0.0
 11
-68.00000000000001
 21
-834.8935380000002
 31
0.0
  0
CIRCLE
  5
1C8
330
1E
100
AcDbEntity
  8
SIZE
  6
CONTINUOUS
 62
    30
100
AcDbCircle
 10
-10.00000000000001
 20
-834.8935380000002
 30
0.0
 40
5.0
  0
LINE
  5
1C9
330
1E
100
AcDbEntity
  8
SIZE
  6
CONTINUOUS
 62
    30
100
AcDbLine
 10
-5.00000000000001
 20
-834.8935380000002
 30
0.0
 11
-0.0000000000000107
 21
-834.8935380000002
 31
0.0
  0
CIRCLE
  5
1CA
330
1E
100
AcDbEntity
  8
SIZE
  6
CONTINUOUS
 62
    30
100
AcDbCircle
 10
-68.00000000000001
 20
-834.8935380000002
 30
0.0
 40
5.0
  0
LINE
  5
1CB
330
1E
100
AcDbEntity
  8
SIZE
  6
CONTINUOUS
 62
    30
100
AcDbLine
 10
-73.00000000000001
 20
-834.8935380000002
 30
0.0
 11
-78.00000000000001
 21
-834.8935380000002
 31
0.0
  0
TEXT
  5
1CC
330
1E
100
AcDbEntity
  8
SIZE
  6
CONTINUOUS
 62
    30
100
AcDbText
 10
-85.62857142857144
 20
-814.8935380000001
 30
0.0
 40
64.0
  1
58
 41
0.9
 72
     1
 11
-39.0
 21
-814.8935380000001
 31
0.0
100
AcDbText
  0
POINT
  5
1CD
330
1E
100
AcDbEntity
  8
DEFPOINTS
  6
CONTINUOUS
 62
     7
100
AcDbPoint
 10
-10.0
 20
-521.9999999999989
 30
0.0
  0
POINT
  5
1CE
330
1E
100
AcDbEntity
  8
DEFPOINTS
  6
CONTINUOUS
 62
     7
100
AcDbPoint
 10
-68.0
 20
-521.9999999999989
 30
0.0
  0
POINT
  5
1CF
330
1E
100
AcDbEntity
  8
DEFPOINTS
  6
CONTINUOUS
 62
     7
100
AcDbPoint
 10
-68.00000000000001
 20
-834.8935380000002
 30
0.0
  0
LINE
  5
1D0
330
1E
100
AcDbEntity
  8
SIZE
  6
CONTINUOUS
 62
    30
100
AcDbLine
 10
317.0
 20
-528.0
 30
0.0
 11
317.0
 21
-720.6690692363609
 31
0.0
  0
LINE
  5
1D1
330
1E
100
AcDbEntity
  8
SIZE
  6
CONTINUOUS
 62
    30
100
AcDbLine
 10
171.0
 20
-500.9999999999989
 30
0.0
 11
170.9999999999998
 21
-720.6690692363609
 31
0.0
  0
LINE
  5
1D2
330
1E
100
AcDbEntity
  8
SIZE
  6
CONTINUOUS
 62
    30
100
AcDbLine
 10
327.0
 20
-690.6690692363609
 30
0.0
 11
337.0
 21
-690.6690692363609
 31
0.0
  0
LINE
  5
1D3
330
1E
100
AcDbEntity
  8
SIZE
  6
CONTINUOUS
 62
    30
100
AcDbLine
 10
161.0
 20
-690.6690692363609
 30
0.0
 11
151.0
 21
-690.6690692363609
 31
0.0
  0
LINE
  5
1D4
330
1E
100
AcDbEntity
  8
SIZE
  6
CONTINUOUS
 62
    30
100
AcDbLine
 10
317.0
 20
-690.6690692363609
 30
0.0
 11
171.0
 21
-690.6690692363609
 31
0.0
  0
CIRCLE
  5
1D5
330
1E
100
AcDbEntity
  8
SIZE
  6
CONTINUOUS
 62
    30
100
AcDbCircle
 10
317.0
 20
-690.6690692363609
 30
0.0
 40
5.0
  0
LINE
  5
1D6
330
1E
100
AcDbEntity
  8
SIZE
  6
CONTINUOUS
 62
    30
100
AcDbLine
 10
322.0
 20
-690.6690692363609
 30
0.0
 11
327.0
 21
-690.6690692363609
 31
0.0
  0
CIRCLE
  5
1D7
330
1E
100
AcDbEntity
  8
SIZE
  6
CONTINUOUS
 62
    30
100
AcDbCircle
 10
171.0
 20
-690.6690692363609
 30
0.0
 40
5.0
  0
LINE
  5
1D8
330
1E
100
AcDbEntity
  8
SIZE
  6
CONTINUOUS
 62
    30
100
AcDbLine
 10
166.0
 20
-690.6690692363609
 30
0.0
 11
161.0
 21
-690.6690692363609
 31
0.0
  0
TEXT
  5
1D9
330
1E
100
AcDbEntity
  8
SIZE
  6
CONTINUOUS
 62
    30
100
AcDbText
 10
176.8
 20
-670.6690692363608
 30
0.0
 40
64.0
  1
146
 41
0.9
 72
     1
 11
244.0
 21
-670.6690692363608
 31
0.0
100
AcDbText
  0
POINT
  5
1DA
330
1E
100
AcDbEntity
  8
DEFPOINTS
  6
CONTINUOUS
 62
     7
100
AcDbPoint
 10
317.0
 20
-508.0
 30
0.0
  0
POINT
  5
1DB
330
1E
100
AcDbEntity
  8
DEFPOINTS
  6
CONTINUOUS
 62
     7
100
AcDbPoint
 10
171.0
 20
-480.9999999999988
 30
0.0
  0
POINT
  5
1DC
330
1E
100
AcDbEntity
  8
DEFPOINTS
  6
CONTINUOUS
 62
     7
100
AcDbPoint
 10
171.0
 20
-690.6690692363609
 30
0.0
  0
LINE
  5
1DD
330
1E
100
AcDbEntity
  8
SIZE
  6
CONTINUOUS
 62
    30
100
AcDbLine
 10
171.0
 20
-500.9999999999989
 30
0.0
 11
170.9999999999998
 21
-720.6690692363609
 31
0.0
  0
LINE
  5
1DE
330
1E
100
AcDbEntity
  8
SIZE
  6
CONTINUOUS
 62
    30
100
AcDbLine
 10
101.0
 20
-494.9999999999987
 30
0.0
 11
100.9999999999999
 21
-720.6690692363609
 31
0.0
  0
LINE
  5
1DF
330
1E
100
AcDbEntity
  8
SIZE
  6
CONTINUOUS
 62
    30
100
AcDbLine
 10
181.0
 20
-690.6690692363609
 30
0.0
 11
191.0
 21
-690.6690692363609
 31
0.0
  0
LINE
  5
1E0
330
1E
100
AcDbEntity
  8
SIZE
  6
CONTINUOUS
 62
    30
100
AcDbLine
 10
90.99999999999999
 20
-690.6690692363609
 30
0.0
 11
80.99999999999999
 21
-690.6690692363609
 31
0.0
  0
LINE
  5
1E1
330
1E
100
AcDbEntity
  8
SIZE
  6
CONTINUOUS
 62
    30
100
AcDbLine
 10
171.0
 20
-690.6690692363609
 30
0.0
 11
100.9999999999999
 21
-690.6690692363609
 31
0.0
  0
CIRCLE
  5
1E2
330
1E
100
AcDbEntity
  8
SIZE
  6
CONTINUOUS
 62
    30
100
AcDbCircle
 10
171.0
 20
-690.6690692363609
 30
0.0
 40
5.0
  0
LINE
  5
1E3
330
1E
100
AcDbEntity
  8
SIZE
  6
CONTINUOUS
 62
    30
100
AcDbLine
 10
176.0
 20
-690.6690692363609
 30
0.0
 11
181.0
 21
-690.6690692363609
 31
0.0
  0
CIRCLE
  5
1E4
330
1E
100
AcDbEntity
  8
SIZE
  6
CONTINUOUS
 62
    30
100
AcDbCircle
 10
100.9999999999999
 20
-690.6690692363609
 30
0.0
 40
5.0
  0
LINE
  5
1E5
330
1E
100
AcDbEntity
  8
SIZE
  6
CONTINUOUS
 62
    30
100
AcDbLine
 10
95.9999999999999
 20
-690.6690692363609
 30
0.0
 11
90.9999999999999
 21
-690.6690692363609
 31
0.0
  0
TEXT
  5
1E6
330
1E
100
AcDbEntity
  8
SIZE
  6
CONTINUOUS
 62
    30
100
AcDbText
 10
89.37142857142857
 20
-670.6690692363608
 30
0.0
 40
64.0
  1
70
 41
0.9
 72
     1
 11
136.0
 21
-670.6690692363608
 31
0.0
100
AcDbText
  0
POINT
  5
1E7
330
1E
100
AcDbEntity
  8
DEFPOINTS
  6
CONTINUOUS
 62
     7
100
AcDbPoint
 10
171.0
 20
-480.9999999999988
 30
0.0
  0
POINT
  5
1E8
330
1E
100
AcDbEntity
  8
DEFPOINTS
  6
CONTINUOUS
 62
     7
100
AcDbPoint
 10
101.0
 20
-474.9999999999988
 30
0.0
  0
POINT
  5
1E9
330
1E
100
AcDbEntity
  8
DEFPOINTS
  6
CONTINUOUS
 62
     7
100
AcDbPoint
 10
100.9999999999999
 20
-690.6690692363609
 30
0.0
  0
LINE
  5
1EA
330
1E
100
AcDbEntity
  8
SIZE
  6
CONTINUOUS
 62
    30
100
AcDbLine
 10
281.0000000000012
 20
458.0
 30
0.0
 11
281.0000000000012
 21
614.6942614820708
 31
0.0
  0
LINE
  5
1EB
330
1E
100
AcDbEntity
  8
SIZE
  6
CONTINUOUS
 62
    30
100
AcDbLine
 10
293.0000000000012
 20
458.0
 30
0.0
 11
293.0000000000012
 21
614.6942614820708
 31
0.0
  0
LINE
  5
1EC
330
1E
100
AcDbEntity
  8
SIZE
  6
CONTINUOUS
 62
    30
100
AcDbLine
 10
303.000000000001
 20
584.6942614820708
 30
0.0
 11
313.000000000001
 21
584.6942614820708
 31
0.0
  0
LINE
  5
1ED
330
1E
100
AcDbEntity
  8
SIZE
  6
CONTINUOUS
 62
    30
100
AcDbLine
 10
271.0000000000011
 20
584.6942614820708
 30
0.0
 11
138.7142857142869
 21
584.6942614820708
 31
0.0
  0
LINE
  5
1EE
330
1E
100
AcDbEntity
  8
SIZE
  6
CONTINUOUS
 62
    30
100
AcDbLine
 10
293.0000000000012
 20
584.6942614820708
 30
0.0
 11
281.0000000000012
 21
584.6942614820708
 31
0.0
  0
CIRCLE
  5
1EF
330
1E
100
AcDbEntity
  8
SIZE
  6
CONTINUOUS
 62
    30
100
AcDbCircle
 10
293.0000000000012
 20
584.6942614820708
 30
0.0
 40
5.0
  0
LINE
  5
1F0
330
1E
100
AcDbEntity
  8
SIZE
  6
CONTINUOUS
 62
    30
100
AcDbLine
 10
298.0000000000011
 20
584.6942614820708
 30
0.0
 11
303.0000000000011
 21
584.6942614820708
 31
0.0
  0
CIRCLE
  5
1F1
330
1E
100
AcDbEntity
  8
SIZE
  6
CONTINUOUS
 62
    30
100
AcDbCircle
 10
281.0000000000012
 20
584.6942614820708
 30
0.0
 40
5.0
  0
LINE
  5
1F2
330
1E
100
AcDbEntity
  8
SIZE
  6
CONTINUOUS
 62
    30
100
AcDbLine
 10
276.0000000000011
 20
584.6942614820708
 30
0.0
 11
271.0000000000011
 21
584.6942614820708
 31
0.0
  0
TEXT
  5
1F3
330
1E
100
AcDbEntity
  8
SIZE
  6
CONTINUOUS
 62
    30
100
AcDbText
 10
158.7142857142868
 20
604.6942614820708
 30
0.0
 40
64.0
  1
12
 41
0.9
 72
     1
 11
199.857142857144
 21
604.6942614820708
 31
0.0
100
AcDbText
  0
POINT
  5
1F4
330
1E
100
AcDbEntity
  8
DEFPOINTS
  6
CONTINUOUS
 62
     7
100
AcDbPoint
 10
281.0000000000012
 20
438.0
 30
0.0
  0
POINT
  5
1F5
330
1E
100
AcDbEntity
  8
DEFPOINTS
  6
CONTINUOUS
 62
     7
100
AcDbPoint
 10
293.0000000000012
 20
438.0
 30
0.0
  0
POINT
  5
1F6
330
1E
100
AcDbEntity
  8
DEFPOINTS
  6
CONTINUOUS
 62
     7
100
AcDbPoint
 10
293.0000000000012
 20
584.6942614820708
 30
0.0
  0
LINE
  5
1F7
330
1E
100
AcDbEntity
  8
SIZE
  6
CONTINUOUS
 62
    30
100
AcDbLine
 10
272.0000000000012
 20
392.0000000000007
 30
0.0
 11
272.0000000000012
 21
225.573216349332
 31
0.0
  0
LINE
  5
1F8
330
1E
100
AcDbEntity
  8
SIZE
  6
CONTINUOUS
 62
    30
100
AcDbLine
 10
302.0000000000012
 20
391.9999999999987
 30
0.0
 11
302.0000000000012
 21
225.573216349332
 31
0.0
  0
LINE
  5
1F9
330
1E
100
AcDbEntity
  8
SIZE
  6
CONTINUOUS
 62
    30
100
AcDbLine
 10
262.0000000000012
 20
255.573216349332
 30
0.0
 11
252.0000000000012
 21
255.573216349332
 31
0.0
  0
LINE
  5
1FA
330
1E
100
AcDbEntity
  8
SIZE
  6
CONTINUOUS
 62
    30
100
AcDbLine
 10
312.0000000000012
 20
255.573216349332
 30
0.0
 11
500.1928988058607
 21
255.573216349332
 31
0.0
  0
LINE
  5
1FB
330
1E
100
AcDbEntity
  8
SIZE
  6
CONTINUOUS
 62
    30
100
AcDbLine
 10
272.0000000000012
 20
255.573216349332
 30
0.0
 11
302.0000000000012
 21
255.573216349332
 31
0.0
  0
CIRCLE
  5
1FC
330
1E
100
AcDbEntity
  8
SIZE
  6
CONTINUOUS
 62
    30
100
AcDbCircle
 10
272.0000000000012
 20
255.573216349332
 30
0.0
 40
5.0
  0
LINE
  5
1FD
330
1E
100
AcDbEntity
  8
SIZE
  6
CONTINUOUS
 62
    30
100
AcDbLine
 10
267.0000000000011
 20
255.573216349332
 30
0.0
 11
262.0000000000012
 21
255.573216349332
 31
0.0
  0
CIRCLE
  5
1FE
330
1E
100
AcDbEntity
  8
SIZE
  6
CONTINUOUS
 62
    30
100
AcDbCircle
 10
302.0000000000012
 20
255.573216349332
 30
0.0
 40
5.0
  0
LINE
  5
1FF
330
1E
100
AcDbEntity
  8
SIZE
  6
CONTINUOUS
 62
    30
100
AcDbLine
 10
307.0000000000011
 20
255.573216349332
 30
0.0
 11
312.0000000000012
 21
255.573216349332
 31
0.0
  0
TEXT
  5
200
330
1E
100
AcDbEntity
  8
SIZE
  6
CONTINUOUS
 62
    30
100
AcDbText
 10
386.9357559487179
 20
275.573216349332
 30
0.0
 40
64.0
  1
30
 41
0.9
 72
     1
 11
433.5643273772894
 21
275.573216349332
 31
0.0
100
AcDbText
  0
POINT
  5
201
330
1E
100
AcDbEntity
  8
DEFPOINTS
  6
CONTINUOUS
 62
     7
100
AcDbPoint
 10
272.0000000000012
 20
412.0000000000008
 30
0.0
  0
POINT
  5
202
330
1E
100
AcDbEntity
  8
DEFPOINTS
  6
CONTINUOUS
 62
     7
100
AcDbPoint
 10
302.0000000000012
 20
411.9999999999988
 30
0.0
  0
POINT
  5
203
330
1E
100
AcDbEntity
  8
DEFPOINTS
  6
CONTINUOUS
 62
     7
100
AcDbPoint
 10
302.0000000000012
 20
255.573216349332
 30
0.0
  0
LINE
  5
204
330
1E
100
AcDbEntity
  8
SIZE
  6
CONTINUOUS
 62
    30
100
AcDbLine
 10
315.0000000000011
 20
418.9999999999992
 30
0.0
 11
644.3673777938292
 21
418.9999999999991
 31
0.0
  0
LINE
  5
205
330
1E
100
AcDbEntity
  8
SIZE
  6
CONTINUOUS
 62
    30
100
AcDbLine
 10
315.0000000000011
 20
404.9999999999992
 30
0.0
 11
644.3673777938292
 21
404.9999999999991
 31
0.0
  0
LINE
  5
206
330
1E
100
AcDbEntity
  8
SIZE
  6
CONTINUOUS
 62
    30
100
AcDbLine
 10
614.3673777938293
 20
428.9999999999991
 30
0.0
 11
614.3673777938293
 21
438.9999999999991
 31
0.0
  0
LINE
  5
207
330
1E
100
AcDbEntity
  8
SIZE
  6
CONTINUOUS
 62
    30
100
AcDbLine
 10
614.3673777938293
 20
394.9999999999991
 30
0.0
 11
614.3673777938293
 21
194.6883452648632
 31
0.0
  0
LINE
  5
208
330
1E
100
AcDbEntity
  8
SIZE
  6
CONTINUOUS
 62
    30
100
AcDbLine
 10
614.3673777938293
 20
418.9999999999991
 30
0.0
 11
614.3673777938293
 21
404.9999999999991
 31
0.0
  0
CIRCLE
  5
209
330
1E
100
AcDbEntity
  8
SIZE
  6
CONTINUOUS
 62
    30
100
AcDbCircle
 10
614.3673777938293
 20
418.9999999999991
 30
0.0
 40
5.0
  0
LINE
  5
20A
330
1E
100
AcDbEntity
  8
SIZE
  6
CONTINUOUS
 62
    30
100
AcDbLine
 10
614.3673777938293
 20
423.9999999999991
 30
0.0
 11
614.3673777938293
 21
428.9999999999991
 31
0.0
  0
CIRCLE
  5
20B
330
1E
100
AcDbEntity
  8
SIZE
  6
CONTINUOUS
 62
    30
100
AcDbCircle
 10
614.3673777938293
 20
404.9999999999991
 30
0.0
 40
5.0
  0
LINE
  5
20C
330
1E
100
AcDbEntity
  8
SIZE
  6
CONTINUOUS
 62
    30
100
AcDbLine
 10
614.3673777938293
 20
399.9999999999991
 30
0.0
 11
614.3673777938293
 21
394.9999999999991
 31
0.0
  0
TEXT
  5
20D
330
1E
100
AcDbEntity
  8
SIZE
  6
CONTINUOUS
 62
    30
100
AcDbText
 10
594.3673777938292
 20
214.6883452648632
 30
0.0
 40
64.0
  1
14
 50
90.0
 41
0.9
 72
     1
 11
594.3673777938292
 21
257.2026309791489
 31
0.0
100
AcDbText
  0
POINT
  5
20E
330
1E
100
AcDbEntity
  8
DEFPOINTS
  6
CONTINUOUS
 62
     7
100
AcDbPoint
 10
295.0000000000012
 20
418.9999999999992
 30
0.0
  0
POINT
  5
20F
330
1E
100
AcDbEntity
  8
DEFPOINTS
  6
CONTINUOUS
 62
     7
100
AcDbPoint
 10
295.0000000000012
 20
404.9999999999992
 30
0.0
  0
POINT
  5
210
330
1E
100
AcDbEntity
  8
DEFPOINTS
  6
CONTINUOUS
 62
     7
100
AcDbPoint
 10
614.3673777938293
 20
404.9999999999991
 30
0.0
  0
TEXT
  5
211
330
1E
100
AcDbEntity
  8
NOTE
  6
CONTINUOUS
 62
     4
100
AcDbText
 10
-317.0000107657329
 20
135.9333857934279
 30
0.0
 40
64.0
  1
Ceiling opening
 41
0.9
100
AcDbText
  0
LINE
  5
212
330
1E
100
AcDbEntity
  8
SIZE
  6
CONTINUOUS
 62
    30
100
AcDbLine
 10
337.0
 20
-387.9999999999988
 30
0.0
 11
647.0487812071967
 21
-387.9999999999988
 31
0.0
  0
LINE
  5
213
330
1E
100
AcDbEntity
  8
SIZE
  6
CONTINUOUS
 62
    30
100
AcDbLine
 10
211.0
 20
-460.9999999999987
 30
0.0
 11
647.0487812071967
 21
-460.9999999999988
 31
0.0
  0
LINE
  5
214
330
1E
100
AcDbEntity
  8
SIZE
  6
CONTINUOUS
 62
    30
100
AcDbLine
 10
617.0487812071967
 20
-450.9999999999989
 30
0.0
 11
617.0487812071967
 21
-397.9999999999988
 31
0.0
  0
LINE
  5
215
330
1E
100
AcDbEntity
  8
SIZE
  6
CONTINUOUS
 62
    30
100
AcDbLine
 10
617.0487812071967
 20
-387.9999999999988
 30
0.0
 11
617.0487812071971
 21
-244.7428571428559
 31
0.0
  0
CIRCLE
  5
216
330
1E
100
AcDbEntity
  8
SIZE
  6
CONTINUOUS
 62
    30
100
AcDbCircle
 10
617.0487812071967
 20
-460.9999999999988
 30
0.0
 40
5.0
  0
LINE
  5
217
330
1E
100
AcDbEntity
  8
SIZE
  6
CONTINUOUS
 62
    30
100
AcDbLine
 10
617.0487812071967
 20
-455.9999999999988
 30
0.0
 11
617.0487812071967
 21
-450.9999999999989
 31
0.0
  0
CIRCLE
  5
218
330
1E
100
AcDbEntity
  8
SIZE
  6
CONTINUOUS
 62
    30
100
AcDbCircle
 10
617.0487812071967
 20
-387.9999999999988
 30
0.0
 40
5.0
  0
LINE
  5
219
330
1E
100
AcDbEntity
  8
SIZE
  6
CONTINUOUS
 62
    30
100
AcDbLine
 10
617.0487812071967
 20
-392.9999999999988
 30
0.0
 11
617.0487812071967
 21
-397.9999999999988
 31
0.0
  0
TEXT
  5
21A
330
1E
100
AcDbEntity
  8
SIZE
  6
CONTINUOUS
 62
    30
100
AcDbText
 10
597.048781207197
 20
-357.9999999999986
 30
0.0
 40
64.0
  1
73
 50
90.0
 41
0.9
 72
     1
 11
597.048781207197
 21
-311.3714285714272
 31
0.0
100
AcDbText
  0
POINT
  5
21B
330
1E
100
AcDbEntity
  8
DEFPOINTS
  6
CONTINUOUS
 62
     7
100
AcDbPoint
 10
317.0
 20
-387.9999999999988
 30
0.0
  0
POINT
  5
21C
330
1E
100
AcDbEntity
  8
DEFPOINTS
  6
CONTINUOUS
 62
     7
100
AcDbPoint
 10
191.0
 20
-460.9999999999987
 30
0.0
  0
POINT
  5
21D
330
1E
100
AcDbEntity
  8
DEFPOINTS
  6
CONTINUOUS
 62
     7
100
AcDbPoint
 10
617.0487812071967
 20
-460.9999999999988
 30
0.0
  0
LINE
  5
21E
330
1E
100
AcDbEntity
  8
SIZE
  6
CONTINUOUS
 62
    30
100
AcDbLine
 10
337.0
 20
-387.9999999999988
 30
0.0
 11
522.8106386124506
 21
-387.9999999999988
 31
0.0
  0
LINE
  5
21F
330
1E
100
AcDbEntity
  8
SIZE
  6
CONTINUOUS
 62
    30
100
AcDbLine
 10
141.0
 20
-454.9999999999989
 30
0.0
 11
522.8106386124506
 21
-454.9999999999989
 31
0.0
  0
LINE
  5
220
330
1E
100
AcDbEntity
  8
SIZE
  6
CONTINUOUS
 62
    30
100
AcDbLine
 10
492.8106386124508
 20
-444.9999999999988
 30
0.0
 11
492.8106386124508
 21
-397.9999999999988
 31
0.0
  0
LINE
  5
221
330
1E
100
AcDbEntity
  8
SIZE
  6
CONTINUOUS
 62
    30
100
AcDbLine
 10
492.8106386124508
 20
-387.9999999999988
 30
0.0
 11
492.8106386124508
 21
-244.7428571428559
 31
0.0
  0
CIRCLE
  5
222
330
1E
100
AcDbEntity
  8
SIZE
  6
CONTINUOUS
 62
    30
100
AcDbCircle
 10
492.8106386124508
 20
-454.9999999999989
 30
0.0
 40
5.0
  0
LINE
  5
223
330
1E
100
AcDbEntity
  8
SIZE
  6
CONTINUOUS
 62
    30
100
AcDbLine
 10
492.8106386124508
 20
-449.9999999999989
 30
0.0
 11
492.8106386124508
 21
-444.9999999999989
 31
0.0
  0
CIRCLE
  5
224
330
1E
100
AcDbEntity
  8
SIZE
  6
CONTINUOUS
 62
    30
100
AcDbCircle
 10
492.8106386124508
 20
-387.9999999999988
 30
0.0
 40
5.0
  0
LINE
  5
225
330
1E
100
AcDbEntity
  8
SIZE
  6
CONTINUOUS
 62
    30
100
AcDbLine
 10
492.8106386124508
 20
-392.9999999999988
 30
0.0
 11
492.8106386124508
 21
-397.9999999999988
 31
0.0
  0
TEXT
  5
226
330
1E
100
AcDbEntity
  8
SIZE
  6
CONTINUOUS
 62
    30
100
AcDbText
 10
472.8106386124508
 20
-357.9999999999987
 30
0.0
 40
64.0
  1
67
 50
90.0
 41
0.9
 72
     1
 11
472.8106386124508
 21
-311.3714285714272
 31
0.0
100
AcDbText
  0
POINT
  5
227
330
1E
100
AcDbEntity
  8
DEFPOINTS
  6
CONTINUOUS
 62
     7
100
AcDbPoint
 10
317.0
 20
-387.9999999999988
 30
0.0
  0
POINT
  5
228
330
1E
100
AcDbEntity
  8
DEFPOINTS
  6
CONTINUOUS
 62
     7
100
AcDbPoint
 10
121.0
 20
-454.9999999999989
 30
0.0
  0
POINT
  5
229
330
1E
100
AcDbEntity
  8
DEFPOINTS
  6
CONTINUOUS
 62
     7
100
AcDbPoint
 10
492.8106386124508
 20
-454.9999999999989
 30
0.0
  0
LINE
  5
22A
330
1E
100
AcDbEntity
  8
SIZE
  6
CONTINUOUS
 62
    30
100
AcDbLine
 10
-230.0
 20
-417.9999999999989
 30
0.0
 11
-603.980043
 21
-417.9999999999988
 31
0.0
  0
LINE
  5
22B
330
1E
100
AcDbEntity
  8
SIZE
  6
CONTINUOUS
 62
    30
100
AcDbLine
 10
-337.0
 20
-387.9999999999988
 30
0.0
 11
-603.980043
 21
-387.9999999999988
 31
0.0
  0
LINE
  5
22C
330
1E
100
AcDbEntity
  8
SIZE
  6
CONTINUOUS
 62
    30
100
AcDbLine
 10
-573.980043
 20
-427.9999999999986
 30
0.0
 11
-573.980043
 21
-437.9999999999988
 31
0.0
  0
LINE
  5
22D
330
1E
100
AcDbEntity
  8
SIZE
  6
CONTINUOUS
 62
    30
100
AcDbLine
 10
-573.980043
 20
-377.9999999999988
 30
0.0
 11
-573.9800429999998
 21
-234.7428571428559
 31
0.0
  0
LINE
  5
22E
330
1E
100
AcDbEntity
  8
SIZE
  6
CONTINUOUS
 62
    30
100
AcDbLine
 10
-573.980043
 20
-417.9999999999988
 30
0.0
 11
-573.980043
 21
-387.9999999999988
 31
0.0
  0
CIRCLE
  5
22F
330
1E
100
AcDbEntity
  8
SIZE
  6
CONTINUOUS
 62
    30
100
AcDbCircle
 10
-573.980043
 20
-417.9999999999988
 30
0.0
 40
5.0
  0
LINE
  5
230
330
1E
100
AcDbEntity
  8
SIZE
  6
CONTINUOUS
 62
    30
100
AcDbLine
 10
-573.980043
 20
-422.9999999999987
 30
0.0
 11
-573.980043
 21
-427.9999999999987
 31
0.0
  0
CIRCLE
  5
231
330
1E
100
AcDbEntity
  8
SIZE
  6
CONTINUOUS
 62
    30
100
AcDbCircle
 10
-573.980043
 20
-387.9999999999988
 30
0.0
 40
5.0
  0
LINE
  5
232
330
1E
100
AcDbEntity
  8
SIZE
  6
CONTINUOUS
 62
    30
100
AcDbLine
 10
-573.980043
 20
-382.9999999999988
 30
0.0
 11
-573.980043
 21
-377.9999999999988
 31
0.0
  0
TEXT
  5
233
330
1E
100
AcDbEntity
  8
SIZE
  6
CONTINUOUS
 62
    30
100
AcDbText
 10
-593.9800429999998
 20
-347.9999999999989
 30
0.0
 40
64.0
  1
30
 50
90.0
 41
0.9
 72
     1
 11
-593.9800429999998
 21
-301.3714285714275
 31
0.0
100
AcDbText
  0
POINT
  5
234
330
1E
100
AcDbEntity
  8
DEFPOINTS
  6
CONTINUOUS
 62
     7
100
AcDbPoint
 10
-210.0
 20
-417.9999999999989
 30
0.0
  0
POINT
  5
235
330
1E
100
AcDbEntity
  8
DEFPOINTS
  6
CONTINUOUS
 62
     7
100
AcDbPoint
 10
-317.0
 20
-387.9999999999988
 30
0.0
  0
POINT
  5
236
330
1E
100
AcDbEntity
  8
DEFPOINTS
  6
CONTINUOUS
 62
     7
100
AcDbPoint
 10
-573.980043
 20
-387.9999999999988
 30
0.0
  0
LINE
  5
237
330
1E
100
AcDbEntity
  8
NOTE
  6
CONTINUOUS
 62
     4
100
AcDbLine
 10
-317.0
 20
-186.9999999999991
 30
0.0
 11
-317.0
 21
-146.9999999999988
 31
0.0
  0
LINE
  5
238
330
1E
100
AcDbEntity
  8
NOTE
  6
CONTINUOUS
 62
     4
100
AcDbLine
 10
-337.0
 20
-166.9999999999988
 30
0.0
 11
-297.0
 21
-166.9999999999988
 31
0.0
  0
LINE
  5
239
330
1E
100
AcDbEntity
  8
NOTE
  6
CONTINUOUS
 62
     4
100
AcDbLine
 10
-337.0
 20
50.50000000000102
 30
0.0
 11
-297.0
 21
50.50000000000102
 31
0.0
  0
LINE
  5
23A
330
1E
100
AcDbEntity
  8
NOTE
  6
CONTINUOUS
 62
     4
100
AcDbLine
 10
-317.0
 20
30.50000000000091
 30
0.0
 11
-317.0
 21
70.50000000000101
 31
0.0
  0
LINE
  5
23B
330
1E
100
AcDbEntity
  8
NOTE
  6
CONTINUOUS
 62
     4
100
AcDbLine
 10
-337.0
 20
268.000000000001
 30
0.0
 11
-297.0
 21
268.000000000001
 31
0.0
  0
LINE
  5
23C
330
1E
100
AcDbEntity
  8
NOTE
  6
CONTINUOUS
 62
     4
100
AcDbLine
 10
-317.0
 20
248.0000000000008
 30
0.0
 11
-317.0
 21
288.0000000000011
 31
0.0
  0
LINE
  5
23D
330
1E
100
AcDbEntity
  8
NOTE
  6
CONTINUOUS
 62
     4
100
AcDbLine
 10
297.0
 20
-166.9999999999988
 30
0.0
 11
337.0
 21
-166.9999999999988
 31
0.0
  0
LINE
  5
23E
330
1E
100
AcDbEntity
  8
NOTE
  6
CONTINUOUS
 62
     4
100
AcDbLine
 10
317.0
 20
-186.9999999999991
 30
0.0
 11
317.0
 21
-146.9999999999988
 31
0.0
  0
LINE
  5
23F
330
1E
100
AcDbEntity
  8
NOTE
  6
CONTINUOUS
 62
     4
100
AcDbLine
 10
317.0
 20
30.50000000000091
 30
0.0
 11
317.0
 21
70.50000000000101
 31
0.0
  0
LINE
  5
240
330
1E
100
AcDbEntity
  8
NOTE
  6
CONTINUOUS
 62
     4
100
AcDbLine
 10
297.0
 20
50.50000000000102
 30
0.0
 11
337.0
 21
50.50000000000102
 31
0.0
  0
LINE
  5
241
330
1E
100
AcDbEntity
  8
NOTE
  6
CONTINUOUS
 62
     4
100
AcDbLine
 10
317.0
 20
248.0000000000008
 30
0.0
 11
317.0
 21
288.0000000000011
 31
0.0
  0
LINE
  5
242
330
1E
100
AcDbEntity
  8
NOTE
  6
CONTINUOUS
 62
     4
100
AcDbLine
 10
297.0
 20
268.000000000001
 30
0.0
 11
337.0
 21
268.000000000001
 31
0.0
  0
LINE
  5
243
330
1E
100
AcDbEntity
  8
SIZE
  6
CONTINUOUS
 62
    30
100
AcDbLine
 10
-337.0
 20
-387.9999999999988
 30
0.0
 11
-723.7402657674084
 21
-387.9999999999988
 31
0.0
  0
LINE
  5
244
330
1E
100
AcDbEntity
  8
SIZE
  6
CONTINUOUS
 62
    30
100
AcDbLine
 10
-357.0
 20
-166.9999999999988
 30
0.0
 11
-723.7402657674084
 21
-166.9999999999988
 31
0.0
  0
LINE
  5
245
330
1E
100
AcDbEntity
  8
SIZE
  6
CONTINUOUS
 62
    30
100
AcDbLine
 10
-693.7402657674084
 20
-377.9999999999988
 30
0.0
 11
-693.7402657674084
 21
-176.9999999999988
 31
0.0
  0
CIRCLE
  5
246
330
1E
100
AcDbEntity
  8
SIZE
  6
CONTINUOUS
 62
    30
100
AcDbCircle
 10
-693.7402657674084
 20
-387.9999999999988
 30
0.0
 40
5.0
  0
LINE
  5
247
330
1E
100
AcDbEntity
  8
SIZE
  6
CONTINUOUS
 62
    30
100
AcDbLine
 10
-693.7402657674084
 20
-382.9999999999987
 30
0.0
 11
-693.7402657674084
 21
-377.9999999999988
 31
0.0
  0
CIRCLE
  5
248
330
1E
100
AcDbEntity
  8
SIZE
  6
CONTINUOUS
 62
    30
100
AcDbCircle
 10
-693.7402657674084
 20
-166.9999999999988
 30
0.0
 40
5.0
  0
LINE
  5
249
330
1E
100
AcDbEntity
  8
SIZE
  6
CONTINUOUS
 62
    30
100
AcDbLine
 10
-693.7402657674084
 20
-171.9999999999988
 30
0.0
 11
-693.7402657674084
 21
-176.9999999999988
 31
0.0
  0
TEXT
  5
24A
330
1E
100
AcDbEntity
  8
SIZE
  6
CONTINUOUS
 62
    30
100
AcDbText
 10
-713.7402657674084
 20
-344.3362515108213
 30
0.0
 40
64.0
  1
221
 50
90.0
 41
0.9
 72
     1
 11
-713.7402657674084
 21
-282.6219657965356
 31
0.0
100
AcDbText
  0
POINT
  5
24B
330
1E
100
AcDbEntity
  8
DEFPOINTS
  6
CONTINUOUS
 62
     7
100
AcDbPoint
 10
-317.0
 20
-387.9999999999988
 30
0.0
  0
POINT
  5
24C
330
1E
100
AcDbEntity
  8
DEFPOINTS
  6
CONTINUOUS
 62
     7
100
AcDbPoint
 10
-337.0
 20
-166.9999999999988
 30
0.0
  0
POINT
  5
24D
330
1E
100
AcDbEntity
  8
DEFPOINTS
  6
CONTINUOUS
 62
     7
100
AcDbPoint
 10
-693.7402657674084
 20
-166.9999999999988
 30
0.0
  0
LINE
  5
24E
330
1E
100
AcDbEntity
  8
SIZE
  6
CONTINUOUS
 62
    30
100
AcDbLine
 10
-357.0
 20
-166.9999999999988
 30
0.0
 11
-603.980043
 21
-166.9999999999988
 31
0.0
  0
LINE
  5
24F
330
1E
100
AcDbEntity
  8
SIZE
  6
CONTINUOUS
 62
    30
100
AcDbLine
 10
-357.0
 20
50.50000000000102
 30
0.0
 11
-603.980043
 21
50.50000000000109
 31
0.0
  0
LINE
  5
250
330
1E
100
AcDbEntity
  8
SIZE
  6
CONTINUOUS
 62
    30
100
AcDbLine
 10
-573.980043
 20
-156.9999999999988
 30
0.0
 11
-573.980043
 21
40.50000000000109
 31
0.0
  0
CIRCLE
  5
251
330
1E
100
AcDbEntity
  8
SIZE
  6
CONTINUOUS
 62
    30
100
AcDbCircle
 10
-573.980043
 20
-166.9999999999988
 30
0.0
 40
5.0
  0
LINE
  5
252
330
1E
100
AcDbEntity
  8
SIZE
  6
CONTINUOUS
 62
    30
100
AcDbLine
 10
-573.980043
 20
-161.9999999999988
 30
0.0
 11
-573.980043
 21
-156.9999999999988
 31
0.0
  0
CIRCLE
  5
253
330
1E
100
AcDbEntity
  8
SIZE
  6
CONTINUOUS
 62
    30
100
AcDbCircle
 10
-573.980043
 20
50.50000000000109
 30
0.0
 40
5.0
  0
LINE
  5
254
330
1E
100
AcDbEntity
  8
SIZE
  6
CONTINUOUS
 62
    30
100
AcDbLine
 10
-573.980043
 20
45.50000000000109
 30
0.0
 11
-573.980043
 21
40.50000000000109
 31
0.0
  0
TEXT
  5
255
330
1E
100
AcDbEntity
  8
SIZE
  6
CONTINUOUS
 62
    30
100
AcDbText
 10
-593.980043
 20
-167.9642857142846
 30
0.0
 40
64.0
  1
217.5
 50
90.0
 41
0.9
 72
     1
 11
-593.980043
 21
-58.24999999999899
 31
0.0
100
AcDbText
  0
POINT
  5
256
330
1E
100
AcDbEntity
  8
DEFPOINTS
  6
CONTINUOUS
 62
     7
100
AcDbPoint
 10
-337.0
 20
-166.9999999999988
 30
0.0
  0
POINT
  5
257
330
1E
100
AcDbEntity
  8
DEFPOINTS
  6
CONTINUOUS
 62
     7
100
AcDbPoint
 10
-337.0
 20
50.50000000000102
 30
0.0
  0
POINT
  5
258
330
1E
100
AcDbEntity
  8
DEFPOINTS
  6
CONTINUOUS
 62
     7
100
AcDbPoint
 10
-573.980043
 20
50.50000000000109
 30
0.0
  0
LINE
  5
259
330
1E
100
AcDbEntity
  8
SIZE
  6
CONTINUOUS
 62
    30
100
AcDbLine
 10
-357.0
 20
-166.9999999999988
 30
0.0
 11
-723.7402657674084
 21
-166.9999999999988
 31
0.0
  0
LINE
  5
25A
330
1E
100
AcDbEntity
  8
SIZE
  6
CONTINUOUS
 62
    30
100
AcDbLine
 10
-357.0
 20
268.000000000001
 30
0.0
 11
-723.7402657674081
 21
268.000000000001
 31
0.0
  0
LINE
  5
25B
330
1E
100
AcDbEntity
  8
SIZE
  6
CONTINUOUS
 62
    30
100
AcDbLine
 10
-693.7402657674084
 20
-156.9999999999988
 30
0.0
 11
-693.7402657674081
 21
258.000000000001
 31
0.0
  0
CIRCLE
  5
25C
330
1E
100
AcDbEntity
  8
SIZE
  6
CONTINUOUS
 62
    30
100
AcDbCircle
 10
-693.7402657674084
 20
-166.9999999999988
 30
0.0
 40
5.0
  0
LINE
  5
25D
330
1E
100
AcDbEntity
  8
SIZE
  6
CONTINUOUS
 62
    30
100
AcDbLine
 10
-693.7402657674084
 20
-161.9999999999988
 30
0.0
 11
-693.7402657674084
 21
-156.9999999999988
 31
0.0
  0
CIRCLE
  5
25E
330
1E
100
AcDbEntity
  8
SIZE
  6
CONTINUOUS
 62
    30
100
AcDbCircle
 10
-693.7402657674081
 20
268.000000000001
 30
0.0
 40
5.0
  0
LINE
  5
25F
330
1E
100
AcDbEntity
  8
SIZE
  6
CONTINUOUS
 62
    30
100
AcDbLine
 10
-693.7402657674081
 20
263.000000000001
 30
0.0
 11
-693.7402657674081
 21
258.000000000001
 31
0.0
  0
TEXT
  5
260
330
1E
100
AcDbEntity
  8
SIZE
  6
CONTINUOUS
 62
    30
100
AcDbText
 10
-713.7402657674084
 20
-32.57166478123955
 30
0.0
 40
64.0
  1
435
 50
90.0
 41
0.9
 72
     1
 11
-713.7402657674084
 21
41.48547807590329
 31
0.0
100
AcDbText
  0
POINT
  5
261
330
1E
100
AcDbEntity
  8
DEFPOINTS
  6
CONTINUOUS
 62
     7
100
AcDbPoint
 10
-337.0
 20
-166.9999999999988
 30
0.0
  0
POINT
  5
262
330
1E
100
AcDbEntity
  8
DEFPOINTS
  6
CONTINUOUS
 62
     7
100
AcDbPoint
 10
-337.0
 20
268.000000000001
 30
0.0
  0
POINT
  5
263
330
1E
100
AcDbEntity
  8
DEFPOINTS
  6
CONTINUOUS
 62
     7
100
AcDbPoint
 10
-693.7402657674081
 20
268.000000000001
 30
0.0
  0
LWPOLYLINE
  5
264
330
1E
100
AcDbEntity
  8
NOTE
  6
CONTINUOUS
 62
     4
100
AcDbPolyline
 90
        3
 70
     0
 43
0.0
 10
345.5020128056253
 20
-195.0648409132718
 10
316.9999999999985
 20
-166.9999999999968
 10
327.6510458417807
 20
-205.555870927368
  0
LINE
  5
269
330
1E
100
AcDbEntity
  8
NOTE
  6
CONTINUOUS
 62
     4
100
AcDbLine
 10
316.999999999999
 20
-166.999999999997
 30
0.0
 11
675.5596052555247
 21
-773.4647232857619
 31
0.0
  0
LINE
  5
26A
330
1E
100
AcDbEntity
  8
NOTE
  6
CONTINUOUS
 62
     4
100
AcDbLine
 10
675.5596052555247
 20
-773.4647232857619
 30
0.0
 11
1081.819800255523
 21
-773.4647232857619
 31
0.0
  0
TEXT
  5
26B
330
1E
100
AcDbEntity
  8
NOTE
  6
CONTINUOUS
 62
     4
100
AcDbText
 10
719.2217969309224
 20
-753.0293585380931
 30
0.0
 40
64.0
  1
6-%%c2.9
 41
0.9
100
AcDbText
  0
LINE
  5
26C
330
1E
100
AcDbEntity
  8
SIZE
  6
CONTINUOUS
 62
    30
100
AcDbLine
 10
337.0
 20
-387.9999999999988
 30
0.0
 11
884.1529553338931
 21
-387.9999999999989
 31
0.0
  0
LINE
  5
26D
330
1E
100
AcDbEntity
  8
SIZE
  6
CONTINUOUS
 62
    30
100
AcDbLine
 10
357.0
 20
-166.9999999999988
 30
0.0
 11
884.1529553338931
 21
-166.9999999999991
 31
0.0
  0
LINE
  5
26E
330
1E
100
AcDbEntity
  8
SIZE
  6
CONTINUOUS
 62
    30
100
AcDbLine
 10
854.1529553338929
 20
-377.9999999999989
 30
0.0
 11
854.152955333893
 21
-176.999999999999
 31
0.0
  0
CIRCLE
  5
26F
330
1E
100
AcDbEntity
  8
SIZE
  6
CONTINUOUS
 62
    30
100
AcDbCircle
 10
854.1529553338929
 20
-387.9999999999989
 30
0.0
 40
5.0
  0
LINE
  5
270
330
1E
100
AcDbEntity
  8
SIZE
  6
CONTINUOUS
 62
    30
100
AcDbLine
 10
854.1529553338929
 20
-382.9999999999989
 30
0.0
 11
854.1529553338929
 21
-377.9999999999989
 31
0.0
  0
CIRCLE
  5
271
330
1E
100
AcDbEntity
  8
SIZE
  6
CONTINUOUS
 62
    30
100
AcDbCircle
 10
854.152955333893
 20
-166.9999999999991
 30
0.0
 40
5.0
  0
LINE
  5
272
330
1E
100
AcDbEntity
  8
SIZE
  6
CONTINUOUS
 62
    30
100
AcDbLine
 10
854.152955333893
 20
-171.999999999999
 30
0.0
 11
854.152955333893
 21
-176.999999999999
 31
0.0
  0
TEXT
  5
273
330
1E
100
AcDbEntity
  8
SIZE
  6
CONTINUOUS
 62
    30
100
AcDbText
 10
834.1529553338931
 20
-342.4913862879706
 30
0.0
 40
64.0
  1
221
 50
90.0
 41
0.9
 72
     1
 11
834.1529553338931
 21
-280.7771005736849
 31
0.0
100
AcDbText
  0
POINT
  5
274
330
1E
100
AcDbEntity
  8
DEFPOINTS
  6
CONTINUOUS
 62
     7
100
AcDbPoint
 10
317.0
 20
-387.9999999999988
 30
0.0
  0
POINT
  5
275
330
1E
100
AcDbEntity
  8
DEFPOINTS
  6
CONTINUOUS
 62
     7
100
AcDbPoint
 10
337.0
 20
-166.9999999999988
 30
0.0
  0
POINT
  5
276
330
1E
100
AcDbEntity
  8
DEFPOINTS
  6
CONTINUOUS
 62
     7
100
AcDbPoint
 10
854.152955333893
 20
-166.9999999999991
 30
0.0
  0
LINE
  5
277
330
1E
100
AcDbEntity
  8
SIZE
  6
CONTINUOUS
 62
    30
100
AcDbLine
 10
357.0
 20
-166.9999999999988
 30
0.0
 11
743.979506972284
 21
-166.9999999999991
 31
0.0
  0
LINE
  5
278
330
1E
100
AcDbEntity
  8
SIZE
  6
CONTINUOUS
 62
    30
100
AcDbLine
 10
357.0
 20
50.50000000000102
 30
0.0
 11
743.979506972284
 21
50.50000000000089
 31
0.0
  0
LINE
  5
279
330
1E
100
AcDbEntity
  8
SIZE
  6
CONTINUOUS
 62
    30
100
AcDbLine
 10
713.9795069722841
 20
-156.999999999999
 30
0.0
 11
713.9795069722841
 21
40.50000000000092
 31
0.0
  0
CIRCLE
  5
27A
330
1E
100
AcDbEntity
  8
SIZE
  6
CONTINUOUS
 62
    30
100
AcDbCircle
 10
713.9795069722841
 20
-166.9999999999991
 30
0.0
 40
5.0
  0
LINE
  5
27B
330
1E
100
AcDbEntity
  8
SIZE
  6
CONTINUOUS
 62
    30
100
AcDbLine
 10
713.9795069722841
 20
-161.9999999999991
 30
0.0
 11
713.9795069722841
 21
-156.999999999999
 31
0.0
  0
CIRCLE
  5
27C
330
1E
100
AcDbEntity
  8
SIZE
  6
CONTINUOUS
 62
    30
100
AcDbCircle
 10
713.9795069722841
 20
50.50000000000093
 30
0.0
 40
5.0
  0
LINE
  5
27D
330
1E
100
AcDbEntity
  8
SIZE
  6
CONTINUOUS
 62
    30
100
AcDbLine
 10
713.9795069722841
 20
45.50000000000092
 30
0.0
 11
713.9795069722841
 21
40.50000000000093
 31
0.0
  0
TEXT
  5
27E
330
1E
100
AcDbEntity
  8
SIZE
  6
CONTINUOUS
 62
    30
100
AcDbText
 10
693.979506972284
 20
-167.9642857142846
 30
0.0
 40
64.0
  1
217.5
 50
90.0
 41
0.9
 72
     1
 11
693.979506972284
 21
-58.24999999999896
 31
0.0
100
AcDbText
  0
POINT
  5
27F
330
1E
100
AcDbEntity
  8
DEFPOINTS
  6
CONTINUOUS
 62
     7
100
AcDbPoint
 10
337.0
 20
-166.9999999999988
 30
0.0
  0
POINT
  5
280
330
1E
100
AcDbEntity
  8
DEFPOINTS
  6
CONTINUOUS
 62
     7
100
AcDbPoint
 10
337.0
 20
50.50000000000102
 30
0.0
  0
POINT
  5
281
330
1E
100
AcDbEntity
  8
DEFPOINTS
  6
CONTINUOUS
 62
     7
100
AcDbPoint
 10
713.9795069722841
 20
50.50000000000093
 30
0.0
  0
LINE
  5
282
330
1E
100
AcDbEntity
  8
SIZE
  6
CONTINUOUS
 62
    30
100
AcDbLine
 10
357.0
 20
-166.9999999999988
 30
0.0
 11
884.1529553338931
 21
-166.9999999999991
 31
0.0
  0
LINE
  5
283
330
1E
100
AcDbEntity
  8
SIZE
  6
CONTINUOUS
 62
    30
100
AcDbLine
 10
357.0
 20
268.000000000001
 30
0.0
 11
884.1529553338931
 21
268.0000000000008
 31
0.0
  0
LINE
  5
284
330
1E
100
AcDbEntity
  8
SIZE
  6
CONTINUOUS
 62
    30
100
AcDbLine
 10
854.152955333893
 20
-156.999999999999
 30
0.0
 11
854.1529553338932
 21
258.0000000000008
 31
0.0
  0
CIRCLE
  5
285
330
1E
100
AcDbEntity
  8
SIZE
  6
CONTINUOUS
 62
    30
100
AcDbCircle
 10
854.152955333893
 20
-166.9999999999991
 30
0.0
 40
5.0
  0
LINE
  5
286
330
1E
100
AcDbEntity
  8
SIZE
  6
CONTINUOUS
 62
    30
100
AcDbLine
 10
854.152955333893
 20
-161.9999999999991
 30
0.0
 11
854.152955333893
 21
-156.999999999999
 31
0.0
  0
CIRCLE
  5
287
330
1E
100
AcDbEntity
  8
SIZE
  6
CONTINUOUS
 62
    30
100
AcDbCircle
 10
854.1529553338932
 20
268.0000000000008
 30
0.0
 40
5.0
  0
LINE
  5
288
330
1E
100
AcDbEntity
  8
SIZE
  6
CONTINUOUS
 62
    30
100
AcDbLine
 10
854.1529553338932
 20
263.0000000000007
 30
0.0
 11
854.1529553338932
 21
258.0000000000008
 31
0.0
  0
TEXT
  5
289
330
1E
100
AcDbEntity
  8
SIZE
  6
CONTINUOUS
 62
    30
100
AcDbText
 10
834.1529553338931
 20
-29.06482542134373
 30
0.0
 40
64.0
  1
435
 50
90.0
 41
0.9
 72
     1
 11
834.1529553338931
 21
44.99231743579912
 31
0.0
100
AcDbText
  0
POINT
  5
28A
330
1E
100
AcDbEntity
  8
DEFPOINTS
  6
CONTINUOUS
 62
     7
100
AcDbPoint
 10
337.0
 20
-166.9999999999988
 30
0.0
  0
POINT
  5
28B
330
1E
100
AcDbEntity
  8
DEFPOINTS
  6
CONTINUOUS
 62
     7
100
AcDbPoint
 10
337.0
 20
268.000000000001
 30
0.0
  0
POINT
  5
28C
330
1E
100
AcDbEntity
  8
DEFPOINTS
  6
CONTINUOUS
 62
     7
100
AcDbPoint
 10
854.1529553338932
 20
268.0000000000008
 30
0.0
  0
LINE
  5
28D
330
1E
100
AcDbEntity
  8
NOTE
  6
CONTINUOUS
 62
     4
100
AcDbLine
 10
-316.9999999999992
 20
-167.0000000000005
 30
0.0
 11
-960.608327015351
 21
-499.7371745113777
 31
0.0
  0
LWPOLYLINE
  5
28E
330
1E
100
AcDbEntity
  8
NOTE
  6
CONTINUOUS
 62
     4
100
AcDbPolyline
 90
        3
 70
     0
 43
0.0
 10
-356.0535929662961
 20
-175.6496766345525
 10
-316.9999999999987
 20
-167.0000000000005
 10
-346.4965642299317
 20
-194.0176360757436
  0
TEXT
  5
293
330
1E
100
AcDbEntity
  8
NOTE
  6
CONTINUOUS
 62
     4
100
AcDbText
 10
-1323.206330339953
 20
-479.3018097637091
 30
0.0
 40
64.0
  1
6-%%c2.9
 41
0.9
100
AcDbText
  0
LINE
  5
294
330
1E
100
AcDbEntity
  8
NOTE
  6
CONTINUOUS
 62
     4
100
AcDbLine
 10
-1366.868522015351
 20
-499.7371745113777
 30
0.0
 11
-960.6083270153513
 21
-499.7371745113777
 31
0.0
  0
ARC
  5
295
330
1E
100
AcDbEntity
  8
OUTLINE
  6
CONTINUOUS
 62
     3
100
AcDbCircle
 10
-339.0
 20
-524.0
 30
0.0
 40
16.0
100
AcDbArc
 50
180.0
 51
270.0
  0
ARC
  5
296
330
1E
100
AcDbEntity
  8
OUTLINE
  6
CONTINUOUS
 62
     3
100
AcDbCircle
 10
-339.0
 20
524.0
 30
0.0
 40
16.0
100
AcDbArc
 50
90.0
 51
180.0
  0
LINE
  5
297
330
1E
100
AcDbEntity
  8
OUTLINE
  6
CONTINUOUS
 62
     3
100
AcDbLine
 10
-355.0
 20
-524.0
 30
0.0
 11
-355.0
 21
524.0
 31
0.0
  0
LINE
  5
298
330
1E
100
AcDbEntity
  8
OUTLINE
  6
CONTINUOUS
 62
     3
100
AcDbLine
 10
355.0
 20
-524.0
 30
0.0
 11
355.0
 21
524.0
 31
0.0
  0
LINE
  5
299
330
1E
100
AcDbEntity
  8
OUTLINE
  6
CONTINUOUS
 62
     3
100
AcDbLine
 10
339.0
 20
-540.0
 30
0.0
 11
-339.0
 21
-540.0
 31
0.0
  0
ARC
  5
29A
330
1E
100
AcDbEntity
  8
OUTLINE
  6
CONTINUOUS
 62
     3
100
AcDbCircle
 10
339.0
 20
-524.0
 30
0.0
 40
16.0
100
AcDbArc
 50
270.0
 51
0.0
  0
LINE
  5
29B
330
1E
100
AcDbEntity
  8
OUTLINE
  6
CONTINUOUS
 62
     3
100
AcDbLine
 10
339.0
 20
540.0
 30
0.0
 11
-339.0
 21
540.0
 31
0.0
  0
ARC
  5
29C
330
1E
100
AcDbEntity
  8
OUTLINE
  6
CONTINUOUS
 62
     3
100
AcDbCircle
 10
339.0
 20
524.0
 30
0.0
 40
16.0
100
AcDbArc
 50
0.0
 51
90.0
  0
LINE
  5
29D
330
1E
100
AcDbEntity
  8
SIZE
  6
CONTINUOUS
 62
    30
100
AcDbLine
 10
-337.0
 20
-387.9999999999988
 30
0.0
 11
-491.4948162599086
 21
-387.9999999999988
 31
0.0
  0
LINE
  5
29E
330
1E
100
AcDbEntity
  8
SIZE
  6
CONTINUOUS
 62
    30
100
AcDbLine
 10
-447.162637
 20
0.0000000000000057
 30
0.0
 11
-491.4948162599086
 21
0.0000000000000182
 31
0.0
  0
LINE
  5
29F
330
1E
100
AcDbEntity
  8
SIZE
  6
CONTINUOUS
 62
    30
100
AcDbLine
 10
-461.4948162599086
 20
-377.9999999999988
 30
0.0
 11
-461.4948162599086
 21
-9.999999999999987
 31
0.0
  0
CIRCLE
  5
2A0
330
1E
100
AcDbEntity
  8
SIZE
  6
CONTINUOUS
 62
    30
100
AcDbCircle
 10
-461.4948162599087
 20
-387.9999999999988
 30
0.0
 40
5.0
  0
LINE
  5
2A1
330
1E
100
AcDbEntity
  8
SIZE
  6
CONTINUOUS
 62
    30
100
AcDbLine
 10
-461.4948162599087
 20
-382.9999999999988
 30
0.0
 11
-461.4948162599087
 21
-377.9999999999988
 31
0.0
  0
CIRCLE
  5
2A2
330
1E
100
AcDbEntity
  8
SIZE
  6
CONTINUOUS
 62
    30
100
AcDbCircle
 10
-461.4948162599086
 20
0.0000000000000097
 30
0.0
 40
5.0
  0
LINE
  5
2A3
330
1E
100
AcDbEntity
  8
SIZE
  6
CONTINUOUS
 62
    30
100
AcDbLine
 10
-461.4948162599086
 20
-4.99999999999999
 30
0.0
 11
-461.4948162599086
 21
-9.999999999999991
 31
0.0
  0
TEXT
  5
2A4
330
1E
100
AcDbEntity
  8
SIZE
  6
CONTINUOUS
 62
    30
100
AcDbText
 10
-481.4948162599085
 20
-268.0571428571423
 30
0.0
 40
64.0
  1
388
 50
90.0
 41
0.9
 72
     1
 11
-481.4948162599085
 21
-193.9999999999994
 31
0.0
100
AcDbText
  0
POINT
  5
2A5
330
1E
100
AcDbEntity
  8
DEFPOINTS
  6
CONTINUOUS
 62
     7
100
AcDbPoint
 10
-317.0
 20
-387.9999999999988
 30
0.0
  0
POINT
  5
2A6
330
1E
100
AcDbEntity
  8
DEFPOINTS
  6
CONTINUOUS
 62
     7
100
AcDbPoint
 10
-427.1626369999999
 20
0.0
 30
0.0
  0
POINT
  5
2A7
330
1E
100
AcDbEntity
  8
DEFPOINTS
  6
CONTINUOUS
 62
     7
100
AcDbPoint
 10
-461.4948162599086
 20
0.0000000000000097
 30
0.0
  0
ENDSEC
  0
SECTION
  2
OBJECTS
  0
DICTIONARY
  5
C
330
0
100
AcDbDictionary
  3
ACAD_GROUP
350
D
  3
ACAD_LAYOUT
350
19
  3
ACAD_MLINESTYLE
350
16
  3
ACAD_PLOTSETTINGS
350
18
  3
ACAD_PLOTSTYLENAME
350
E
  3
ACDBHEADERROUNDTRIPXREC
350
2AA
  0
DICTIONARY
  5
2CD
330
1E
100
AcDbDictionary
280
     1
  3
ACAD_LAYOUTSELFREF
360
2CE
  0
DICTIONARY
  5
2CB
330
1A
100
AcDbDictionary
280
     1
  3
ACAD_LAYOUTSELFREF
360
2CC
  0
DICTIONARY
  5
D
102
{ACAD_REACTORS
330
C
102
}
330
C
100
AcDbDictionary
  0
DICTIONARY
  5
19
102
{ACAD_REACTORS
330
C
102
}
330
C
100
AcDbDictionary
  0
DICTIONARY
  5
16
102
{ACAD_REACTORS
330
C
102
}
330
C
100
AcDbDictionary
  3
STANDARD
350
17
  0
DICTIONARY
  5
18
102
{ACAD_REACTORS
330
C
102
}
330
C
100
AcDbDictionary
  0
ACDBDICTIONARYWDFLT
  5
E
102
{ACAD_REACTORS
330
C
102
}
330
C
100
AcDbDictionary
281
     1
  3
Normal
350
F
100
AcDbDictionaryWithDefault
340
F
  0
DICTIONARY
  5
2AA
102
{ACAD_REACTORS
330
C
102
}
330
C
100
AcDbDictionary
  3
CEPSNTYPE
350
2B4
  3
DIMSTYLEDATA
350
2B8
  3
FINGERPRINTGUID
350
2B5
  3
HYPERLINKBASE
350
2AD
  3
INSUNITS
350
2B3
  3
LAYOUTDICT
350
2AF
  3
LWETCUNION
350
2B2
  3
PLOTSETDICT
350
2B0
  3
PLOTSTYLNAMDICT
350
2B1
  3
PSVPSCALE
350
2B7
  3
PUCSBASE
350
2BB
  3
PUCSORGBACK
350
2C1
  3
PUCSORGBOTTOM
350
2BD
  3
PUCSORGFRONT
350
2C0
  3
PUCSORGLEFT
350
2BE
  3
PUCSORGRIGHT
350
2BF
  3
PUCSORGTOP
350
2BC
  3
PUCSORTHOREF
350
2B9
  3
PUCSORTHOVIEW
350
2BA
  3
STYLESHEET
350
2AE
  3
TSTACKALIGN
350
2AB
  3
TSTACKSIZE
350
2AC
  3
UCSBASE
350
2C4
  3
UCSORGBACK
350
2CA
  3
UCSORGBOTTOM
350
2C6
  3
UCSORGFRONT
350
2C9
  3
UCSORGLEFT
350
2C7
  3
UCSORGRIGHT
350
2C8
  3
UCSORGTOP
350
2C5
  3
UCSORTHOREF
350
2C2
  3
UCSORTHOVIEW
350
2C3
  3
VERSIONGUID
350
2B6
  0
XRECORD
  5
2CE
102
{ACAD_REACTORS
330
2CD
102
}
330
2CD
100
AcDbXrecord
340
1E
  0
XRECORD
  5
2CC
102
{ACAD_REACTORS
330
2CB
102
}
330
2CB
100
AcDbXrecord
340
1A
  0
MLINESTYLE
  5
17
102
{ACAD_REACTORS
330
16
102
}
330
16
100
AcDbMlineStyle
  2
STANDARD
 70
     0
  3

 62
   256
 51
90.0
 52
90.0
 71
     2
 49
0.5
 62
   256
  6
BYLAYER
 49
-0.5
 62
   256
  6
BYLAYER
  0
ACDBPLACEHOLDER
  5
F
102
{ACAD_REACTORS
330
E
102
}
330
E
100
AcDbPlaceHolder
280
     0
  0
XRECORD
  5
2B4
102
{ACAD_REACTORS
330
2AA
102
}
330
2AA
100
AcDbXrecord
 90
        0
  0
XRECORD
  5
2B8
102
{ACAD_REACTORS
330
2AA
102
}
330
2AA
100
AcDbXrecord
1000
DSTYLE
1002
{
1070
   341
340
39
1070
   342
340
39
1070
   343
340
39
1070
   344
340
34
1002
}
  0
XRECORD
  5
2B5
102
{ACAD_REACTORS
330
2AA
102
}
330
2AA
100
AcDbXrecord
  1
{0661052B-D9B9-4706-95A0-775373F77E5A}
  0
XRECORD
  5
2AD
102
{ACAD_REACTORS
330
2AA
102
}
330
2AA
100
AcDbXrecord
  1

  0
XRECORD
  5
2B3
102
{ACAD_REACTORS
330
2AA
102
}
330
2AA
100
AcDbXrecord
 90
        0
  0
XRECORD
  5
2AF
102
{ACAD_REACTORS
330
2AA
102
}
330
2AA
100
AcDbXrecord
340
19
  0
XRECORD
  5
2B2
102
{ACAD_REACTORS
330
2AA
102
}
330
2AA
100
AcDbXrecord
 90
    10781
  0
XRECORD
  5
2B0
102
{ACAD_REACTORS
330
2AA
102
}
330
2AA
100
AcDbXrecord
340
18
  0
XRECORD
  5
2B1
102
{ACAD_REACTORS
330
2AA
102
}
330
2AA
100
AcDbXrecord
340
E
  0
XRECORD
  5
2B7
102
{ACAD_REACTORS
330
2AA
102
}
330
2AA
100
AcDbXrecord
 40
0.0
  0
XRECORD
  5
2BB
102
{ACAD_REACTORS
330
2AA
102
}
330
2AA
100
AcDbXrecord
340
0
  0
XRECORD
  5
2C1
102
{ACAD_REACTORS
330
2AA
102
}
330
2AA
100
AcDbXrecord
 10
0.0
 20
0.0
 30
0.0
  0
XRECORD
  5
2BD
102
{ACAD_REACTORS
330
2AA
102
}
330
2AA
100
AcDbXrecord
 10
0.0
 20
0.0
 30
0.0
  0
XRECORD
  5
2C0
102
{ACAD_REACTORS
330
2AA
102
}
330
2AA
100
AcDbXrecord
 10
0.0
 20
0.0
 30
0.0
  0
XRECORD
  5
2BE
102
{ACAD_REACTORS
330
2AA
102
}
330
2AA
100
AcDbXrecord
 10
0.0
 20
0.0
 30
0.0
  0
XRECORD
  5
2BF
102
{ACAD_REACTORS
330
2AA
102
}
330
2AA
100
AcDbXrecord
 10
0.0
 20
0.0
 30
0.0
  0
XRECORD
  5
2BC
102
{ACAD_REACTORS
330
2AA
102
}
330
2AA
100
AcDbXrecord
 10
0.0
 20
0.0
 30
0.0
  0
XRECORD
  5
2B9
102
{ACAD_REACTORS
330
2AA
102
}
330
2AA
100
AcDbXrecord
340
0
  0
XRECORD
  5
2BA
102
{ACAD_REACTORS
330
2AA
102
}
330
2AA
100
AcDbXrecord
 70
     0
  0
XRECORD
  5
2AE
102
{ACAD_REACTORS
330
2AA
102
}
330
2AA
100
AcDbXrecord
  1

  0
XRECORD
  5
2AB
102
{ACAD_REACTORS
330
2AA
102
}
330
2AA
100
AcDbXrecord
 90
        1
  0
XRECORD
  5
2AC
102
{ACAD_REACTORS
330
2AA
102
}
330
2AA
100
AcDbXrecord
 90
       70
  0
XRECORD
  5
2C4
102
{ACAD_REACTORS
330
2AA
102
}
330
2AA
100
AcDbXrecord
340
0
  0
XRECORD
  5
2CA
102
{ACAD_REACTORS
330
2AA
102
}
330
2AA
100
AcDbXrecord
 10
0.0
 20
0.0
 30
0.0
  0
XRECORD
  5
2C6
102
{ACAD_REACTORS
330
2AA
102
}
330
2AA
100
AcDbXrecord
 10
0.0
 20
0.0
 30
0.0
  0
XRECORD
  5
2C9
102
{ACAD_REACTORS
330
2AA
102
}
330
2AA
100
AcDbXrecord
 10
0.0
 20
0.0
 30
0.0
  0
XRECORD
  5
2C7
102
{ACAD_REACTORS
330
2AA
102
}
330
2AA
100
AcDbXrecord
 10
0.0
 20
0.0
 30
0.0
  0
XRECORD
  5
2C8
102
{ACAD_REACTORS
330
2AA
102
}
330
2AA
100
AcDbXrecord
 10
0.0
 20
0.0
 30
0.0
  0
XRECORD
  5
2C5
102
{ACAD_REACTORS
330
2AA
102
}
330
2AA
100
AcDbXrecord
 10
0.0
 20
0.0
 30
0.0
  0
XRECORD
  5
2C2
102
{ACAD_REACTORS
330
2AA
102
}
330
2AA
100
AcDbXrecord
340
0
  0
XRECORD
  5
2C3
102
{ACAD_REACTORS
330
2AA
102
}
330
2AA
100
AcDbXrecord
 70
     0
  0
XRECORD
  5
2B6
102
{ACAD_REACTORS
330
2AA
102
}
330
2AA
100
AcDbXrecord
  1
{43EB888D-8377-4097-BC6B-5330592D05F0}
  0
ENDSEC
  0
EOF
