  0
SECTION
  2
HEADER
  9
$ACADVER
  1
AC1014
  9
$ACADMAINTVER
 70
     9
  9
$DWGCODEPAGE
  3
ANSI_932
  9
$INSBASE
 10
0.0
 20
0.0
 30
0.0
  9
$EXTMIN
 10
-3255.095358334212
 20
-736.834238217079
 30
0.0
  9
$EXTMAX
 10
1758.827487815826
 20
1158.334544052063
 30
0.0
  9
$LIMMIN
 10
-4200.0
 20
-2970.0
  9
$LIMMAX
 10
4200.0
 20
2970.0
  9
$ORTHOMODE
 70
     0
  9
$REGENMODE
 70
     1
  9
$FILLMODE
 70
     1
  9
$QTEXTMODE
 70
     0
  9
$MIRRTEXT
 70
     0
  9
$DRAGMODE
 70
     2
  9
$LTSCALE
 40
20.0
  9
$OSMODE
 70
    37
  9
$ATTMODE
 70
     1
  9
$TEXTSIZE
 40
64.0
  9
$TRACEWID
 40
0.05
  9
$TEXTSTYLE
  7
STANDARD
  9
$CLAYER
  8
0
  9
$CELTYPE
  6
CONTINUOUS
  9
$CECOLOR
 62
     7
  9
$CELTSCALE
 40
1.0
  9
$DELOBJ
 70
     1
  9
$DISPSILH
 70
     0
  9
$DIMSCALE
 40
1.0
  9
$DIMASZ
 40
10.0
  9
$DIMEXO
 40
20.0
  9
$DIMDLI
 40
200.0
  9
$DIMRND
 40
0.0
  9
$DIMDLE
 40
0.0
  9
$DIMEXE
 40
30.0
  9
$DIMTP
 40
0.0
  9
$DIMTM
 40
0.0
  9
$DIMTXT
 40
64.0
  9
$DIMCEN
 40
0.0
  9
$DIMTSZ
 40
0.0
  9
$DIMTOL
 70
     0
  9
$DIMLIM
 70
     0
  9
$DIMTIH
 70
     0
  9
$DIMTOH
 70
     0
  9
$DIMSE1
 70
     0
  9
$DIMSE2
 70
     0
  9
$DIMTAD
 70
     1
  9
$DIMZIN
 70
     8
  9
$DIMBLK
  1
DOTBLANK
  9
$DIMASO
 70
     1
  9
$DIMSHO
 70
     0
  9
$DIMPOST
  1

  9
$DIMAPOST
  1

  9
$DIMALT
 70
     0
  9
$DIMALTD
 70
     2
  9
$DIMALTF
 40
25.4
  9
$DIMLFAC
 40
1.0
  9
$DIMTOFL
 70
     1
  9
$DIMTVP
 40
0.0
  9
$DIMTIX
 70
     1
  9
$DIMSOXD
 70
     0
  9
$DIMSAH
 70
     0
  9
$DIMBLK1
  1
DOTBLANK
  9
$DIMBLK2
  1
ORIGIN
  9
$DIMSTYLE
  2
STANDARD
  9
$DIMCLRD
 70
     0
  9
$DIMCLRE
 70
     0
  9
$DIMCLRT
 70
     0
  9
$DIMTFAC
 40
1.0
  9
$DIMGAP
 40
0.09
  9
$DIMJUST
 70
     0
  9
$DIMSD1
 70
     0
  9
$DIMSD2
 70
     0
  9
$DIMTOLJ
 70
     1
  9
$DIMTZIN
 70
     0
  9
$DIMALTZ
 70
     0
  9
$DIMALTTZ
 70
     0
  9
$DIMFIT
 70
     3
  9
$DIMUPT
 70
     0
  9
$DIMUNIT
 70
     2
  9
$DIMDEC
 70
     4
  9
$DIMTDEC
 70
     4
  9
$DIMALTU
 70
     2
  9
$DIMALTTD
 70
     2
  9
$DIMTXSTY
  7
STANDARD
  9
$DIMAUNIT
 70
     0
  9
$LUNITS
 70
     2
  9
$LUPREC
 70
     4
  9
$SKETCHINC
 40
0.1
  9
$FILLETRAD
 40
0.0
  9
$AUNITS
 70
     1
  9
$AUPREC
 70
     3
  9
$MENU
  1
ACAD
  9
$ELEVATION
 40
0.0
  9
$PELEVATION
 40
0.0
  9
$THICKNESS
 40
0.0
  9
$LIMCHECK
 70
     0
  9
$BLIPMODE
 70
     0
  9
$CHAMFERA
 40
0.0
  9
$CHAMFERB
 40
0.0
  9
$CHAMFERC
 40
0.0
  9
$CHAMFERD
 40
0.0
  9
$SKPOLY
 70
     0
  9
$TDCREATE
 40
2449761.493622685
  9
$TDUPDATE
 40
2453973.703906863
  9
$TDINDWG
 40
1.2337907407
  9
$TDUSRTIMER
 40
1.2337905671
  9
$USRTIMER
 70
     1
  9
$ANGBASE
 50
0.0
  9
$ANGDIR
 70
     0
  9
$PDMODE
 70
    35
  9
$PDSIZE
 40
100.0
  9
$PLINEWID
 40
0.0
  9
$COORDS
 70
     2
  9
$SPLFRAME
 70
     0
  9
$SPLINETYPE
 70
     6
  9
$SPLINESEGS
 70
     8
  9
$ATTDIA
 70
     0
  9
$ATTREQ
 70
     1
  9
$HANDLING
 70
-16383
  9
$HANDSEED
  5
222
  9
$SURFTAB1
 70
     6
  9
$SURFTAB2
 70
     6
  9
$SURFTYPE
 70
     6
  9
$SURFU
 70
     6
  9
$SURFV
 70
     6
  9
$UCSNAME
  2

  9
$UCSORG
 10
0.0
 20
0.0
 30
0.0
  9
$UCSXDIR
 10
1.0
 20
0.0
 30
0.0
  9
$UCSYDIR
 10
0.0
 20
1.0
 30
0.0
  9
$PUCSNAME
  2

  9
$PUCSORG
 10
0.0
 20
0.0
 30
0.0
  9
$PUCSXDIR
 10
1.0
 20
0.0
 30
0.0
  9
$PUCSYDIR
 10
0.0
 20
1.0
 30
0.0
  9
$USERI1
 70
     0
  9
$USERI2
 70
     0
  9
$USERI3
 70
     0
  9
$USERI4
 70
     0
  9
$USERI5
 70
     0
  9
$USERR1
 40
20.0
  9
$USERR2
 40
0.0
  9
$USERR3
 40
0.0
  9
$USERR4
 40
0.0
  9
$USERR5
 40
0.0
  9
$WORLDVIEW
 70
     1
  9
$SHADEDGE
 70
     3
  9
$SHADEDIF
 70
    70
  9
$TILEMODE
 70
     1
  9
$MAXACTVP
 70
    64
  9
$PINSBASE
 10
0.0
 20
0.0
 30
0.0
  9
$PLIMCHECK
 70
     0
  9
$PEXTMIN
 10
1.000000000000000E+20
 20
1.000000000000000E+20
 30
1.000000000000000E+20
  9
$PEXTMAX
 10
-1.000000000000000E+20
 20
-1.000000000000000E+20
 30
-1.000000000000000E+20
  9
$PLIMMIN
 10
0.0
 20
0.0
  9
$PLIMMAX
 10
12.0
 20
9.0
  9
$UNITMODE
 70
     0
  9
$VISRETAIN
 70
     1
  9
$PLINEGEN
 70
     0
  9
$PSLTSCALE
 70
     1
  9
$TREEDEPTH
 70
  3020
  9
$PICKSTYLE
 70
     0
  9
$CMLSTYLE
  2
STANDARD
  9
$CMLJUST
 70
     0
  9
$CMLSCALE
 40
1.0
  9
$PROXYGRAPHICS
 70
     1
  9
$MEASUREMENT
 70
     0
  0
ENDSEC
  0
SECTION
  2
CLASSES
  0
CLASS
  1
ACDBDICTIONARYWDFLT
  2
AcDbDictionaryWithDefault
  3
AutoCAD 2000
 90
        0
280
     0
281
     0
  0
CLASS
  1
ACDBPLACEHOLDER
  2
AcDbPlaceHolder
  3
AutoCAD 2000
 90
        0
280
     0
281
     0
  0
CLASS
  1
LAYOUT
  2
AcDbLayout
  3
AutoCAD 2000
 90
        0
280
     0
281
     0
  0
CLASS
  1
LONG_TRANSACTION
  2
AcDbLongTransaction
  3
AutoCAD 2000
 90
        0
280
     0
281
     0
  0
CLASS
  1
LWPOLYLINE
  2
AcDbPolyline
  3
AutoCAD 2000
 90
        0
280
     0
281
     1
  0
CLASS
  1
HATCH
  2
AcDbHatch
  3
AutoCAD 2000
 90
        0
280
     0
281
     1
  0
CLASS
  1
XRECORD
  2
AcDbXrecord
  3
AutoCAD 2000
 90
        0
280
     0
281
     0
  0
ENDSEC
  0
SECTION
  2
TABLES
  0
TABLE
  2
VPORT
  5
8
330
0
100
AcDbSymbolTable
 70
     2
  0
VPORT
  5
1FC
330
8
100
AcDbSymbolTableRecord
100
AcDbViewportTableRecord
  2
*ACTIVE
 70
     0
 10
0.0
 20
0.0
 11
1.0
 21
1.0
 12
-577.4959497068298
 22
210.8356346531909
 13
0.0
 23
0.0
 14
50.0
 24
50.0
 15
100.0
 25
100.0
 16
0.0
 26
0.0
 36
1.0
 17
0.0
 27
0.0
 37
0.0
 40
3246.363622662276
 41
1.657997399219765
 42
50.0
 43
0.0
 44
0.0
 50
0.0
 51
0.0
 71
     0
 72
  1000
 73
     1
 74
     0
 75
     0
 76
     0
 77
     0
 78
     0
  0
ENDTAB
  0
TABLE
  2
LTYPE
  5
5
330
0
100
AcDbSymbolTable
 70
     2
  0
LTYPE
  5
13
330
5
100
AcDbSymbolTableRecord
100
AcDbLinetypeTableRecord
  2
BYBLOCK
 70
     0
  3

 72
    65
 73
     0
 40
0.0
  0
LTYPE
  5
14
330
5
100
AcDbSymbolTableRecord
100
AcDbLinetypeTableRecord
  2
BYLAYER
 70
     0
  3

 72
    65
 73
     0
 40
0.0
  0
LTYPE
  5
15
330
5
100
AcDbSymbolTableRecord
100
AcDbLinetypeTableRecord
  2
CONTINUOUS
 70
     0
  3
????
 72
    65
 73
     0
 40
0.0
  0
LTYPE
  5
22
330
5
100
AcDbSymbolTableRecord
100
AcDbLinetypeTableRecord
  2
DASHDOT
 70
     0
  3
____ _ ____ _ ____ _ ____ _ ____ _ ____ _ ____
 72
    65
 73
     4
 40
5.5
 49
4.0
 74
     0
 49
-0.6
 74
     0
 49
0.3
 74
     0
 49
-0.6
 74
     0
  0
ENDTAB
  0
TABLE
  2
LAYER
  5
2
330
0
100
AcDbSymbolTable
 70
    12
  0
LAYER
  5
10
330
2
100
AcDbSymbolTableRecord
100
AcDbLayerTableRecord
  2
0
 70
     0
 62
     7
  6
CONTINUOUS
  0
LAYER
  5
23
330
2
100
AcDbSymbolTableRecord
100
AcDbLayerTableRecord
  2
OUTLINE
 70
     0
 62
     3
  6
CONTINUOUS
  0
LAYER
  5
24
330
2
100
AcDbSymbolTableRecord
100
AcDbLayerTableRecord
  2
DETAIL
 70
     0
 62
     5
  6
CONTINUOUS
  0
LAYER
  5
25
330
2
100
AcDbSymbolTableRecord
100
AcDbLayerTableRecord
  2
BASIS
 70
     0
 62
     6
  6
DASHDOT
  0
LAYER
  5
26
330
2
100
AcDbSymbolTableRecord
100
AcDbLayerTableRecord
  2
SIZE
 70
     0
 62
    30
  6
CONTINUOUS
  0
LAYER
  5
27
330
2
100
AcDbSymbolTableRecord
100
AcDbLayerTableRecord
  2
NOTE
 70
     0
 62
     4
  6
CONTINUOUS
  0
LAYER
  5
28
330
2
100
AcDbSymbolTableRecord
100
AcDbLayerTableRecord
  2
ARRANGE
 70
     0
 62
     1
  6
CONTINUOUS
  0
LAYER
  5
29
330
2
100
AcDbSymbolTableRecord
100
AcDbLayerTableRecord
  2
FIX
 70
     0
 62
    11
  6
CONTINUOUS
  0
LAYER
  5
2A
330
2
100
AcDbSymbolTableRecord
100
AcDbLayerTableRecord
  2
SERVICESPACE
 70
     0
 62
     2
  6
DASHDOT
  0
LAYER
  5
2B
330
2
100
AcDbSymbolTableRecord
100
AcDbLayerTableRecord
  2
ETC
 70
     0
 62
    61
  6
CONTINUOUS
  0
LAYER
  5
2C
330
2
100
AcDbSymbolTableRecord
100
AcDbLayerTableRecord
  2
SYMBOLLINE
 70
     0
 62
    15
  6
CONTINUOUS
  0
LAYER
  5
2D
330
2
100
AcDbSymbolTableRecord
100
AcDbLayerTableRecord
  2
DEFPOINTS
 70
     0
 62
     7
  6
CONTINUOUS
  0
ENDTAB
  0
TABLE
  2
STYLE
  5
3
330
0
100
AcDbSymbolTable
 70
     2
  0
STYLE
  5
11
330
3
100
AcDbSymbolTableRecord
100
AcDbTextStyleTableRecord
  2
STANDARD
 70
     0
 40
0.0
 41
0.9
 50
0.0
 71
     0
 42
64.0
  3
SIMPLEX
  4
BIGFONT
  0
STYLE
  5
2E
330
3
100
AcDbSymbolTableRecord
100
AcDbTextStyleTableRecord
  2
STANDARD1
 70
     0
 40
0.0
 41
1.0
 50
0.0
 71
     0
 42
64.0
  3
MONOTXT
  4
BIGFONT
  0
ENDTAB
  0
TABLE
  2
VIEW
  5
6
330
0
100
AcDbSymbolTable
 70
     1
  0
VIEW
  5
2F
330
6
100
AcDbSymbolTableRecord
100
AcDbViewTableRecord
  2
ALL
 70
     0
 40
6056.230032000001
 10
0.0
 20
58.11501599999999
 41
8400.0
 11
0.0
 21
0.0
 31
1.0
 12
0.0
 22
0.0
 32
0.0
 42
50.0
 43
0.0
 44
0.0
 50
0.0
 71
     0
  0
ENDTAB
  0
TABLE
  2
UCS
  5
7
330
0
100
AcDbSymbolTable
 70
     0
  0
ENDTAB
  0
TABLE
  2
APPID
  5
9
330
0
100
AcDbSymbolTable
 70
     1
  0
APPID
  5
12
330
9
100
AcDbSymbolTableRecord
100
AcDbRegAppTableRecord
  2
ACAD
 70
     0
  0
ENDTAB
  0
TABLE
  2
DIMSTYLE
  5
A
330
0
100
AcDbSymbolTable
 70
     1
  0
DIMSTYLE
105
1FB
330
A
100
AcDbSymbolTableRecord
100
AcDbDimStyleTableRecord
  2
STANDARD
 70
     0
  3

  4

  5

  6

  7

 40
1.0
 41
0.18
 42
0.0625
 43
0.38
 44
0.18
 45
0.0
 46
0.0
 47
0.0
 48
0.0
140
0.18
141
0.09
142
0.0
143
25.4
144
1.0
145
0.0
146
1.0
147
0.09
 71
     0
 72
     0
 73
     1
 74
     1
 75
     0
 76
     0
 77
     0
 78
     0
170
     0
171
     2
172
     0
173
     0
174
     0
175
     0
176
     0
177
     0
178
     0
270
     2
271
     4
272
     4
273
     2
274
     2
340
11
275
     0
280
     0
281
     0
282
     0
283
     1
284
     0
285
     0
286
     0
287
     3
288
     0
  0
ENDTAB
  0
TABLE
  2
BLOCK_RECORD
  5
1
330
0
100
AcDbSymbolTable
 70
     2
  0
BLOCK_RECORD
  5
1E
102
{ACAD_XDICTIONARY
360
220
102
}
330
1
100
AcDbSymbolTableRecord
100
AcDbBlockTableRecord
  2
*MODEL_SPACE
  0
BLOCK_RECORD
  5
1A
102
{ACAD_XDICTIONARY
360
21E
102
}
330
1
100
AcDbSymbolTableRecord
100
AcDbBlockTableRecord
  2
*PAPER_SPACE
  0
BLOCK_RECORD
  5
34
330
1
100
AcDbSymbolTableRecord
100
AcDbBlockTableRecord
  2
_ORIGIN
  0
BLOCK_RECORD
  5
39
330
1
100
AcDbSymbolTableRecord
100
AcDbBlockTableRecord
  2
_DOTBLANK
  0
ENDTAB
  0
ENDSEC
  0
SECTION
  2
BLOCKS
  0
BLOCK
  5
1F
330
1E
100
AcDbEntity
  8
0
100
AcDbBlockBegin
  2
*MODEL_SPACE
 70
     0
 10
0.0
 20
0.0
 30
0.0
  3
*MODEL_SPACE
  1

  0
ENDBLK
  5
20
330
1E
100
AcDbEntity
  8
0
100
AcDbBlockEnd
  0
BLOCK
  5
1B
330
1A
100
AcDbEntity
 67
     1
  8
0
100
AcDbBlockBegin
  2
*PAPER_SPACE
 70
     0
 10
0.0
 20
0.0
 30
0.0
  3
*PAPER_SPACE
  1

  0
ENDBLK
  5
1C
330
1A
100
AcDbEntity
 67
     1
  8
0
100
AcDbBlockEnd
  0
BLOCK
  5
35
330
34
100
AcDbEntity
  8
0
100
AcDbBlockBegin
  2
_ORIGIN
 70
     0
 10
0.0
 20
0.0
 30
0.0
  3
_ORIGIN
  1

  0
CIRCLE
  5
36
330
34
100
AcDbEntity
  8
0
  6
CONTINUOUS
 62
     7
100
AcDbCircle
 10
0.0
 20
0.0
 30
0.0
 40
0.5
  0
LINE
  5
37
330
34
100
AcDbEntity
  8
0
  6
CONTINUOUS
 62
     7
100
AcDbLine
 10
-0.5
 20
0.0
 30
0.0
 11
-1.0
 21
0.0
 31
0.0
  0
ENDBLK
  5
38
330
34
100
AcDbEntity
  8
0
100
AcDbBlockEnd
  0
BLOCK
  5
3A
330
39
100
AcDbEntity
  8
0
100
AcDbBlockBegin
  2
_DOTBLANK
 70
     0
 10
0.0
 20
0.0
 30
0.0
  3
_DOTBLANK
  1

  0
CIRCLE
  5
3B
330
39
100
AcDbEntity
  8
0
  6
CONTINUOUS
 62
     7
100
AcDbCircle
 10
0.0
 20
0.0
 30
0.0
 40
0.5
  0
LINE
  5
3C
330
39
100
AcDbEntity
  8
0
  6
CONTINUOUS
 62
     7
100
AcDbLine
 10
-0.5
 20
0.0
 30
0.0
 11
-1.0
 21
0.0
 31
0.0
  0
ENDBLK
  5
3D
330
39
100
AcDbEntity
  8
0
100
AcDbBlockEnd
  0
ENDSEC
  0
SECTION
  2
ENTITIES
  0
TEXT
  5
3E
330
1E
100
AcDbEntity
  8
0
  6
CONTINUOUS
 62
     7
100
AcDbText
 10
12761.29
 20
1934.172
 30
0.0
 40
3.2
  1
 
 50
0.000003
 41
0.5989580000000001
  7
STANDARD1
100
AcDbText
  0
TEXT
  5
3F
330
1E
100
AcDbEntity
  8
ETC
  6
CONTINUOUS
 62
    61
100
AcDbText
 10
428.5227329817135
 20
1094.334544052062
 30
0.0
 40
64.0
  1
PLFY-P125VLMD-E_4
 41
0.9
100
AcDbText
  0
LINE
  5
40
330
1E
100
AcDbEntity
  8
SIZE
  6
CONTINUOUS
 62
    30
100
AcDbLine
 10
-854.0
 20
358.0
 30
0.0
 11
-854.0
 21
456.1000073814489
 31
0.0
  0
LINE
  5
41
330
1E
100
AcDbEntity
  8
SIZE
  6
CONTINUOUS
 62
    30
100
AcDbLine
 10
-884.0
 20
340.0000000000008
 30
0.0
 11
-884.0
 21
456.1000073814489
 31
0.0
  0
LINE
  5
42
330
1E
100
AcDbEntity
  8
SIZE
  6
CONTINUOUS
 62
    30
100
AcDbLine
 10
-844.0
 20
426.1000073814488
 30
0.0
 11
-834.0
 21
426.1000073814488
 31
0.0
  0
LINE
  5
43
330
1E
100
AcDbEntity
  8
SIZE
  6
CONTINUOUS
 62
    30
100
AcDbLine
 10
-894.0
 20
426.1000073814488
 30
0.0
 11
-1037.257142857144
 21
426.1000073814488
 31
0.0
  0
LINE
  5
44
330
1E
100
AcDbEntity
  8
SIZE
  6
CONTINUOUS
 62
    30
100
AcDbLine
 10
-854.0
 20
426.1000073814488
 30
0.0
 11
-884.0
 21
426.1000073814488
 31
0.0
  0
CIRCLE
  5
45
330
1E
100
AcDbEntity
  8
SIZE
  6
CONTINUOUS
 62
    30
100
AcDbCircle
 10
-854.0
 20
426.1000073814488
 30
0.0
 40
5.0
  0
LINE
  5
46
330
1E
100
AcDbEntity
  8
SIZE
  6
CONTINUOUS
 62
    30
100
AcDbLine
 10
-849.0
 20
426.1000073814488
 30
0.0
 11
-844.0
 21
426.1000073814488
 31
0.0
  0
CIRCLE
  5
47
330
1E
100
AcDbEntity
  8
SIZE
  6
CONTINUOUS
 62
    30
100
AcDbCircle
 10
-884.0
 20
426.1000073814488
 30
0.0
 40
5.0
  0
LINE
  5
48
330
1E
100
AcDbEntity
  8
SIZE
  6
CONTINUOUS
 62
    30
100
AcDbLine
 10
-889.0
 20
426.1000073814488
 30
0.0
 11
-894.0
 21
426.1000073814488
 31
0.0
  0
TEXT
  5
49
330
1E
100
AcDbEntity
  8
SIZE
  6
CONTINUOUS
 62
    30
100
AcDbText
 10
-1017.257142857144
 20
446.1000073814489
 30
0.0
 40
64.0
  1
30
 41
0.9
 72
     1
 11
-970.6285714285733
 21
446.1000073814489
 31
0.0
100
AcDbText
  0
POINT
  5
4A
330
1E
100
AcDbEntity
  8
DEFPOINTS
  6
CONTINUOUS
 62
     7
100
AcDbPoint
 10
-854.0
 20
338.0
 30
0.0
  0
POINT
  5
4B
330
1E
100
AcDbEntity
  8
DEFPOINTS
  6
CONTINUOUS
 62
     7
100
AcDbPoint
 10
-884.0
 20
320.0000000000008
 30
0.0
  0
POINT
  5
4C
330
1E
100
AcDbEntity
  8
DEFPOINTS
  6
CONTINUOUS
 62
     7
100
AcDbPoint
 10
-884.0
 20
426.1000073814488
 30
0.0
  0
LINE
  5
4D
330
1E
100
AcDbEntity
  8
SIZE
  6
CONTINUOUS
 62
    30
100
AcDbLine
 10
-854.0
 20
358.0
 30
0.0
 11
-854.0
 21
569.4071686758384
 31
0.0
  0
LINE
  5
4E
330
1E
100
AcDbEntity
  8
SIZE
  6
CONTINUOUS
 62
    30
100
AcDbLine
 10
-911.0
 20
223.0000000000008
 30
0.0
 11
-911.0
 21
569.4071686758384
 31
0.0
  0
LINE
  5
4F
330
1E
100
AcDbEntity
  8
SIZE
  6
CONTINUOUS
 62
    30
100
AcDbLine
 10
-844.0
 20
539.4071686758384
 30
0.0
 11
-834.0
 21
539.4071686758384
 31
0.0
  0
LINE
  5
50
330
1E
100
AcDbEntity
  8
SIZE
  6
CONTINUOUS
 62
    30
100
AcDbLine
 10
-921.0
 20
539.4071686758384
 30
0.0
 11
-1064.257142857144
 21
539.4071686758384
 31
0.0
  0
LINE
  5
51
330
1E
100
AcDbEntity
  8
SIZE
  6
CONTINUOUS
 62
    30
100
AcDbLine
 10
-854.0
 20
539.4071686758384
 30
0.0
 11
-911.0
 21
539.4071686758384
 31
0.0
  0
CIRCLE
  5
52
330
1E
100
AcDbEntity
  8
SIZE
  6
CONTINUOUS
 62
    30
100
AcDbCircle
 10
-854.0
 20
539.4071686758384
 30
0.0
 40
5.0
  0
LINE
  5
53
330
1E
100
AcDbEntity
  8
SIZE
  6
CONTINUOUS
 62
    30
100
AcDbLine
 10
-849.0
 20
539.4071686758384
 30
0.0
 11
-844.0
 21
539.4071686758384
 31
0.0
  0
CIRCLE
  5
54
330
1E
100
AcDbEntity
  8
SIZE
  6
CONTINUOUS
 62
    30
100
AcDbCircle
 10
-911.0
 20
539.4071686758384
 30
0.0
 40
5.0
  0
LINE
  5
55
330
1E
100
AcDbEntity
  8
SIZE
  6
CONTINUOUS
 62
    30
100
AcDbLine
 10
-916.0
 20
539.4071686758384
 30
0.0
 11
-921.0
 21
539.4071686758384
 31
0.0
  0
TEXT
  5
56
330
1E
100
AcDbEntity
  8
SIZE
  6
CONTINUOUS
 62
    30
100
AcDbText
 10
-1044.257142857144
 20
559.4071686758383
 30
0.0
 40
64.0
  1
57
 41
0.9
 72
     1
 11
-997.6285714285733
 21
559.4071686758383
 31
0.0
100
AcDbText
  0
POINT
  5
57
330
1E
100
AcDbEntity
  8
DEFPOINTS
  6
CONTINUOUS
 62
     7
100
AcDbPoint
 10
-854.0
 20
338.0
 30
0.0
  0
POINT
  5
58
330
1E
100
AcDbEntity
  8
DEFPOINTS
  6
CONTINUOUS
 62
     7
100
AcDbPoint
 10
-911.0
 20
203.0000000000008
 30
0.0
  0
POINT
  5
59
330
1E
100
AcDbEntity
  8
DEFPOINTS
  6
CONTINUOUS
 62
     7
100
AcDbPoint
 10
-911.0
 20
539.4071686758384
 30
0.0
  0
LINE
  5
5A
330
1E
100
AcDbEntity
  8
SIZE
  6
CONTINUOUS
 62
    30
100
AcDbLine
 10
-854.0
 20
358.0
 30
0.0
 11
-854.0
 21
673.1811352011959
 31
0.0
  0
LINE
  5
5B
330
1E
100
AcDbEntity
  8
SIZE
  6
CONTINUOUS
 62
    30
100
AcDbLine
 10
-924.0
 20
223.0000000000008
 30
0.0
 11
-924.0
 21
673.1811352011959
 31
0.0
  0
LINE
  5
5C
330
1E
100
AcDbEntity
  8
SIZE
  6
CONTINUOUS
 62
    30
100
AcDbLine
 10
-864.0
 20
643.1811352011959
 30
0.0
 11
-914.0
 21
643.1811352011959
 31
0.0
  0
LINE
  5
5D
330
1E
100
AcDbEntity
  8
SIZE
  6
CONTINUOUS
 62
    30
100
AcDbLine
 10
-924.0
 20
643.1811352011959
 30
0.0
 11
-1067.257142857144
 21
643.1811352011959
 31
0.0
  0
CIRCLE
  5
5E
330
1E
100
AcDbEntity
  8
SIZE
  6
CONTINUOUS
 62
    30
100
AcDbCircle
 10
-854.0
 20
643.1811352011959
 30
0.0
 40
5.0
  0
LINE
  5
5F
330
1E
100
AcDbEntity
  8
SIZE
  6
CONTINUOUS
 62
    30
100
AcDbLine
 10
-859.0
 20
643.1811352011959
 30
0.0
 11
-864.0
 21
643.1811352011959
 31
0.0
  0
CIRCLE
  5
60
330
1E
100
AcDbEntity
  8
SIZE
  6
CONTINUOUS
 62
    30
100
AcDbCircle
 10
-924.0
 20
643.1811352011959
 30
0.0
 40
5.0
  0
LINE
  5
61
330
1E
100
AcDbEntity
  8
SIZE
  6
CONTINUOUS
 62
    30
100
AcDbLine
 10
-919.0
 20
643.1811352011959
 30
0.0
 11
-914.0
 21
643.1811352011959
 31
0.0
  0
TEXT
  5
62
330
1E
100
AcDbEntity
  8
SIZE
  6
CONTINUOUS
 62
    30
100
AcDbText
 10
-1047.257142857144
 20
663.1811352011959
 30
0.0
 40
64.0
  1
70
 41
0.9
 72
     1
 11
-1000.628571428572
 21
663.1811352011959
 31
0.0
100
AcDbText
  0
POINT
  5
63
330
1E
100
AcDbEntity
  8
DEFPOINTS
  6
CONTINUOUS
 62
     7
100
AcDbPoint
 10
-854.0
 20
338.0
 30
0.0
  0
POINT
  5
64
330
1E
100
AcDbEntity
  8
DEFPOINTS
  6
CONTINUOUS
 62
     7
100
AcDbPoint
 10
-924.0
 20
203.0000000000008
 30
0.0
  0
POINT
  5
65
330
1E
100
AcDbEntity
  8
DEFPOINTS
  6
CONTINUOUS
 62
     7
100
AcDbPoint
 10
-924.0
 20
643.1811352011959
 30
0.0
  0
LINE
  5
66
330
1E
100
AcDbEntity
  8
SIZE
  6
CONTINUOUS
 62
    30
100
AcDbLine
 10
-874.0
 20
338.0
 30
0.0
 11
-1552.172910418265
 21
338.0000000000003
 31
0.0
  0
LINE
  5
67
330
1E
100
AcDbEntity
  8
SIZE
  6
CONTINUOUS
 62
    30
100
AcDbLine
 10
-894.0
 20
83.00000000000091
 30
0.0
 11
-1552.172910418265
 21
83.00000000000109
 31
0.0
  0
LINE
  5
68
330
1E
100
AcDbEntity
  8
SIZE
  6
CONTINUOUS
 62
    30
100
AcDbLine
 10
-1522.172910418267
 20
328.0000000000002
 30
0.0
 11
-1522.172910418267
 21
93.00000000000109
 31
0.0
  0
CIRCLE
  5
69
330
1E
100
AcDbEntity
  8
SIZE
  6
CONTINUOUS
 62
    30
100
AcDbCircle
 10
-1522.172910418267
 20
338.0000000000003
 30
0.0
 40
5.0
  0
LINE
  5
6A
330
1E
100
AcDbEntity
  8
SIZE
  6
CONTINUOUS
 62
    30
100
AcDbLine
 10
-1522.172910418267
 20
333.0000000000002
 30
0.0
 11
-1522.172910418267
 21
328.0000000000002
 31
0.0
  0
CIRCLE
  5
6B
330
1E
100
AcDbEntity
  8
SIZE
  6
CONTINUOUS
 62
    30
100
AcDbCircle
 10
-1522.172910418267
 20
83.00000000000109
 30
0.0
 40
5.0
  0
LINE
  5
6C
330
1E
100
AcDbEntity
  8
SIZE
  6
CONTINUOUS
 62
    30
100
AcDbLine
 10
-1522.172910418267
 20
88.00000000000109
 30
0.0
 11
-1522.172910418267
 21
93.00000000000109
 31
0.0
  0
TEXT
  5
6D
330
1E
100
AcDbEntity
  8
SIZE
  6
CONTINUOUS
 62
    30
100
AcDbText
 10
-1542.172910418265
 20
136.4428571428574
 30
0.0
 40
64.0
  1
255
 50
90.0
 41
0.9
 72
     1
 11
-1542.172910418265
 21
210.5000000000003
 31
0.0
100
AcDbText
  0
POINT
  5
6E
330
1E
100
AcDbEntity
  8
DEFPOINTS
  6
CONTINUOUS
 62
     7
100
AcDbPoint
 10
-854.0
 20
338.0
 30
0.0
  0
POINT
  5
6F
330
1E
100
AcDbEntity
  8
DEFPOINTS
  6
CONTINUOUS
 62
     7
100
AcDbPoint
 10
-874.0
 20
83.00000000000091
 30
0.0
  0
POINT
  5
70
330
1E
100
AcDbEntity
  8
DEFPOINTS
  6
CONTINUOUS
 62
     7
100
AcDbPoint
 10
-1522.172910418267
 20
83.00000000000109
 30
0.0
  0
LINE
  5
71
330
1E
100
AcDbEntity
  8
SIZE
  6
CONTINUOUS
 62
    30
100
AcDbLine
 10
-874.0
 20
338.0
 30
0.0
 11
-1433.857430530101
 21
338.0000000000003
 31
0.0
  0
LINE
  5
72
330
1E
100
AcDbEntity
  8
SIZE
  6
CONTINUOUS
 62
    30
100
AcDbLine
 10
-1008.0
 20
103.0000000000009
 30
0.0
 11
-1433.857430530101
 21
103.000000000001
 31
0.0
  0
LINE
  5
73
330
1E
100
AcDbEntity
  8
SIZE
  6
CONTINUOUS
 62
    30
100
AcDbLine
 10
-1403.8574305301
 20
328.0
 30
0.0
 11
-1403.8574305301
 21
113.0000000000009
 31
0.0
  0
CIRCLE
  5
74
330
1E
100
AcDbEntity
  8
SIZE
  6
CONTINUOUS
 62
    30
100
AcDbCircle
 10
-1403.8574305301
 20
338.0
 30
0.0
 40
5.0
  0
LINE
  5
75
330
1E
100
AcDbEntity
  8
SIZE
  6
CONTINUOUS
 62
    30
100
AcDbLine
 10
-1403.8574305301
 20
333.0
 30
0.0
 11
-1403.8574305301
 21
328.0
 31
0.0
  0
CIRCLE
  5
76
330
1E
100
AcDbEntity
  8
SIZE
  6
CONTINUOUS
 62
    30
100
AcDbCircle
 10
-1403.8574305301
 20
103.000000000001
 30
0.0
 40
5.0
  0
LINE
  5
77
330
1E
100
AcDbEntity
  8
SIZE
  6
CONTINUOUS
 62
    30
100
AcDbLine
 10
-1403.8574305301
 20
108.000000000001
 30
0.0
 11
-1403.8574305301
 21
113.0000000000009
 31
0.0
  0
TEXT
  5
78
330
1E
100
AcDbEntity
  8
SIZE
  6
CONTINUOUS
 62
    30
100
AcDbText
 10
-1423.8574305301
 20
146.4428571428575
 30
0.0
 40
64.0
  1
235
 50
90.0
 41
0.9
 72
     1
 11
-1423.8574305301
 21
220.5000000000004
 31
0.0
100
AcDbText
  0
POINT
  5
79
330
1E
100
AcDbEntity
  8
DEFPOINTS
  6
CONTINUOUS
 62
     7
100
AcDbPoint
 10
-854.0
 20
338.0
 30
0.0
  0
POINT
  5
7A
330
1E
100
AcDbEntity
  8
DEFPOINTS
  6
CONTINUOUS
 62
     7
100
AcDbPoint
 10
-988.0
 20
103.0000000000009
 30
0.0
  0
POINT
  5
7B
330
1E
100
AcDbEntity
  8
DEFPOINTS
  6
CONTINUOUS
 62
     7
100
AcDbPoint
 10
-1403.8574305301
 20
103.000000000001
 30
0.0
  0
LINE
  5
7C
330
1E
100
AcDbEntity
  8
SIZE
  6
CONTINUOUS
 62
    30
100
AcDbLine
 10
-874.0
 20
338.0000000000008
 30
0.0
 11
-1310.343865977865
 21
338.000000000001
 31
0.0
  0
LINE
  5
7D
330
1E
100
AcDbEntity
  8
SIZE
  6
CONTINUOUS
 62
    30
100
AcDbLine
 10
-964.0
 20
183.0000000000008
 30
0.0
 11
-1310.343865977865
 21
183.0000000000009
 31
0.0
  0
LINE
  5
7E
330
1E
100
AcDbEntity
  8
SIZE
  6
CONTINUOUS
 62
    30
100
AcDbLine
 10
-1280.343865977865
 20
348.0000000000011
 30
0.0
 11
-1280.343865977865
 21
358.000000000001
 31
0.0
  0
LINE
  5
7F
330
1E
100
AcDbEntity
  8
SIZE
  6
CONTINUOUS
 62
    30
100
AcDbLine
 10
-1280.343865977865
 20
173.000000000001
 30
0.0
 11
-1280.343865977865
 21
163.0000000000009
 31
0.0
  0
LINE
  5
80
330
1E
100
AcDbEntity
  8
SIZE
  6
CONTINUOUS
 62
    30
100
AcDbLine
 10
-1280.343865977865
 20
338.000000000001
 30
0.0
 11
-1280.343865977865
 21
183.0000000000009
 31
0.0
  0
CIRCLE
  5
81
330
1E
100
AcDbEntity
  8
SIZE
  6
CONTINUOUS
 62
    30
100
AcDbCircle
 10
-1280.343865977865
 20
338.000000000001
 30
0.0
 40
5.0
  0
LINE
  5
82
330
1E
100
AcDbEntity
  8
SIZE
  6
CONTINUOUS
 62
    30
100
AcDbLine
 10
-1280.343865977865
 20
343.000000000001
 30
0.0
 11
-1280.343865977865
 21
348.0000000000011
 31
0.0
  0
CIRCLE
  5
83
330
1E
100
AcDbEntity
  8
SIZE
  6
CONTINUOUS
 62
    30
100
AcDbCircle
 10
-1280.343865977865
 20
183.0000000000009
 30
0.0
 40
5.0
  0
LINE
  5
84
330
1E
100
AcDbEntity
  8
SIZE
  6
CONTINUOUS
 62
    30
100
AcDbLine
 10
-1280.343865977865
 20
178.000000000001
 30
0.0
 11
-1280.343865977865
 21
173.000000000001
 31
0.0
  0
TEXT
  5
85
330
1E
100
AcDbEntity
  8
SIZE
  6
CONTINUOUS
 62
    30
100
AcDbText
 10
-1300.343865977865
 20
191.9285714285721
 30
0.0
 40
64.0
  1
155
 50
90.0
 41
0.9
 72
     1
 11
-1300.343865977865
 21
260.5000000000007
 31
0.0
100
AcDbText
  0
POINT
  5
86
330
1E
100
AcDbEntity
  8
DEFPOINTS
  6
CONTINUOUS
 62
     7
100
AcDbPoint
 10
-854.0
 20
338.0000000000008
 30
0.0
  0
POINT
  5
87
330
1E
100
AcDbEntity
  8
DEFPOINTS
  6
CONTINUOUS
 62
     7
100
AcDbPoint
 10
-944.0
 20
183.0000000000008
 30
0.0
  0
POINT
  5
88
330
1E
100
AcDbEntity
  8
DEFPOINTS
  6
CONTINUOUS
 62
     7
100
AcDbPoint
 10
-1280.343865977865
 20
183.0000000000009
 30
0.0
  0
LINE
  5
89
330
1E
100
AcDbEntity
  8
SIZE
  6
CONTINUOUS
 62
    30
100
AcDbLine
 10
-874.0
 20
338.0
 30
0.0
 11
-1189.687328592982
 21
338.0
 31
0.0
  0
LINE
  5
8A
330
1E
100
AcDbEntity
  8
SIZE
  6
CONTINUOUS
 62
    30
100
AcDbLine
 10
-924.0
 20
300.0000000000008
 30
0.0
 11
-1189.687328592982
 21
300.0000000000008
 31
0.0
  0
LINE
  5
8B
330
1E
100
AcDbEntity
  8
SIZE
  6
CONTINUOUS
 62
    30
100
AcDbLine
 10
-1159.687328592982
 20
348.0
 30
0.0
 11
-1159.687328592982
 21
358.0
 31
0.0
  0
LINE
  5
8C
330
1E
100
AcDbEntity
  8
SIZE
  6
CONTINUOUS
 62
    30
100
AcDbLine
 10
-1159.687328592982
 20
290.0000000000008
 30
0.0
 11
-1159.687328592982
 21
280.0000000000008
 31
0.0
  0
LINE
  5
8D
330
1E
100
AcDbEntity
  8
SIZE
  6
CONTINUOUS
 62
    30
100
AcDbLine
 10
-1159.687328592982
 20
338.0
 30
0.0
 11
-1159.687328592982
 21
300.0000000000008
 31
0.0
  0
CIRCLE
  5
8E
330
1E
100
AcDbEntity
  8
SIZE
  6
CONTINUOUS
 62
    30
100
AcDbCircle
 10
-1159.687328592982
 20
338.0
 30
0.0
 40
5.0
  0
LINE
  5
8F
330
1E
100
AcDbEntity
  8
SIZE
  6
CONTINUOUS
 62
    30
100
AcDbLine
 10
-1159.687328592982
 20
343.0
 30
0.0
 11
-1159.687328592982
 21
348.0
 31
0.0
  0
CIRCLE
  5
90
330
1E
100
AcDbEntity
  8
SIZE
  6
CONTINUOUS
 62
    30
100
AcDbCircle
 10
-1159.687328592982
 20
300.0000000000008
 30
0.0
 40
5.0
  0
LINE
  5
91
330
1E
100
AcDbEntity
  8
SIZE
  6
CONTINUOUS
 62
    30
100
AcDbLine
 10
-1159.687328592982
 20
295.0000000000008
 30
0.0
 11
-1159.687328592982
 21
290.0000000000008
 31
0.0
  0
TEXT
  5
92
330
1E
100
AcDbEntity
  8
SIZE
  6
CONTINUOUS
 62
    30
100
AcDbText
 10
-1179.687328592983
 20
272.3714285714288
 30
0.0
 40
64.0
  1
38
 50
90.0
 41
0.9
 72
     1
 11
-1179.687328592983
 21
319.0000000000003
 31
0.0
100
AcDbText
  0
POINT
  5
93
330
1E
100
AcDbEntity
  8
DEFPOINTS
  6
CONTINUOUS
 62
     7
100
AcDbPoint
 10
-854.0
 20
338.0
 30
0.0
  0
POINT
  5
94
330
1E
100
AcDbEntity
  8
DEFPOINTS
  6
CONTINUOUS
 62
     7
100
AcDbPoint
 10
-904.0
 20
300.0000000000008
 30
0.0
  0
POINT
  5
95
330
1E
100
AcDbEntity
  8
DEFPOINTS
  6
CONTINUOUS
 62
     7
100
AcDbPoint
 10
-1159.687328592982
 20
300.0000000000008
 30
0.0
  0
LINE
  5
96
330
1E
100
AcDbEntity
  8
DETAIL
  6
CONTINUOUS
 62
     5
100
AcDbLine
 10
-854.0
 20
51.08000000000084
 30
0.0
 11
-968.0
 21
83.00000000000091
 31
0.0
  0
LINE
  5
97
330
1E
100
AcDbEntity
  8
DETAIL
  6
CONTINUOUS
 62
     5
100
AcDbLine
 10
-854.0
 20
133.0
 30
0.0
 11
-968.0
 21
133.0
 31
0.0
  0
LWPOLYLINE
  5
98
330
1E
100
AcDbEntity
  8
NOTE
  6
CONTINUOUS
 62
     4
100
AcDbPolyline
 90
        3
 70
     0
 43
0.0
 10
-866.0894404365572
 20
44.87067547728428
 10
-854.0
 20
83.0
 10
-883.5344252917456
 20
56.02375669835601
  0
LINE
  5
9D
330
1E
100
AcDbEntity
  8
NOTE
  6
CONTINUOUS
 62
     4
100
AcDbLine
 10
-854.0
 20
83.0
 30
0.0
 11
-1268.451224320757
 21
-564.3321279044642
 31
0.0
  0
LINE
  5
9E
330
1E
100
AcDbEntity
  8
DETAIL
  6
CONTINUOUS
 62
     5
100
AcDbLine
 10
-924.0
 20
190.9400000000008
 30
0.0
 11
-854.0
 21
190.9400000000008
 31
0.0
  0
LINE
  5
9F
330
1E
100
AcDbEntity
  8
DETAIL
  6
CONTINUOUS
 62
     5
100
AcDbLine
 10
-924.0
 20
175.0600000000007
 30
0.0
 11
-854.0
 21
175.0600000000007
 31
0.0
  0
LINE
  5
A0
330
1E
100
AcDbEntity
  8
DETAIL
  6
CONTINUOUS
 62
     5
100
AcDbLine
 10
-911.0000000000034
 20
187.7600000000043
 30
0.0
 11
-854.0
 21
187.7600000000043
 31
0.0
  0
LINE
  5
A1
330
1E
100
AcDbEntity
  8
DETAIL
  6
CONTINUOUS
 62
     5
100
AcDbLine
 10
-911.0000000000034
 20
178.2400000000038
 30
0.0
 11
-854.0
 21
178.2400000000038
 31
0.0
  0
LINE
  5
A2
330
1E
100
AcDbEntity
  8
DETAIL
  6
CONTINUOUS
 62
     5
100
AcDbLine
 10
-884.0
 20
312.4999999999968
 30
0.0
 11
-854.0
 21
312.4999999999968
 31
0.0
  0
LINE
  5
A3
330
1E
100
AcDbEntity
  8
DETAIL
  6
CONTINUOUS
 62
     5
100
AcDbLine
 10
-884.0
 20
287.4999999999968
 30
0.0
 11
-854.0
 21
287.4999999999968
 31
0.0
  0
LINE
  5
A4
330
1E
100
AcDbEntity
  8
NOTE
  6
CONTINUOUS
 62
     4
100
AcDbLine
 10
-904.0
 20
300.0000000000008
 30
0.0
 11
-864.0
 21
300.0000000000008
 31
0.0
  0
CIRCLE
  5
A5
330
1E
100
AcDbEntity
  8
FIX
  6
CONTINUOUS
 62
    11
100
AcDbCircle
 10
-878.0
 20
146.0
 30
0.0
 40
20.0
  0
LINE
  5
A6
330
1E
100
AcDbEntity
  8
NOTE
  6
CONTINUOUS
 62
     4
100
AcDbLine
 10
-898.0
 20
146.0
 30
0.0
 11
-858.0
 21
146.0
 31
0.0
  0
LINE
  5
A7
330
1E
100
AcDbEntity
  8
DETAIL
  6
CONTINUOUS
 62
     5
100
AcDbLine
 10
-904.0
 20
146.0
 30
0.0
 11
-854.0
 21
146.0
 31
0.0
  0
LINE
  5
A8
330
1E
100
AcDbEntity
  8
DETAIL
  6
CONTINUOUS
 62
     5
100
AcDbLine
 10
-904.0
 20
143.6999999999998
 30
0.0
 11
-854.0
 21
143.6999999999998
 31
0.0
  0
LINE
  5
A9
330
1E
100
AcDbEntity
  8
SIZE
  6
CONTINUOUS
 62
    30
100
AcDbLine
 10
1005.0
 20
-19.99999999999954
 30
0.0
 11
1005.0
 21
-500.2444529999998
 31
0.0
  0
LINE
  5
AA
330
1E
100
AcDbEntity
  8
SIZE
  6
CONTINUOUS
 62
    30
100
AcDbLine
 10
-1005.0
 20
-19.99999999999954
 30
0.0
 11
-1005.0
 21
-500.2444529999998
 31
0.0
  0
LINE
  5
AB
330
1E
100
AcDbEntity
  8
SIZE
  6
CONTINUOUS
 62
    30
100
AcDbLine
 10
995.0
 20
-470.2444529999998
 30
0.0
 11
-995.0
 21
-470.2444529999998
 31
0.0
  0
CIRCLE
  5
AC
330
1E
100
AcDbEntity
  8
SIZE
  6
CONTINUOUS
 62
    30
100
AcDbCircle
 10
1005.0
 20
-470.2444529999998
 30
0.0
 40
5.0
  0
LINE
  5
AD
330
1E
100
AcDbEntity
  8
SIZE
  6
CONTINUOUS
 62
    30
100
AcDbLine
 10
1000.0
 20
-470.2444529999998
 30
0.0
 11
995.0
 21
-470.2444529999998
 31
0.0
  0
CIRCLE
  5
AE
330
1E
100
AcDbEntity
  8
SIZE
  6
CONTINUOUS
 62
    30
100
AcDbCircle
 10
-1005.0
 20
-470.2444529999998
 30
0.0
 40
5.0
  0
LINE
  5
AF
330
1E
100
AcDbEntity
  8
SIZE
  6
CONTINUOUS
 62
    30
100
AcDbLine
 10
-1000.0
 20
-470.2444529999998
 30
0.0
 11
-995.0
 21
-470.2444529999998
 31
0.0
  0
TEXT
  5
B0
330
1E
100
AcDbEntity
  8
SIZE
  6
CONTINUOUS
 62
    30
100
AcDbText
 10
-95.99999999999999
 20
-450.2444529999997
 30
0.0
 40
64.0
  1
2010
 41
0.9
 72
     1
 11
0.0
 21
-450.2444529999997
 31
0.0
100
AcDbText
  0
POINT
  5
B1
330
1E
100
AcDbEntity
  8
DEFPOINTS
  6
CONTINUOUS
 62
     7
100
AcDbPoint
 10
1005.0
 20
0.0000000000004547
 30
0.0
  0
POINT
  5
B2
330
1E
100
AcDbEntity
  8
DEFPOINTS
  6
CONTINUOUS
 62
     7
100
AcDbPoint
 10
-1005.0
 20
0.0000000000004547
 30
0.0
  0
POINT
  5
B3
330
1E
100
AcDbEntity
  8
DEFPOINTS
  6
CONTINUOUS
 62
     7
100
AcDbPoint
 10
-1005.0
 20
-470.2444529999998
 30
0.0
  0
LINE
  5
B4
330
1E
100
AcDbEntity
  8
SIZE
  6
CONTINUOUS
 62
    30
100
AcDbLine
 10
878.0
 20
108.0
 30
0.0
 11
878.0
 21
-626.4517531121867
 31
0.0
  0
LINE
  5
B5
330
1E
100
AcDbEntity
  8
SIZE
  6
CONTINUOUS
 62
    30
100
AcDbLine
 10
-878.0
 20
108.0
 30
0.0
 11
-878.0
 21
-626.4517531121867
 31
0.0
  0
LINE
  5
B6
330
1E
100
AcDbEntity
  8
SIZE
  6
CONTINUOUS
 62
    30
100
AcDbLine
 10
868.0
 20
-596.4517531121868
 30
0.0
 11
-868.0
 21
-596.4517531121868
 31
0.0
  0
CIRCLE
  5
B7
330
1E
100
AcDbEntity
  8
SIZE
  6
CONTINUOUS
 62
    30
100
AcDbCircle
 10
878.0
 20
-596.4517531121868
 30
0.0
 40
5.0
  0
LINE
  5
B8
330
1E
100
AcDbEntity
  8
SIZE
  6
CONTINUOUS
 62
    30
100
AcDbLine
 10
873.0
 20
-596.4517531121868
 30
0.0
 11
868.0
 21
-596.4517531121868
 31
0.0
  0
CIRCLE
  5
B9
330
1E
100
AcDbEntity
  8
SIZE
  6
CONTINUOUS
 62
    30
100
AcDbCircle
 10
-878.0
 20
-596.4517531121868
 30
0.0
 40
5.0
  0
LINE
  5
BA
330
1E
100
AcDbEntity
  8
SIZE
  6
CONTINUOUS
 62
    30
100
AcDbLine
 10
-873.0
 20
-596.4517531121868
 30
0.0
 11
-868.0
 21
-596.4517531121868
 31
0.0
  0
TEXT
  5
BB
330
1E
100
AcDbEntity
  8
SIZE
  6
CONTINUOUS
 62
    30
100
AcDbText
 10
-94.62857142857142
 20
-576.4517531121868
 30
0.0
 40
64.0
  1
1756
 41
0.9
 72
     1
 11
0.0
 21
-576.4517531121868
 31
0.0
100
AcDbText
  0
POINT
  5
BC
330
1E
100
AcDbEntity
  8
DEFPOINTS
  6
CONTINUOUS
 62
     7
100
AcDbPoint
 10
878.0
 20
128.0
 30
0.0
  0
POINT
  5
BD
330
1E
100
AcDbEntity
  8
DEFPOINTS
  6
CONTINUOUS
 62
     7
100
AcDbPoint
 10
-878.0
 20
128.0
 30
0.0
  0
POINT
  5
BE
330
1E
100
AcDbEntity
  8
DEFPOINTS
  6
CONTINUOUS
 62
     7
100
AcDbPoint
 10
-878.0
 20
-596.4517531121868
 30
0.0
  0
LINE
  5
BF
330
1E
100
AcDbEntity
  8
SIZE
  6
CONTINUOUS
 62
    30
100
AcDbLine
 10
-878.0
 20
108.0
 30
0.0
 11
-878.0
 21
-626.4517531121867
 31
0.0
  0
LINE
  5
C0
330
1E
100
AcDbEntity
  8
SIZE
  6
CONTINUOUS
 62
    30
100
AcDbLine
 10
-985.0
 20
-20.0
 30
0.0
 11
-985.0
 21
-626.4517531121867
 31
0.0
  0
LINE
  5
C1
330
1E
100
AcDbEntity
  8
SIZE
  6
CONTINUOUS
 62
    30
100
AcDbLine
 10
-888.0
 20
-596.4517531121868
 30
0.0
 11
-975.0
 21
-596.4517531121868
 31
0.0
  0
LINE
  5
C2
330
1E
100
AcDbEntity
  8
SIZE
  6
CONTINUOUS
 62
    30
100
AcDbLine
 10
-985.0
 20
-596.4517531121868
 30
0.0
 11
-1172.142857142858
 21
-596.4517531121868
 31
0.0
  0
CIRCLE
  5
C3
330
1E
100
AcDbEntity
  8
SIZE
  6
CONTINUOUS
 62
    30
100
AcDbCircle
 10
-878.0
 20
-596.4517531121868
 30
0.0
 40
5.0
  0
LINE
  5
C4
330
1E
100
AcDbEntity
  8
SIZE
  6
CONTINUOUS
 62
    30
100
AcDbLine
 10
-883.0
 20
-596.4517531121868
 30
0.0
 11
-888.0
 21
-596.4517531121868
 31
0.0
  0
CIRCLE
  5
C5
330
1E
100
AcDbEntity
  8
SIZE
  6
CONTINUOUS
 62
    30
100
AcDbCircle
 10
-985.0
 20
-596.4517531121868
 30
0.0
 40
5.0
  0
LINE
  5
C6
330
1E
100
AcDbEntity
  8
SIZE
  6
CONTINUOUS
 62
    30
100
AcDbLine
 10
-980.0
 20
-596.4517531121868
 30
0.0
 11
-975.0
 21
-596.4517531121868
 31
0.0
  0
TEXT
  5
C7
330
1E
100
AcDbEntity
  8
SIZE
  6
CONTINUOUS
 62
    30
100
AcDbText
 10
-1152.142857142859
 20
-576.4517531121868
 30
0.0
 40
64.0
  1
107
 41
0.9
 72
     1
 11
-1083.57142857143
 21
-576.4517531121868
 31
0.0
100
AcDbText
  0
POINT
  5
C8
330
1E
100
AcDbEntity
  8
DEFPOINTS
  6
CONTINUOUS
 62
     7
100
AcDbPoint
 10
-878.0
 20
128.0
 30
0.0
  0
POINT
  5
C9
330
1E
100
AcDbEntity
  8
DEFPOINTS
  6
CONTINUOUS
 62
     7
100
AcDbPoint
 10
-985.0
 20
0.0
 30
0.0
  0
POINT
  5
CA
330
1E
100
AcDbEntity
  8
DEFPOINTS
  6
CONTINUOUS
 62
     7
100
AcDbPoint
 10
-985.0
 20
-596.4517531121868
 30
0.0
  0
LINE
  5
CB
330
1E
100
AcDbEntity
  8
SIZE
  6
CONTINUOUS
 62
    30
100
AcDbLine
 10
985.0
 20
-19.99999999999954
 30
0.0
 11
985.0
 21
-208.7615646318786
 31
0.0
  0
LINE
  5
CC
330
1E
100
AcDbEntity
  8
SIZE
  6
CONTINUOUS
 62
    30
100
AcDbLine
 10
-985.0
 20
-19.99999999999954
 30
0.0
 11
-985.0
 21
-208.7615646318786
 31
0.0
  0
LINE
  5
CD
330
1E
100
AcDbEntity
  8
SIZE
  6
CONTINUOUS
 62
    30
100
AcDbLine
 10
975.0
 20
-178.7615646318785
 30
0.0
 11
-975.0
 21
-178.7615646318785
 31
0.0
  0
CIRCLE
  5
CE
330
1E
100
AcDbEntity
  8
SIZE
  6
CONTINUOUS
 62
    30
100
AcDbCircle
 10
985.0
 20
-178.7615646318785
 30
0.0
 40
5.0
  0
LINE
  5
CF
330
1E
100
AcDbEntity
  8
SIZE
  6
CONTINUOUS
 62
    30
100
AcDbLine
 10
980.0
 20
-178.7615646318785
 30
0.0
 11
975.0
 21
-178.7615646318785
 31
0.0
  0
CIRCLE
  5
D0
330
1E
100
AcDbEntity
  8
SIZE
  6
CONTINUOUS
 62
    30
100
AcDbCircle
 10
-985.0
 20
-178.7615646318785
 30
0.0
 40
5.0
  0
LINE
  5
D1
330
1E
100
AcDbEntity
  8
SIZE
  6
CONTINUOUS
 62
    30
100
AcDbLine
 10
-980.0
 20
-178.7615646318785
 30
0.0
 11
-975.0
 21
-178.7615646318785
 31
0.0
  0
TEXT
  5
D2
330
1E
100
AcDbEntity
  8
SIZE
  6
CONTINUOUS
 62
    30
100
AcDbText
 10
-96.0
 20
-158.7615646318786
 30
0.0
 40
64.0
  1
1970
 41
0.9
 72
     1
 11
0.0
 21
-158.7615646318786
 31
0.0
100
AcDbText
  0
POINT
  5
D3
330
1E
100
AcDbEntity
  8
DEFPOINTS
  6
CONTINUOUS
 62
     7
100
AcDbPoint
 10
985.0
 20
0.0000000000004547
 30
0.0
  0
POINT
  5
D4
330
1E
100
AcDbEntity
  8
DEFPOINTS
  6
CONTINUOUS
 62
     7
100
AcDbPoint
 10
-985.0
 20
0.0000000000004547
 30
0.0
  0
POINT
  5
D5
330
1E
100
AcDbEntity
  8
DEFPOINTS
  6
CONTINUOUS
 62
     7
100
AcDbPoint
 10
-985.0
 20
-178.7615646318785
 30
0.0
  0
LINE
  5
D6
330
1E
100
AcDbEntity
  8
DETAIL
  6
CONTINUOUS
 62
     5
100
AcDbLine
 10
-973.0
 20
44.99999999999952
 30
0.0
 11
973.0
 21
44.99999999999864
 31
0.0
  0
LINE
  5
D7
330
1E
100
AcDbEntity
  8
DETAIL
  6
CONTINUOUS
 62
     5
100
AcDbLine
 10
-1005.0
 20
0.0
 30
0.0
 11
1005.0
 21
0.0000000000004547
 31
0.0
  0
LINE
  5
D8
330
1E
100
AcDbEntity
  8
DETAIL
  6
CONTINUOUS
 62
     5
100
AcDbLine
 10
-998.0
 20
-8.000000000000454
 30
0.0
 11
998.0
 21
-8.0
 31
0.0
  0
LINE
  5
D9
330
1E
100
AcDbEntity
  8
SIZE
  6
CONTINUOUS
 62
    30
100
AcDbLine
 10
993.0
 20
44.99999999999999
 30
0.0
 11
1329.387403242039
 21
44.99999999999989
 31
0.0
  0
LINE
  5
DA
330
1E
100
AcDbEntity
  8
SIZE
  6
CONTINUOUS
 62
    30
100
AcDbLine
 10
1065.0
 20
-0.0000000000000057
 30
0.0
 11
1329.387403242039
 21
-0.0000000000000806
 31
0.0
  0
LINE
  5
DB
330
1E
100
AcDbEntity
  8
SIZE
  6
CONTINUOUS
 62
    30
100
AcDbLine
 10
1299.387403242039
 20
54.99999999999989
 30
0.0
 11
1299.387403242039
 21
64.99999999999992
 31
0.0
  0
LINE
  5
DC
330
1E
100
AcDbEntity
  8
SIZE
  6
CONTINUOUS
 62
    30
100
AcDbLine
 10
1299.387403242039
 20
-10.00000000000006
 30
0.0
 11
1299.387403242039
 21
-153.2571428571434
 31
0.0
  0
LINE
  5
DD
330
1E
100
AcDbEntity
  8
SIZE
  6
CONTINUOUS
 62
    30
100
AcDbLine
 10
1299.387403242039
 20
44.99999999999991
 30
0.0
 11
1299.387403242039
 21
-0.0000000000000721
 31
0.0
  0
CIRCLE
  5
DE
330
1E
100
AcDbEntity
  8
SIZE
  6
CONTINUOUS
 62
    30
100
AcDbCircle
 10
1299.387403242039
 20
44.99999999999991
 30
0.0
 40
5.0
  0
LINE
  5
DF
330
1E
100
AcDbEntity
  8
SIZE
  6
CONTINUOUS
 62
    30
100
AcDbLine
 10
1299.387403242039
 20
49.99999999999989
 30
0.0
 11
1299.387403242039
 21
54.99999999999989
 31
0.0
  0
CIRCLE
  5
E0
330
1E
100
AcDbEntity
  8
SIZE
  6
CONTINUOUS
 62
    30
100
AcDbCircle
 10
1299.387403242039
 20
-0.0000000000000721
 30
0.0
 40
5.0
  0
LINE
  5
E1
330
1E
100
AcDbEntity
  8
SIZE
  6
CONTINUOUS
 62
    30
100
AcDbLine
 10
1299.387403242039
 20
-5.000000000000071
 30
0.0
 11
1299.387403242039
 21
-10.00000000000007
 31
0.0
  0
TEXT
  5
E2
330
1E
100
AcDbEntity
  8
SIZE
  6
CONTINUOUS
 62
    30
100
AcDbText
 10
1279.387403242039
 20
-133.2571428571432
 30
0.0
 40
64.0
  1
45
 50
90.0
 41
0.9
 72
     1
 11
1279.387403242039
 21
-86.62857142857182
 31
0.0
100
AcDbText
  0
POINT
  5
E3
330
1E
100
AcDbEntity
  8
DEFPOINTS
  6
CONTINUOUS
 62
     7
100
AcDbPoint
 10
973.0
 20
45.0
 30
0.0
  0
POINT
  5
E4
330
1E
100
AcDbEntity
  8
DEFPOINTS
  6
CONTINUOUS
 62
     7
100
AcDbPoint
 10
1045.0
 20
0.0
 30
0.0
  0
POINT
  5
E5
330
1E
100
AcDbEntity
  8
DEFPOINTS
  6
CONTINUOUS
 62
     7
100
AcDbPoint
 10
1299.387403242039
 20
-0.0000000000000721
 30
0.0
  0
LINE
  5
E6
330
1E
100
AcDbEntity
  8
SIZE
  6
CONTINUOUS
 62
    30
100
AcDbLine
 10
874.0
 20
338.0
 30
0.0
 11
1338.634565287975
 21
337.9999999999997
 31
0.0
  0
LINE
  5
E7
330
1E
100
AcDbEntity
  8
SIZE
  6
CONTINUOUS
 62
    30
100
AcDbLine
 10
918.0
 20
146.0
 30
0.0
 11
1338.634565287975
 21
145.9999999999998
 31
0.0
  0
LINE
  5
E8
330
1E
100
AcDbEntity
  8
SIZE
  6
CONTINUOUS
 62
    30
100
AcDbLine
 10
1308.634565287975
 20
327.9999999999997
 30
0.0
 11
1308.634565287975
 21
155.9999999999998
 31
0.0
  0
CIRCLE
  5
E9
330
1E
100
AcDbEntity
  8
SIZE
  6
CONTINUOUS
 62
    30
100
AcDbCircle
 10
1308.634565287975
 20
337.9999999999999
 30
0.0
 40
5.0
  0
LINE
  5
EA
330
1E
100
AcDbEntity
  8
SIZE
  6
CONTINUOUS
 62
    30
100
AcDbLine
 10
1308.634565287975
 20
332.9999999999998
 30
0.0
 11
1308.634565287975
 21
327.9999999999998
 31
0.0
  0
CIRCLE
  5
EB
330
1E
100
AcDbEntity
  8
SIZE
  6
CONTINUOUS
 62
    30
100
AcDbCircle
 10
1308.634565287975
 20
145.9999999999998
 30
0.0
 40
5.0
  0
LINE
  5
EC
330
1E
100
AcDbEntity
  8
SIZE
  6
CONTINUOUS
 62
    30
100
AcDbLine
 10
1308.634565287975
 20
150.9999999999998
 30
0.0
 11
1308.634565287975
 21
155.9999999999998
 31
0.0
  0
TEXT
  5
ED
330
1E
100
AcDbEntity
  8
SIZE
  6
CONTINUOUS
 62
    30
100
AcDbText
 10
1288.634565287975
 20
173.4285714285714
 30
0.0
 40
64.0
  1
192
 50
90.0
 41
0.9
 72
     1
 11
1288.634565287975
 21
242.0
 31
0.0
100
AcDbText
  0
POINT
  5
EE
330
1E
100
AcDbEntity
  8
DEFPOINTS
  6
CONTINUOUS
 62
     7
100
AcDbPoint
 10
854.0
 20
338.0
 30
0.0
  0
POINT
  5
EF
330
1E
100
AcDbEntity
  8
DEFPOINTS
  6
CONTINUOUS
 62
     7
100
AcDbPoint
 10
898.0
 20
146.0
 30
0.0
  0
POINT
  5
F0
330
1E
100
AcDbEntity
  8
DEFPOINTS
  6
CONTINUOUS
 62
     7
100
AcDbPoint
 10
1308.634565287975
 20
145.9999999999998
 30
0.0
  0
TEXT
  5
F1
330
1E
100
AcDbEntity
  8
NOTE
  6
CONTINUOUS
 62
     4
100
AcDbText
 10
1166.200368375914
 20
617.4407348637457
 30
0.0
 40
64.0
  1
AH 4-14X30
 41
0.9
100
AcDbText
  0
LINE
  5
F2
330
1E
100
AcDbEntity
  8
NOTE
  6
CONTINUOUS
 62
     4
100
AcDbLine
 10
1758.827487815826
 20
584.3744267360134
 30
0.0
 11
1092.567292815823
 21
584.3744267360134
 31
0.0
  0
LINE
  5
F3
330
1E
100
AcDbEntity
  8
SIZE
  6
CONTINUOUS
 62
    30
100
AcDbLine
 10
873.0
 20
338.0
 30
0.0
 11
1470.880209331141
 21
337.9999999999997
 31
0.0
  0
LINE
  5
F4
330
1E
100
AcDbEntity
  8
SIZE
  6
CONTINUOUS
 62
    30
100
AcDbLine
 10
873.0
 20
47.99999999999954
 30
0.0
 11
1470.880209331141
 21
47.99999999999936
 31
0.0
  0
LINE
  5
F5
330
1E
100
AcDbEntity
  8
SIZE
  6
CONTINUOUS
 62
    30
100
AcDbLine
 10
1440.880209331142
 20
327.9999999999997
 30
0.0
 11
1440.880209331142
 21
57.99999999999938
 31
0.0
  0
CIRCLE
  5
F6
330
1E
100
AcDbEntity
  8
SIZE
  6
CONTINUOUS
 62
    30
100
AcDbCircle
 10
1440.880209331142
 20
337.9999999999997
 30
0.0
 40
5.0
  0
LINE
  5
F7
330
1E
100
AcDbEntity
  8
SIZE
  6
CONTINUOUS
 62
    30
100
AcDbLine
 10
1440.880209331142
 20
332.9999999999997
 30
0.0
 11
1440.880209331142
 21
327.9999999999997
 31
0.0
  0
CIRCLE
  5
F8
330
1E
100
AcDbEntity
  8
SIZE
  6
CONTINUOUS
 62
    30
100
AcDbCircle
 10
1440.880209331142
 20
47.99999999999938
 30
0.0
 40
5.0
  0
LINE
  5
F9
330
1E
100
AcDbEntity
  8
SIZE
  6
CONTINUOUS
 62
    30
100
AcDbLine
 10
1440.880209331142
 20
52.99999999999938
 30
0.0
 11
1440.880209331142
 21
57.99999999999938
 31
0.0
  0
TEXT
  5
FA
330
1E
100
AcDbEntity
  8
SIZE
  6
CONTINUOUS
 62
    30
100
AcDbText
 10
1420.880209331142
 20
118.9428571428569
 30
0.0
 40
64.0
  1
290
 50
90.0
 41
0.9
 72
     1
 11
1420.880209331142
 21
192.9999999999998
 31
0.0
100
AcDbText
  0
POINT
  5
FB
330
1E
100
AcDbEntity
  8
DEFPOINTS
  6
CONTINUOUS
 62
     7
100
AcDbPoint
 10
853.0
 20
338.0
 30
0.0
  0
POINT
  5
FC
330
1E
100
AcDbEntity
  8
DEFPOINTS
  6
CONTINUOUS
 62
     7
100
AcDbPoint
 10
853.0
 20
47.99999999999954
 30
0.0
  0
POINT
  5
FD
330
1E
100
AcDbEntity
  8
DEFPOINTS
  6
CONTINUOUS
 62
     7
100
AcDbPoint
 10
1440.880209331142
 20
47.99999999999938
 30
0.0
  0
LINE
  5
FE
330
1E
100
AcDbEntity
  8
SIZE
  6
CONTINUOUS
 62
    30
100
AcDbLine
 10
985.0
 20
-20.0
 30
0.0
 11
985.0
 21
-626.4517531121867
 31
0.0
  0
LINE
  5
FF
330
1E
100
AcDbEntity
  8
SIZE
  6
CONTINUOUS
 62
    30
100
AcDbLine
 10
878.0
 20
108.0
 30
0.0
 11
878.0
 21
-626.4517531121867
 31
0.0
  0
LINE
  5
100
330
1E
100
AcDbEntity
  8
SIZE
  6
CONTINUOUS
 62
    30
100
AcDbLine
 10
888.0
 20
-596.4517531121868
 30
0.0
 11
975.0
 21
-596.4517531121868
 31
0.0
  0
LINE
  5
101
330
1E
100
AcDbEntity
  8
SIZE
  6
CONTINUOUS
 62
    30
100
AcDbLine
 10
985.0
 20
-596.4517531121868
 30
0.0
 11
1172.142857142858
 21
-596.4517531121868
 31
0.0
  0
CIRCLE
  5
102
330
1E
100
AcDbEntity
  8
SIZE
  6
CONTINUOUS
 62
    30
100
AcDbCircle
 10
878.0
 20
-596.4517531121868
 30
0.0
 40
5.0
  0
LINE
  5
103
330
1E
100
AcDbEntity
  8
SIZE
  6
CONTINUOUS
 62
    30
100
AcDbLine
 10
883.0
 20
-596.4517531121868
 30
0.0
 11
888.0
 21
-596.4517531121868
 31
0.0
  0
CIRCLE
  5
104
330
1E
100
AcDbEntity
  8
SIZE
  6
CONTINUOUS
 62
    30
100
AcDbCircle
 10
985.0
 20
-596.4517531121868
 30
0.0
 40
5.0
  0
LINE
  5
105
330
1E
100
AcDbEntity
  8
SIZE
  6
CONTINUOUS
 62
    30
100
AcDbLine
 10
980.0
 20
-596.4517531121868
 30
0.0
 11
975.0
 21
-596.4517531121868
 31
0.0
  0
TEXT
  5
106
330
1E
100
AcDbEntity
  8
SIZE
  6
CONTINUOUS
 62
    30
100
AcDbText
 10
1015.0
 20
-576.4517531121868
 30
0.0
 40
64.0
  1
107
 41
0.9
 72
     1
 11
1083.571428571428
 21
-576.4517531121868
 31
0.0
100
AcDbText
  0
POINT
  5
107
330
1E
100
AcDbEntity
  8
DEFPOINTS
  6
CONTINUOUS
 62
     7
100
AcDbPoint
 10
985.0
 20
0.0
 30
0.0
  0
POINT
  5
108
330
1E
100
AcDbEntity
  8
DEFPOINTS
  6
CONTINUOUS
 62
     7
100
AcDbPoint
 10
878.0
 20
128.0
 30
0.0
  0
POINT
  5
109
330
1E
100
AcDbEntity
  8
DEFPOINTS
  6
CONTINUOUS
 62
     7
100
AcDbPoint
 10
878.0
 20
-596.4517531121868
 30
0.0
  0
TEXT
  5
10A
330
1E
100
AcDbEntity
  8
NOTE
  6
CONTINUOUS
 62
     4
100
AcDbText
 10
-385.4216388451132
 20
-715.500904883746
 30
0.0
 40
64.0
  1
(Lifting bolt pitch)
 41
0.9
100
AcDbText
  0
LINE
  5
10B
330
1E
100
AcDbEntity
  8
NOTE
  6
CONTINUOUS
 62
     4
100
AcDbLine
 10
81.19595949289214
 20
272.1959594928926
 30
0.0
 11
428.9438797699586
 21
392.8032007473189
 31
0.0
  0
LINE
  5
10C
330
1E
100
AcDbEntity
  8
NOTE
  6
CONTINUOUS
 62
     4
100
AcDbLine
 10
43.84902035006233
 20
283.8221310900611
 30
0.0
 11
205.6613136225241
 21
614.4147874603036
 31
0.0
  0
LINE
  5
10D
330
1E
100
AcDbEntity
  8
SIZE
  6
CONTINUOUS
 62
    30
100
AcDbLine
 10
123.622366364086
 20
71.37763363591426
 30
0.0
 11
164.6345596729038
 21
30.36544032709604
 31
0.0
  0
LINE
  5
10E
330
1E
100
AcDbEntity
  8
SIZE
  6
CONTINUOUS
 62
    30
100
AcDbLine
 10
123.6223663640863
 20
314.6223663640859
 30
0.0
 11
164.6345596729063
 21
355.634559672905
 31
0.0
  0
ARC
  5
10F
330
1E
100
AcDbEntity
  8
SIZE
  6
CONTINUOUS
 62
    30
100
AcDbCircle
 10
1.999999999999104
 20
193.0000000000017
 30
0.0
 40
199.999999999999
100
AcDbArc
 50
317.8650874751328
 51
42.13491252486625
  0
CIRCLE
  5
110
330
1E
100
AcDbEntity
  8
SIZE
  6
CONTINUOUS
 62
    30
100
AcDbCircle
 10
143.4213562373075
 20
51.57864376269256
 30
0.0
 40
5.0
  0
LINE
  5
111
330
1E
100
AcDbEntity
  8
SIZE
  6
CONTINUOUS
 62
    30
100
AcDbLine
 10
146.8673967685589
 20
55.20146098924055
 30
0.0
 11
150.3134372998103
 21
58.82427821578852
 31
0.0
  0
CIRCLE
  5
112
330
1E
100
AcDbEntity
  8
SIZE
  6
CONTINUOUS
 62
    30
100
AcDbCircle
 10
143.4213562373098
 20
334.4213562373088
 30
0.0
 40
5.0
  0
LINE
  5
113
330
1E
100
AcDbEntity
  8
SIZE
  6
CONTINUOUS
 62
    30
100
AcDbLine
 10
146.867396768561
 20
330.7985390107607
 30
0.0
 11
150.3134372998124
 21
327.1757217842127
 31
0.0
  0
TEXT
  5
114
330
1E
100
AcDbEntity
  8
SIZE
  6
CONTINUOUS
 62
    30
100
AcDbText
 10
181.999999999998
 20
130.4628571428574
 30
0.0
 40
64.0
  1
90°
 50
90.0
 41
0.9
 72
     1
 11
181.999999999998
 21
193.0000000000003
 31
0.0
100
AcDbText
  0
POINT
  5
115
330
1E
100
AcDbEntity
  8
DEFPOINTS
  6
CONTINUOUS
 62
     7
100
AcDbPoint
 10
195.1851652578114
 20
141.2361909794966
 30
0.0
  0
POINT
  5
116
330
1E
100
AcDbEntity
  8
DEFPOINTS
  6
CONTINUOUS
 62
     7
100
AcDbPoint
 10
109.480230740355
 20
300.4802307403551
 30
0.0
  0
POINT
  5
117
330
1E
100
AcDbEntity
  8
DEFPOINTS
  6
CONTINUOUS
 62
     7
100
AcDbPoint
 10
109.480230740355
 20
85.51976925964526
 30
0.0
  0
POINT
  5
118
330
1E
100
AcDbEntity
  8
DEFPOINTS
  6
CONTINUOUS
 62
     7
100
AcDbPoint
 10
-105.4802307403551
 20
300.4802307403565
 30
0.0
  0
POINT
  5
119
330
1E
100
AcDbEntity
  8
DEFPOINTS
  6
CONTINUOUS
 62
     7
100
AcDbPoint
 10
-105.4802307403587
 20
85.51976925964662
 30
0.0
  0
LINE
  5
11A
330
1E
100
AcDbEntity
  8
SIZE
  6
CONTINUOUS
 62
    30
100
AcDbLine
 10
874.0
 20
338.0
 30
0.0
 11
1156.85730322382
 21
337.9999999999999
 31
0.0
  0
LINE
  5
11B
330
1E
100
AcDbEntity
  8
SIZE
  6
CONTINUOUS
 62
    30
100
AcDbLine
 10
42.0
 20
193.0000000000004
 30
0.0
 11
1156.85730322382
 21
193.0
 31
0.0
  0
LINE
  5
11C
330
1E
100
AcDbEntity
  8
SIZE
  6
CONTINUOUS
 62
    30
100
AcDbLine
 10
1126.85730322382
 20
347.9999999999998
 30
0.0
 11
1126.85730322382
 21
357.9999999999998
 31
0.0
  0
LINE
  5
11D
330
1E
100
AcDbEntity
  8
SIZE
  6
CONTINUOUS
 62
    30
100
AcDbLine
 10
1126.85730322382
 20
183.0
 30
0.0
 11
1126.85730322382
 21
173.0000000000001
 31
0.0
  0
LINE
  5
11E
330
1E
100
AcDbEntity
  8
SIZE
  6
CONTINUOUS
 62
    30
100
AcDbLine
 10
1126.85730322382
 20
337.9999999999999
 30
0.0
 11
1126.85730322382
 21
193.0
 31
0.0
  0
CIRCLE
  5
11F
330
1E
100
AcDbEntity
  8
SIZE
  6
CONTINUOUS
 62
    30
100
AcDbCircle
 10
1126.85730322382
 20
337.9999999999999
 30
0.0
 40
5.0
  0
LINE
  5
120
330
1E
100
AcDbEntity
  8
SIZE
  6
CONTINUOUS
 62
    30
100
AcDbLine
 10
1126.85730322382
 20
342.9999999999998
 30
0.0
 11
1126.85730322382
 21
347.9999999999998
 31
0.0
  0
CIRCLE
  5
121
330
1E
100
AcDbEntity
  8
SIZE
  6
CONTINUOUS
 62
    30
100
AcDbCircle
 10
1126.85730322382
 20
193.0
 30
0.0
 40
5.0
  0
LINE
  5
122
330
1E
100
AcDbEntity
  8
SIZE
  6
CONTINUOUS
 62
    30
100
AcDbLine
 10
1126.85730322382
 20
188.0
 30
0.0
 11
1126.85730322382
 21
183.0
 31
0.0
  0
TEXT
  5
123
330
1E
100
AcDbEntity
  8
SIZE
  6
CONTINUOUS
 62
    30
100
AcDbText
 10
1106.85730322382
 20
196.9285714285717
 30
0.0
 40
64.0
  1
145
 50
90.0
 41
0.9
 72
     1
 11
1106.85730322382
 21
265.5000000000002
 31
0.0
100
AcDbText
  0
POINT
  5
124
330
1E
100
AcDbEntity
  8
DEFPOINTS
  6
CONTINUOUS
 62
     7
100
AcDbPoint
 10
854.0
 20
338.0
 30
0.0
  0
POINT
  5
125
330
1E
100
AcDbEntity
  8
DEFPOINTS
  6
CONTINUOUS
 62
     7
100
AcDbPoint
 10
22.0
 20
193.0000000000004
 30
0.0
  0
POINT
  5
126
330
1E
100
AcDbEntity
  8
DEFPOINTS
  6
CONTINUOUS
 62
     7
100
AcDbPoint
 10
1126.85730322382
 20
193.0
 30
0.0
  0
LINE
  5
127
330
1E
100
AcDbEntity
  8
SIZE
  6
CONTINUOUS
 62
    30
100
AcDbLine
 10
854.0
 20
358.0
 30
0.0
 11
854.0
 21
871.6490106821749
 31
0.0
  0
LINE
  5
128
330
1E
100
AcDbEntity
  8
SIZE
  6
CONTINUOUS
 62
    30
100
AcDbLine
 10
-854.0
 20
358.0
 30
0.0
 11
-854.0
 21
871.6490106821749
 31
0.0
  0
LINE
  5
129
330
1E
100
AcDbEntity
  8
SIZE
  6
CONTINUOUS
 62
    30
100
AcDbLine
 10
844.0
 20
841.6490106821752
 30
0.0
 11
-844.0
 21
841.6490106821752
 31
0.0
  0
CIRCLE
  5
12A
330
1E
100
AcDbEntity
  8
SIZE
  6
CONTINUOUS
 62
    30
100
AcDbCircle
 10
854.0
 20
841.6490106821752
 30
0.0
 40
5.0
  0
LINE
  5
12B
330
1E
100
AcDbEntity
  8
SIZE
  6
CONTINUOUS
 62
    30
100
AcDbLine
 10
849.0
 20
841.6490106821752
 30
0.0
 11
844.0
 21
841.6490106821752
 31
0.0
  0
CIRCLE
  5
12C
330
1E
100
AcDbEntity
  8
SIZE
  6
CONTINUOUS
 62
    30
100
AcDbCircle
 10
-854.0
 20
841.6490106821752
 30
0.0
 40
5.0
  0
LINE
  5
12D
330
1E
100
AcDbEntity
  8
SIZE
  6
CONTINUOUS
 62
    30
100
AcDbLine
 10
-849.0
 20
841.6490106821752
 30
0.0
 11
-844.0
 21
841.6490106821752
 31
0.0
  0
TEXT
  5
12E
330
1E
100
AcDbEntity
  8
SIZE
  6
CONTINUOUS
 62
    30
100
AcDbText
 10
-96.0
 20
861.6490106821753
 30
0.0
 40
64.0
  1
1708
 41
0.9
 72
     1
 11
0.0
 21
861.6490106821753
 31
0.0
100
AcDbText
  0
POINT
  5
12F
330
1E
100
AcDbEntity
  8
DEFPOINTS
  6
CONTINUOUS
 62
     7
100
AcDbPoint
 10
854.0
 20
338.0
 30
0.0
  0
POINT
  5
130
330
1E
100
AcDbEntity
  8
DEFPOINTS
  6
CONTINUOUS
 62
     7
100
AcDbPoint
 10
-854.0
 20
338.0
 30
0.0
  0
POINT
  5
131
330
1E
100
AcDbEntity
  8
DEFPOINTS
  6
CONTINUOUS
 62
     7
100
AcDbPoint
 10
-854.0
 20
841.6490106821752
 30
0.0
  0
LINE
  5
132
330
1E
100
AcDbEntity
  8
DETAIL
  6
CONTINUOUS
 62
     5
100
AcDbLine
 10
-854.0
 20
338.0000000000008
 30
0.0
 11
854.0
 21
338.0
 31
0.0
  0
LINE
  5
133
330
1E
100
AcDbEntity
  8
DETAIL
  6
CONTINUOUS
 62
     5
100
AcDbLine
 10
854.0
 20
47.99999999999863
 30
0.0
 11
-854.0
 21
48.00000000000181
 31
0.0
  0
TEXT
  5
134
330
1E
100
AcDbEntity
  8
NOTE
  6
CONTINUOUS
 62
     4
100
AcDbText
 10
-361.1271146600083
 20
-280.6877366781449
 30
0.0
 40
64.0
  1
(Ceiling opening)
 41
0.9
100
AcDbText
  0
LINE
  5
135
330
1E
100
AcDbEntity
  8
NOTE
  6
CONTINUOUS
 62
     4
100
AcDbLine
 10
878.0
 20
146.0
 30
0.0
 11
1092.567292815823
 21
584.3744267360134
 31
0.0
  0
LINE
  5
136
330
1E
100
AcDbEntity
  8
DETAIL
  6
CONTINUOUS
 62
     5
100
AcDbLine
 10
854.0
 20
338.0
 30
0.0
 11
854.0
 21
45.0
 31
0.0
  0
LINE
  5
137
330
1E
100
AcDbEntity
  8
SIZE
  6
CONTINUOUS
 62
    30
100
AcDbLine
 10
985.0
 20
-20.0
 30
0.0
 11
985.0
 21
-208.7615646318786
 31
0.0
  0
LINE
  5
138
330
1E
100
AcDbEntity
  8
SIZE
  6
CONTINUOUS
 62
    30
100
AcDbLine
 10
1005.0
 20
-21.0
 30
0.0
 11
1005.0
 21
-208.7615646318786
 31
0.0
  0
LINE
  5
139
330
1E
100
AcDbEntity
  8
SIZE
  6
CONTINUOUS
 62
    30
100
AcDbLine
 10
975.0
 20
-178.7615646318785
 30
0.0
 11
965.0
 21
-178.7615646318785
 31
0.0
  0
LINE
  5
13A
330
1E
100
AcDbEntity
  8
SIZE
  6
CONTINUOUS
 62
    30
100
AcDbLine
 10
1015.0
 20
-178.7615646318785
 30
0.0
 11
1158.257142857144
 21
-178.7615646318785
 31
0.0
  0
LINE
  5
13B
330
1E
100
AcDbEntity
  8
SIZE
  6
CONTINUOUS
 62
    30
100
AcDbLine
 10
985.0
 20
-178.7615646318785
 30
0.0
 11
1005.0
 21
-178.7615646318785
 31
0.0
  0
CIRCLE
  5
13C
330
1E
100
AcDbEntity
  8
SIZE
  6
CONTINUOUS
 62
    30
100
AcDbCircle
 10
985.0
 20
-178.7615646318785
 30
0.0
 40
5.0
  0
LINE
  5
13D
330
1E
100
AcDbEntity
  8
SIZE
  6
CONTINUOUS
 62
    30
100
AcDbLine
 10
980.0
 20
-178.7615646318785
 30
0.0
 11
975.0
 21
-178.7615646318785
 31
0.0
  0
CIRCLE
  5
13E
330
1E
100
AcDbEntity
  8
SIZE
  6
CONTINUOUS
 62
    30
100
AcDbCircle
 10
1005.0
 20
-178.7615646318785
 30
0.0
 40
5.0
  0
LINE
  5
13F
330
1E
100
AcDbEntity
  8
SIZE
  6
CONTINUOUS
 62
    30
100
AcDbLine
 10
1010.0
 20
-178.7615646318785
 30
0.0
 11
1015.0
 21
-178.7615646318785
 31
0.0
  0
TEXT
  5
140
330
1E
100
AcDbEntity
  8
SIZE
  6
CONTINUOUS
 62
    30
100
AcDbText
 10
1045.000000000001
 20
-158.7615646318786
 30
0.0
 40
64.0
  1
20
 41
0.9
 72
     1
 11
1091.628571428572
 21
-158.7615646318786
 31
0.0
100
AcDbText
  0
POINT
  5
141
330
1E
100
AcDbEntity
  8
DEFPOINTS
  6
CONTINUOUS
 62
     7
100
AcDbPoint
 10
985.0
 20
0.0
 30
0.0
  0
POINT
  5
142
330
1E
100
AcDbEntity
  8
DEFPOINTS
  6
CONTINUOUS
 62
     7
100
AcDbPoint
 10
1005.0
 20
-1.0
 30
0.0
  0
POINT
  5
143
330
1E
100
AcDbEntity
  8
DEFPOINTS
  6
CONTINUOUS
 62
     7
100
AcDbPoint
 10
1005.0
 20
-178.7615646318785
 30
0.0
  0
LINE
  5
144
330
1E
100
AcDbEntity
  8
DETAIL
  6
CONTINUOUS
 62
     5
100
AcDbLine
 10
973.0
 20
45.0
 30
0.0
 11
973.0
 21
0.0
 31
0.0
  0
ARC
  5
145
330
1E
100
AcDbEntity
  8
DETAIL
  6
CONTINUOUS
 62
     5
100
AcDbCircle
 10
998.0
 20
-1.0
 30
0.0
 40
7.0
100
AcDbArc
 50
270.0
 51
0.000000000000007
  0
LINE
  5
146
330
1E
100
AcDbEntity
  8
DETAIL
  6
CONTINUOUS
 62
     5
100
AcDbLine
 10
1005.0
 20
-1.0
 30
0.0
 11
1005.0
 21
0.0
 31
0.0
  0
LINE
  5
147
330
1E
100
AcDbEntity
  8
SERVICESPACE
  6
DASHDOT
 62
     2
100
AcDbLine
 10
985.0
 20
0.0
 30
0.0
 11
1045.0
 21
0.0
 31
0.0
  0
LINE
  5
148
330
1E
100
AcDbEntity
  8
SERVICESPACE
  6
DASHDOT
 62
     2
100
AcDbLine
 10
985.0
 20
20.0
 30
0.0
 11
1045.0
 21
20.0
 31
0.0
  0
LINE
  5
149
330
1E
100
AcDbEntity
  8
SERVICESPACE
  6
DASHDOT
 62
     2
100
AcDbLine
 10
985.0
 20
20.0
 30
0.0
 11
985.0
 21
0.0
 31
0.0
  0
CIRCLE
  5
14A
330
1E
100
AcDbEntity
  8
FIX
  6
CONTINUOUS
 62
    11
100
AcDbCircle
 10
878.0
 20
146.0
 30
0.0
 40
20.0
  0
LINE
  5
14B
330
1E
100
AcDbEntity
  8
NOTE
  6
CONTINUOUS
 62
     4
100
AcDbLine
 10
858.0
 20
146.0
 30
0.0
 11
898.0
 21
146.0
 31
0.0
  0
LWPOLYLINE
  5
14C
330
1E
100
AcDbEntity
  8
NOTE
  6
CONTINUOUS
 62
     4
100
AcDbPolyline
 90
        3
 70
     0
 43
0.0
 10
885.6983773379104
 20
185.2521972717185
 10
878.0
 20
146.0
 10
904.2930889879825
 20
176.1442115709687
  0
LINE
  5
151
330
1E
100
AcDbEntity
  8
DETAIL
  6
CONTINUOUS
 62
     5
100
AcDbLine
 10
854.0
 20
146.0
 30
0.0
 11
904.0
 21
146.0
 31
0.0
  0
LINE
  5
152
330
1E
100
AcDbEntity
  8
DETAIL
  6
CONTINUOUS
 62
     5
100
AcDbLine
 10
904.0
 20
146.0
 30
0.0
 11
904.0
 21
143.7000000000001
 31
0.0
  0
LINE
  5
153
330
1E
100
AcDbEntity
  8
NOTE
  6
CONTINUOUS
 62
     4
100
AcDbLine
 10
878.0
 20
126.0
 30
0.0
 11
878.0
 21
166.0
 31
0.0
  0
LINE
  5
154
330
1E
100
AcDbEntity
  8
DETAIL
  6
CONTINUOUS
 62
     5
100
AcDbLine
 10
854.0
 20
143.6999999999998
 30
0.0
 11
904.0
 21
143.6999999999998
 31
0.0
  0
LINE
  5
155
330
1E
100
AcDbEntity
  8
NOTE
  6
CONTINUOUS
 62
     4
100
AcDbLine
 10
428.9438797699586
 20
392.8032007473189
 30
0.0
 11
795.2040747699574
 21
392.8032007473089
 31
0.0
  0
TEXT
  5
156
330
1E
100
AcDbEntity
  8
NOTE
  6
CONTINUOUS
 62
     4
100
AcDbText
 10
473.655815636106
 20
413.8780815072922
 30
0.0
 40
64.0
  1
4-%%c2.8
 41
0.9
100
AcDbText
  0
TEXT
  5
157
330
1E
100
AcDbEntity
  8
NOTE
  6
CONTINUOUS
 62
     4
100
AcDbText
 10
285.2732251643791
 20
638.9516906071885
 30
0.0
 40
64.0
  1
%%c200
 41
0.9
100
AcDbText
  0
LINE
  5
158
330
1E
100
AcDbEntity
  8
NOTE
  6
CONTINUOUS
 62
     4
100
AcDbLine
 10
571.9215086225231
 20
614.4147874603036
 30
0.0
 11
205.6613136225241
 21
614.4147874603036
 31
0.0
  0
LINE
  5
159
330
1E
100
AcDbEntity
  8
SIZE
  6
CONTINUOUS
 62
    30
100
AcDbLine
 10
123.6223663640863
 20
314.6223663640859
 30
0.0
 11
164.6345596729053
 21
355.634559672904
 31
0.0
  0
LINE
  5
15A
330
1E
100
AcDbEntity
  8
SIZE
  6
CONTINUOUS
 62
    30
100
AcDbLine
 10
1.999999999999984
 20
364.9999999999995
 30
0.0
 11
2.000000000000027
 21
422.9999999999992
 31
0.0
  0
ARC
  5
15B
330
1E
100
AcDbEntity
  8
SIZE
  6
CONTINUOUS
 62
    30
100
AcDbCircle
 10
1.999999999999992
 20
193.0000000000026
 30
0.0
 40
199.9999999999965
100
AcDbArc
 50
47.86508747513233
 51
87.13491252486695
  0
CIRCLE
  5
15C
330
1E
100
AcDbEntity
  8
SIZE
  6
CONTINUOUS
 62
    30
100
AcDbCircle
 10
143.4213562373088
 20
334.4213562373079
 30
0.0
 40
5.0
  0
LINE
  5
15D
330
1E
100
AcDbEntity
  8
SIZE
  6
CONTINUOUS
 62
    30
100
AcDbLine
 10
139.7985390107608
 20
337.8673967685593
 30
0.0
 11
136.1757217842129
 21
341.3134372998107
 31
0.0
  0
CIRCLE
  5
15E
330
1E
100
AcDbEntity
  8
SIZE
  6
CONTINUOUS
 62
    30
100
AcDbCircle
 10
2.000000000000014
 20
392.9999999999991
 30
0.0
 40
5.0
  0
LINE
  5
15F
330
1E
100
AcDbEntity
  8
SIZE
  6
CONTINUOUS
 62
    30
100
AcDbLine
 10
6.998437255783065
 20
392.8749999999991
 30
0.0
 11
11.99687451156611
 21
392.7499999999991
 31
0.0
  0
TEXT
  5
160
330
1E
100
AcDbEntity
  8
SIZE
  6
CONTINUOUS
 62
    30
100
AcDbText
 10
3.127818552169699
 20
421.7129691601411
 30
0.0
 40
64.0
  1
45°
 50
343.8491512818865
 41
0.9
 72
     1
 11
63.19678706084457
 21
404.3171863654945
 31
0.0
100
AcDbText
  0
POINT
  5
161
330
1E
100
AcDbEntity
  8
DEFPOINTS
  6
CONTINUOUS
 62
     7
100
AcDbPoint
 10
101.9999999999996
 20
366.2050807568866
 30
0.0
  0
POINT
  5
162
330
1E
100
AcDbEntity
  8
DEFPOINTS
  6
CONTINUOUS
 62
     7
100
AcDbPoint
 10
1.999999999999984
 20
344.9999999999993
 30
0.0
  0
POINT
  5
163
330
1E
100
AcDbEntity
  8
DEFPOINTS
  6
CONTINUOUS
 62
     7
100
AcDbPoint
 10
109.480230740355
 20
300.4802307403551
 30
0.0
  0
POINT
  5
164
330
1E
100
AcDbEntity
  8
DEFPOINTS
  6
CONTINUOUS
 62
     7
100
AcDbPoint
 10
-105.4802307403587
 20
85.51976925964662
 30
0.0
  0
POINT
  5
165
330
1E
100
AcDbEntity
  8
DEFPOINTS
  6
CONTINUOUS
 62
     7
100
AcDbPoint
 10
1.999999999999998
 20
41.00000000000045
 30
0.0
  0
LINE
  5
166
330
1E
100
AcDbEntity
  8
BASIS
  6
DASHDOT
 62
     6
100
AcDbLine
 10
2.0
 20
344.9999999999994
 30
0.0
 11
2.0
 21
41.00000000000045
 31
0.0
  0
LINE
  5
167
330
1E
100
AcDbEntity
  8
BASIS
  6
DASHDOT
 62
     6
100
AcDbLine
 10
109.480230740355
 20
85.51976925964526
 30
0.0
 11
-105.4802307403551
 21
300.4802307403565
 31
0.0
  0
LINE
  5
168
330
1E
100
AcDbEntity
  8
BASIS
  6
DASHDOT
 62
     6
100
AcDbLine
 10
109.480230740355
 20
300.4802307403551
 30
0.0
 11
-105.4802307403587
 21
85.51976925964662
 31
0.0
  0
LINE
  5
169
330
1E
100
AcDbEntity
  8
NOTE
  6
CONTINUOUS
 62
     4
100
AcDbLine
 10
-77.19595949289214
 20
252.1959594928939
 30
0.0
 11
-77.19595949289214
 21
292.1959594928939
 31
0.0
  0
LINE
  5
16A
330
1E
100
AcDbEntity
  8
NOTE
  6
CONTINUOUS
 62
     4
100
AcDbLine
 10
81.19595949289214
 20
252.1959594928935
 30
0.0
 11
81.19595949289214
 21
292.1959594928935
 31
0.0
  0
CIRCLE
  5
16B
330
1E
100
AcDbEntity
  8
DETAIL
  6
CONTINUOUS
 62
     5
100
AcDbCircle
 10
2.0
 20
193.0000000000004
 30
0.0
 40
112.0
  0
CIRCLE
  5
16C
330
1E
100
AcDbEntity
  8
DETAIL
  6
CONTINUOUS
 62
     5
100
AcDbCircle
 10
2.0
 20
193.0000000000004
 30
0.0
 40
100.0
  0
LINE
  5
16D
330
1E
100
AcDbEntity
  8
SIZE
  6
CONTINUOUS
 62
    30
100
AcDbLine
 10
-854.0
 20
358.0
 30
0.0
 11
-854.0
 21
751.8729356944336
 31
0.0
  0
LINE
  5
16E
330
1E
100
AcDbEntity
  8
SIZE
  6
CONTINUOUS
 62
    30
100
AcDbLine
 10
2.0
 20
233.0000000000004
 30
0.0
 11
2.000000000000031
 21
751.8729356944336
 31
0.0
  0
LINE
  5
16F
330
1E
100
AcDbEntity
  8
SIZE
  6
CONTINUOUS
 62
    30
100
AcDbLine
 10
-844.0
 20
721.8729356944336
 30
0.0
 11
-7.999999999999968
 21
721.8729356944336
 31
0.0
  0
CIRCLE
  5
170
330
1E
100
AcDbEntity
  8
SIZE
  6
CONTINUOUS
 62
    30
100
AcDbCircle
 10
-854.0
 20
721.8729356944336
 30
0.0
 40
5.0
  0
LINE
  5
171
330
1E
100
AcDbEntity
  8
SIZE
  6
CONTINUOUS
 62
    30
100
AcDbLine
 10
-849.0
 20
721.8729356944336
 30
0.0
 11
-844.0
 21
721.8729356944336
 31
0.0
  0
CIRCLE
  5
172
330
1E
100
AcDbEntity
  8
SIZE
  6
CONTINUOUS
 62
    30
100
AcDbCircle
 10
2.000000000000031
 20
721.8729356944336
 30
0.0
 40
5.0
  0
LINE
  5
173
330
1E
100
AcDbEntity
  8
SIZE
  6
CONTINUOUS
 62
    30
100
AcDbLine
 10
-2.999999999999968
 20
721.8729356944336
 30
0.0
 11
-7.999999999999969
 21
721.8729356944336
 31
0.0
  0
TEXT
  5
174
330
1E
100
AcDbEntity
  8
SIZE
  6
CONTINUOUS
 62
    30
100
AcDbText
 10
-499.1123810250855
 20
741.8729356944336
 30
0.0
 40
64.0
  1
856
 41
0.9
 72
     1
 11
-426.4266667393712
 21
741.8729356944336
 31
0.0
100
AcDbText
  0
POINT
  5
175
330
1E
100
AcDbEntity
  8
DEFPOINTS
  6
CONTINUOUS
 62
     7
100
AcDbPoint
 10
-854.0
 20
338.0
 30
0.0
  0
POINT
  5
176
330
1E
100
AcDbEntity
  8
DEFPOINTS
  6
CONTINUOUS
 62
     7
100
AcDbPoint
 10
2.0
 20
213.0000000000004
 30
0.0
  0
POINT
  5
177
330
1E
100
AcDbEntity
  8
DEFPOINTS
  6
CONTINUOUS
 62
     7
100
AcDbPoint
 10
2.000000000000031
 20
721.8729356944336
 30
0.0
  0
LINE
  5
178
330
1E
100
AcDbEntity
  8
DETAIL
  6
CONTINUOUS
 62
     5
100
AcDbLine
 10
-854.0
 20
338.0
 30
0.0
 11
-854.0
 21
45.0
 31
0.0
  0
LINE
  5
179
330
1E
100
AcDbEntity
  8
BASIS
  6
DASHDOT
 62
     6
100
AcDbLine
 10
0.0
 20
395.864066
 30
0.0
 11
0.0
 21
-76.41819699999998
 31
0.0
  0
LINE
  5
17A
330
1E
100
AcDbEntity
  8
NOTE
  6
CONTINUOUS
 62
     4
100
AcDbLine
 10
-97.19595949289214
 20
113.8040405071073
 30
0.0
 11
-57.19595949289214
 21
113.8040405071073
 31
0.0
  0
POINT
  5
17B
330
1E
100
AcDbEntity
  8
ARRANGE
  6
CONTINUOUS
 62
     1
100
AcDbPoint
 10
0.0
 20
0.0
 30
0.0
  0
CIRCLE
  5
17C
330
1E
100
AcDbEntity
  8
ARRANGE
  6
CONTINUOUS
 62
     1
100
AcDbCircle
 10
0.0
 20
0.0
 30
0.0
 40
40.0
  0
CIRCLE
  5
17D
330
1E
100
AcDbEntity
  8
DETAIL
  6
CONTINUOUS
 62
     5
100
AcDbCircle
 10
81.19595949289214
 20
113.8040405071073
 30
0.0
 40
1.399999999999999
  0
LINE
  5
17E
330
1E
100
AcDbEntity
  8
NOTE
  6
CONTINUOUS
 62
     4
100
AcDbLine
 10
61.19595949289214
 20
113.8040405071073
 30
0.0
 11
101.1959594928921
 21
113.8040405071073
 31
0.0
  0
LINE
  5
17F
330
1E
100
AcDbEntity
  8
NOTE
  6
CONTINUOUS
 62
     4
100
AcDbLine
 10
81.19595949289214
 20
93.80404050710742
 30
0.0
 11
81.19595949289214
 21
133.8040405071074
 31
0.0
  0
CIRCLE
  5
180
330
1E
100
AcDbEntity
  8
DETAIL
  6
CONTINUOUS
 62
     5
100
AcDbCircle
 10
-77.19595949289578
 20
113.8040405071073
 30
0.0
 40
1.399999999999999
  0
LINE
  5
181
330
1E
100
AcDbEntity
  8
NOTE
  6
CONTINUOUS
 62
     4
100
AcDbLine
 10
-77.19595949289214
 20
93.80404050710742
 30
0.0
 11
-77.19595949289214
 21
133.8040405071074
 31
0.0
  0
LINE
  5
182
330
1E
100
AcDbEntity
  8
NOTE
  6
CONTINUOUS
 62
     4
100
AcDbLine
 10
2.0
 20
173.0000000000004
 30
0.0
 11
2.0
 21
213.0000000000004
 31
0.0
  0
LINE
  5
183
330
1E
100
AcDbEntity
  8
NOTE
  6
CONTINUOUS
 62
     4
100
AcDbLine
 10
-18.0
 20
193.0000000000004
 30
0.0
 11
22.0
 21
193.0000000000004
 31
0.0
  0
LINE
  5
184
330
1E
100
AcDbEntity
  8
NOTE
  6
CONTINUOUS
 62
     4
100
AcDbLine
 10
-854.0
 20
63.00000000000089
 30
0.0
 11
-854.0
 21
103.0000000000009
 31
0.0
  0
LINE
  5
185
330
1E
100
AcDbEntity
  8
NOTE
  6
CONTINUOUS
 62
     4
100
AcDbLine
 10
-874.0
 20
83.00000000000091
 30
0.0
 11
-834.0
 21
83.00000000000091
 31
0.0
  0
TEXT
  5
186
330
1E
100
AcDbEntity
  8
NOTE
  6
CONTINUOUS
 62
     4
100
AcDbText
 10
-505.7808610872243
 20
529.4809399058875
 30
0.0
 40
64.0
  1
%%c224
 41
0.9
100
AcDbText
  0
LINE
  5
187
330
1E
100
AcDbEntity
  8
NOTE
  6
CONTINUOUS
 62
     4
100
AcDbLine
 10
-589.4577159739392
 20
504.9440367590103
 30
0.0
 11
-223.1975209739401
 21
504.9440367590005
 31
0.0
  0
LWPOLYLINE
  5
188
330
1E
100
AcDbEntity
  8
NOTE
  6
CONTINUOUS
 62
     4
100
AcDbPolyline
 90
        3
 70
     0
 43
0.0
 10
-104.2536047349684
 20
285.4580912376535
 10
-96.55522739705793
 20
246.2058939659345
 10
-122.8483163850442
 20
276.3501055369042
  0
LINE
  5
18D
330
1E
100
AcDbEntity
  8
NOTE
  6
CONTINUOUS
 62
     4
100
AcDbLine
 10
-96.55522739705793
 20
246.2058939659345
 30
0.0
 11
-223.1975209739401
 21
504.9440367590005
 31
0.0
  0
LINE
  5
18E
330
1E
100
AcDbEntity
  8
NOTE
  6
CONTINUOUS
 62
     4
100
AcDbLine
 10
-97.19595949289214
 20
272.1959594928939
 30
0.0
 11
-57.19595949289214
 21
272.1959594928939
 31
0.0
  0
LWPOLYLINE
  5
18F
330
1E
100
AcDbEntity
  8
NOTE
  6
CONTINUOUS
 62
     4
100
AcDbPolyline
 90
        3
 70
     0
 43
0.0
 10
114.3139223947364
 20
294.6280913025716
 10
81.19595949289214
 20
272.1959594928926
 10
121.0930227740245
 20
275.0637742196271
  0
CIRCLE
  5
194
330
1E
100
AcDbEntity
  8
DETAIL
  6
CONTINUOUS
 62
     5
100
AcDbCircle
 10
81.19595949289214
 20
272.1959594928935
 30
0.0
 40
1.399999999999999
  0
LINE
  5
195
330
1E
100
AcDbEntity
  8
NOTE
  6
CONTINUOUS
 62
     4
100
AcDbLine
 10
61.19595949289214
 20
272.1959594928935
 30
0.0
 11
101.1959594928921
 21
272.1959594928935
 31
0.0
  0
LWPOLYLINE
  5
196
330
1E
100
AcDbEntity
  8
NOTE
  6
CONTINUOUS
 62
     4
100
AcDbPolyline
 90
        3
 70
     0
 43
0.0
 10
51.54739768797298
 20
323.0743283617798
 10
43.84902035006233
 20
283.8221310900611
 10
70.14210933804498
 20
313.96634266103
  0
CIRCLE
  5
19B
330
1E
100
AcDbEntity
  8
DETAIL
  6
CONTINUOUS
 62
     5
100
AcDbCircle
 10
-77.19595949289214
 20
272.1959594928957
 30
0.0
 40
1.399999999999999
  0
LINE
  5
19C
330
1E
100
AcDbEntity
  8
NOTE
  6
CONTINUOUS
 62
     4
100
AcDbLine
 10
-911.0
 20
183.0000000000008
 30
0.0
 11
-1363.697765808152
 21
550.7848652465045
 31
0.0
  0
LINE
  5
19D
330
1E
100
AcDbEntity
  8
NOTE
  6
CONTINUOUS
 62
     4
100
AcDbLine
 10
-924.0000000000035
 20
183.0000000000026
 30
0.0
 11
-1535.882171334212
 21
-80.84073242893143
 31
0.0
  0
TEXT
  5
19E
330
1E
100
AcDbEntity
  8
NOTE
  6
CONTINUOUS
 62
     4
100
AcDbText
 10
-1607.179380196189
 20
-232.0872162825839
 30
0.0
 40
64.0
  1
CL,EL
 41
0.9
100
AcDbText
  0
LINE
  5
19F
330
1E
100
AcDbEntity
  8
NOTE
  6
CONTINUOUS
 62
     4
100
AcDbLine
 10
-1354.903683
 20
-258.335145
 30
0.0
 11
-1652.679
 21
-258.335145
 31
0.0
  0
LINE
  5
1A0
330
1E
100
AcDbEntity
  8
NOTE
  6
CONTINUOUS
 62
     4
100
AcDbLine
 10
-1268.451224320757
 20
-564.3321279044642
 30
0.0
 11
-1446.442963320758
 21
-564.3321279044642
 31
0.0
  0
TEXT
  5
1A1
330
1E
100
AcDbEntity
  8
NOTE
  6
CONTINUOUS
 62
     4
100
AcDbText
 10
-1400.594602320758
 20
-540.9962529044636
 30
0.0
 40
64.0
  1
D2
 41
0.9
100
AcDbText
  0
LINE
  5
1A2
330
1E
100
AcDbEntity
  8
NOTE
  6
CONTINUOUS
 62
     4
100
AcDbLine
 10
-968.0
 20
103.0
 30
0.0
 11
-1354.903683
 21
-258.335145
 31
0.0
  0
LINE
  5
1A3
330
1E
100
AcDbEntity
  8
SIZE
  6
CONTINUOUS
 62
    30
100
AcDbLine
 10
-985.0
 20
-20.0
 30
0.0
 11
-985.0
 21
-208.7615646318786
 31
0.0
  0
LINE
  5
1A4
330
1E
100
AcDbEntity
  8
SIZE
  6
CONTINUOUS
 62
    30
100
AcDbLine
 10
-1005.0
 20
-20.0
 30
0.0
 11
-1005.0
 21
-208.7615646318786
 31
0.0
  0
LINE
  5
1A5
330
1E
100
AcDbEntity
  8
SIZE
  6
CONTINUOUS
 62
    30
100
AcDbLine
 10
-975.0
 20
-178.7615646318785
 30
0.0
 11
-965.0
 21
-178.7615646318785
 31
0.0
  0
LINE
  5
1A6
330
1E
100
AcDbEntity
  8
SIZE
  6
CONTINUOUS
 62
    30
100
AcDbLine
 10
-1015.0
 20
-178.7615646318785
 30
0.0
 11
-1158.257142857144
 21
-178.7615646318785
 31
0.0
  0
LINE
  5
1A7
330
1E
100
AcDbEntity
  8
SIZE
  6
CONTINUOUS
 62
    30
100
AcDbLine
 10
-985.0
 20
-178.7615646318785
 30
0.0
 11
-1005.0
 21
-178.7615646318785
 31
0.0
  0
CIRCLE
  5
1A8
330
1E
100
AcDbEntity
  8
SIZE
  6
CONTINUOUS
 62
    30
100
AcDbCircle
 10
-985.0
 20
-178.7615646318785
 30
0.0
 40
5.0
  0
LINE
  5
1A9
330
1E
100
AcDbEntity
  8
SIZE
  6
CONTINUOUS
 62
    30
100
AcDbLine
 10
-980.0
 20
-178.7615646318785
 30
0.0
 11
-975.0
 21
-178.7615646318785
 31
0.0
  0
CIRCLE
  5
1AA
330
1E
100
AcDbEntity
  8
SIZE
  6
CONTINUOUS
 62
    30
100
AcDbCircle
 10
-1005.0
 20
-178.7615646318785
 30
0.0
 40
5.0
  0
LINE
  5
1AB
330
1E
100
AcDbEntity
  8
SIZE
  6
CONTINUOUS
 62
    30
100
AcDbLine
 10
-1010.0
 20
-178.7615646318785
 30
0.0
 11
-1015.0
 21
-178.7615646318785
 31
0.0
  0
TEXT
  5
1AC
330
1E
100
AcDbEntity
  8
SIZE
  6
CONTINUOUS
 62
    30
100
AcDbText
 10
-1138.257142857144
 20
-158.7615646318786
 30
0.0
 40
64.0
  1
20
 41
0.9
 72
     1
 11
-1091.628571428572
 21
-158.7615646318786
 31
0.0
100
AcDbText
  0
POINT
  5
1AD
330
1E
100
AcDbEntity
  8
DEFPOINTS
  6
CONTINUOUS
 62
     7
100
AcDbPoint
 10
-985.0
 20
0.0
 30
0.0
  0
POINT
  5
1AE
330
1E
100
AcDbEntity
  8
DEFPOINTS
  6
CONTINUOUS
 62
     7
100
AcDbPoint
 10
-1005.0
 20
0.0
 30
0.0
  0
POINT
  5
1AF
330
1E
100
AcDbEntity
  8
DEFPOINTS
  6
CONTINUOUS
 62
     7
100
AcDbPoint
 10
-1005.0
 20
-178.7615646318785
 30
0.0
  0
LINE
  5
1B0
330
1E
100
AcDbEntity
  8
DETAIL
  6
CONTINUOUS
 62
     5
100
AcDbLine
 10
-973.0
 20
44.99999999999952
 30
0.0
 11
-973.0
 21
-0.0000000000004547
 31
0.0
  0
ARC
  5
1B1
330
1E
100
AcDbEntity
  8
DETAIL
  6
CONTINUOUS
 62
     5
100
AcDbCircle
 10
-998.0
 20
-1.000000000000454
 30
0.0
 40
7.0
100
AcDbArc
 50
180.0
 51
270.0
  0
LINE
  5
1B2
330
1E
100
AcDbEntity
  8
SERVICESPACE
  6
DASHDOT
 62
     2
100
AcDbLine
 10
-1045.0
 20
0.0
 30
0.0
 11
-985.0
 21
0.0
 31
0.0
  0
LINE
  5
1B3
330
1E
100
AcDbEntity
  8
SERVICESPACE
  6
DASHDOT
 62
     2
100
AcDbLine
 10
-1045.0
 20
20.0
 30
0.0
 11
-985.0
 21
20.0
 31
0.0
  0
LINE
  5
1B4
330
1E
100
AcDbEntity
  8
DETAIL
  6
CONTINUOUS
 62
     5
100
AcDbLine
 10
-1005.0
 20
-0.0000000000004547
 30
0.0
 11
-1005.0
 21
-1.000000000000454
 31
0.0
  0
LINE
  5
1B5
330
1E
100
AcDbEntity
  8
SERVICESPACE
  6
DASHDOT
 62
     2
100
AcDbLine
 10
-985.0
 20
20.0
 30
0.0
 11
-985.0
 21
0.0
 31
0.0
  0
LWPOLYLINE
  5
1B6
330
1E
100
AcDbEntity
  8
NOTE
  6
CONTINUOUS
 62
     4
100
AcDbPolyline
 90
        3
 70
     0
 43
0.0
 10
-955.4106121951043
 20
158.2336229266857
 10
-924.0000000000035
 20
183.0000000000026
 10
-963.5855764374719
 20
177.256993958358
  0
LWPOLYLINE
  5
1BB
330
1E
100
AcDbEntity
  8
NOTE
  6
CONTINUOUS
 62
     4
100
AcDbPolyline
 90
        3
 70
     0
 43
0.0
 10
-988.7224889999997
 20
68.7862829999999
 10
-968.0
 20
103.0
 10
-1003.053060999998
 20
83.73129599999993
  0
LINE
  5
1C0
330
1E
100
AcDbEntity
  8
NOTE
  6
CONTINUOUS
 62
     4
100
AcDbLine
 10
-988.0
 20
103.0000000000009
 30
0.0
 11
-948.0
 21
103.0000000000009
 31
0.0
  0
LINE
  5
1C1
330
1E
100
AcDbEntity
  8
NOTE
  6
CONTINUOUS
 62
     4
100
AcDbLine
 10
-968.0
 20
83.00000000000091
 30
0.0
 11
-968.0
 21
123.0000000000009
 31
0.0
  0
LINE
  5
1C2
330
1E
100
AcDbEntity
  8
DETAIL
  6
CONTINUOUS
 62
     5
100
AcDbLine
 10
-968.0
 20
133.0
 30
0.0
 11
-968.0
 21
83.00000000000045
 31
0.0
  0
LINE
  5
1C3
330
1E
100
AcDbEntity
  8
DETAIL
  6
CONTINUOUS
 62
     5
100
AcDbLine
 10
-924.0
 20
175.0600000000007
 30
0.0
 11
-924.0
 21
190.9400000000008
 31
0.0
  0
LINE
  5
1C4
330
1E
100
AcDbEntity
  8
NOTE
  6
CONTINUOUS
 62
     4
100
AcDbLine
 10
-924.0
 20
163.0000000000009
 30
0.0
 11
-924.0
 21
203.0000000000008
 31
0.0
  0
LINE
  5
1C5
330
1E
100
AcDbEntity
  8
NOTE
  6
CONTINUOUS
 62
     4
100
AcDbLine
 10
-944.0
 20
183.0000000000008
 30
0.0
 11
-904.0
 21
183.0000000000008
 31
0.0
  0
LINE
  5
1C6
330
1E
100
AcDbEntity
  8
DETAIL
  6
CONTINUOUS
 62
     5
100
AcDbLine
 10
-911.0
 20
178.2400000000038
 30
0.0
 11
-911.0000000000034
 21
187.7600000000043
 31
0.0
  0
LWPOLYLINE
  5
1C7
330
1E
100
AcDbEntity
  8
NOTE
  6
CONTINUOUS
 62
     4
100
AcDbPolyline
 90
        3
 70
     0
 43
0.0
 10
-947.4872907671922
 20
199.3913885633451
 10
-911.0
 20
183.0000000000008
 10
-934.4032267379587
 20
215.4390040129815
  0
LINE
  5
1CC
330
1E
100
AcDbEntity
  8
NOTE
  6
CONTINUOUS
 62
     4
100
AcDbLine
 10
-911.0
 20
163.0000000000009
 30
0.0
 11
-911.0
 21
203.0000000000008
 31
0.0
  0
LINE
  5
1CD
330
1E
100
AcDbEntity
  8
NOTE
  6
CONTINUOUS
 62
     4
100
AcDbLine
 10
-931.0
 20
183.0000000000008
 30
0.0
 11
-891.0
 21
183.0000000000008
 31
0.0
  0
LINE
  5
1CE
330
1E
100
AcDbEntity
  8
NOTE
  6
CONTINUOUS
 62
     4
100
AcDbLine
 10
-878.0
 20
126.0
 30
0.0
 11
-878.0
 21
166.0
 31
0.0
  0
LINE
  5
1CF
330
1E
100
AcDbEntity
  8
DETAIL
  6
CONTINUOUS
 62
     5
100
AcDbLine
 10
-904.0
 20
146.0
 30
0.0
 11
-904.0
 21
143.7000000000001
 31
0.0
  0
TEXT
  5
1D0
330
1E
100
AcDbEntity
  8
NOTE
  6
CONTINUOUS
 62
     4
100
AcDbText
 10
-1761.394733018853
 20
579.4116655426218
 30
0.0
 40
64.0
  1
RL %%c9.52
 41
0.9
100
AcDbText
  0
LINE
  5
1D1
330
1E
100
AcDbEntity
  8
NOTE
  6
CONTINUOUS
 62
     4
100
AcDbLine
 10
-1363.697765808152
 20
550.7848652465045
 30
0.0
 11
-1794.055205808152
 21
550.7848652465045
 31
0.0
  0
TEXT
  5
1D2
330
1E
100
AcDbEntity
  8
NOTE
  6
CONTINUOUS
 62
     4
100
AcDbText
 10
-1731.933346239628
 20
828.7951478713155
 30
0.0
 40
64.0
  1
D1 VP-25
 41
0.9
100
AcDbText
  0
LINE
  5
1D3
330
1E
100
AcDbEntity
  8
NOTE
  6
CONTINUOUS
 62
     4
100
AcDbLine
 10
-1760.649250989568
 20
802.7862208713161
 30
0.0
 11
-1285.134438989568
 21
802.7862208713161
 31
0.0
  0
LINE
  5
1D4
330
1E
100
AcDbEntity
  8
NOTE
  6
CONTINUOUS
 62
     4
100
AcDbLine
 10
-884.0
 20
300.0000000000008
 30
0.0
 11
-1285.134438989568
 21
802.7862208713161
 31
0.0
  0
LINE
  5
1D5
330
1E
100
AcDbEntity
  8
DETAIL
  6
CONTINUOUS
 62
     5
100
AcDbLine
 10
-884.0
 20
287.4999999999968
 30
0.0
 11
-884.0
 21
312.4999999999968
 31
0.0
  0
LWPOLYLINE
  5
1D6
330
1E
100
AcDbEntity
  8
NOTE
  6
CONTINUOUS
 62
     4
100
AcDbPolyline
 90
        3
 70
     0
 43
0.0
 10
-916.0006281124116
 20
323.9991628875344
 10
-884.0
 20
300.0000000000008
 10
-899.7137755867843
 20
336.7841982622916
  0
LINE
  5
1DB
330
1E
100
AcDbEntity
  8
NOTE
  6
CONTINUOUS
 62
     4
100
AcDbLine
 10
-884.0
 20
280.0000000000008
 30
0.0
 11
-884.0
 21
320.0000000000008
 31
0.0
  0
LINE
  5
1DC
330
1E
100
AcDbEntity
  8
OUTLINE
  6
CONTINUOUS
 62
     3
100
AcDbLine
 10
-854.0
 20
338.0000000000003
 30
0.0
 11
854.0
 21
338.0000000000003
 31
0.0
  0
LINE
  5
1DD
330
1E
100
AcDbEntity
  8
OUTLINE
  6
CONTINUOUS
 62
     3
100
AcDbLine
 10
-998.0
 20
-8.000000000000454
 30
0.0
 11
998.0
 21
-7.999999999999545
 31
0.0
  0
LINE
  5
1DE
330
1E
100
AcDbEntity
  8
OUTLINE
  6
CONTINUOUS
 62
     3
100
AcDbLine
 10
-1005.0
 20
0.0000000000004547
 30
0.0
 11
1005.0
 21
0.0000000000004547
 31
0.0
  0
LINE
  5
1DF
330
1E
100
AcDbEntity
  8
OUTLINE
  6
CONTINUOUS
 62
     3
100
AcDbLine
 10
-973.0
 20
44.99999999999952
 30
0.0
 11
973.0
 21
44.99999999999864
 31
0.0
  0
LINE
  5
1E0
330
1E
100
AcDbEntity
  8
OUTLINE
  6
CONTINUOUS
 62
     3
100
AcDbLine
 10
-854.0
 20
338.0000000000003
 30
0.0
 11
-854.0
 21
45.00000000000045
 31
0.0
  0
LINE
  5
1E1
330
1E
100
AcDbEntity
  8
OUTLINE
  6
CONTINUOUS
 62
     3
100
AcDbLine
 10
-973.0
 20
44.99999999999952
 30
0.0
 11
-973.0
 21
-0.0000000000004547
 31
0.0
  0
LINE
  5
1E2
330
1E
100
AcDbEntity
  8
OUTLINE
  6
CONTINUOUS
 62
     3
100
AcDbLine
 10
-1005.0
 20
-0.0000000000004547
 30
0.0
 11
-1005.0
 21
-1.000000000000454
 31
0.0
  0
ARC
  5
1E3
330
1E
100
AcDbEntity
  8
OUTLINE
  6
CONTINUOUS
 62
     3
100
AcDbCircle
 10
-998.0
 20
-1.000000000000454
 30
0.0
 40
7.0
100
AcDbArc
 50
180.0
 51
270.0
  0
LINE
  5
1E4
330
1E
100
AcDbEntity
  8
OUTLINE
  6
CONTINUOUS
 62
     3
100
AcDbLine
 10
-924.0
 20
175.0600000000007
 30
0.0
 11
-854.0
 21
175.0600000000007
 31
0.0
  0
LINE
  5
1E5
330
1E
100
AcDbEntity
  8
OUTLINE
  6
CONTINUOUS
 62
     3
100
AcDbLine
 10
-924.0
 20
190.9400000000008
 30
0.0
 11
-854.0
 21
190.9400000000008
 31
0.0
  0
LINE
  5
1E6
330
1E
100
AcDbEntity
  8
OUTLINE
  6
CONTINUOUS
 62
     3
100
AcDbLine
 10
-854.0
 20
133.0000000000004
 30
0.0
 11
-968.0
 21
133.0000000000004
 31
0.0
  0
LINE
  5
1E7
330
1E
100
AcDbEntity
  8
OUTLINE
  6
CONTINUOUS
 62
     3
100
AcDbLine
 10
-854.0
 20
51.08000000000038
 30
0.0
 11
-968.0
 21
83.00000000000045
 31
0.0
  0
LINE
  5
1E8
330
1E
100
AcDbEntity
  8
OUTLINE
  6
CONTINUOUS
 62
     3
100
AcDbLine
 10
-924.0
 20
175.0600000000007
 30
0.0
 11
-924.0
 21
190.9400000000008
 31
0.0
  0
LINE
  5
1E9
330
1E
100
AcDbEntity
  8
OUTLINE
  6
CONTINUOUS
 62
     3
100
AcDbLine
 10
-968.0
 20
133.0000000000004
 30
0.0
 11
-968.0
 21
83.00000000000045
 31
0.0
  0
LINE
  5
1EA
330
1E
100
AcDbEntity
  8
OUTLINE
  6
CONTINUOUS
 62
     3
100
AcDbLine
 10
-904.0
 20
143.6999999999993
 30
0.0
 11
-854.0
 21
143.6999999999993
 31
0.0
  0
LINE
  5
1EB
330
1E
100
AcDbEntity
  8
OUTLINE
  6
CONTINUOUS
 62
     3
100
AcDbLine
 10
-904.0
 20
146.0000000000003
 30
0.0
 11
-854.0
 21
146.0000000000003
 31
0.0
  0
LINE
  5
1EC
330
1E
100
AcDbEntity
  8
OUTLINE
  6
CONTINUOUS
 62
     3
100
AcDbLine
 10
-904.0
 20
146.0000000000003
 30
0.0
 11
-904.0
 21
143.7000000000001
 31
0.0
  0
LINE
  5
1ED
330
1E
100
AcDbEntity
  8
OUTLINE
  6
CONTINUOUS
 62
     3
100
AcDbLine
 10
-884.0
 20
287.4999999999968
 30
0.0
 11
-854.0
 21
287.4999999999968
 31
0.0
  0
LINE
  5
1EE
330
1E
100
AcDbEntity
  8
OUTLINE
  6
CONTINUOUS
 62
     3
100
AcDbLine
 10
-884.0
 20
312.4999999999968
 30
0.0
 11
-854.0
 21
312.4999999999968
 31
0.0
  0
LINE
  5
1EF
330
1E
100
AcDbEntity
  8
OUTLINE
  6
CONTINUOUS
 62
     3
100
AcDbLine
 10
-884.0
 20
287.4999999999968
 30
0.0
 11
-884.0
 21
312.4999999999968
 31
0.0
  0
LINE
  5
1F0
330
1E
100
AcDbEntity
  8
OUTLINE
  6
CONTINUOUS
 62
     3
100
AcDbLine
 10
854.0
 20
338.0000000000003
 30
0.0
 11
854.0
 21
45.00000000000045
 31
0.0
  0
LINE
  5
1F1
330
1E
100
AcDbEntity
  8
OUTLINE
  6
CONTINUOUS
 62
     3
100
AcDbLine
 10
973.0
 20
45.00000000000045
 30
0.0
 11
973.0
 21
0.0000000000004547
 31
0.0
  0
LINE
  5
1F2
330
1E
100
AcDbEntity
  8
OUTLINE
  6
CONTINUOUS
 62
     3
100
AcDbLine
 10
1005.0
 20
-0.9999999999995452
 30
0.0
 11
1005.0
 21
0.0000000000004547
 31
0.0
  0
ARC
  5
1F3
330
1E
100
AcDbEntity
  8
OUTLINE
  6
CONTINUOUS
 62
     3
100
AcDbCircle
 10
998.0
 20
-0.9999999999995452
 30
0.0
 40
7.0
100
AcDbArc
 50
270.0
 51
0.0
  0
LINE
  5
1F4
330
1E
100
AcDbEntity
  8
OUTLINE
  6
CONTINUOUS
 62
     3
100
AcDbLine
 10
904.0
 20
146.0000000000003
 30
0.0
 11
904.0
 21
143.7000000000001
 31
0.0
  0
LINE
  5
1F5
330
1E
100
AcDbEntity
  8
OUTLINE
  6
CONTINUOUS
 62
     3
100
AcDbLine
 10
854.0
 20
143.6999999999993
 30
0.0
 11
904.0
 21
143.6999999999993
 31
0.0
  0
LINE
  5
1F6
330
1E
100
AcDbEntity
  8
OUTLINE
  6
CONTINUOUS
 62
     3
100
AcDbLine
 10
854.0
 20
146.0000000000003
 30
0.0
 11
904.0
 21
146.0000000000003
 31
0.0
  0
TEXT
  5
1F7
330
1E
100
AcDbEntity
  8
NOTE
  6
CONTINUOUS
 62
     4
100
AcDbText
 10
-3221.796408764861
 20
-357.3700810190243
 30
0.0
 40
64.0
  1
The other outdoor unit : %%c19.05
 41
0.9
100
AcDbText
  0
TEXT
  5
1F8
330
1E
100
AcDbEntity
  8
NOTE
  6
CONTINUOUS
 62
     4
100
AcDbText
 10
-3209.374943217603
 20
-44.07652325363415
 30
0.0
 40
64.0
  1
RG %%c15.88
 41
0.9
100
AcDbText
  0
TEXT
  5
1F9
330
1E
100
AcDbEntity
  8
NOTE
  6
CONTINUOUS
 62
     4
100
AcDbText
 10
-3212.435774798875
 20
-218.81866091046
 30
0.0
 40
64.0
  1
R410A outdoor unit : %%c15.88
 41
0.9
100
AcDbText
  0
LINE
  5
1FA
330
1E
100
AcDbEntity
  8
NOTE
  6
CONTINUOUS
 62
     4
100
AcDbLine
 10
-3255.095358334212
 20
-80.84073242893143
 30
0.0
 11
-1535.882171334212
 21
-80.84073242893143
 31
0.0
  0
ENDSEC
  0
SECTION
  2
OBJECTS
  0
DICTIONARY
  5
C
330
0
100
AcDbDictionary
  3
ACAD_GROUP
350
D
  3
ACAD_LAYOUT
350
19
  3
ACAD_MLINESTYLE
350
16
  3
ACAD_PLOTSETTINGS
350
18
  3
ACAD_PLOTSTYLENAME
350
E
  3
ACDBHEADERROUNDTRIPXREC
350
1FD
  0
DICTIONARY
  5
220
330
1E
100
AcDbDictionary
280
     1
  3
ACAD_LAYOUTSELFREF
360
221
  0
DICTIONARY
  5
21E
330
1A
100
AcDbDictionary
280
     1
  3
ACAD_LAYOUTSELFREF
360
21F
  0
DICTIONARY
  5
D
102
{ACAD_REACTORS
330
C
102
}
330
C
100
AcDbDictionary
  0
DICTIONARY
  5
19
102
{ACAD_REACTORS
330
C
102
}
330
C
100
AcDbDictionary
  0
DICTIONARY
  5
16
102
{ACAD_REACTORS
330
C
102
}
330
C
100
AcDbDictionary
  3
STANDARD
350
17
  0
DICTIONARY
  5
18
102
{ACAD_REACTORS
330
C
102
}
330
C
100
AcDbDictionary
  0
ACDBDICTIONARYWDFLT
  5
E
102
{ACAD_REACTORS
330
C
102
}
330
C
100
AcDbDictionary
281
     1
  3
Normal
350
F
100
AcDbDictionaryWithDefault
340
F
  0
DICTIONARY
  5
1FD
102
{ACAD_REACTORS
330
C
102
}
330
C
100
AcDbDictionary
  3
CEPSNTYPE
350
207
  3
DIMSTYLEDATA
350
20B
  3
FINGERPRINTGUID
350
208
  3
HYPERLINKBASE
350
200
  3
INSUNITS
350
206
  3
LAYOUTDICT
350
202
  3
LWETCUNION
350
205
  3
PLOTSETDICT
350
203
  3
PLOTSTYLNAMDICT
350
204
  3
PSVPSCALE
350
20A
  3
PUCSBASE
350
20E
  3
PUCSORGBACK
350
214
  3
PUCSORGBOTTOM
350
210
  3
PUCSORGFRONT
350
213
  3
PUCSORGLEFT
350
211
  3
PUCSORGRIGHT
350
212
  3
PUCSORGTOP
350
20F
  3
PUCSORTHOREF
350
20C
  3
PUCSORTHOVIEW
350
20D
  3
STYLESHEET
350
201
  3
TSTACKALIGN
350
1FE
  3
TSTACKSIZE
350
1FF
  3
UCSBASE
350
217
  3
UCSORGBACK
350
21D
  3
UCSORGBOTTOM
350
219
  3
UCSORGFRONT
350
21C
  3
UCSORGLEFT
350
21A
  3
UCSORGRIGHT
350
21B
  3
UCSORGTOP
350
218
  3
UCSORTHOREF
350
215
  3
UCSORTHOVIEW
350
216
  3
VERSIONGUID
350
209
  0
XRECORD
  5
221
102
{ACAD_REACTORS
330
220
102
}
330
220
100
AcDbXrecord
340
1E
  0
XRECORD
  5
21F
102
{ACAD_REACTORS
330
21E
102
}
330
21E
100
AcDbXrecord
340
1A
  0
MLINESTYLE
  5
17
102
{ACAD_REACTORS
330
16
102
}
330
16
100
AcDbMlineStyle
  2
STANDARD
 70
     0
  3

 62
   256
 51
90.0
 52
90.0
 71
     2
 49
0.5
 62
   256
  6
BYLAYER
 49
-0.5
 62
   256
  6
BYLAYER
  0
ACDBPLACEHOLDER
  5
F
102
{ACAD_REACTORS
330
E
102
}
330
E
100
AcDbPlaceHolder
280
     0
  0
XRECORD
  5
207
102
{ACAD_REACTORS
330
1FD
102
}
330
1FD
100
AcDbXrecord
 90
        0
  0
XRECORD
  5
20B
102
{ACAD_REACTORS
330
1FD
102
}
330
1FD
100
AcDbXrecord
1000
DSTYLE
1002
{
1070
   341
340
39
1070
   342
340
39
1070
   343
340
39
1070
   344
340
34
1002
}
  0
XRECORD
  5
208
102
{ACAD_REACTORS
330
1FD
102
}
330
1FD
100
AcDbXrecord
  1
{CFA48398-BABC-4AE1-818B-E8F2CD6FC938}
  0
XRECORD
  5
200
102
{ACAD_REACTORS
330
1FD
102
}
330
1FD
100
AcDbXrecord
  1

  0
XRECORD
  5
206
102
{ACAD_REACTORS
330
1FD
102
}
330
1FD
100
AcDbXrecord
 90
        0
  0
XRECORD
  5
202
102
{ACAD_REACTORS
330
1FD
102
}
330
1FD
100
AcDbXrecord
340
19
  0
XRECORD
  5
205
102
{ACAD_REACTORS
330
1FD
102
}
330
1FD
100
AcDbXrecord
 90
    10781
  0
XRECORD
  5
203
102
{ACAD_REACTORS
330
1FD
102
}
330
1FD
100
AcDbXrecord
340
18
  0
XRECORD
  5
204
102
{ACAD_REACTORS
330
1FD
102
}
330
1FD
100
AcDbXrecord
340
E
  0
XRECORD
  5
20A
102
{ACAD_REACTORS
330
1FD
102
}
330
1FD
100
AcDbXrecord
 40
0.0
  0
XRECORD
  5
20E
102
{ACAD_REACTORS
330
1FD
102
}
330
1FD
100
AcDbXrecord
340
0
  0
XRECORD
  5
214
102
{ACAD_REACTORS
330
1FD
102
}
330
1FD
100
AcDbXrecord
 10
0.0
 20
0.0
 30
0.0
  0
XRECORD
  5
210
102
{ACAD_REACTORS
330
1FD
102
}
330
1FD
100
AcDbXrecord
 10
0.0
 20
0.0
 30
0.0
  0
XRECORD
  5
213
102
{ACAD_REACTORS
330
1FD
102
}
330
1FD
100
AcDbXrecord
 10
0.0
 20
0.0
 30
0.0
  0
XRECORD
  5
211
102
{ACAD_REACTORS
330
1FD
102
}
330
1FD
100
AcDbXrecord
 10
0.0
 20
0.0
 30
0.0
  0
XRECORD
  5
212
102
{ACAD_REACTORS
330
1FD
102
}
330
1FD
100
AcDbXrecord
 10
0.0
 20
0.0
 30
0.0
  0
XRECORD
  5
20F
102
{ACAD_REACTORS
330
1FD
102
}
330
1FD
100
AcDbXrecord
 10
0.0
 20
0.0
 30
0.0
  0
XRECORD
  5
20C
102
{ACAD_REACTORS
330
1FD
102
}
330
1FD
100
AcDbXrecord
340
0
  0
XRECORD
  5
20D
102
{ACAD_REACTORS
330
1FD
102
}
330
1FD
100
AcDbXrecord
 70
     0
  0
XRECORD
  5
201
102
{ACAD_REACTORS
330
1FD
102
}
330
1FD
100
AcDbXrecord
  1

  0
XRECORD
  5
1FE
102
{ACAD_REACTORS
330
1FD
102
}
330
1FD
100
AcDbXrecord
 90
        1
  0
XRECORD
  5
1FF
102
{ACAD_REACTORS
330
1FD
102
}
330
1FD
100
AcDbXrecord
 90
       70
  0
XRECORD
  5
217
102
{ACAD_REACTORS
330
1FD
102
}
330
1FD
100
AcDbXrecord
340
0
  0
XRECORD
  5
21D
102
{ACAD_REACTORS
330
1FD
102
}
330
1FD
100
AcDbXrecord
 10
0.0
 20
0.0
 30
0.0
  0
XRECORD
  5
219
102
{ACAD_REACTORS
330
1FD
102
}
330
1FD
100
AcDbXrecord
 10
0.0
 20
0.0
 30
0.0
  0
XRECORD
  5
21C
102
{ACAD_REACTORS
330
1FD
102
}
330
1FD
100
AcDbXrecord
 10
0.0
 20
0.0
 30
0.0
  0
XRECORD
  5
21A
102
{ACAD_REACTORS
330
1FD
102
}
330
1FD
100
AcDbXrecord
 10
0.0
 20
0.0
 30
0.0
  0
XRECORD
  5
21B
102
{ACAD_REACTORS
330
1FD
102
}
330
1FD
100
AcDbXrecord
 10
0.0
 20
0.0
 30
0.0
  0
XRECORD
  5
218
102
{ACAD_REACTORS
330
1FD
102
}
330
1FD
100
AcDbXrecord
 10
0.0
 20
0.0
 30
0.0
  0
XRECORD
  5
215
102
{ACAD_REACTORS
330
1FD
102
}
330
1FD
100
AcDbXrecord
340
0
  0
XRECORD
  5
216
102
{ACAD_REACTORS
330
1FD
102
}
330
1FD
100
AcDbXrecord
 70
     0
  0
XRECORD
  5
209
102
{ACAD_REACTORS
330
1FD
102
}
330
1FD
100
AcDbXrecord
  1
{7B78511F-3FA1-4660-9964-3CF21AF14BAC}
  0
ENDSEC
  0
EOF
